  0
SECTION
  2
HEADER
  9
$ACADVER
  1
AC1015
  9
$ACADMAINTVER
 70
    20
  9
$DWGCODEPAGE
  3
ANSI_932
  9
$INSBASE
 10
0.0
 20
0.0
 30
0.0
  9
$EXTMIN
 10
47.49095218916226
 20
117.3135945925562
 30
0.0
  9
$EXTMAX
 10
1496.232313538541
 20
806.335339556648
 30
0.0
  9
$LIMMIN
 10
-300.1009286020571
 20
-109.664022000466
  9
$LIMMAX
 10
1609.283486030605
 20
1053.36414948826
  9
$ORTHOMODE
 70
     0
  9
$REGENMODE
 70
     1
  9
$FILLMODE
 70
     1
  9
$QTEXTMODE
 70
     0
  9
$MIRRTEXT
 70
     0
  9
$LTSCALE
 40
4.0
  9
$ATTMODE
 70
     1
  9
$TEXTSIZE
 40
2.0
  9
$TRACEWID
 40
1.0
  9
$TEXTSTYLE
  7
STANDARD
  9
$CLAYER
  8
0
  9
$CELTYPE
  6
BYLAYER
  9
$CECOLOR
 62
   256
  9
$CELTSCALE
 40
1.0
  9
$DISPSILH
 70
     0
  9
$DIMSCALE
 40
4.0
  9
$DIMASZ
 40
1.8
  9
$DIMEXO
 40
0.625
  9
$DIMDLI
 40
3.75
  9
$DIMRND
 40
0.0
  9
$DIMDLE
 40
0.0
  9
$DIMEXE
 40
1.25
  9
$DIMTP
 40
0.0
  9
$DIMTM
 40
0.0
  9
$DIMTXT
 40
1.8
  9
$DIMCEN
 40
2.5
  9
$DIMTSZ
 40
0.0
  9
$DIMTOL
 70
     0
  9
$DIMLIM
 70
     0
  9
$DIMTIH
 70
     0
  9
$DIMTOH
 70
     0
  9
$DIMSE1
 70
     0
  9
$DIMSE2
 70
     0
  9
$DIMTAD
 70
     1
  9
$DIMZIN
 70
     8
  9
$DIMBLK
  1

  9
$DIMASO
 70
     1
  9
$DIMSHO
 70
     1
  9
$DIMPOST
  1

  9
$DIMAPOST
  1

  9
$DIMALT
 70
     0
  9
$DIMALTD
 70
     4
  9
$DIMALTF
 40
0.0394
  9
$DIMLFAC
 40
1.0
  9
$DIMTOFL
 70
     1
  9
$DIMTVP
 40
0.0
  9
$DIMTIX
 70
     0
  9
$DIMSOXD
 70
     0
  9
$DIMSAH
 70
     0
  9
$DIMBLK1
  1

  9
$DIMBLK2
  1

  9
$DIMSTYLE
  2
STANDARD
  9
$DIMCLRD
 70
     0
  9
$DIMCLRE
 70
     0
  9
$DIMCLRT
 70
     0
  9
$DIMTFAC
 40
1.0
  9
$DIMGAP
 40
0.75
  9
$DIMJUST
 70
     0
  9
$DIMSD1
 70
     0
  9
$DIMSD2
 70
     0
  9
$DIMTOLJ
 70
     1
  9
$DIMTZIN
 70
     0
  9
$DIMALTZ
 70
     0
  9
$DIMALTTZ
 70
     0
  9
$DIMUPT
 70
     0
  9
$DIMDEC
 70
     2
  9
$DIMTDEC
 70
     2
  9
$DIMALTU
 70
     8
  9
$DIMALTTD
 70
     4
  9
$DIMTXSTY
  7
STANDARD
  9
$DIMAUNIT
 70
     0
  9
$DIMADEC
 70
     2
  9
$DIMALTRND
 40
0.0
  9
$DIMAZIN
 70
     0
  9
$DIMDSEP
 70
    46
  9
$DIMATFIT
 70
     3
  9
$DIMFRAC
 70
     0
  9
$DIMLDRBLK
  1

  9
$DIMLUNIT
 70
     6
  9
$DIMLWD
 70
    -2
  9
$DIMLWE
 70
    -2
  9
$DIMTMOVE
 70
     0
  9
$LUNITS
 70
     2
  9
$LUPREC
 70
     3
  9
$SKETCHINC
 40
1.0
  9
$FILLETRAD
 40
10.0
  9
$AUNITS
 70
     0
  9
$AUPREC
 70
     2
  9
$MENU
  1
.
  9
$ELEVATION
 40
0.0
  9
$PELEVATION
 40
0.0
  9
$THICKNESS
 40
0.0
  9
$LIMCHECK
 70
     0
  9
$CHAMFERA
 40
0.0
  9
$CHAMFERB
 40
0.0
  9
$CHAMFERC
 40
20.0
  9
$CHAMFERD
 40
0.0
  9
$SKPOLY
 70
     0
  9
$TDCREATE
 40
2453482.684227604
  9
$TDUCREATE
 40
2453482.309227604
  9
$TDUPDATE
 40
2455378.432114051
  9
$TDUUPDATE
 40
2455378.057114051
  9
$TDINDWG
 40
0.1239282176
  9
$TDUSRTIMER
 40
0.1239282176
  9
$USRTIMER
 70
     1
  9
$ANGBASE
 50
0.0
  9
$ANGDIR
 70
     0
  9
$PDMODE
 70
     0
  9
$PDSIZE
 40
-10.0
  9
$PLINEWID
 40
0.0
  9
$SPLFRAME
 70
     0
  9
$SPLINETYPE
 70
     6
  9
$SPLINESEGS
 70
     8
  9
$HANDSEED
  5
2502
  9
$SURFTAB1
 70
     6
  9
$SURFTAB2
 70
     6
  9
$SURFTYPE
 70
     6
  9
$SURFU
 70
     6
  9
$SURFV
 70
     6
  9
$UCSBASE
  2

  9
$UCSNAME
  2

  9
$UCSORG
 10
0.0
 20
0.0
 30
0.0
  9
$UCSXDIR
 10
1.0
 20
0.0
 30
0.0
  9
$UCSYDIR
 10
0.0
 20
1.0
 30
0.0
  9
$UCSORTHOREF
  2

  9
$UCSORTHOVIEW
 70
     0
  9
$UCSORGTOP
 10
0.0
 20
0.0
 30
0.0
  9
$UCSORGBOTTOM
 10
0.0
 20
0.0
 30
0.0
  9
$UCSORGLEFT
 10
0.0
 20
0.0
 30
0.0
  9
$UCSORGRIGHT
 10
0.0
 20
0.0
 30
0.0
  9
$UCSORGFRONT
 10
0.0
 20
0.0
 30
0.0
  9
$UCSORGBACK
 10
0.0
 20
0.0
 30
0.0
  9
$PUCSBASE
  2

  9
$PUCSNAME
  2

  9
$PUCSORG
 10
0.0
 20
0.0
 30
0.0
  9
$PUCSXDIR
 10
1.0
 20
0.0
 30
0.0
  9
$PUCSYDIR
 10
0.0
 20
1.0
 30
0.0
  9
$PUCSORTHOREF
  2

  9
$PUCSORTHOVIEW
 70
     0
  9
$PUCSORGTOP
 10
0.0
 20
0.0
 30
0.0
  9
$PUCSORGBOTTOM
 10
0.0
 20
0.0
 30
0.0
  9
$PUCSORGLEFT
 10
0.0
 20
0.0
 30
0.0
  9
$PUCSORGRIGHT
 10
0.0
 20
0.0
 30
0.0
  9
$PUCSORGFRONT
 10
0.0
 20
0.0
 30
0.0
  9
$PUCSORGBACK
 10
0.0
 20
0.0
 30
0.0
  9
$USERI1
 70
     0
  9
$USERI2
 70
     0
  9
$USERI3
 70
     0
  9
$USERI4
 70
     0
  9
$USERI5
 70
     0
  9
$USERR1
 40
0.0
  9
$USERR2
 40
0.0
  9
$USERR3
 40
0.0
  9
$USERR4
 40
0.0
  9
$USERR5
 40
0.0
  9
$WORLDVIEW
 70
     1
  9
$SHADEDGE
 70
     3
  9
$SHADEDIF
 70
    70
  9
$TILEMODE
 70
     1
  9
$MAXACTVP
 70
    48
  9
$PINSBASE
 10
0.0
 20
0.0
 30
0.0
  9
$PLIMCHECK
 70
     0
  9
$PEXTMIN
 10
0.0
 20
0.0
 30
0.0
  9
$PEXTMAX
 10
0.0
 20
0.0
 30
0.0
  9
$PLIMMIN
 10
0.0
 20
0.0
  9
$PLIMMAX
 10
12.0
 20
9.0
  9
$UNITMODE
 70
     0
  9
$VISRETAIN
 70
     1
  9
$PLINEGEN
 70
     0
  9
$PSLTSCALE
 70
     1
  9
$TREEDEPTH
 70
  3020
  9
$CMLSTYLE
  2
STANDARD
  9
$CMLJUST
 70
     0
  9
$CMLSCALE
 40
1.0
  9
$PROXYGRAPHICS
 70
     1
  9
$MEASUREMENT
 70
     0
  9
$CELWEIGHT
370
    -1
  9
$ENDCAPS
280
     0
  9
$JOINSTYLE
280
     0
  9
$LWDISPLAY
290
     0
  9
$INSUNITS
 70
     0
  9
$HYPERLINKBASE
  1

  9
$STYLESHEET
  1
Sekkei.ctb
  9
$XEDIT
290
     1
  9
$CEPSNTYPE
380
     0
  9
$PSTYLEMODE
290
     1
  9
$FINGERPRINTGUID
  2
{6385560B-F4B1-4644-A7C2-A3E32AC3D232}
  9
$VERSIONGUID
  2
{2EC575E1-F986-45D5-A4C7-7545A795A426}
  9
$EXTNAMES
290
     1
  9
$PSVPSCALE
 40
0.0
  9
$OLESTARTUP
290
     0
  0
ENDSEC
  0
SECTION
  2
CLASSES
  0
CLASS
  1
DICTIONARYVAR
  2
AcDbDictionaryVar
  3
ObjectDBX Classes
 90
        0
280
     0
281
     0
  0
CLASS
  1
ACDBDICTIONARYWDFLT
  2
AcDbDictionaryWithDefault
  3
ObjectDBX Classes
 90
        0
280
     0
281
     0
  0
CLASS
  1
ACDBPLACEHOLDER
  2
AcDbPlaceHolder
  3
ObjectDBX Classes
 90
        0
280
     0
281
     0
  0
CLASS
  1
LAYOUT
  2
AcDbLayout
  3
ObjectDBX Classes
 90
        0
280
     0
281
     0
  0
CLASS
  1
MATERIAL
  2
AcDbMaterial
  3
ObjectDBX Classes
 90
     1153
280
     0
281
     0
  0
CLASS
  1
VISUALSTYLE
  2
AcDbVisualStyle
  3
ObjectDBX Classes
 90
     4095
280
     0
281
     0
  0
CLASS
  1
TABLESTYLE
  2
AcDbTableStyle
  3
ObjectDBX Classes
 90
     4095
280
     0
281
     0
  0
CLASS
  1
SCALE
  2
AcDbScale
  3
ObjectDBX Classes
 90
     1153
280
     0
281
     0
  0
CLASS
  1
MLEADERSTYLE
  2
AcDbMLeaderStyle
  3
ACDB_MLEADERSTYLE_CLASS
 90
     4095
280
     0
281
     0
  0
CLASS
  1
CELLSTYLEMAP
  2
AcDbCellStyleMap
  3
ObjectDBX Classes
 90
     1152
280
     0
281
     0
  0
CLASS
  1
SORTENTSTABLE
  2
AcDbSortentsTable
  3
ObjectDBX Classes
 90
    32768
280
     0
281
     0
  0
ENDSEC
  0
SECTION
  2
TABLES
  0
TABLE
  2
VPORT
  5
6E
102
{ACAD_XDICTIONARY
360
1E65
102
}
330
0
100
AcDbSymbolTable
 70
     1
  0
VPORT
  5
1D0C
330
6E
100
AcDbSymbolTableRecord
100
AcDbViewportTableRecord
  2
*Active
 70
     0
 10
0.0
 20
0.0
 11
1.0
 21
1.0
 12
1469.344944609277
 22
436.0467012981259
 13
0.0
 23
0.0
 14
10.0
 24
10.0
 15
24.0
 25
24.0
 16
0.0
 26
0.0
 36
1.0
 17
0.0
 27
0.0
 37
0.0
 40
1375.645179921772
 41
2.106971153846153
 42
50.0
 43
0.0
 44
0.0
 50
0.0
 51
0.0
 71
     0
 72
   100
 73
     1
 74
     3
 75
     0
 76
     0
 77
     0
 78
     0
281
     0
 65
     1
110
0.0
120
0.0
130
0.0
111
1.0
121
0.0
131
0.0
112
0.0
122
1.0
132
0.0
 79
     0
146
0.0
  0
ENDTAB
  0
TABLE
  2
LTYPE
  5
69
330
0
100
AcDbSymbolTable
 70
     4
  0
LTYPE
  5
6A
330
69
100
AcDbSymbolTableRecord
100
AcDbLinetypeTableRecord
  2
BYBLOCK
 70
     0
  3

 72
    65
 73
     0
 40
0.0
  0
LTYPE
  5
6B
330
69
100
AcDbSymbolTableRecord
100
AcDbLinetypeTableRecord
  2
BYLAYER
 70
     0
  3

 72
    65
 73
     0
 40
0.0
  0
LTYPE
  5
8
330
69
100
AcDbSymbolTableRecord
100
AcDbLinetypeTableRecord
  2
CONTINUOUS
 70
     0
  3
Solid line
 72
    65
 73
     0
 40
0.0
  0
LTYPE
  5
27C
330
69
100
AcDbSymbolTableRecord
100
AcDbLinetypeTableRecord
  2
sekkei(A2)
 70
     0
  3
center(A2)  ____ _ ____ _ ____ _ ____ _ ____ _ 
 72
    65
 73
     4
 40
14.2875
 49
9.525
 74
     0
 49
-1.587499999999999
 74
     0
 49
1.587499999999999
 74
     0
 49
-1.587499999999999
 74
     0
  0
LTYPE
  5
2B4
330
69
100
AcDbSymbolTableRecord
100
AcDbLinetypeTableRecord
  2
HIDDEN2
 70
     0
  3
Hidden (.5x) _ _ _ _ _ _ _ _ _ _ _ _ _ _ _ _ _
 72
    65
 73
     2
 40
4.762499999999999
 49
3.174999999999999
 74
     0
 49
-1.587499999999999
 74
     0
  0
LTYPE
  5
48F
330
69
100
AcDbSymbolTableRecord
100
AcDbLinetypeTableRecord
  2
sekkei_H
 70
     0
  3
Hidden-S _ _ _ _ _ _ _ _ _ _ _ _ _ _ _ _ _
 72
    65
 73
     2
 40
2.381249999999999
 49
1.587499999999999
 74
     0
 49
-0.79375
 74
     0
  0
ENDTAB
  0
TABLE
  2
LAYER
  5
66
102
{ACAD_XDICTIONARY
360
1D67
102
}
330
0
100
AcDbSymbolTable
 70
     9
  0
LAYER
  5
5E
102
{ACAD_XDICTIONARY
360
1E50
102
}
330
66
100
AcDbSymbolTableRecord
100
AcDbLayerTableRecord
  2
0
 70
     0
 62
     7
  6
CONTINUOUS
370
    -3
390
5
  0
LAYER
  5
3E
102
{ACAD_XDICTIONARY
360
1E52
102
}
330
66
100
AcDbSymbolTableRecord
100
AcDbLayerTableRecord
  2
CENTER
 70
     0
 62
     3
  6
sekkei(A2)
370
    -3
390
5
  0
LAYER
  5
2B5
102
{ACAD_XDICTIONARY
360
1E58
102
}
330
66
100
AcDbSymbolTableRecord
100
AcDbLayerTableRecord
  2
HIDS
 70
     0
 62
     1
  6
HIDDEN2
370
    -3
390
5
  0
LAYER
  5
3FA
102
{ACAD_XDICTIONARY
360
1E5C
102
}
330
66
100
AcDbSymbolTableRecord
100
AcDbLayerTableRecord
  2
TITLE
 70
     0
 62
     4
  6
CONTINUOUS
290
     0
370
    -3
390
5
  0
ENDTAB
  0
TABLE
  2
STYLE
  5
67
330
0
100
AcDbSymbolTable
 70
     1
  0
STYLE
  5
16
330
67
100
AcDbSymbolTableRecord
100
AcDbTextStyleTableRecord
  2
STANDARD
 70
     0
 40
0.0
 41
1.0
 50
0.0
 71
     0
 42
2.0
  3
simplex.shx
  4
extfont.shx
  0
ENDTAB
  0
TABLE
  2
VIEW
  5
6C
330
0
100
AcDbSymbolTable
 70
     0
  0
ENDTAB
  0
TABLE
  2
UCS
  5
6D
330
0
100
AcDbSymbolTable
 70
     0
  0
ENDTAB
  0
TABLE
  2
APPID
  5
70
330
0
100
AcDbSymbolTable
 70
     4
  0
APPID
  5
71
330
70
100
AcDbSymbolTableRecord
100
AcDbRegAppTableRecord
  2
ACAD
 70
     0
  0
APPID
  5
1D66
330
70
100
AcDbSymbolTableRecord
100
AcDbRegAppTableRecord
  2
AcAecLayerStandard
 70
     0
  0
APPID
  5
1D77
330
70
100
AcDbSymbolTableRecord
100
AcDbRegAppTableRecord
  2
ACAD_EXEMPT_FROM_CAD_STANDARDS
 70
     0
  0
APPID
  5
1E9C
330
70
100
AcDbSymbolTableRecord
100
AcDbRegAppTableRecord
  2
ACAD_MLEADERVER
 70
     0
  0
ENDTAB
  0
TABLE
  2
DIMSTYLE
  5
72
330
0
100
AcDbSymbolTable
 70
     2
100
AcDbDimStyleTable
 71
     1
340
73
  0
DIMSTYLE
105
73
330
72
100
AcDbSymbolTableRecord
100
AcDbDimStyleTableRecord
  2
STANDARD
 70
     0
 40
4.0
 41
1.8
 42
0.625
 43
3.75
 44
1.25
 73
     0
 74
     0
 77
     1
 78
     8
140
1.8
141
2.5
143
0.0394
147
0.75
171
     4
172
     1
179
     2
271
     2
272
     2
273
     8
274
     4
277
     6
340
16
  0
ENDTAB
  0
TABLE
  2
BLOCK_RECORD
  5
1
330
0
100
AcDbSymbolTable
 70
    52
  0
BLOCK_RECORD
  5
2
330
1
100
AcDbSymbolTableRecord
100
AcDbBlockTableRecord
  2
*MODEL_SPACE
340
60
  0
BLOCK_RECORD
  5
24BC
330
1
100
AcDbSymbolTableRecord
100
AcDbBlockTableRecord
  2
*Paper_Space
340
24BD
  0
ENDTAB
  0
ENDSEC
  0
SECTION
  2
BLOCKS
  0
BLOCK
  5
5D
330
2
100
AcDbEntity
  8
0
100
AcDbBlockBegin
  2
*MODEL_SPACE
 70
     0
 10
0.0
 20
0.0
 30
0.0
  3
*MODEL_SPACE
  1

  0
ENDBLK
  5
5F
330
2
100
AcDbEntity
  8
0
100
AcDbBlockEnd
  0
BLOCK
  5
24BE
330
24BC
100
AcDbEntity
 67
     1
  8
0
100
AcDbBlockBegin
  2
*Paper_Space
 70
     0
 10
0.0
 20
0.0
 30
0.0
  3
*Paper_Space
  1

  0
ENDBLK
  5
24BF
330
24BC
100
AcDbEntity
 67
     1
  8
0
100
AcDbBlockEnd
  0
ENDSEC
  0
SECTION
  2
ENTITIES
  0
ARC
  5
816
330
2
100
AcDbEntity
  8
0
100
AcDbCircle
 10
1093.732313538541
 20
239.6649355925563
 30
0.0
 40
85.0
100
AcDbArc
 50
180.0
 51
0.0
  0
ARC
  5
817
330
2
100
AcDbEntity
  8
0
100
AcDbCircle
 10
1093.732313538541
 20
291.6649355925563
 30
0.0
 40
85.0
100
AcDbArc
 50
0.0
 51
180.0
  0
LINE
  5
818
330
2
100
AcDbEntity
  8
0
100
AcDbLine
 10
1183.732313538541
 20
149.6649355925562
 30
0.0
 11
1003.732313538541
 21
149.6649355925562
 31
0.0
  0
LINE
  5
819
330
2
100
AcDbEntity
  8
0
100
AcDbLine
 10
1057.85371253854
 20
153.7862535925562
 30
0.0
 11
1055.196729538541
 21
151.1293745925562
 31
0.0
  0
ARC
  5
81A
330
2
100
AcDbEntity
  8
0
100
AcDbCircle
 10
1093.732313538541
 20
294.6649355925563
 30
0.0
 40
47.71427899999999
100
AcDbArc
 50
167.2599950000001
 51
12.73990000000009
  0
ARC
  5
81B
330
2
100
AcDbEntity
  8
0
100
AcDbCircle
 10
1063.732313538541
 20
224.1649355925563
 30
0.0
 40
38.285721
100
AcDbArc
 50
167.2601010000001
 51
270.0
  0
ARC
  5
81C
330
2
100
AcDbEntity
  8
0
100
AcDbCircle
 10
1063.732313538541
 20
224.1649355925563
 30
0.0
 40
34.0
100
AcDbArc
 50
167.2599950000001
 51
270.0
  0
ARC
  5
81D
330
2
100
AcDbEntity
  8
0
100
AcDbCircle
 10
1093.732313538541
 20
294.6649355925563
 30
0.0
 40
52.0
100
AcDbArc
 50
12.73990000000009
 51
167.2599950000001
  0
CIRCLE
  5
81E
330
2
100
AcDbEntity
  8
0
100
AcDbCircle
 10
1093.732313538541
 20
294.6649355925563
 30
0.0
 40
46.0
  0
ARC
  5
81F
330
2
100
AcDbEntity
  8
0
100
AcDbCircle
 10
1061.91792153854
 20
371.6649355925563
 30
0.0
 40
10.0
100
AcDbArc
 50
90.0
 51
125.3398969999999
  0
LINE
  5
820
330
2
100
AcDbEntity
  8
0
100
AcDbLine
 10
1183.732313538541
 20
129.6649345925563
 30
0.0
 11
1003.732313538541
 21
129.6649345925563
 31
0.0
  0
LINE
  5
822
330
2
100
AcDbEntity
  8
0
100
AcDbLine
 10
493.5138731891623
 20
577.306622556648
 30
0.0
 11
409.7981451891623
 21
577.306622556648
 31
0.0
  0
LINE
  5
823
330
2
100
AcDbEntity
  8
0
100
AcDbLine
 10
493.5138731891623
 20
723.306622556648
 30
0.0
 11
409.7981451891623
 21
723.306622556648
 31
0.0
  0
LINE
  5
824
330
2
100
AcDbEntity
  8
0
100
AcDbLine
 10
355.9992251891624
 20
598.306622556648
 30
0.0
 11
537.8002201891624
 21
598.306622556648
 31
0.0
  0
LINE
  5
825
330
2
100
AcDbEntity
  8
0
100
AcDbLine
 10
355.9992251891624
 20
702.306622556648
 30
0.0
 11
537.8002201891624
 21
702.306622556648
 31
0.0
  0
LINE
  5
826
330
2
100
AcDbEntity
  8
0
100
AcDbLine
 10
520.6830321891622
 20
740.306622556648
 30
0.0
 11
474.6560241891622
 21
740.306622556648
 31
0.0
  0
LINE
  5
827
330
2
100
AcDbEntity
  8
0
100
AcDbLine
 10
520.6830321891622
 20
560.306622556648
 30
0.0
 11
451.6560241891623
 21
560.306622556648
 31
0.0
  0
LINE
  5
828
330
2
100
AcDbEntity
  8
CENTER
100
AcDbLine
 10
565.2282291891624
 20
650.3066225566479
 30
0.0
 11
49.15602418916228
 21
650.3066225566481
 31
0.0
  0
LINE
  5
829
330
2
100
AcDbEntity
  8
0
100
AcDbLine
 10
728.5473083594081
 20
342.6649355925563
 30
0.0
 11
824.2973083594081
 21
342.6649355925563
 31
0.0
  0
LINE
  5
82A
330
2
100
AcDbEntity
  8
0
100
AcDbLine
 10
742.8598083594081
 20
131.1649345925562
 30
0.0
 11
809.8597773594082
 21
131.1649345925562
 31
0.0
  0
LINE
  5
82B
330
2
100
AcDbEntity
  8
0
100
AcDbLine
 10
825.4121613594081
 20
380.8085665925562
 30
0.0
 11
776.3598083594081
 21
381.6649195925563
 31
0.0
  0
LINE
  5
82C
330
2
100
AcDbEntity
  8
CENTER
100
AcDbLine
 10
693.5160423594082
 20
294.6649355925563
 30
0.0
 11
926.5801786848937
 21
294.6649355925563
 31
0.0
  0
LINE
  5
82D
330
2
100
AcDbEntity
  8
CENTER
100
AcDbLine
 10
639.4248043594082
 20
245.1649355925563
 30
0.0
 11
881.8135583594081
 21
245.1649355925563
 31
0.0
  0
ARC
  5
834
330
2
100
AcDbEntity
  8
0
100
AcDbCircle
 10
776.3598083594081
 20
245.1649355925563
 30
0.0
 40
83.49999999999999
100
AcDbArc
 50
150.9565119999999
 51
217.1599429999999
  0
ARC
  5
835
330
2
100
AcDbEntity
  8
0
100
AcDbCircle
 10
776.3598083594081
 20
245.1649355925563
 30
0.0
 40
82.5
100
AcDbArc
 50
152.232895
 51
215.7268069999999
  0
LINE
  5
836
330
2
100
AcDbEntity
  8
0
100
AcDbLine
 10
709.3598043594081
 20
197.7079575925563
 30
0.0
 11
709.3598043594081
 21
299.2899355925563
 31
0.0
  0
LINE
  5
837
330
2
100
AcDbEntity
  8
0
100
AcDbLine
 10
724.3598233594082
 20
373.8781305925563
 30
0.0
 11
724.3598233594082
 21
129.6649345925563
 31
0.0
  0
LINE
  5
838
330
2
100
AcDbEntity
  8
CENTER
100
AcDbLine
 10
776.3598083594081
 20
117.3135945925562
 30
0.0
 11
776.3598083594081
 21
413.6517975925562
 31
0.0
  0
TEXT
  5
839
330
2
100
AcDbEntity
  8
TITLE
100
AcDbText
 10
672.2720527528722
 20
584.5257785384956
 30
0.0
 40
12.0
  1
H2LB-40L-5~60-150W
100
AcDbText
  0
LINE
  5
83E
330
2
100
AcDbEntity
  8
0
100
AcDbLine
 10
686.3598043594081
 20
129.6649345925563
 30
0.0
 11
741.3598083594081
 21
129.6649345925563
 31
0.0
  0
ARC
  5
83F
330
2
100
AcDbEntity
  8
0
100
AcDbCircle
 10
776.3598083594081
 20
245.1649355925563
 30
0.0
 40
93.0
100
AcDbArc
 50
201.5484160000001
 51
236.0036929999999
  0
LINE
  5
840
330
2
100
AcDbEntity
  8
0
100
AcDbLine
 10
690.7075443594081
 20
150.2370135925562
 30
0.0
 11
721.7511803594081
 21
154.3216755925563
 31
0.0
  0
LINE
  5
841
330
2
100
AcDbEntity
  8
0
100
AcDbLine
 10
691.3598043594081
 20
149.6649355925562
 30
0.0
 11
719.3598083594081
 21
149.6649355925562
 31
0.0
  0
LINE
  5
842
330
2
100
AcDbEntity
  8
0
100
AcDbLine
 10
686.3598233594082
 20
145.2797345925563
 30
0.0
 11
686.3598043594081
 21
129.6649345925563
 31
0.0
  0
LINE
  5
843
330
2
100
AcDbEntity
  8
HIDS
100
AcDbLine
 10
698.8598043594081
 20
149.6649355925562
 30
0.0
 11
698.8598043594081
 21
129.6649345925563
 31
0.0
  0
ARC
  5
844
330
2
100
AcDbEntity
  8
0
100
AcDbCircle
 10
691.3598463594082
 20
145.2797935925562
 30
0.0
 40
5.0
100
AcDbArc
 50
97.49627700000013
 51
180.0
  0
ARC
  5
845
330
2
100
AcDbEntity
  8
0
100
AcDbCircle
 10
691.3598463594082
 20
144.6649945925562
 30
0.0
 40
5.0
100
AcDbArc
 50
90.0
 51
180.0
  0
LINE
  5
846
330
2
100
AcDbEntity
  8
HIDS
100
AcDbLine
 10
713.8598043594081
 20
149.6649355925562
 30
0.0
 11
713.8598043594081
 21
129.6649345925563
 31
0.0
  0
LINE
  5
847
330
2
100
AcDbEntity
  8
CENTER
100
AcDbLine
 10
706.3598043594081
 20
161.8323735925563
 30
0.0
 11
706.3598043594081
 21
118.8227145925563
 31
0.0
  0
ARC
  5
848
330
2
100
AcDbEntity
  8
0
100
AcDbCircle
 10
719.3598083594081
 20
154.6649355925563
 30
0.0
 40
5.0
100
AcDbArc
 50
270.0
 51
359.6419070000001
  0
ARC
  5
849
330
2
100
AcDbEntity
  8
0
100
AcDbCircle
 10
721.3598083594081
 20
157.2960345925562
 30
0.0
 40
3.0
100
AcDbArc
 50
277.4961169999999
 51
0.0
  0
ARC
  5
84A
330
2
100
AcDbEntity
  8
0
100
AcDbCircle
 10
701.0852983594081
 20
206.7722345925563
 30
0.0
 40
1.0
100
AcDbArc
 50
27.02321199999991
 51
88.00000000000002
  0
LINE
  5
84B
330
2
100
AcDbEntity
  8
0
100
AcDbLine
 10
699.3100603594082
 20
202.5643185925563
 30
0.0
 11
702.7764603594082
 21
202.6853515925563
 31
0.0
  0
LINE
  5
84C
330
2
100
AcDbEntity
  8
0
100
AcDbLine
 10
699.3100603594082
 20
200.5655395925562
 30
0.0
 11
705.3905353594082
 21
200.3531985925563
 31
0.0
  0
ARC
  5
84E
330
2
100
AcDbEntity
  8
0
100
AcDbCircle
 10
699.3449423594081
 20
201.5649295925562
 30
0.0
 40
1.0
100
AcDbArc
 50
91.99999999999997
 51
268.0
  0
LINE
  5
84F
330
2
100
AcDbEntity
  8
0
100
AcDbLine
 10
692.6077593594081
 20
215.4655335925562
 30
0.0
 11
697.7384663594082
 21
215.2863645925563
 31
0.0
  0
LINE
  5
850
330
2
100
AcDbEntity
  8
0
100
AcDbLine
 10
692.6077593594081
 20
217.4643125925562
 30
0.0
 11
696.1828023594082
 21
217.5891595925563
 31
0.0
  0
ARC
  5
851
330
2
100
AcDbEntity
  8
0
100
AcDbCircle
 10
693.3598043594081
 20
217.0963015925563
 30
0.0
 40
2.0
100
AcDbArc
 50
180.0
 51
268.0
  0
ARC
  5
852
330
2
100
AcDbEntity
  8
0
100
AcDbCircle
 10
692.642641359408
 20
216.4649225925562
 30
0.0
 40
1.0
100
AcDbArc
 50
91.99999999999997
 51
268.0
  0
ARC
  5
854
330
2
100
AcDbEntity
  8
0
100
AcDbCircle
 10
696.147920359408
 20
218.5885495925563
 30
0.0
 40
1.0
100
AcDbArc
 50
272.0
 51
18.3314359999999
  0
ARC
  5
855
330
2
100
AcDbEntity
  8
0
100
AcDbCircle
 10
697.7035543594081
 20
214.2869745925562
 30
0.0
 40
1.0
100
AcDbArc
 50
21.43339499999987
 51
88.00000000000002
  0
ARC
  5
856
330
2
100
AcDbEntity
  8
0
100
AcDbCircle
 10
695.6020833594082
 20
208.9649225925563
 30
0.0
 40
1.0
100
AcDbArc
 50
91.99999999999997
 51
268.0
  0
ARC
  5
857
330
2
100
AcDbEntity
  8
0
100
AcDbCircle
 10
697.8414933594081
 20
213.9379755925562
 30
0.0
 40
1.0
100
AcDbArc
 50
21.68785300000008
 51
88.00000000000002
  0
ARC
  5
858
330
2
100
AcDbEntity
  8
0
100
AcDbCircle
 10
699.0365923594081
 20
211.0860775925563
 30
0.0
 40
1.0
100
AcDbArc
 50
272.0
 51
23.78463700000003
  0
LINE
  5
859
330
2
100
AcDbEntity
  8
0
100
AcDbLine
 10
693.2900103594081
 20
215.0975215925563
 30
0.0
 11
697.8763753594082
 21
214.9373655925562
 31
0.0
  0
LINE
  5
85A
330
2
100
AcDbEntity
  8
0
100
AcDbLine
 10
695.5672013594083
 20
207.9655335925563
 30
0.0
 11
701.1202103594082
 21
207.7716245925562
 31
0.0
  0
LINE
  5
85B
330
2
100
AcDbEntity
  8
0
100
AcDbLine
 10
695.5672013594083
 20
209.9643125925563
 30
0.0
 11
699.0714743594081
 21
210.0866885925563
 31
0.0
  0
ARC
  5
85C
330
2
100
AcDbEntity
  8
0
100
AcDbCircle
 10
719.3597473594081
 20
197.7080335925562
 30
0.0
 40
10.0
100
AcDbArc
 50
180.0
 51
254.0549009999999
  0
ARC
  5
85D
330
2
100
AcDbEntity
  8
0
100
AcDbCircle
 10
776.3598083594081
 20
245.1649355925563
 30
0.0
 40
83.49999999999999
100
AcDbArc
 50
222.399979
 51
231.3694609999998
  0
LINE
  5
85E
330
2
100
AcDbEntity
  8
0
100
AcDbLine
 10
715.5157183594082
 20
179.8655275925563
 30
0.0
 11
724.2847653594082
 21
179.5592945925563
 31
0.0
  0
LINE
  5
85F
330
2
100
AcDbEntity
  8
0
100
AcDbLine
 10
715.5157183594082
 20
181.8643025925562
 30
0.0
 11
719.1698053594081
 21
181.9919305925563
 31
0.0
  0
ARC
  5
860
330
2
100
AcDbEntity
  8
0
100
AcDbCircle
 10
776.3598083594081
 20
245.1649355925563
 30
0.0
 40
82.5
100
AcDbArc
 50
223.8372959999999
 51
230.4512019999998
  0
ARC
  5
861
330
2
100
AcDbEntity
  8
0
100
AcDbCircle
 10
714.3598463594083
 20
178.3361955925562
 30
0.0
 40
10.0
100
AcDbArc
 50
0.0
 51
74.05468799999994
  0
LINE
  5
862
330
2
100
AcDbEntity
  8
0
100
AcDbLine
 10
707.7957173594081
 20
190.1643245925562
 30
0.0
 11
711.3000203594081
 21
190.2867005925562
 31
0.0
  0
LINE
  5
863
330
2
100
AcDbEntity
  8
0
100
AcDbLine
 10
707.7957173594081
 20
188.1655455925562
 30
0.0
 11
715.1869833594081
 21
187.9074275925562
 31
0.0
  0
ARC
  5
864
330
2
100
AcDbEntity
  8
0
100
AcDbCircle
 10
707.8306293594082
 20
189.1649355925562
 30
0.0
 40
1.0
100
AcDbArc
 50
91.99999999999997
 51
268.0
  0
ARC
  5
865
330
2
100
AcDbEntity
  8
0
100
AcDbCircle
 10
715.5506003594082
 20
180.8649165925562
 30
0.0
 40
1.0
100
AcDbArc
 50
91.99999999999997
 51
268.0
  0
ARC
  5
866
330
2
100
AcDbEntity
  8
0
100
AcDbCircle
 10
711.2651083594082
 20
191.2860895925562
 30
0.0
 40
1.0
100
AcDbArc
 50
272.0
 51
330.496124
  0
ARC
  5
867
330
2
100
AcDbEntity
  8
0
100
AcDbCircle
 10
715.1521013594081
 20
186.9080385925563
 30
0.0
 40
1.0
100
AcDbArc
 50
43.58505600000005
 51
88.00000000000002
  0
LINE
  5
868
330
2
100
AcDbEntity
  8
0
100
AcDbLine
 10
716.6126463594082
 20
188.0927385925562
 30
0.0
 11
717.1070233594082
 21
187.9514345925563
 31
0.0
  0
ARC
  5
869
330
2
100
AcDbEntity
  8
0
100
AcDbCircle
 10
725.0388473594082
 20
173.0649295925563
 30
0.0
 40
1.0
100
AcDbArc
 50
132.7675779999998
 51
227.2324220000002
  0
ARC
  5
86A
330
2
100
AcDbEntity
  8
0
100
AcDbCircle
 10
719.1348853594081
 20
182.9913205925562
 30
0.0
 40
1.0
100
AcDbArc
 50
272.0
 51
47.37337100000002
  0
ARC
  5
86B
330
2
100
AcDbEntity
  8
0
100
AcDbCircle
 10
705.3556533594083
 20
199.3538085925563
 30
0.0
 40
1.0
100
AcDbArc
 50
32.8296700000002
 51
88.00000000000002
  0
ARC
  5
86C
330
2
100
AcDbEntity
  8
0
100
AcDbCircle
 10
702.7415793594082
 20
203.6847415925563
 30
0.0
 40
1.0
100
AcDbArc
 50
272.0
 51
29.39906700000014
  0
LINE
  5
86D
330
2
100
AcDbEntity
  8
0
100
AcDbLine
 10
741.3598083594081
 20
129.6649345925563
 30
0.0
 11
742.8598083594081
 21
131.1649345925562
 31
0.0
  0
LINE
  5
870
330
2
100
AcDbEntity
  8
0
100
AcDbLine
 10
703.3598043594081
 20
256.2079645925563
 30
0.0
 11
703.3598043594081
 21
333.1219205925563
 31
0.0
  0
ARC
  5
873
330
2
100
AcDbEntity
  8
0
100
AcDbCircle
 10
696.147920359408
 20
271.7412905925563
 30
0.0
 40
1.0
100
AcDbArc
 50
341.6685640000001
 51
88.00000000000002
  0
ARC
  5
878
330
2
100
AcDbEntity
  8
0
100
AcDbCircle
 10
688.9266073594081
 20
231.4649225925563
 30
0.0
 40
1.0
100
AcDbArc
 50
91.99999999999997
 51
268.0
  0
LINE
  5
879
330
2
100
AcDbEntity
  8
0
100
AcDbLine
 10
690.4016133594081
 20
222.9655335925563
 30
0.0
 11
695.189516359408
 21
222.7983275925563
 31
0.0
  0
LINE
  5
87A
330
2
100
AcDbEntity
  8
0
100
AcDbLine
 10
688.8917253594081
 20
230.4655335925563
 30
0.0
 11
693.3956933594081
 21
230.3082455925562
 31
0.0
  0
LINE
  5
87B
330
2
100
AcDbEntity
  8
0
100
AcDbLine
 10
690.4016133594081
 20
224.9643125925563
 30
0.0
 11
694.0753503594082
 21
225.0926085925562
 31
0.0
  0
ARC
  5
87F
330
2
100
AcDbEntity
  8
0
100
AcDbCircle
 10
690.4365253594082
 20
223.9649225925563
 30
0.0
 40
1.0
100
AcDbArc
 50
91.99999999999997
 51
268.0
  0
ARC
  5
880
330
2
100
AcDbEntity
  8
0
100
AcDbCircle
 10
695.1546043594082
 20
221.7989375925563
 30
0.0
 40
1.0
100
AcDbArc
 50
16.05264300000011
 51
88.00000000000002
  0
ARC
  5
881
330
2
100
AcDbEntity
  8
0
100
AcDbCircle
 10
693.3607803594082
 20
229.3088565925562
 30
0.0
 40
1.0
100
AcDbArc
 50
10.81543000000016
 51
88.00000000000002
  0
ARC
  5
882
330
2
100
AcDbEntity
  8
0
100
AcDbCircle
 10
694.0404683594081
 20
226.0919985925562
 30
0.0
 40
1.0
100
AcDbArc
 50
272.0
 51
13.04493700000009
  0
ARC
  5
883
330
2
100
AcDbEntity
  8
0
100
AcDbCircle
 10
692.2731343594082
 20
236.8171875925562
 30
0.0
 40
1.0
100
AcDbArc
 50
5.669495000000177
 51
88.00000000000002
  0
ARC
  5
884
330
2
100
AcDbEntity
  8
0
100
AcDbCircle
 10
692.6554583594081
 20
233.5963625925562
 30
0.0
 40
1.0
100
AcDbArc
 50
272.0
 51
7.868851000000118
  0
ARC
  5
885
330
2
100
AcDbEntity
  8
0
100
AcDbCircle
 10
691.9575523594081
 20
241.1016415925563
 30
0.0
 40
1.0
100
AcDbArc
 50
272.0
 51
2.756195000000171
  0
ARC
  5
889
330
2
100
AcDbEntity
  8
0
100
AcDbCircle
 10
688.0772423594082
 20
238.9649225925563
 30
0.0
 40
1.0
100
AcDbArc
 50
91.99999999999997
 51
268.0
  0
LINE
  5
88A
330
2
100
AcDbEntity
  8
0
100
AcDbLine
 10
688.0423293594081
 20
237.9655335925562
 30
0.0
 11
692.3080463594081
 21
237.8165765925563
 31
0.0
  0
LINE
  5
88B
330
2
100
AcDbEntity
  8
0
100
AcDbLine
 10
688.8917253594081
 20
232.4643125925563
 30
0.0
 11
692.6903403594081
 21
232.5969725925562
 31
0.0
  0
LINE
  5
88C
330
2
100
AcDbEntity
  8
0
100
AcDbLine
 10
688.0423293594081
 20
239.9643125925563
 30
0.0
 11
691.9924333594081
 21
240.1022525925563
 31
0.0
  0
ARC
  5
88D
330
2
100
AcDbEntity
  8
0
100
AcDbCircle
 10
688.9266073594081
 20
258.8649165925563
 30
0.0
 40
1.0
100
AcDbArc
 50
91.99999999999997
 51
268.0
  0
ARC
  5
88E
330
2
100
AcDbEntity
  8
0
100
AcDbCircle
 10
692.6554583594081
 20
256.7334775925563
 30
0.0
 40
1.0
100
AcDbArc
 50
352.131149
 51
88.00000000000002
  0
ARC
  5
88F
330
2
100
AcDbEntity
  8
0
100
AcDbCircle
 10
691.9575523594081
 20
249.2281985925563
 30
0.0
 40
1.0
100
AcDbArc
 50
357.243805
 51
88.00000000000002
  0
ARC
  5
890
330
2
100
AcDbEntity
  8
0
100
AcDbCircle
 10
692.2731343594082
 20
253.5126525925563
 30
0.0
 40
1.0
100
AcDbArc
 50
272.0
 51
354.330505
  0
ARC
  5
894
330
2
100
AcDbEntity
  8
0
100
AcDbCircle
 10
688.0772423594082
 20
251.3649165925563
 30
0.0
 40
1.0
100
AcDbArc
 50
91.99999999999997
 51
268.0
  0
LINE
  5
895
330
2
100
AcDbEntity
  8
0
100
AcDbLine
 10
688.8917253594081
 20
257.8655275925562
 30
0.0
 11
692.6903403594081
 21
257.7328675925563
 31
0.0
  0
LINE
  5
896
330
2
100
AcDbEntity
  8
0
100
AcDbLine
 10
688.0423293594081
 20
250.3655275925563
 30
0.0
 11
691.9924333594081
 21
250.2275875925562
 31
0.0
  0
LINE
  5
897
330
2
100
AcDbEntity
  8
0
100
AcDbLine
 10
688.0423293594081
 20
252.3643065925563
 30
0.0
 11
692.3080463594081
 21
252.5132625925563
 31
0.0
  0
LINE
  5
898
330
2
100
AcDbEntity
  8
0
100
AcDbLine
 10
688.8917253594081
 20
259.8643065925563
 30
0.0
 11
693.3956933594081
 21
260.0215945925563
 31
0.0
  0
LINE
  5
899
330
2
100
AcDbEntity
  8
0
100
AcDbLine
 10
690.4016133594081
 20
265.3655275925562
 30
0.0
 11
694.0753503594082
 21
265.2372315925563
 31
0.0
  0
LINE
  5
89A
330
2
100
AcDbEntity
  8
0
100
AcDbLine
 10
690.4016133594081
 20
267.3643065925563
 30
0.0
 11
695.189516359408
 21
267.5315125925563
 31
0.0
  0
ARC
  5
89E
330
2
100
AcDbEntity
  8
0
100
AcDbCircle
 10
690.4365253594082
 20
266.3649165925563
 30
0.0
 40
1.0
100
AcDbArc
 50
91.99999999999997
 51
268.0
  0
ARC
  5
89F
330
2
100
AcDbEntity
  8
0
100
AcDbCircle
 10
695.1546043594082
 20
268.5309015925562
 30
0.0
 40
1.0
100
AcDbArc
 50
272.0
 51
343.947357
  0
ARC
  5
8A0
330
2
100
AcDbEntity
  8
0
100
AcDbCircle
 10
694.0404683594081
 20
264.2378415925563
 30
0.0
 40
1.0
100
AcDbArc
 50
346.9550629999999
 51
88.00000000000002
  0
ARC
  5
8A1
330
2
100
AcDbEntity
  8
0
100
AcDbCircle
 10
693.3607803594082
 20
261.0209835925563
 30
0.0
 40
1.0
100
AcDbArc
 50
272.0
 51
349.18457
  0
ARC
  5
8A2
330
2
100
AcDbEntity
  8
0
100
AcDbCircle
 10
699.3598043594081
 20
241.9251275925562
 30
0.0
 40
10.0
100
AcDbArc
 50
359.8818969999999
 51
45.57318100000004
  0
ARC
  5
8A3
330
2
100
AcDbEntity
  8
0
100
AcDbCircle
 10
713.3597433594082
 20
256.2080255925563
 30
0.0
 40
10.0
100
AcDbArc
 50
180.0
 51
225.573105
  0
ARC
  5
8A4
330
2
100
AcDbEntity
  8
0
100
AcDbCircle
 10
776.3598083594081
 20
245.1649355925563
 30
0.0
 40
93.0
100
AcDbArc
 50
141.7157139999998
 51
158.4590609999998
  0
ARC
  5
8A5
330
2
100
AcDbEntity
  8
0
100
AcDbCircle
 10
701.0852983594081
 20
283.5576045925563
 30
0.0
 40
1.0
100
AcDbArc
 50
272.0
 51
332.9767759999999
  0
LINE
  5
8A6
330
2
100
AcDbEntity
  8
0
100
AcDbLine
 10
699.3100603594082
 20
287.7655215925563
 30
0.0
 11
702.7764603594082
 21
287.6444885925563
 31
0.0
  0
LINE
  5
8A7
330
2
100
AcDbEntity
  8
0
100
AcDbLine
 10
699.3100603594082
 20
289.7643005925563
 30
0.0
 11
703.3598043594081
 21
289.9057185925562
 31
0.0
  0
LINE
  5
8AB
330
2
100
AcDbEntity
  8
0
100
AcDbLine
 10
692.6077593594081
 20
274.8643065925563
 30
0.0
 11
697.7384663594082
 21
275.0434755925563
 31
0.0
  0
LINE
  5
8AC
330
2
100
AcDbEntity
  8
0
100
AcDbLine
 10
692.6077593594081
 20
272.8655275925563
 30
0.0
 11
696.1828023594082
 21
272.7406795925563
 31
0.0
  0
ARC
  5
8AD
330
2
100
AcDbEntity
  8
0
100
AcDbCircle
 10
693.3598043594081
 20
273.2335385925563
 30
0.0
 40
2.0
100
AcDbArc
 50
91.99999999999997
 51
180.0
  0
ARC
  5
8AE
330
2
100
AcDbEntity
  8
0
100
AcDbCircle
 10
692.642641359408
 20
273.8649165925563
 30
0.0
 40
1.0
100
AcDbArc
 50
91.99999999999997
 51
268.0
  0
ARC
  5
8B2
330
2
100
AcDbEntity
  8
0
100
AcDbCircle
 10
697.7035543594081
 20
276.0428645925563
 30
0.0
 40
1.0
100
AcDbArc
 50
272.0
 51
338.5666049999999
  0
ARC
  5
8B3
330
2
100
AcDbEntity
  8
0
100
AcDbCircle
 10
695.6020833594082
 20
281.3649165925562
 30
0.0
 40
1.0
100
AcDbArc
 50
91.99999999999997
 51
268.0
  0
ARC
  5
8B4
330
2
100
AcDbEntity
  8
0
100
AcDbCircle
 10
699.0365923594081
 20
279.2437625925562
 30
0.0
 40
1.0
100
AcDbArc
 50
336.215363
 51
88.00000000000002
  0
ARC
  5
8B5
330
2
100
AcDbEntity
  8
0
100
AcDbCircle
 10
697.8414933594081
 20
276.3918635925563
 30
0.0
 40
1.0
100
AcDbArc
 50
272.0
 51
338.3121340000001
  0
LINE
  5
8B6
330
2
100
AcDbEntity
  8
0
100
AcDbLine
 10
695.5672013594083
 20
280.3655275925562
 30
0.0
 11
699.0714743594081
 21
280.2431515925563
 31
0.0
  0
LINE
  5
8B7
330
2
100
AcDbEntity
  8
0
100
AcDbLine
 10
695.5672013594083
 20
282.3643065925562
 30
0.0
 11
701.1202103594082
 21
282.5582155925563
 31
0.0
  0
LINE
  5
8B8
330
2
100
AcDbEntity
  8
0
100
AcDbLine
 10
693.2900103594081
 20
275.2323175925563
 30
0.0
 11
697.8763753594082
 21
275.3924745925563
 31
0.0
  0
ARC
  5
8B9
330
2
100
AcDbEntity
  8
0
100
AcDbCircle
 10
699.3449423594081
 20
288.7649105925563
 30
0.0
 40
1.0
100
AcDbArc
 50
91.99999999999997
 51
268.0
  0
ARC
  5
8BA
330
2
100
AcDbEntity
  8
0
100
AcDbCircle
 10
702.7415793594082
 20
286.6450985925562
 30
0.0
 40
1.0
100
AcDbArc
 50
51.81329700000016
 51
88.00000000000002
  0
LINE
  5
8BB
330
2
100
AcDbEntity
  8
0
100
AcDbLine
 10
731.2376233594082
 20
380.8771695925564
 30
0.0
 11
776.3598083594081
 21
381.6649195925563
 31
0.0
  0
ARC
  5
8BC
330
2
100
AcDbEntity
  8
0
100
AcDbCircle
 10
731.3598463594082
 20
373.8783145925563
 30
0.0
 40
7.0
100
AcDbArc
 50
91.00063299999993
 51
180.0
  0
ARC
  5
8BD
330
2
100
AcDbEntity
  8
0
100
AcDbCircle
 10
714.3598043594082
 20
354.2078885925563
 30
0.0
 40
10.0
100
AcDbArc
 50
285.9455869999999
 51
0.0
  0
ARC
  5
8BE
330
2
100
AcDbEntity
  8
0
100
AcDbCircle
 10
713.3598463594083
 20
333.1219815925563
 30
0.0
 40
10.0
100
AcDbArc
 50
105.9457019999999
 51
180.0
  0
LINE
  5
8BF
330
2
100
AcDbEntity
  8
0
100
AcDbLine
 10
710.612604359408
 20
342.7371395925562
 30
0.0
 11
717.1070233594082
 21
344.5927305925562
 31
0.0
  0
ARC
  5
8C0
330
2
100
AcDbEntity
  8
0
100
AcDbCircle
 10
776.3598083594081
 20
386.1649195925563
 30
0.0
 40
10.0
100
AcDbArc
 50
332.2605189999999
 51
207.739502
  0
LINE
  5
8C1
330
2
100
AcDbEntity
  8
CENTER
100
AcDbLine
 10
754.1340278594081
 20
386.1649195925563
 30
0.0
 11
798.585588859408
 21
386.1649195925563
 31
0.0
  0
ARC
  5
8C2
330
2
100
AcDbEntity
  8
0
100
AcDbCircle
 10
776.3598083594081
 20
386.1649195925563
 30
0.0
 40
16.0
100
AcDbArc
 50
0.0
 51
180.0
  0
LINE
  5
8C3
330
2
100
AcDbEntity
  8
0
100
AcDbLine
 10
760.3599073594082
 20
381.3855925925563
 30
0.0
 11
760.3599073594082
 21
386.1649195925563
 31
0.0
  0
LINE
  5
8C4
330
2
100
AcDbEntity
  8
0
100
AcDbLine
 10
792.3598083594081
 20
381.3855925925563
 30
0.0
 11
792.3598083594081
 21
386.1649195925563
 31
0.0
  0
LINE
  5
8C5
330
2
100
AcDbEntity
  8
0
100
AcDbLine
 10
1003.732313538541
 20
337.4969355925563
 30
0.0
 11
1003.732313538541
 21
129.6649345925563
 31
0.0
  0
ARC
  5
8C6
330
2
100
AcDbEntity
  8
0
100
AcDbCircle
 10
776.3598083594081
 20
245.1649355925563
 30
0.0
 40
83.49999999999999
100
AcDbArc
 50
322.839989
 51
20.68888899999985
  0
ARC
  5
8C7
330
2
100
AcDbEntity
  8
0
100
AcDbCircle
 10
776.3598083594081
 20
245.1649355925563
 30
0.0
 40
93.0
100
AcDbArc
 50
303.9963299999999
 51
18.493937
  0
ARC
  5
8C8
330
2
100
AcDbEntity
  8
0
100
AcDbCircle
 10
776.3598083594081
 20
245.1649355925563
 30
0.0
 40
82.5
100
AcDbArc
 50
324.27309
 51
20.9513890000001
  0
LINE
  5
8C9
330
2
100
AcDbEntity
  8
0
100
AcDbLine
 10
843.359808359408
 20
197.7079575925563
 30
0.0
 11
843.359808359408
 21
299.2899355925563
 31
0.0
  0
LINE
  5
8CA
330
2
100
AcDbEntity
  8
0
100
AcDbLine
 10
828.3598083594082
 20
377.8089175925563
 30
0.0
 11
828.3598083594082
 21
129.6649345925563
 31
0.0
  0
LINE
  5
8CB
330
2
100
AcDbEntity
  8
0
100
AcDbLine
 10
862.0119993594082
 20
150.2370135925562
 30
0.0
 11
830.968450359408
 21
154.3216755925563
 31
0.0
  0
LINE
  5
8CC
330
2
100
AcDbEntity
  8
0
100
AcDbLine
 10
861.3598083594082
 20
149.6649355925562
 30
0.0
 11
833.3598233594083
 21
149.6649355925562
 31
0.0
  0
LINE
  5
8CD
330
2
100
AcDbEntity
  8
0
100
AcDbLine
 10
811.359808359408
 20
129.6649345925563
 30
0.0
 11
866.3598083594081
 21
129.6649345925563
 31
0.0
  0
LINE
  5
8CE
330
2
100
AcDbEntity
  8
HIDS
100
AcDbLine
 10
838.859808359408
 20
149.6649355925562
 30
0.0
 11
838.859808359408
 21
129.6649345925563
 31
0.0
  0
LINE
  5
8CF
330
2
100
AcDbEntity
  8
0
100
AcDbLine
 10
811.359808359408
 20
129.6649345925563
 30
0.0
 11
809.8597773594082
 21
131.1649345925562
 31
0.0
  0
ARC
  5
8D0
330
2
100
AcDbEntity
  8
0
100
AcDbCircle
 10
833.3598083594081
 20
154.6649355925563
 30
0.0
 40
5.0
100
AcDbArc
 50
180.0
 51
270.0
  0
ARC
  5
8D1
330
2
100
AcDbEntity
  8
0
100
AcDbCircle
 10
831.3597773594082
 20
157.2960955925563
 30
0.0
 40
3.0
100
AcDbArc
 50
180.0
 51
262.5044859999999
  0
LINE
  5
8D2
330
2
100
AcDbEntity
  8
HIDS
100
AcDbLine
 10
853.8598083594081
 20
149.6649355925562
 30
0.0
 11
853.8598083594081
 21
129.6649345925563
 31
0.0
  0
LINE
  5
8D3
330
2
100
AcDbEntity
  8
CENTER
100
AcDbLine
 10
846.3598083594082
 20
161.8323735925563
 30
0.0
 11
846.3598083594082
 21
118.8227145925563
 31
0.0
  0
LINE
  5
8D4
330
2
100
AcDbEntity
  8
0
100
AcDbLine
 10
866.3598083594081
 20
145.2797345925563
 30
0.0
 11
866.3598083594081
 21
129.6649345925563
 31
0.0
  0
ARC
  5
8D5
330
2
100
AcDbEntity
  8
0
100
AcDbCircle
 10
861.3598083594082
 20
144.6649355925563
 30
0.0
 40
5.0
100
AcDbArc
 50
0.0
 51
90.0
  0
ARC
  5
8D6
330
2
100
AcDbEntity
  8
0
100
AcDbCircle
 10
861.3598083594082
 20
145.2797345925563
 30
0.0
 40
5.0
100
AcDbArc
 50
0.0
 51
82.50422699999989
  0
LINE
  5
8D7
330
2
100
AcDbEntity
  8
0
100
AcDbLine
 10
844.9238953594081
 20
188.1655455925562
 30
0.0
 11
837.5326293594081
 21
187.9074275925562
 31
0.0
  0
ARC
  5
8D8
330
2
100
AcDbEntity
  8
0
100
AcDbCircle
 10
833.3597773594082
 20
197.7078965925563
 30
0.0
 40
10.0
100
AcDbArc
 50
285.9455869999999
 51
0.0
  0
ARC
  5
8D9
330
2
100
AcDbEntity
  8
0
100
AcDbCircle
 10
838.3598383594081
 20
178.3362535925562
 30
0.0
 40
10.0
100
AcDbArc
 50
105.945602
 51
180.0
  0
ARC
  5
8DA
330
2
100
AcDbEntity
  8
0
100
AcDbCircle
 10
827.6807613594082
 20
173.0649295925563
 30
0.0
 40
1.0
100
AcDbArc
 50
312.7692950000001
 51
47.23070500000013
  0
ARC
  5
8DB
330
2
100
AcDbEntity
  8
0
100
AcDbCircle
 10
776.3598083594081
 20
245.1649355925563
 30
0.0
 40
83.49999999999999
100
AcDbArc
 50
308.630615
 51
317.5998540000001
  0
LINE
  5
8DC
330
2
100
AcDbEntity
  8
0
100
AcDbLine
 10
837.203924359408
 20
179.8655275925563
 30
0.0
 11
828.4349113594082
 21
179.5592945925563
 31
0.0
  0
ARC
  5
8DD
330
2
100
AcDbEntity
  8
0
100
AcDbCircle
 10
776.3598083594081
 20
245.1649355925563
 30
0.0
 40
82.5
100
AcDbArc
 50
309.5488889999999
 51
316.16272
  0
ARC
  5
8DE
330
2
100
AcDbEntity
  8
0
100
AcDbCircle
 10
833.5847533594082
 20
182.9913205925562
 30
0.0
 40
1.0
100
AcDbArc
 50
132.626633
 51
268.0
  0
ARC
  5
8DF
330
2
100
AcDbEntity
  8
0
100
AcDbCircle
 10
837.1690423594081
 20
180.8649165925562
 30
0.0
 40
1.0
100
AcDbArc
 50
272.0
 51
88.00000000000002
  0
ARC
  5
8E0
330
2
100
AcDbEntity
  8
0
100
AcDbCircle
 10
837.5675413594082
 20
186.9080385925563
 30
0.0
 40
1.0
100
AcDbArc
 50
91.99999999999997
 51
136.414948
  0
LINE
  5
8E1
330
2
100
AcDbEntity
  8
0
100
AcDbLine
 10
837.203924359408
 20
181.8643025925562
 30
0.0
 11
833.5498413594082
 21
181.9919305925563
 31
0.0
  0
LINE
  5
8E2
330
2
100
AcDbEntity
  8
0
100
AcDbLine
 10
836.1075493594082
 20
188.0928835925563
 30
0.0
 11
835.6125853594081
 21
187.9514345925563
 31
0.0
  0
ARC
  5
8E3
330
2
100
AcDbEntity
  8
0
100
AcDbCircle
 10
841.4545043594083
 20
191.2860895925562
 30
0.0
 40
1.0
100
AcDbArc
 50
209.5062099999999
 51
268.0
  0
ARC
  5
8E4
330
2
100
AcDbEntity
  8
0
100
AcDbCircle
 10
844.8890133594082
 20
189.1649355925562
 30
0.0
 40
1.0
100
AcDbArc
 50
272.0
 51
88.00000000000002
  0
LINE
  5
8E5
330
2
100
AcDbEntity
  8
0
100
AcDbLine
 10
844.9238953594081
 20
190.1643245925562
 30
0.0
 11
841.4196223594082
 21
190.2867005925562
 31
0.0
  0
ARC
  5
8E6
330
2
100
AcDbEntity
  8
0
100
AcDbCircle
 10
856.5716913594082
 20
218.5885495925563
 30
0.0
 40
1.0
100
AcDbArc
 50
161.6685640000001
 51
268.0
  0
LINE
  5
8E7
330
2
100
AcDbEntity
  8
0
100
AcDbLine
 10
860.1118523594081
 20
215.4655335925562
 30
0.0
 11
854.9811463594082
 21
215.2863645925563
 31
0.0
  0
LINE
  5
8E8
330
2
100
AcDbEntity
  8
0
100
AcDbLine
 10
857.1524413594081
 20
209.9643125925563
 30
0.0
 11
853.6481383594082
 21
210.0866885925563
 31
0.0
  0
LINE
  5
8E9
330
2
100
AcDbEntity
  8
0
100
AcDbLine
 10
857.1524413594081
 20
207.9655335925563
 30
0.0
 11
851.5994323594082
 21
207.7716245925562
 31
0.0
  0
LINE
  5
8EA
330
2
100
AcDbEntity
  8
0
100
AcDbLine
 10
853.4095823594082
 20
200.5655395925562
 30
0.0
 11
847.3290763594082
 21
200.3531985925563
 31
0.0
  0
ARC
  5
8EB
330
2
100
AcDbEntity
  8
0
100
AcDbCircle
 10
847.363989359408
 20
199.3538085925563
 30
0.0
 40
1.0
100
AcDbArc
 50
91.99999999999997
 51
147.170334
  0
ARC
  5
8EC
330
2
100
AcDbEntity
  8
0
100
AcDbCircle
 10
853.3747003594081
 20
201.5649295925562
 30
0.0
 40
1.0
100
AcDbArc
 50
272.0
 51
88.00000000000002
  0
ARC
  5
8ED
330
2
100
AcDbEntity
  8
0
100
AcDbCircle
 10
849.9780633594081
 20
203.6847415925563
 30
0.0
 40
1.0
100
AcDbArc
 50
150.6009369999998
 51
268.0
  0
LINE
  5
8EE
330
2
100
AcDbEntity
  8
0
100
AcDbLine
 10
853.4095823594082
 20
202.5643185925563
 30
0.0
 11
849.9431513594082
 21
202.6853515925563
 31
0.0
  0
ARC
  5
8EF
330
2
100
AcDbEntity
  8
0
100
AcDbCircle
 10
855.0160583594081
 20
214.2869745925562
 30
0.0
 40
1.0
100
AcDbArc
 50
91.99999999999997
 51
158.5666050000001
  0
ARC
  5
8F0
330
2
100
AcDbEntity
  8
0
100
AcDbCircle
 10
853.6830503594082
 20
211.0860775925563
 30
0.0
 40
1.0
100
AcDbArc
 50
156.2153629999999
 51
268.0
  0
ARC
  5
8F1
330
2
100
AcDbEntity
  8
0
100
AcDbCircle
 10
851.6343133594082
 20
206.7722345925563
 30
0.0
 40
1.0
100
AcDbArc
 50
91.99999999999997
 51
152.976791
  0
ARC
  5
8F2
330
2
100
AcDbEntity
  8
0
100
AcDbCircle
 10
860.0769713594081
 20
216.4649225925562
 30
0.0
 40
1.0
100
AcDbArc
 50
272.0
 51
88.00000000000002
  0
ARC
  5
8F3
330
2
100
AcDbEntity
  8
0
100
AcDbCircle
 10
857.1175293594082
 20
208.9649225925563
 30
0.0
 40
1.0
100
AcDbArc
 50
272.0
 51
88.00000000000002
  0
LINE
  5
8F4
330
2
100
AcDbEntity
  8
0
100
AcDbLine
 10
860.1118523594081
 20
217.4643125925562
 30
0.0
 11
856.5368103594082
 21
217.5891595925563
 31
0.0
  0
LINE
  5
8F5
330
2
100
AcDbEntity
  8
0
100
AcDbLine
 10
1017.732313538541
 20
146.7412535925563
 30
0.0
 11
1017.732313538541
 21
129.6649345925563
 31
0.0
  0
LINE
  5
8F6
330
2
100
AcDbEntity
  8
HIDS
100
AcDbLine
 10
1026.232313538541
 20
149.6649355925562
 30
0.0
 11
1026.232313538541
 21
129.6649345925563
 31
0.0
  0
LINE
  5
8F7
330
2
100
AcDbEntity
  8
HIDS
100
AcDbLine
 10
1041.232313538541
 20
149.6649355925562
 30
0.0
 11
1041.232313538541
 21
129.6649345925563
 31
0.0
  0
LINE
  5
8F8
330
2
100
AcDbEntity
  8
CENTER
100
AcDbLine
 10
1033.732313538541
 20
161.8323735925563
 30
0.0
 11
1033.732313538541
 21
118.8227145925563
 31
0.0
  0
ARC
  5
8F9
330
2
100
AcDbEntity
  8
0
100
AcDbCircle
 10
1051.661329538541
 20
154.6649355925563
 30
0.0
 40
5.0
100
AcDbArc
 50
270.0
 51
314.999889
  0
LINE
  5
8FA
330
2
100
AcDbEntity
  8
0
100
AcDbLine
 10
849.3598083594081
 20
256.2079035925563
 30
0.0
 11
849.3598083594081
 21
333.1219815925563
 31
0.0
  0
LINE
  5
8FB
330
2
100
AcDbEntity
  8
0
100
AcDbLine
 10
862.3598083594082
 20
288.6649355925563
 30
0.0
 11
916.3598083594081
 21
288.6649355925563
 31
0.0
  0
LINE
  5
8FC
330
2
100
AcDbEntity
  8
0
100
AcDbLine
 10
862.3598083594082
 20
300.6649355925563
 30
0.0
 11
916.3598083594081
 21
300.6649355925563
 31
0.0
  0
LINE
  5
8FD
330
2
100
AcDbEntity
  8
0
100
AcDbLine
 10
851.359808359408
 20
274.6649355925563
 30
0.0
 11
916.3598083594081
 21
274.6649355925563
 31
0.0
  0
LINE
  5
8FE
330
2
100
AcDbEntity
  8
0
100
AcDbLine
 10
851.359808359408
 20
314.6649355925563
 30
0.0
 11
916.3598083594081
 21
314.6649355925563
 31
0.0
  0
ARC
  5
8FF
330
2
100
AcDbEntity
  8
0
100
AcDbCircle
 10
856.5716913594082
 20
271.7412905925563
 30
0.0
 40
1.0
100
AcDbArc
 50
91.99999999999997
 51
198.3314359999999
  0
LINE
  5
900
330
2
100
AcDbEntity
  8
0
100
AcDbLine
 10
851.359808359408
 20
317.1649355925563
 30
0.0
 11
851.359808359408
 21
272.1649355925563
 31
0.0
  0
ARC
  5
901
330
2
100
AcDbEntity
  8
0
100
AcDbCircle
 10
853.3598083594082
 20
241.9250665925563
 30
0.0
 40
10.0
100
AcDbArc
 50
134.4266969999999
 51
180.0
  0
ARC
  5
902
330
2
100
AcDbEntity
  8
0
100
AcDbCircle
 10
863.7930053594082
 20
231.4649225925563
 30
0.0
 40
1.0
100
AcDbArc
 50
272.0
 51
88.00000000000002
  0
ARC
  5
903
330
2
100
AcDbEntity
  8
0
100
AcDbCircle
 10
857.5650083594082
 20
221.7989375925563
 30
0.0
 40
1.0
100
AcDbArc
 50
91.99999999999997
 51
163.9473569999999
  0
ARC
  5
904
330
2
100
AcDbEntity
  8
0
100
AcDbCircle
 10
859.3588313594082
 20
229.3088565925562
 30
0.0
 40
1.0
100
AcDbArc
 50
91.99999999999997
 51
169.1845699999998
  0
ARC
  5
905
330
2
100
AcDbEntity
  8
0
100
AcDbCircle
 10
858.6791443594082
 20
226.0919985925562
 30
0.0
 40
1.0
100
AcDbArc
 50
166.9550629999999
 51
268.0
  0
ARC
  5
906
330
2
100
AcDbEntity
  8
0
100
AcDbCircle
 10
862.2830863594082
 20
223.9649225925563
 30
0.0
 40
1.0
100
AcDbArc
 50
272.0
 51
88.00000000000002
  0
LINE
  5
907
330
2
100
AcDbEntity
  8
0
100
AcDbLine
 10
862.3179993594082
 20
222.9655335925563
 30
0.0
 11
857.5300963594081
 21
222.7983275925563
 31
0.0
  0
LINE
  5
908
330
2
100
AcDbEntity
  8
0
100
AcDbLine
 10
863.8278863594081
 20
230.4655335925563
 30
0.0
 11
859.3239193594081
 21
230.3082455925562
 31
0.0
  0
LINE
  5
909
330
2
100
AcDbEntity
  8
0
100
AcDbLine
 10
862.3179993594082
 20
224.9643125925563
 30
0.0
 11
858.6442623594082
 21
225.0926085925562
 31
0.0
  0
ARC
  5
90A
330
2
100
AcDbEntity
  8
0
100
AcDbCircle
 10
864.6423703594082
 20
238.9649225925563
 30
0.0
 40
1.0
100
AcDbArc
 50
272.0
 51
88.00000000000002
  0
ARC
  5
90B
330
2
100
AcDbEntity
  8
0
100
AcDbCircle
 10
860.4464783594082
 20
236.8171875925562
 30
0.0
 40
1.0
100
AcDbArc
 50
91.99999999999997
 51
174.3305049999998
  0
ARC
  5
90C
330
2
100
AcDbEntity
  8
0
100
AcDbCircle
 10
860.0641533594082
 20
233.5963625925562
 30
0.0
 40
1.0
100
AcDbArc
 50
172.1311489999999
 51
268.0
  0
ARC
  5
90D
330
2
100
AcDbEntity
  8
0
100
AcDbCircle
 10
860.7620603594082
 20
241.1016415925563
 30
0.0
 40
1.0
100
AcDbArc
 50
177.2438049999998
 51
268.0
  0
LINE
  5
90E
330
2
100
AcDbEntity
  8
0
100
AcDbLine
 10
864.6772823594082
 20
237.9655335925562
 30
0.0
 11
860.4115653594082
 21
237.8165765925563
 31
0.0
  0
LINE
  5
90F
330
2
100
AcDbEntity
  8
0
100
AcDbLine
 10
863.8278863594081
 20
232.4643125925563
 30
0.0
 11
860.0292723594082
 21
232.5969725925562
 31
0.0
  0
LINE
  5
910
330
2
100
AcDbEntity
  8
0
100
AcDbLine
 10
864.6772823594082
 20
239.9643125925563
 30
0.0
 11
860.7271783594082
 21
240.1022525925563
 31
0.0
  0
ARC
  5
911
330
2
100
AcDbEntity
  8
0
100
AcDbCircle
 10
839.3597773594082
 20
256.2079035925563
 30
0.0
 40
10.0
100
AcDbArc
 50
314.4273409999999
 51
0.0
  0
LINE
  5
912
330
2
100
AcDbEntity
  8
0
100
AcDbLine
 10
849.3598083594081
 20
272.1649355925563
 30
0.0
 11
851.359808359408
 21
272.1649355925563
 31
0.0
  0
ARC
  5
913
330
2
100
AcDbEntity
  8
0
100
AcDbCircle
 10
863.7930053594082
 20
258.8649165925563
 30
0.0
 40
1.0
100
AcDbArc
 50
272.0
 51
88.00000000000002
  0
ARC
  5
914
330
2
100
AcDbEntity
  8
0
100
AcDbCircle
 10
864.6423703594082
 20
251.3649165925563
 30
0.0
 40
1.0
100
AcDbArc
 50
272.0
 51
88.00000000000002
  0
ARC
  5
915
330
2
100
AcDbEntity
  8
0
100
AcDbCircle
 10
860.0641533594082
 20
256.7334775925563
 30
0.0
 40
1.0
100
AcDbArc
 50
91.99999999999997
 51
187.8688509999999
  0
ARC
  5
916
330
2
100
AcDbEntity
  8
0
100
AcDbCircle
 10
860.7620603594082
 20
249.2281985925563
 30
0.0
 40
1.0
100
AcDbArc
 50
91.99999999999997
 51
182.7561949999999
  0
ARC
  5
917
330
2
100
AcDbEntity
  8
0
100
AcDbCircle
 10
860.4464783594082
 20
253.5126525925563
 30
0.0
 40
1.0
100
AcDbArc
 50
185.6694949999999
 51
268.0
  0
LINE
  5
918
330
2
100
AcDbEntity
  8
0
100
AcDbLine
 10
863.8278863594081
 20
257.8655275925562
 30
0.0
 11
860.0292723594082
 21
257.7328675925563
 31
0.0
  0
LINE
  5
919
330
2
100
AcDbEntity
  8
0
100
AcDbLine
 10
864.6772823594082
 20
250.3655275925563
 30
0.0
 11
860.7271783594082
 21
250.2275875925562
 31
0.0
  0
LINE
  5
91A
330
2
100
AcDbEntity
  8
0
100
AcDbLine
 10
864.6772823594082
 20
252.3643065925563
 30
0.0
 11
860.4115653594082
 21
252.5132625925563
 31
0.0
  0
ARC
  5
91B
330
2
100
AcDbEntity
  8
0
100
AcDbCircle
 10
857.5650083594082
 20
268.5309015925562
 30
0.0
 40
1.0
100
AcDbArc
 50
196.0526429999999
 51
268.0
  0
ARC
  5
91C
330
2
100
AcDbEntity
  8
0
100
AcDbCircle
 10
858.6791443594082
 20
264.2378415925563
 30
0.0
 40
1.0
100
AcDbArc
 50
91.99999999999997
 51
193.0449369999999
  0
ARC
  5
91D
330
2
100
AcDbEntity
  8
0
100
AcDbCircle
 10
859.3588313594082
 20
261.0209835925563
 30
0.0
 40
1.0
100
AcDbArc
 50
190.8154299999999
 51
268.0
  0
ARC
  5
91E
330
2
100
AcDbEntity
  8
0
100
AcDbCircle
 10
862.2830863594082
 20
266.3649165925563
 30
0.0
 40
1.0
100
AcDbArc
 50
272.0
 51
88.00000000000002
  0
LINE
  5
91F
330
2
100
AcDbEntity
  8
0
100
AcDbLine
 10
863.8278863594081
 20
259.8643065925563
 30
0.0
 11
859.3239193594081
 21
260.0215945925563
 31
0.0
  0
LINE
  5
920
330
2
100
AcDbEntity
  8
0
100
AcDbLine
 10
862.3179993594082
 20
265.3655275925562
 30
0.0
 11
858.6442623594082
 21
265.2372315925563
 31
0.0
  0
LINE
  5
921
330
2
100
AcDbEntity
  8
0
100
AcDbLine
 10
862.3179993594082
 20
267.3643065925563
 30
0.0
 11
857.5300963594081
 21
267.5315125925563
 31
0.0
  0
ARC
  5
922
330
2
100
AcDbEntity
  8
0
100
AcDbCircle
 10
862.3598083594082
 20
294.6649355925563
 30
0.0
 40
6.0
100
AcDbArc
 50
90.0
 51
270.0
  0
ARC
  5
923
330
2
100
AcDbEntity
  8
0
100
AcDbCircle
 10
860.0769713594081
 20
273.8649165925563
 30
0.0
 40
1.0
100
AcDbArc
 50
272.0
 51
53.13182100000002
  0
LINE
  5
924
330
2
100
AcDbEntity
  8
0
100
AcDbLine
 10
860.1118523594081
 20
272.8655275925563
 30
0.0
 11
856.5368103594082
 21
272.7406795925563
 31
0.0
  0
LINE
  5
925
330
2
100
AcDbEntity
  8
0
100
AcDbLine
 10
849.3598083594081
 20
317.1649355925563
 30
0.0
 11
851.359808359408
 21
317.1649355925563
 31
0.0
  0
LINE
  5
926
330
2
100
AcDbEntity
  8
0
100
AcDbLine
 10
916.3598083594081
 20
274.6649355925563
 30
0.0
 11
916.3598083594081
 21
314.6649355925563
 31
0.0
  0
ARC
  5
927
330
2
100
AcDbEntity
  8
0
100
AcDbCircle
 10
825.3598233594082
 20
377.8089175925563
 30
0.0
 40
3.0
100
AcDbArc
 50
0.0
 51
89.00000000000005
  0
LINE
  5
928
330
2
100
AcDbEntity
  8
0
100
AcDbLine
 10
842.1070003594081
 20
342.7371395925562
 30
0.0
 11
835.6126003594081
 21
344.5927305925562
 31
0.0
  0
ARC
  5
929
330
2
100
AcDbEntity
  8
0
100
AcDbCircle
 10
838.3597473594081
 20
354.2080415925562
 30
0.0
 40
10.0
100
AcDbArc
 50
180.0
 51
254.0549009999999
  0
ARC
  5
92A
330
2
100
AcDbEntity
  8
0
100
AcDbCircle
 10
839.3598233594081
 20
333.1219205925563
 30
0.0
 40
10.0
100
AcDbArc
 50
0.0
 51
74.05473299999989
  0
LINE
  5
92B
330
2
100
AcDbEntity
  8
0
100
AcDbLine
 10
1008.732313538541
 20
291.6646295925563
 30
0.0
 11
1008.732313538541
 21
239.6652325925562
 31
0.0
  0
LINE
  5
92C
330
2
100
AcDbEntity
  8
0
100
AcDbLine
 10
1047.192701538541
 20
305.1872125925563
 30
0.0
 11
1030.569318538541
 21
231.6628375925563
 31
0.0
  0
LINE
  5
92D
330
2
100
AcDbEntity
  8
0
100
AcDbLine
 10
1043.01252553854
 20
306.1323275925563
 30
0.0
 11
1026.389112538541
 21
232.6079585925563
 31
0.0
  0
LINE
  5
92E
330
2
100
AcDbEntity
  8
0
100
AcDbLine
 10
1056.13371053854
 20
379.8223295925563
 30
0.0
 11
1007.948103538541
 21
345.6542535925563
 31
0.0
  0
ARC
  5
92F
330
2
100
AcDbEntity
  8
0
100
AcDbCircle
 10
1013.732313538541
 20
337.4969205925563
 30
0.0
 40
10.0
100
AcDbArc
 50
125.3399959999998
 51
180.0
  0
LINE
  5
930
330
2
100
AcDbEntity
  8
0
100
AcDbLine
 10
540.7120241891623
 20
596.228619556648
 30
0.0
 11
541.6560241891622
 21
650.3066225566479
 31
0.0
  0
LINE
  5
931
330
2
100
AcDbEntity
  8
0
100
AcDbLine
 10
540.7120241891623
 20
704.3846255566479
 30
0.0
 11
541.6560241891622
 21
650.3066225566479
 31
0.0
  0
ARC
  5
932
330
2
100
AcDbEntity
  8
0
100
AcDbCircle
 10
527.4921451891627
 20
712.3066225566479
 30
0.0
 40
10.0
100
AcDbArc
 50
195.995832
 51
270.0
  0
ARC
  5
933
330
2
100
AcDbEntity
  8
0
100
AcDbCircle
 10
520.6830321891624
 20
730.306622556648
 30
0.0
 40
10.0
100
AcDbArc
 50
20.22489900000008
 51
90.0
  0
LINE
  5
935
330
2
100
AcDbEntity
  8
0
100
AcDbLine
 10
540.5276371891625
 20
705.3694275566479
 30
0.0
 11
530.0664251891624
 21
733.7636225566479
 31
0.0
  0
ARC
  5
936
330
2
100
AcDbEntity
  8
0
100
AcDbCircle
 10
537.8002201891625
 20
699.3066225566479
 30
0.0
 40
3.0
100
AcDbArc
 50
1.000075999999969
 51
90.0
  0
ARC
  5
937
330
2
100
AcDbEntity
  8
0
100
AcDbCircle
 10
537.7126341891624
 20
704.3322265566479
 30
0.0
 40
3.0
100
AcDbArc
 50
0.9999999999999165
 51
20.22509799999992
  0
ARC
  5
938
330
2
100
AcDbEntity
  8
0
100
AcDbCircle
 10
493.5138731891623
 20
713.306622556648
 30
0.0
 40
10.0
100
AcDbArc
 50
44.99999999999984
 51
90.0
  0
ARC
  5
939
330
2
100
AcDbEntity
  8
0
100
AcDbCircle
 10
511.6560241891623
 20
720.3066225566479
 30
0.0
 40
7.5
100
AcDbArc
 50
301.8094479999999
 51
203.5781780000001
  0
LINE
  5
93B
330
2
100
AcDbEntity
  8
0
100
AcDbLine
 10
503.6560241891622
 20
717.3066225566479
 30
0.0
 11
508.1199221891624
 21
717.3066225566479
 31
0.0
  0
ARC
  5
93C
330
2
100
AcDbEntity
  8
0
100
AcDbCircle
 10
508.1199221891625
 20
707.306622556648
 30
0.0
 40
10.0
100
AcDbArc
 50
15.99583399999985
 51
90.0
  0
LINE
  5
93D
330
2
100
AcDbEntity
  8
0
100
AcDbLine
 10
517.7327151891624
 20
710.062298556648
 30
0.0
 11
517.8793211891623
 21
709.550945556648
 31
0.0
  0
LINE
  5
93E
330
2
100
AcDbEntity
  8
0
100
AcDbLine
 10
500.5849491891624
 20
720.3776975566479
 30
0.0
 11
503.6560241891622
 21
717.3066225566479
 31
0.0
  0
ARC
  5
93F
330
2
100
AcDbEntity
  8
0
100
AcDbCircle
 10
508.1199221891625
 20
593.306622556648
 30
0.0
 40
10.0
100
AcDbArc
 50
270.0
 51
344.0041660000001
  0
LINE
  5
941
330
2
100
AcDbEntity
  8
0
100
AcDbLine
 10
540.5276371891625
 20
595.2438175566479
 30
0.0
 11
530.0664251891624
 21
566.849652556648
 31
0.0
  0
ARC
  5
942
330
2
100
AcDbEntity
  8
0
100
AcDbCircle
 10
527.4921451891627
 20
588.3066225566479
 30
0.0
 40
10.0
100
AcDbArc
 50
90.0
 51
164.004168
  0
ARC
  5
943
330
2
100
AcDbEntity
  8
0
100
AcDbCircle
 10
537.8002201891625
 20
601.306622556648
 30
0.0
 40
3.0
100
AcDbArc
 50
270.0
 51
358.999924
  0
ARC
  5
944
330
2
100
AcDbEntity
  8
0
100
AcDbCircle
 10
537.7126341891624
 20
596.2810485566479
 30
0.0
 40
3.0
100
AcDbArc
 50
339.774933
 51
358.9999999999998
  0
LINE
  5
945
330
2
100
AcDbEntity
  8
0
100
AcDbLine
 10
517.7327151891624
 20
590.5509455566479
 30
0.0
 11
517.8793211891623
 21
591.062298556648
 31
0.0
  0
ARC
  5
947
330
2
100
AcDbEntity
  8
0
100
AcDbCircle
 10
520.6830321891624
 20
570.3066225566479
 30
0.0
 40
10.0
100
AcDbArc
 50
270.0
 51
339.7751459999999
  0
LINE
  5
948
330
2
100
AcDbEntity
  8
0
100
AcDbLine
 10
503.6560241891622
 20
583.3066225566479
 30
0.0
 11
508.1199221891624
 21
583.3066225566479
 31
0.0
  0
ARC
  5
949
330
2
100
AcDbEntity
  8
0
100
AcDbCircle
 10
511.6560241891623
 20
580.306622556648
 30
0.0
 40
7.5
100
AcDbArc
 50
156.421822
 51
58.19055199999994
  0
ARC
  5
94A
330
2
100
AcDbEntity
  8
0
100
AcDbCircle
 10
493.5138731891623
 20
587.3066225566479
 30
0.0
 40
10.0
100
AcDbArc
 50
270.0
 51
315.0000000000002
  0
LINE
  5
94B
330
2
100
AcDbEntity
  8
0
100
AcDbLine
 10
500.5849491891624
 20
580.235577556648
 30
0.0
 11
503.6560241891622
 21
583.3066225566479
 31
0.0
  0
LINE
  5
97D
330
2
100
AcDbEntity
  8
0
100
AcDbLine
 10
1195.732313538541
 20
306.7139315925563
 30
0.0
 11
1195.732313538541
 21
183.6159355925563
 31
0.0
  0
LINE
  5
97E
330
2
100
AcDbEntity
  8
0
100
AcDbLine
 10
1102.932325538541
 20
226.6649355925563
 30
0.0
 11
1102.932325538541
 21
206.6649355925563
 31
0.0
  0
ARC
  5
97F
330
2
100
AcDbEntity
  8
0
100
AcDbCircle
 10
1116.532301538541
 20
218.3731335925563
 30
0.0
 40
9.0
100
AcDbArc
 50
311.8104209999999
 51
59.13299199999993
  0
ARC
  5
980
330
2
100
AcDbEntity
  8
0
100
AcDbCircle
 10
1116.43232553854
 20
218.1649355925563
 30
0.0
 40
1.5
100
AcDbArc
 50
270.0
 51
90.0
  0
LINE
  5
981
330
2
100
AcDbEntity
  8
0
100
AcDbLine
 10
1109.43232553854
 20
219.6649355925563
 30
0.0
 11
1109.43232553854
 21
206.6649355925563
 31
0.0
  0
LINE
  5
982
330
2
100
AcDbEntity
  8
0
100
AcDbLine
 10
1096.93232553854
 20
219.6649355925563
 30
0.0
 11
1096.93232553854
 21
206.6649355925563
 31
0.0
  0
LINE
  5
983
330
2
100
AcDbEntity
  8
0
100
AcDbLine
 10
1089.932325538541
 20
219.6649355925563
 30
0.0
 11
1089.932325538541
 21
206.6649355925563
 31
0.0
  0
ARC
  5
984
330
2
100
AcDbEntity
  8
0
100
AcDbCircle
 10
1073.79090653854
 20
215.6649355925563
 30
0.0
 40
4.0
100
AcDbArc
 50
90.0
 51
135.546204
  0
ARC
  5
985
330
2
100
AcDbEntity
  8
0
100
AcDbCircle
 10
1074.932325538541
 20
214.1908975925563
 30
0.0
 40
13.0
100
AcDbArc
 50
112.352501
 51
215.374496
  0
ARC
  5
986
330
2
100
AcDbEntity
  8
0
100
AcDbCircle
 10
1123.732313538541
 20
224.1649355925563
 30
0.0
 40
38.285721
100
AcDbArc
 50
270.0
 51
12.73990000000009
  0
ARC
  5
987
330
2
100
AcDbEntity
  8
0
100
AcDbCircle
 10
1123.732313538541
 20
224.1649355925563
 30
0.0
 40
34.0
100
AcDbArc
 50
270.0
 51
12.73990000000009
  0
LINE
  5
988
330
2
100
AcDbEntity
  8
CENTER
100
AcDbLine
 10
1093.732313538541
 20
398.0083345925562
 30
0.0
 11
1093.732313538541
 21
117.3135945925562
 31
0.0
  0
ARC
  5
989
330
2
100
AcDbEntity
  8
0
100
AcDbCircle
 10
1193.232313538541
 20
183.6159355925563
 30
0.0
 40
2.5
100
AcDbArc
 50
270.0
 51
0.0
  0
LINE
  5
98A
330
2
100
AcDbEntity
  8
0
100
AcDbLine
 10
1220.232313538541
 20
162.6650535925563
 30
0.0
 11
1193.732313538541
 21
162.6650535925563
 31
0.0
  0
LINE
  5
98B
330
2
100
AcDbEntity
  8
0
100
AcDbLine
 10
1059.97492753854
 20
154.6649355925563
 30
0.0
 11
1127.489729538541
 21
154.6649355925563
 31
0.0
  0
LINE
  5
98C
330
2
100
AcDbEntity
  8
0
100
AcDbLine
 10
1058.732313538541
 20
153.8623745925562
 30
0.0
 11
1058.732313538541
 21
150.3725535925563
 31
0.0
  0
ARC
  5
98D
330
2
100
AcDbEntity
  8
0
100
AcDbCircle
 10
1059.97492753854
 20
151.6649355925562
 30
0.0
 40
3.0
100
AcDbArc
 50
90.0
 51
134.999496
  0
LINE
  5
98E
330
2
100
AcDbEntity
  8
0
100
AcDbLine
 10
1089.932325538541
 20
206.6649355925563
 30
0.0
 11
1096.93232553854
 21
206.6649355925563
 31
0.0
  0
LINE
  5
98F
330
2
100
AcDbEntity
  8
0
100
AcDbLine
 10
1123.732313538541
 20
185.8792145925562
 30
0.0
 11
1063.732313538541
 21
185.8792145925562
 31
0.0
  0
LINE
  5
990
330
2
100
AcDbEntity
  8
0
100
AcDbLine
 10
1123.732313538541
 20
190.1649355925562
 30
0.0
 11
1063.732313538541
 21
190.1649355925562
 31
0.0
  0
LINE
  5
991
330
2
100
AcDbEntity
  8
0
100
AcDbLine
 10
1064.332319538541
 20
206.6649355925563
 30
0.0
 11
1083.93232553854
 21
206.6649355925563
 31
0.0
  0
LINE
  5
992
330
2
100
AcDbEntity
  8
0
100
AcDbLine
 10
1071.371900538541
 20
208.6649355925563
 30
0.0
 11
1077.43232553854
 21
208.6649355925563
 31
0.0
  0
ARC
  5
993
330
2
100
AcDbEntity
  8
0
100
AcDbCircle
 10
1071.371900538541
 20
209.6649355925563
 30
0.0
 40
1.0
100
AcDbArc
 50
220.530197
 51
270.0
  0
ARC
  5
994
330
2
100
AcDbEntity
  8
0
100
AcDbCircle
 10
1075.93232553854
 20
213.5639145925563
 30
0.0
 40
7.0
100
AcDbArc
 50
135.5460969999998
 51
220.5290069999999
  0
LINE
  5
995
330
2
100
AcDbEntity
  8
0
100
AcDbLine
 10
1077.43232553854
 20
216.6649355925563
 30
0.0
 11
1083.93232553854
 21
216.6649355925563
 31
0.0
  0
LINE
  5
996
330
2
100
AcDbEntity
  8
0
100
AcDbLine
 10
1077.43232553854
 20
216.6649355925563
 30
0.0
 11
1077.43232553854
 21
208.6649355925563
 31
0.0
  0
LINE
  5
997
330
2
100
AcDbEntity
  8
0
100
AcDbLine
 10
1083.93232553854
 20
216.6649355925563
 30
0.0
 11
1083.93232553854
 21
206.6649355925563
 31
0.0
  0
LINE
  5
998
330
2
100
AcDbEntity
  8
0
100
AcDbLine
 10
1102.932325538541
 20
206.6649355925563
 30
0.0
 11
1109.43232553854
 21
206.6649355925563
 31
0.0
  0
LINE
  5
999
330
2
100
AcDbEntity
  8
0
100
AcDbLine
 10
1111.93232553854
 20
216.6649355925563
 30
0.0
 11
1117.93232553854
 21
206.6649355925563
 31
0.0
  0
LINE
  5
99A
330
2
100
AcDbEntity
  8
0
100
AcDbLine
 10
1111.93232553854
 20
216.6649355925563
 30
0.0
 11
1116.43232553854
 21
216.6649355925563
 31
0.0
  0
LINE
  5
99B
330
2
100
AcDbEntity
  8
0
100
AcDbLine
 10
1117.93232553854
 20
206.6649355925563
 30
0.0
 11
1125.532301538541
 21
206.6649355925563
 31
0.0
  0
LINE
  5
99C
330
2
100
AcDbEntity
  8
0
100
AcDbLine
 10
1125.532301538541
 20
206.6649355925563
 30
0.0
 11
1122.53230153854
 21
211.6649355925563
 31
0.0
  0
LINE
  5
99D
330
2
100
AcDbEntity
  8
0
100
AcDbLine
 10
1183.732313538541
 20
178.6159355925563
 30
0.0
 11
1183.732313538541
 21
129.6649345925563
 31
0.0
  0
LINE
  5
99F
330
2
100
AcDbEntity
  8
HIDS
100
AcDbLine
 10
1146.232313538541
 20
149.6649355925562
 30
0.0
 11
1146.232313538541
 21
129.6649345925563
 31
0.0
  0
LINE
  5
9A0
330
2
100
AcDbEntity
  8
CENTER
100
AcDbLine
 10
1153.732313538541
 20
161.8323735925563
 30
0.0
 11
1153.732313538541
 21
118.8227145925563
 31
0.0
  0
LINE
  5
9A1
330
2
100
AcDbEntity
  8
0
100
AcDbLine
 10
1132.26792753854
 20
151.1293935925562
 30
0.0
 11
1129.610914538541
 21
153.7862535925562
 31
0.0
  0
LINE
  5
9A2
330
2
100
AcDbEntity
  8
0
100
AcDbLine
 10
1128.732313538541
 20
153.8623745925562
 30
0.0
 11
1128.732313538541
 21
150.3725535925563
 31
0.0
  0
ARC
  5
9A3
330
2
100
AcDbEntity
  8
0
100
AcDbCircle
 10
1135.803327538541
 20
154.6649355925563
 30
0.0
 40
5.0
100
AcDbArc
 50
224.999893
 51
270.0
  0
ARC
  5
9A4
330
2
100
AcDbEntity
  8
0
100
AcDbCircle
 10
1127.489729538541
 20
151.6649355925562
 30
0.0
 40
3.0
100
AcDbArc
 50
44.99969100000007
 51
90.0
  0
LINE
  5
9A5
330
2
100
AcDbEntity
  8
HIDS
100
AcDbLine
 10
1161.232313538541
 20
149.6649355925562
 30
0.0
 11
1161.232313538541
 21
129.6649345925563
 31
0.0
  0
LINE
  5
9A6
330
2
100
AcDbEntity
  8
0
100
AcDbLine
 10
1169.732313538541
 20
146.7412535925563
 30
0.0
 11
1169.732313538541
 21
129.6649345925563
 31
0.0
  0
ARC
  5
9A7
330
2
100
AcDbEntity
  8
0
100
AcDbCircle
 10
1193.732313538541
 20
152.6650155925563
 30
0.0
 40
10.0
100
AcDbArc
 50
90.0
 51
180.0
  0
ARC
  5
9A8
330
2
100
AcDbEntity
  8
0
100
AcDbCircle
 10
1186.232313538541
 20
178.6159355925563
 30
0.0
 40
2.5
100
AcDbArc
 50
90.0
 51
180.0
  0
LINE
  5
9A9
330
2
100
AcDbEntity
  8
0
100
AcDbLine
 10
1186.232313538541
 20
181.1159355925563
 30
0.0
 11
1193.232313538541
 21
181.1159355925563
 31
0.0
  0
ARC
  5
9BC
330
2
100
AcDbEntity
  8
0
100
AcDbCircle
 10
1193.232313538541
 20
306.7139315925563
 30
0.0
 40
2.5
100
AcDbArc
 50
0.0
 51
90.0
  0
LINE
  5
9BD
330
2
100
AcDbEntity
  8
0
100
AcDbLine
 10
1220.232313538541
 20
327.6650575925562
 30
0.0
 11
1193.732313538541
 21
327.6650575925562
 31
0.0
  0
LINE
  5
9BE
330
2
100
AcDbEntity
  8
CENTER
100
AcDbLine
 10
1496.232313538541
 20
245.1649355925563
 30
0.0
 11
1167.581495538541
 21
245.1649355925563
 31
0.0
  0
LINE
  5
9BF
330
2
100
AcDbEntity
  8
0
100
AcDbLine
 10
1183.732313538541
 20
311.7139315925563
 30
0.0
 11
1183.732313538541
 21
356.6649355925563
 31
0.0
  0
LINE
  5
9C0
330
2
100
AcDbEntity
  8
0
100
AcDbLine
 10
1086.432325538541
 20
226.6649355925563
 30
0.0
 11
1100.43232553854
 21
226.6649355925563
 31
0.0
  0
LINE
  5
9C1
330
2
100
AcDbEntity
  8
0
100
AcDbLine
 10
1072.270124538541
 20
226.6649355925563
 30
0.0
 11
1083.93232553854
 21
226.6649355925563
 31
0.0
  0
LINE
  5
9C2
330
2
100
AcDbEntity
  8
0
100
AcDbLine
 10
1073.79090653854
 20
219.6649355925563
 30
0.0
 11
1083.93232553854
 21
219.6649355925563
 31
0.0
  0
ARC
  5
9C3
330
2
100
AcDbEntity
  8
0
100
AcDbCircle
 10
1072.270124538541
 20
220.6649355925563
 30
0.0
 40
6.0
100
AcDbArc
 50
90.0
 51
112.352699
  0
LINE
  5
9C4
330
2
100
AcDbEntity
  8
0
100
AcDbLine
 10
1086.432325538541
 20
226.6649355925563
 30
0.0
 11
1086.432325538541
 21
219.6649355925563
 31
0.0
  0
LINE
  5
9C5
330
2
100
AcDbEntity
  8
0
100
AcDbLine
 10
1086.432325538541
 20
219.6649355925563
 30
0.0
 11
1089.932325538541
 21
219.6649355925563
 31
0.0
  0
LINE
  5
9C6
330
2
100
AcDbEntity
  8
0
100
AcDbLine
 10
1083.93232553854
 20
219.6649355925563
 30
0.0
 11
1083.93232553854
 21
226.6649355925563
 31
0.0
  0
LINE
  5
9C7
330
2
100
AcDbEntity
  8
0
100
AcDbLine
 10
1119.097517538541
 20
226.6649355925563
 30
0.0
 11
1102.932325538541
 21
226.6649355925563
 31
0.0
  0
LINE
  5
9C8
330
2
100
AcDbEntity
  8
0
100
AcDbLine
 10
1096.93232553854
 20
219.6649355925563
 30
0.0
 11
1100.43232553854
 21
219.6649355925563
 31
0.0
  0
LINE
  5
9C9
330
2
100
AcDbEntity
  8
0
100
AcDbLine
 10
1100.43232553854
 20
226.6649355925563
 30
0.0
 11
1100.43232553854
 21
219.6649355925563
 31
0.0
  0
LINE
  5
9CA
330
2
100
AcDbEntity
  8
0
100
AcDbLine
 10
1109.43232553854
 20
219.6649355925563
 30
0.0
 11
1116.43232553854
 21
219.6649355925563
 31
0.0
  0
ARC
  5
9CB
330
2
100
AcDbEntity
  8
0
100
AcDbCircle
 10
1119.097517538541
 20
222.6649355925563
 30
0.0
 40
4.0
100
AcDbArc
 50
59.1330990000001
 51
90.0
  0
ARC
  5
9CC
330
2
100
AcDbEntity
  8
0
100
AcDbCircle
 10
1093.732313538541
 20
294.6649355925563
 30
0.0
 40
20.0
100
AcDbArc
 50
197.4575959999999
 51
162.542404
  0
LINE
  5
9CD
330
2
100
AcDbEntity
  8
0
100
AcDbLine
 10
1070.732313538541
 20
288.6650115925562
 30
0.0
 11
1070.732313538541
 21
300.6650115925562
 31
0.0
  0
LINE
  5
9CE
330
2
100
AcDbEntity
  8
0
100
AcDbLine
 10
1078.732313538541
 20
288.6649965925562
 30
0.0
 11
1078.732313538541
 21
300.6649965925562
 31
0.0
  0
LINE
  5
9CF
330
2
100
AcDbEntity
  8
0
100
AcDbLine
 10
1070.732313538541
 20
288.6650115925562
 30
0.0
 11
1078.732313538541
 21
288.6649965925562
 31
0.0
  0
LINE
  5
9D0
330
2
100
AcDbEntity
  8
0
100
AcDbLine
 10
1070.732313538541
 20
300.6650115925562
 30
0.0
 11
1078.732313538541
 21
300.6649965925562
 31
0.0
  0
LINE
  5
9D1
330
2
100
AcDbEntity
  8
0
100
AcDbLine
 10
1178.732313538541
 20
291.6649355925563
 30
0.0
 11
1178.732313538541
 21
239.6649355925563
 31
0.0
  0
LINE
  5
9D2
330
2
100
AcDbEntity
  8
0
100
AcDbLine
 10
1156.89533853854
 20
231.6627985925563
 30
0.0
 11
1140.271925538541
 21
305.1871365925563
 31
0.0
  0
LINE
  5
9D3
330
2
100
AcDbEntity
  8
0
100
AcDbLine
 10
1161.07551353854
 20
232.6078975925562
 30
0.0
 11
1144.452100538541
 21
306.1322505925563
 31
0.0
  0
LINE
  5
9D4
330
2
100
AcDbEntity
  8
0
100
AcDbLine
 10
1186.232313538541
 20
309.2139315925563
 30
0.0
 11
1193.232313538541
 21
309.2139315925563
 31
0.0
  0
ARC
  5
9D5
330
2
100
AcDbEntity
  8
0
100
AcDbCircle
 10
1186.232313538541
 20
311.7139315925563
 30
0.0
 40
2.5
100
AcDbArc
 50
180.0
 51
270.0
  0
ARC
  5
9D6
330
2
100
AcDbEntity
  8
0
100
AcDbCircle
 10
1125.546705538541
 20
371.6649355925563
 30
0.0
 40
10.0
100
AcDbArc
 50
54.65969799999986
 51
90.0
  0
LINE
  5
9D7
330
2
100
AcDbEntity
  8
0
100
AcDbLine
 10
1125.546705538541
 20
381.6649195925563
 30
0.0
 11
1061.91792153854
 21
381.6649195925563
 31
0.0
  0
LINE
  5
9D8
330
2
100
AcDbEntity
  8
0
100
AcDbLine
 10
1186.93189853854
 20
402.1649195925562
 30
0.0
 11
1186.93189853854
 21
342.1649355925563
 31
0.0
  0
LINE
  5
9D9
330
2
100
AcDbEntity
  8
0
100
AcDbLine
 10
1183.734327538541
 20
402.1649195925562
 30
0.0
 11
1183.731885538541
 21
342.1649355925563
 31
0.0
  0
LINE
  5
9DA
330
2
100
AcDbEntity
  8
0
100
AcDbLine
 10
1179.516737538541
 20
345.6542535925563
 30
0.0
 11
1131.330915538541
 21
379.8223295925563
 31
0.0
  0
LINE
  5
9DB
330
2
100
AcDbEntity
  8
0
100
AcDbLine
 10
1178.732313538541
 20
361.6649355925563
 30
0.0
 11
1157.89314053854
 21
361.6649355925563
 31
0.0
  0
ARC
  5
9DC
330
2
100
AcDbEntity
  8
0
100
AcDbCircle
 10
1157.89314053854
 20
364.6649355925563
 30
0.0
 40
3.0
100
AcDbArc
 50
234.659897
 51
270.0
  0
LINE
  5
9DD
330
2
100
AcDbEntity
  8
0
100
AcDbLine
 10
1188.931898538541
 20
359.8649325925562
 30
0.0
 11
1188.931898538541
 21
344.4649385925564
 31
0.0
  0
LINE
  5
9DE
330
2
100
AcDbEntity
  8
0
100
AcDbLine
 10
1194.23188553854
 20
357.8549375925562
 30
0.0
 11
1194.23188553854
 21
346.4749325925562
 31
0.0
  0
ARC
  5
9DF
330
2
100
AcDbEntity
  8
0
100
AcDbCircle
 10
1173.732313538541
 20
337.4969815925563
 30
0.0
 40
10.0
100
AcDbArc
 50
0.0
 51
54.65949999999998
  0
ARC
  5
9E0
330
2
100
AcDbEntity
  8
0
100
AcDbCircle
 10
1193.732313538541
 20
337.6650115925563
 30
0.0
 40
10.0
100
AcDbArc
 50
180.0
 51
270.0
  0
LINE
  5
9E1
330
2
100
AcDbEntity
  8
0
100
AcDbLine
 10
1186.93189853854
 20
342.1649355925563
 30
0.0
 11
1183.731885538541
 21
342.1649355925563
 31
0.0
  0
LINE
  5
9E2
330
2
100
AcDbEntity
  8
0
100
AcDbLine
 10
1188.931898538541
 20
344.4649385925564
 30
0.0
 11
1186.93189853854
 21
344.4649385925564
 31
0.0
  0
LINE
  5
9E3
330
2
100
AcDbEntity
  8
0
100
AcDbLine
 10
1192.73188553854
 20
348.7277095925563
 30
0.0
 11
1188.931898538541
 21
348.7277095925563
 31
0.0
  0
ARC
  5
9E4
330
2
100
AcDbEntity
  8
0
100
AcDbCircle
 10
1192.73188553854
 20
347.2277095925563
 30
0.0
 40
1.5
100
AcDbArc
 50
0.0
 51
90.0
  0
ARC
  5
9E5
330
2
100
AcDbEntity
  8
0
100
AcDbCircle
 10
1192.73188553854
 20
346.4749325925562
 30
0.0
 40
1.5
100
AcDbArc
 50
270.0
 51
0.0
  0
ARC
  5
9E6
330
2
100
AcDbEntity
  8
0
100
AcDbCircle
 10
1192.73188553854
 20
350.2277095925563
 30
0.0
 40
1.5
100
AcDbArc
 50
270.0
 51
0.0
  0
LINE
  5
9E7
330
2
100
AcDbEntity
  8
0
100
AcDbLine
 10
1192.73188553854
 20
344.9749325925562
 30
0.0
 11
1188.931898538541
 21
344.9749325925562
 31
0.0
  0
ARC
  5
9E8
330
2
100
AcDbEntity
  8
0
100
AcDbCircle
 10
1178.732313538541
 20
356.6649355925563
 30
0.0
 40
5.0
100
AcDbArc
 50
0.0
 51
90.0
  0
LINE
  5
9E9
330
2
100
AcDbEntity
  8
0
100
AcDbLine
 10
1188.931898538541
 20
359.8649325925562
 30
0.0
 11
1186.93189853854
 21
359.8649325925562
 31
0.0
  0
ARC
  5
9EA
330
2
100
AcDbEntity
  8
0
100
AcDbCircle
 10
1192.73188553854
 20
357.8549375925562
 30
0.0
 40
1.5
100
AcDbArc
 50
0.0
 51
90.0
  0
ARC
  5
9EB
330
2
100
AcDbEntity
  8
0
100
AcDbCircle
 10
1192.73188553854
 20
357.1021605925562
 30
0.0
 40
1.5
100
AcDbArc
 50
270.0
 51
0.0
  0
ARC
  5
9EC
330
2
100
AcDbEntity
  8
0
100
AcDbCircle
 10
1192.73188553854
 20
354.1021605925562
 30
0.0
 40
1.5
100
AcDbArc
 50
0.0
 51
90.0
  0
LINE
  5
9ED
330
2
100
AcDbEntity
  8
0
100
AcDbLine
 10
1192.73188553854
 20
355.6021605925562
 30
0.0
 11
1188.931898538541
 21
355.6021605925562
 31
0.0
  0
LINE
  5
9EE
330
2
100
AcDbEntity
  8
0
100
AcDbLine
 10
1192.73188553854
 20
359.3549375925562
 30
0.0
 11
1188.931898538541
 21
359.3549375925562
 31
0.0
  0
LINE
  5
9EF
330
2
100
AcDbEntity
  8
HIDS
100
AcDbLine
 10
1186.93189853854
 20
376.1649355925563
 30
0.0
 11
1183.731885538541
 21
376.1649355925563
 31
0.0
  0
LINE
  5
9F0
330
2
100
AcDbEntity
  8
CENTER
100
AcDbLine
 10
1194.29572853854
 20
386.1649195925563
 30
0.0
 11
1176.198133538541
 21
386.1649195925563
 31
0.0
  0
LINE
  5
9F1
330
2
100
AcDbEntity
  8
0
100
AcDbLine
 10
1186.93189853854
 20
402.1649195925562
 30
0.0
 11
1183.734327538541
 21
402.1649195925562
 31
0.0
  0
LINE
  5
9F2
330
2
100
AcDbEntity
  8
HIDS
100
AcDbLine
 10
1186.93189853854
 20
396.1649195925563
 30
0.0
 11
1183.731885538541
 21
396.1649195925563
 31
0.0
  0
LINE
  5
A7D
330
2
100
AcDbEntity
  8
0
100
AcDbLine
 10
320.3928411891622
 20
565.306744556648
 30
0.0
 11
159.2533141891624
 21
565.3067445566481
 31
0.0
  0
LINE
  5
A7E
330
2
100
AcDbEntity
  8
0
100
AcDbLine
 10
322.1559021891624
 20
622.306744556648
 30
0.0
 11
158.1559021891623
 21
622.3067445566481
 31
0.0
  0
LINE
  5
A7F
330
2
100
AcDbEntity
  8
0
100
AcDbLine
 10
160.9760931891624
 20
611.8976865566481
 30
0.0
 11
319.4815251891623
 21
611.897686556648
 31
0.0
  0
LINE
  5
A80
330
2
100
AcDbEntity
  8
0
100
AcDbLine
 10
161.3355291891623
 20
597.9858215566481
 30
0.0
 11
319.1220891891624
 21
597.985821556648
 31
0.0
  0
LINE
  5
A81
330
2
100
AcDbEntity
  8
0
100
AcDbLine
 10
160.8711121891622
 20
588.4975405566481
 30
0.0
 11
319.5864441891624
 21
588.4975405566479
 31
0.0
  0
LINE
  5
A82
330
2
100
AcDbEntity
  8
0
100
AcDbLine
 10
160.6079291891624
 20
580.7775695566481
 30
0.0
 11
319.8496891891625
 21
580.777569556648
 31
0.0
  0
LINE
  5
A83
330
2
100
AcDbEntity
  8
0
100
AcDbLine
 10
160.3769111891622
 20
572.2918515566481
 30
0.0
 11
320.0807681891624
 21
572.291851556648
 31
0.0
  0
LINE
  5
A84
330
2
100
AcDbEntity
  8
0
100
AcDbLine
 10
160.0327331891624
 20
568.548992556648
 30
0.0
 11
320.4247621891625
 21
568.5489925566479
 31
0.0
  0
LINE
  5
A85
330
2
100
AcDbEntity
  8
0
100
AcDbLine
 10
159.5987121891623
 20
737.2299925566481
 30
0.0
 11
320.7131531891625
 21
737.229992556648
 31
0.0
  0
LINE
  5
A86
330
2
100
AcDbEntity
  8
0
100
AcDbLine
 10
159.8649481891623
 20
738.7399415566481
 30
0.0
 11
320.4469181891625
 21
738.739941556648
 31
0.0
  0
LINE
  5
A87
330
2
100
AcDbEntity
  8
0
100
AcDbLine
 10
322.1559021891624
 20
678.3067135566479
 30
0.0
 11
158.1559021891623
 21
678.3067135566481
 31
0.0
  0
LINE
  5
A88
330
2
100
AcDbEntity
  8
0
100
AcDbLine
 10
160.9760931891624
 20
688.7157715566481
 30
0.0
 11
319.4815251891623
 21
688.715771556648
 31
0.0
  0
LINE
  5
A89
330
2
100
AcDbEntity
  8
0
100
AcDbLine
 10
161.3355291891623
 20
702.6276365566482
 30
0.0
 11
319.1220891891624
 21
702.6276365566481
 31
0.0
  0
LINE
  5
A8A
330
2
100
AcDbEntity
  8
0
100
AcDbLine
 10
160.8711121891622
 20
712.1159175566481
 30
0.0
 11
319.5864441891624
 21
712.115917556648
 31
0.0
  0
LINE
  5
A8B
330
2
100
AcDbEntity
  8
0
100
AcDbLine
 10
160.6079291891624
 20
719.8358885566481
 30
0.0
 11
319.8496891891625
 21
719.835888556648
 31
0.0
  0
LINE
  5
A8C
330
2
100
AcDbEntity
  8
0
100
AcDbLine
 10
160.3769111891622
 20
728.3216065566481
 30
0.0
 11
320.0807681891624
 21
728.321606556648
 31
0.0
  0
LINE
  5
A8D
330
2
100
AcDbEntity
  8
0
100
AcDbLine
 10
160.0327331891624
 20
732.0644345566481
 30
0.0
 11
320.4247621891625
 21
732.064434556648
 31
0.0
  0
LINE
  5
A8E
330
2
100
AcDbEntity
  8
0
100
AcDbLine
 10
160.0249211891626
 20
735.023876556648
 30
0.0
 11
320.4326971891626
 21
735.0238765566479
 31
0.0
  0
LINE
  5
A8F
330
2
100
AcDbEntity
  8
0
100
AcDbLine
 10
160.0147281891625
 20
739.5893065566481
 30
0.0
 11
320.2971991891625
 21
739.589306556648
 31
0.0
  0
LINE
  5
A90
330
2
100
AcDbEntity
  8
0
100
AcDbLine
 10
322.1559021891624
 20
650.3066225566479
 30
0.0
 11
322.1559021891624
 21
622.306744556648
 31
0.0
  0
LINE
  5
A91
330
2
100
AcDbEntity
  8
0
100
AcDbLine
 10
356.4560121891625
 20
658.0066345566479
 30
0.0
 11
356.4560121891625
 21
642.6066105566481
 31
0.0
  0
ARC
  5
A92
330
2
100
AcDbEntity
  8
0
100
AcDbCircle
 10
352.6560241891624
 20
644.6166195566481
 30
0.0
 40
1.5
100
AcDbArc
 50
180.0
 51
270.0
  0
LINE
  5
A93
330
2
100
AcDbEntity
  8
0
100
AcDbLine
 10
358.4560121891625
 20
666.3066225566479
 30
0.0
 11
358.4560121891625
 21
634.306622556648
 31
0.0
  0
LINE
  5
A94
330
2
100
AcDbEntity
  8
0
100
AcDbLine
 10
361.6560241891623
 20
666.3066225566479
 30
0.0
 11
361.6560241891623
 21
634.306622556648
 31
0.0
  0
LINE
  5
A95
330
2
100
AcDbEntity
  8
0
100
AcDbLine
 10
361.6560241891623
 20
635.306622556648
 30
0.0
 11
361.6560241891623
 21
665.306622556648
 31
0.0
  0
LINE
  5
A96
330
2
100
AcDbEntity
  8
0
100
AcDbLine
 10
388.4560121891625
 20
665.306622556648
 30
0.0
 11
388.4560121891625
 21
635.306622556648
 31
0.0
  0
LINE
  5
A97
330
2
100
AcDbEntity
  8
0
100
AcDbLine
 10
361.6560241891623
 20
635.306622556648
 30
0.0
 11
361.6560241891623
 21
665.306622556648
 31
0.0
  0
LINE
  5
A98
330
2
100
AcDbEntity
  8
0
100
AcDbLine
 10
416.6560241891622
 20
697.306622556648
 30
0.0
 11
416.6560241891622
 21
603.3066225566479
 31
0.0
  0
LINE
  5
A99
330
2
100
AcDbEntity
  8
0
100
AcDbLine
 10
486.6560241891622
 20
697.306622556648
 30
0.0
 11
486.6560241891622
 21
603.3066225566479
 31
0.0
  0
LINE
  5
A9A
330
2
100
AcDbEntity
  8
0
100
AcDbLine
 10
325.1559021891623
 20
733.806713556648
 30
0.0
 11
325.1559021891623
 21
566.806744556648
 31
0.0
  0
LINE
  5
A9B
330
2
100
AcDbEntity
  8
CENTER
100
AcDbLine
 10
451.6560241891623
 20
806.335339556648
 30
0.0
 11
451.6560241891623
 21
533.683514556648
 31
0.0
  0
ARC
  5
A9C
330
2
100
AcDbEntity
  8
0
100
AcDbCircle
 10
355.9992251891625
 20
707.306622556648
 30
0.0
 40
5.0
100
AcDbArc
 50
182.9999999999999
 51
270.0
  0
ARC
  5
A9D
330
2
100
AcDbEntity
  8
0
100
AcDbCircle
 10
344.9110291891624
 20
727.806622556648
 30
0.0
 40
5.0
100
AcDbArc
 50
2.999999999999909
 51
90.0
  0
LINE
  5
A9E
330
2
100
AcDbEntity
  8
0
100
AcDbLine
 10
351.0060001891623
 20
707.0448425566479
 30
0.0
 11
349.9041931891625
 21
728.0682185566479
 31
0.0
  0
LINE
  5
A9F
330
2
100
AcDbEntity
  8
0
100
AcDbLine
 10
470.7350341891624
 20
790.306622556648
 30
0.0
 11
470.7350341891624
 21
730.306622556648
 31
0.0
  0
LINE
  5
AA0
330
2
100
AcDbEntity
  8
0
100
AcDbLine
 10
474.6560241891622
 20
790.306622556648
 30
0.0
 11
474.6560241891622
 21
730.306622556648
 31
0.0
  0
LINE
  5
AA1
330
2
100
AcDbEntity
  8
0
100
AcDbLine
 10
431.6560241891623
 20
725.3066225566479
 30
0.0
 11
431.6560241891623
 21
790.306622556648
 31
0.0
  0
LINE
  5
AA2
330
2
100
AcDbEntity
  8
0
100
AcDbLine
 10
474.6560241891622
 20
790.306622556648
 30
0.0
 11
431.6560241891623
 21
790.306622556648
 31
0.0
  0
LINE
  5
AA3
330
2
100
AcDbEntity
  8
0
100
AcDbLine
 10
382.6290471891623
 20
740.306622556648
 30
0.0
 11
431.6560241891623
 21
740.306622556648
 31
0.0
  0
LINE
  5
AA4
330
2
100
AcDbEntity
  8
0
100
AcDbLine
 10
429.1560241891622
 20
725.3066225566479
 30
0.0
 11
474.1560241891622
 21
725.3066225566479
 31
0.0
  0
LINE
  5
AA5
330
2
100
AcDbEntity
  8
0
100
AcDbLine
 10
474.1560241891622
 20
723.306622556648
 30
0.0
 11
474.1560241891622
 21
725.3066225566479
 31
0.0
  0
LINE
  5
AA6
330
2
100
AcDbEntity
  8
0
100
AcDbLine
 10
470.7350341891624
 20
730.306622556648
 30
0.0
 11
474.6560241891622
 21
730.306622556648
 31
0.0
  0
LINE
  5
AA7
330
2
100
AcDbEntity
  8
0
100
AcDbLine
 10
471.6560241891622
 20
725.3066225566479
 30
0.0
 11
471.6560241891622
 21
730.306622556648
 31
0.0
  0
LINE
  5
AA8
330
2
100
AcDbEntity
  8
0
100
AcDbLine
 10
429.1560241891622
 20
723.306622556648
 30
0.0
 11
429.1560241891622
 21
725.3066225566479
 31
0.0
  0
LINE
  5
AA9
330
2
100
AcDbEntity
  8
0
100
AcDbLine
 10
362.5122861891625
 20
699.358990556648
 30
0.0
 11
361.9472231891625
 21
666.988049556648
 31
0.0
  0
ARC
  5
AAA
330
2
100
AcDbEntity
  8
0
100
AcDbCircle
 10
395.1921571891625
 20
707.306622556648
 30
0.0
 40
10.0
100
AcDbArc
 50
90.0
 51
164.004181
  0
ARC
  5
AAB
330
2
100
AcDbEntity
  8
0
100
AcDbCircle
 10
375.8199041891625
 20
712.3066225566479
 30
0.0
 40
10.0
100
AcDbArc
 50
270.0
 51
344.0041660000001
  0
ARC
  5
AAC
330
2
100
AcDbEntity
  8
0
100
AcDbCircle
 10
391.6560241891624
 20
720.3066225566479
 30
0.0
 40
7.5
100
AcDbArc
 50
336.4218290000001
 51
238.1905520000001
  0
ARC
  5
AAE
330
2
100
AcDbEntity
  8
0
100
AcDbCircle
 10
409.7981451891625
 20
713.306622556648
 30
0.0
 40
10.0
100
AcDbArc
 50
90.0
 51
135.0000000000001
  0
LINE
  5
AB0
330
2
100
AcDbEntity
  8
0
100
AcDbLine
 10
402.7270691891624
 20
720.3776975566479
 30
0.0
 11
399.6560241891623
 21
717.3066225566479
 31
0.0
  0
LINE
  5
AB1
330
2
100
AcDbEntity
  8
0
100
AcDbLine
 10
399.6560241891623
 20
717.3066225566479
 30
0.0
 11
395.1921571891623
 21
717.3066225566479
 31
0.0
  0
LINE
  5
AB2
330
2
100
AcDbEntity
  8
0
100
AcDbLine
 10
385.5793031891624
 20
710.062298556648
 30
0.0
 11
385.4327581891623
 21
709.550945556648
 31
0.0
  0
LINE
  5
AB3
330
2
100
AcDbEntity
  8
0
100
AcDbLine
 10
362.7844421891625
 20
705.3694275566479
 30
0.0
 11
373.2456241891625
 21
733.7636225566479
 31
0.0
  0
ARC
  5
AB4
330
2
100
AcDbEntity
  8
0
100
AcDbCircle
 10
382.6290471891624
 20
730.306622556648
 30
0.0
 40
10.0
100
AcDbArc
 50
90.0
 51
159.775101
  0
ARC
  5
AB5
330
2
100
AcDbEntity
  8
0
100
AcDbCircle
 10
365.5118591891627
 20
699.3066225566479
 30
0.0
 40
3.0
100
AcDbArc
 50
90.0
 51
178.999939
  0
ARC
  5
AB6
330
2
100
AcDbEntity
  8
0
100
AcDbCircle
 10
365.5994451891623
 20
704.3322265566479
 30
0.0
 40
3.0
100
AcDbArc
 50
159.7749
 51
179.0000000000001
  0
LINE
  5
AB7
330
2
100
AcDbEntity
  8
0
100
AcDbLine
 10
362.5999941891625
 20
704.3846255566479
 30
0.0
 11
362.5637391891626
 21
702.306622556648
 31
0.0
  0
LINE
  5
AB8
330
2
100
AcDbEntity
  8
0
100
AcDbLine
 10
366.6560241891623
 20
670.3066225566479
 30
0.0
 11
388.4560121891625
 21
670.3066225566479
 31
0.0
  0
ARC
  5
AB9
330
2
100
AcDbEntity
  8
0
100
AcDbCircle
 10
366.6560241891624
 20
665.306622556648
 30
0.0
 40
5.0
100
AcDbArc
 50
90.0
 51
180.0
  0
ARC
  5
ABA
330
2
100
AcDbEntity
  8
0
100
AcDbCircle
 10
352.6560241891624
 20
655.996624556648
 30
0.0
 40
1.5
100
AcDbArc
 50
90.0
 51
180.0
  0
LINE
  5
ABB
330
2
100
AcDbEntity
  8
HIDS
100
AcDbLine
 10
358.4560121891625
 20
660.306622556648
 30
0.0
 11
361.6560241891623
 21
660.306622556648
 31
0.0
  0
LINE
  5
ABC
330
2
100
AcDbEntity
  8
0
100
AcDbLine
 10
358.4560121891625
 20
666.3066225566479
 30
0.0
 11
361.6560241891623
 21
666.3066225566479
 31
0.0
  0
LINE
  5
ABD
330
2
100
AcDbEntity
  8
0
100
AcDbLine
 10
356.4560121891625
 20
658.0066345566479
 30
0.0
 11
358.4560121891625
 21
658.0066345566479
 31
0.0
  0
LINE
  5
ABE
330
2
100
AcDbEntity
  8
0
100
AcDbLine
 10
352.6560241891623
 20
657.496624556648
 30
0.0
 11
356.4560121891625
 21
657.496624556648
 31
0.0
  0
LINE
  5
ABF
330
2
100
AcDbEntity
  8
0
100
AcDbLine
 10
352.6560241891623
 20
646.869427556648
 30
0.0
 11
356.4560121891625
 21
646.869427556648
 31
0.0
  0
ARC
  5
AC0
330
2
100
AcDbEntity
  8
0
100
AcDbCircle
 10
352.6560241891624
 20
645.369427556648
 30
0.0
 40
1.5
100
AcDbArc
 50
90.0
 51
180.0
  0
ARC
  5
AC1
330
2
100
AcDbEntity
  8
0
100
AcDbCircle
 10
352.6560241891624
 20
655.2438475566479
 30
0.0
 40
1.5
100
AcDbArc
 50
180.0
 51
270.0
  0
ARC
  5
AC2
330
2
100
AcDbEntity
  8
0
100
AcDbCircle
 10
352.6560241891624
 20
648.369427556648
 30
0.0
 40
1.5
100
AcDbArc
 50
180.0
 51
270.0
  0
ARC
  5
AC3
330
2
100
AcDbEntity
  8
0
100
AcDbCircle
 10
352.6560241891624
 20
652.243878556648
 30
0.0
 40
1.5
100
AcDbArc
 50
90.0
 51
180.0
  0
LINE
  5
AC4
330
2
100
AcDbEntity
  8
0
100
AcDbLine
 10
352.6560241891623
 20
653.7438475566479
 30
0.0
 11
356.4560121891625
 21
653.7438475566479
 31
0.0
  0
LINE
  5
AC5
330
2
100
AcDbEntity
  8
0
100
AcDbLine
 10
351.1560241891623
 20
655.996624556648
 30
0.0
 11
351.1560241891623
 21
644.6166195566481
 31
0.0
  0
LINE
  5
AC6
330
2
100
AcDbEntity
  8
0
100
AcDbLine
 10
320.1069521891625
 20
701.8013425566479
 30
0.0
 11
322.1559021891624
 21
690.179638556648
 31
0.0
  0
LINE
  5
AC7
330
2
100
AcDbEntity
  8
0
100
AcDbLine
 10
321.0655701891624
 20
727.495251556648
 30
0.0
 11
322.1559021891624
 21
721.310894556648
 31
0.0
  0
LINE
  5
AC8
330
2
100
AcDbEntity
  8
0
100
AcDbLine
 10
344.9110291891622
 20
732.8066225566479
 30
0.0
 11
325.1559021891623
 21
732.8066225566479
 31
0.0
  0
ARC
  5
AC9
330
2
100
AcDbEntity
  8
0
100
AcDbCircle
 10
320.7131531891627
 20
736.2299925566479
 30
0.0
 40
1.0
100
AcDbArc
 50
9.999206999999898
 51
90.0
  0
LINE
  5
ACA
330
2
100
AcDbEntity
  8
0
100
AcDbLine
 10
321.2820011891624
 20
738.7628905566479
 30
0.0
 11
322.0102111891624
 21
734.633068556648
 31
0.0
  0
ARC
  5
ACB
330
2
100
AcDbEntity
  8
0
100
AcDbCircle
 10
320.4469181891626
 20
737.7399415566479
 30
0.0
 40
1.0
100
AcDbArc
 50
9.999206999999898
 51
90.0
  0
ARC
  5
ACC
330
2
100
AcDbEntity
  8
0
100
AcDbCircle
 10
320.2971991891626
 20
738.589306556648
 30
0.0
 40
1.0
100
AcDbArc
 50
9.999206999999898
 51
90.0
  0
LINE
  5
ACD
330
2
100
AcDbEntity
  8
0
100
AcDbLine
 10
325.1559021891623
 20
733.806713556648
 30
0.0
 11
322.9949521891624
 21
733.806713556648
 31
0.0
  0
ARC
  5
ACE
330
2
100
AcDbEntity
  8
0
100
AcDbCircle
 10
320.4326971891627
 20
734.0238765566478
 30
0.0
 40
1.0
100
AcDbArc
 50
8.022598000000034
 51
90.0
  0
ARC
  5
ACF
330
2
100
AcDbEntity
  8
0
100
AcDbCircle
 10
320.4247621891626
 20
731.064434556648
 30
0.0
 40
1.0
100
AcDbArc
 50
7.50619500000008
 51
90.0
  0
ARC
  5
AD0
330
2
100
AcDbEntity
  8
0
100
AcDbCircle
 10
320.0807681891626
 20
727.3216065566479
 30
0.0
 40
1.0
100
AcDbArc
 50
9.999206999999898
 51
90.0
  0
LINE
  5
AD1
330
2
100
AcDbEntity
  8
0
100
AcDbLine
 10
321.4229921891624
 20
734.1634035566479
 30
0.0
 11
322.1559021891624
 21
728.962994556648
 31
0.0
  0
LINE
  5
AD2
330
2
100
AcDbEntity
  8
0
100
AcDbLine
 10
321.4162171891624
 20
731.1950805566478
 30
0.0
 11
322.1559021891624
 21
725.581249556648
 31
0.0
  0
ARC
  5
AD3
330
2
100
AcDbEntity
  8
0
100
AcDbCircle
 10
322.9949521891625
 20
734.806713556648
 30
0.0
 40
1.0
100
AcDbArc
 50
190.0000000000001
 51
270.0
  0
LINE
  5
AD4
330
2
100
AcDbEntity
  8
0
100
AcDbLine
 10
320.5713071891626
 20
711.289654556648
 30
0.0
 11
322.1559021891624
 21
702.301831556648
 31
0.0
  0
ARC
  5
AD5
330
2
100
AcDbEntity
  8
0
100
AcDbCircle
 10
319.8496891891626
 20
718.8358885566479
 30
0.0
 40
1.0
100
AcDbArc
 50
9.999206999999898
 51
90.0
  0
ARC
  5
AD6
330
2
100
AcDbEntity
  8
0
100
AcDbCircle
 10
319.5864441891625
 20
711.115917556648
 30
0.0
 40
1.0
100
AcDbArc
 50
9.999206999999898
 51
90.0
  0
LINE
  5
AD7
330
2
100
AcDbEntity
  8
0
100
AcDbLine
 10
320.8344911891625
 20
719.009594556648
 30
0.0
 11
322.1559021891624
 21
711.5144775566481
 31
0.0
  0
ARC
  5
AD8
330
2
100
AcDbEntity
  8
0
100
AcDbCircle
 10
319.1220891891625
 20
701.6276365566481
 30
0.0
 40
1.0
100
AcDbArc
 50
9.999206999999898
 51
90.0
  0
LINE
  5
AD9
330
2
100
AcDbEntity
  8
0
100
AcDbLine
 10
322.1559021891624
 20
678.3067135566479
 30
0.0
 11
322.1559021891624
 21
650.3066225566479
 31
0.0
  0
LINE
  5
ADA
330
2
100
AcDbEntity
  8
0
100
AcDbLine
 10
320.4663881891625
 20
687.8894775566481
 30
0.0
 11
322.1559021891624
 21
678.3067135566479
 31
0.0
  0
ARC
  5
ADB
330
2
100
AcDbEntity
  8
0
100
AcDbCircle
 10
319.4815251891624
 20
687.7157715566481
 30
0.0
 40
1.0
100
AcDbArc
 50
9.999206999999898
 51
90.0
  0
ARC
  5
ADC
330
2
100
AcDbEntity
  8
0
100
AcDbCircle
 10
355.9992251891625
 20
593.306622556648
 30
0.0
 40
5.0
100
AcDbArc
 50
90.0
 51
176.9999999999998
  0
ARC
  5
ADD
330
2
100
AcDbEntity
  8
0
100
AcDbCircle
 10
344.9110291891624
 20
572.806622556648
 30
0.0
 40
5.0
100
AcDbArc
 50
270.0
 51
357.0000000000001
  0
LINE
  5
ADE
330
2
100
AcDbEntity
  8
0
100
AcDbLine
 10
351.0060001891623
 20
593.568402556648
 30
0.0
 11
349.9041931891625
 21
572.5450255566479
 31
0.0
  0
LINE
  5
ADF
330
2
100
AcDbEntity
  8
0
100
AcDbLine
 10
382.6290471891623
 20
560.306622556648
 30
0.0
 11
451.6560241891623
 21
560.306622556648
 31
0.0
  0
ARC
  5
AE0
330
2
100
AcDbEntity
  8
0
100
AcDbCircle
 10
395.1921571891625
 20
593.306622556648
 30
0.0
 40
10.0
100
AcDbArc
 50
195.995832
 51
270.0
  0
LINE
  5
AE2
330
2
100
AcDbEntity
  8
0
100
AcDbLine
 10
362.7844421891625
 20
595.2438175566479
 30
0.0
 11
373.2456241891625
 21
566.849652556648
 31
0.0
  0
ARC
  5
AE3
330
2
100
AcDbEntity
  8
0
100
AcDbCircle
 10
375.8199041891625
 20
588.3066225566479
 30
0.0
 40
10.0
100
AcDbArc
 50
15.99583399999985
 51
90.0
  0
LINE
  5
AE4
330
2
100
AcDbEntity
  8
0
100
AcDbLine
 10
366.6560241891623
 20
630.306622556648
 30
0.0
 11
388.4560121891625
 21
630.306622556648
 31
0.0
  0
LINE
  5
AE5
330
2
100
AcDbEntity
  8
0
100
AcDbLine
 10
385.5793031891624
 20
590.5509455566479
 30
0.0
 11
385.4327581891623
 21
591.062298556648
 31
0.0
  0
LINE
  5
AE6
330
2
100
AcDbEntity
  8
0
100
AcDbLine
 10
362.5122861891625
 20
601.2542545566479
 30
0.0
 11
361.9472231891625
 21
633.6252255566479
 31
0.0
  0
ARC
  5
AE7
330
2
100
AcDbEntity
  8
0
100
AcDbCircle
 10
366.6560241891624
 20
635.306622556648
 30
0.0
 40
5.0
100
AcDbArc
 50
180.0
 51
270.0
  0
LINE
  5
AE8
330
2
100
AcDbEntity
  8
HIDS
100
AcDbLine
 10
358.4560121891625
 20
640.306622556648
 30
0.0
 11
361.6560241891623
 21
640.306622556648
 31
0.0
  0
LINE
  5
AE9
330
2
100
AcDbEntity
  8
0
100
AcDbLine
 10
358.4560121891625
 20
634.306622556648
 30
0.0
 11
361.6560241891623
 21
634.306622556648
 31
0.0
  0
LINE
  5
AEA
330
2
100
AcDbEntity
  8
0
100
AcDbLine
 10
356.4560121891625
 20
642.6066105566481
 30
0.0
 11
358.4560121891625
 21
642.6066105566481
 31
0.0
  0
LINE
  5
AEB
330
2
100
AcDbEntity
  8
0
100
AcDbLine
 10
352.6560241891623
 20
643.116619556648
 30
0.0
 11
356.4560121891625
 21
643.116619556648
 31
0.0
  0
ARC
  5
AEC
330
2
100
AcDbEntity
  8
0
100
AcDbCircle
 10
365.5118591891627
 20
601.306622556648
 30
0.0
 40
3.0
100
AcDbArc
 50
181.0000689999999
 51
270.0
  0
ARC
  5
AED
330
2
100
AcDbEntity
  8
0
100
AcDbCircle
 10
365.5994451891623
 20
596.2810485566479
 30
0.0
 40
3.0
100
AcDbArc
 50
181.0000000000002
 51
200.2251
  0
LINE
  5
AEE
330
2
100
AcDbEntity
  8
0
100
AcDbLine
 10
362.5999941891625
 20
596.228619556648
 30
0.0
 11
362.5636171891624
 21
598.306622556648
 31
0.0
  0
ARC
  5
AEF
330
2
100
AcDbEntity
  8
0
100
AcDbCircle
 10
391.6560241891624
 20
580.306622556648
 30
0.0
 40
7.5
100
AcDbArc
 50
121.809448
 51
23.57817100000003
  0
LINE
  5
AF1
330
2
100
AcDbEntity
  8
0
100
AcDbLine
 10
402.7270691891624
 20
580.235577556648
 30
0.0
 11
399.6560241891623
 21
583.3066225566479
 31
0.0
  0
ARC
  5
AF2
330
2
100
AcDbEntity
  8
0
100
AcDbCircle
 10
409.7981451891625
 20
587.3066225566479
 30
0.0
 40
10.0
100
AcDbArc
 50
224.9999999999999
 51
270.0
  0
LINE
  5
AF3
330
2
100
AcDbEntity
  8
0
100
AcDbLine
 10
399.6560241891623
 20
583.3066225566479
 30
0.0
 11
395.1921571891623
 21
583.3066225566479
 31
0.0
  0
ARC
  5
AF4
330
2
100
AcDbEntity
  8
0
100
AcDbCircle
 10
382.6290471891624
 20
570.3066225566479
 30
0.0
 40
10.0
100
AcDbArc
 50
200.2248590000001
 51
270.0
  0
ARC
  5
AF5
330
2
100
AcDbEntity
  8
0
100
AcDbCircle
 10
382.6290471891624
 20
570.3066225566479
 30
0.0
 40
10.0
100
AcDbArc
 50
200.2248590000001
 51
270.0
  0
LINE
  5
AF7
330
2
100
AcDbEntity
  8
0
100
AcDbLine
 10
243.6807441891624
 20
563.383465556648
 30
0.0
 11
320.7131531891625
 21
563.383465556648
 31
0.0
  0
LINE
  5
AF8
330
2
100
AcDbEntity
  8
0
100
AcDbLine
 10
244.1569401891622
 20
561.024151556648
 30
0.0
 11
320.2971991891625
 21
561.024151556648
 31
0.0
  0
LINE
  5
AF9
330
2
100
AcDbEntity
  8
0
100
AcDbLine
 10
243.9855531891624
 20
561.873516556648
 30
0.0
 11
320.4469181891625
 21
561.873516556648
 31
0.0
  0
LINE
  5
AFA
330
2
100
AcDbEntity
  8
0
100
AcDbLine
 10
320.5713071891626
 20
589.3237735566479
 30
0.0
 11
322.1559021891624
 21
598.3116275566479
 31
0.0
  0
LINE
  5
AFB
330
2
100
AcDbEntity
  8
0
100
AcDbLine
 10
320.4663881891625
 20
612.7239805566479
 30
0.0
 11
322.1559021891624
 21
622.306744556648
 31
0.0
  0
LINE
  5
AFC
330
2
100
AcDbEntity
  8
0
100
AcDbLine
 10
320.1069521891625
 20
598.812115556648
 30
0.0
 11
322.1559021891624
 21
610.433819556648
 31
0.0
  0
ARC
  5
AFD
330
2
100
AcDbEntity
  8
0
100
AcDbCircle
 10
319.4815251891624
 20
612.897686556648
 30
0.0
 40
1.0
100
AcDbArc
 50
270.0
 51
350.0007929999999
  0
ARC
  5
AFE
330
2
100
AcDbEntity
  8
0
100
AcDbCircle
 10
320.7131531891627
 20
564.383465556648
 30
0.0
 40
1.0
100
AcDbArc
 50
270.0
 51
350.0007929999999
  0
LINE
  5
AFF
330
2
100
AcDbEntity
  8
0
100
AcDbLine
 10
321.2820011891624
 20
561.8505675566479
 30
0.0
 11
322.0102111891624
 21
565.9803895566479
 31
0.0
  0
LINE
  5
B00
330
2
100
AcDbEntity
  8
0
100
AcDbLine
 10
344.9110291891622
 20
567.806622556648
 30
0.0
 11
325.1559021891623
 21
567.806622556648
 31
0.0
  0
LINE
  5
B01
330
2
100
AcDbEntity
  8
0
100
AcDbLine
 10
321.0655701891624
 20
573.118206556648
 30
0.0
 11
322.1559021891624
 21
579.3025325566479
 31
0.0
  0
ARC
  5
B02
330
2
100
AcDbEntity
  8
0
100
AcDbCircle
 10
319.8496891891626
 20
581.777569556648
 30
0.0
 40
1.0
100
AcDbArc
 50
270.0
 51
350.0007929999999
  0
ARC
  5
B03
330
2
100
AcDbEntity
  8
0
100
AcDbCircle
 10
319.5864441891625
 20
589.497540556648
 30
0.0
 40
1.0
100
AcDbArc
 50
270.0
 51
350.0007929999999
  0
LINE
  5
B04
330
2
100
AcDbEntity
  8
0
100
AcDbLine
 10
320.8344911891625
 20
581.603863556648
 30
0.0
 11
322.1559021891624
 21
589.0989805566479
 31
0.0
  0
LINE
  5
B05
330
2
100
AcDbEntity
  8
0
100
AcDbLine
 10
325.1559021891623
 20
566.806744556648
 30
0.0
 11
322.9949521891624
 21
566.806744556648
 31
0.0
  0
ARC
  5
B06
330
2
100
AcDbEntity
  8
0
100
AcDbCircle
 10
320.3928411891624
 20
566.306744556648
 30
0.0
 40
1.0
100
AcDbArc
 50
270.0
 51
351.9774019999999
  0
ARC
  5
B07
330
2
100
AcDbEntity
  8
0
100
AcDbCircle
 10
320.4247621891626
 20
569.5489925566479
 30
0.0
 40
1.0
100
AcDbArc
 50
270.0
 51
352.4938050000001
  0
ARC
  5
B08
330
2
100
AcDbEntity
  8
0
100
AcDbCircle
 10
320.0807681891626
 20
573.2918515566479
 30
0.0
 40
1.0
100
AcDbArc
 50
270.0
 51
350.0007929999999
  0
LINE
  5
B09
330
2
100
AcDbEntity
  8
0
100
AcDbLine
 10
321.3830751891624
 20
566.1672175566479
 30
0.0
 11
322.1559021891624
 21
571.6504335566479
 31
0.0
  0
LINE
  5
B0A
330
2
100
AcDbEntity
  8
0
100
AcDbLine
 10
321.4162171891624
 20
569.418377556648
 30
0.0
 11
322.1559021891624
 21
575.0322085566479
 31
0.0
  0
ARC
  5
B0B
330
2
100
AcDbEntity
  8
0
100
AcDbCircle
 10
322.9949521891625
 20
565.806744556648
 30
0.0
 40
1.0
100
AcDbArc
 50
90.0
 51
170.0
  0
ARC
  5
B0C
330
2
100
AcDbEntity
  8
0
100
AcDbCircle
 10
320.4469181891626
 20
562.873516556648
 30
0.0
 40
1.0
100
AcDbArc
 50
270.0
 51
350.0007929999999
  0
ARC
  5
B0D
330
2
100
AcDbEntity
  8
0
100
AcDbCircle
 10
320.2971991891626
 20
562.024151556648
 30
0.0
 40
1.0
100
AcDbArc
 50
270.0
 51
350.0007929999999
  0
ARC
  5
B0E
330
2
100
AcDbEntity
  8
0
100
AcDbCircle
 10
243.6807441891625
 20
565.383465556648
 30
0.0
 40
2.0
100
AcDbArc
 50
191.4113000000001
 51
270.0
  0
LINE
  5
B0F
330
2
100
AcDbEntity
  8
0
100
AcDbLine
 10
242.1965521891623
 20
562.628521556648
 30
0.0
 11
241.6559021891623
 21
565.306744556648
 31
0.0
  0
ARC
  5
B13
330
2
100
AcDbEntity
  8
0
100
AcDbCircle
 10
243.9855531891625
 20
563.873516556648
 30
0.0
 40
2.0
100
AcDbArc
 50
191.4113000000001
 51
270.0
  0
ARC
  5
B14
330
2
100
AcDbEntity
  8
0
100
AcDbCircle
 10
244.1569401891623
 20
563.024151556648
 30
0.0
 40
2.0
100
AcDbArc
 50
191.4113000000001
 51
270.0
  0
LINE
  5
B15
330
2
100
AcDbEntity
  8
0
100
AcDbLine
 10
242.0441471891625
 20
563.383465556648
 30
0.0
 11
242.0465271891623
 21
563.383465556648
 31
0.0
  0
LINE
  5
B18
330
2
100
AcDbEntity
  8
0
100
AcDbLine
 10
95.83308718916237
 20
650.3066225566481
 30
0.0
 11
95.83308718916237
 21
557.4162415566481
 31
0.0
  0
LINE
  5
B19
330
2
100
AcDbEntity
  8
0
100
AcDbLine
 10
146.6563291891623
 20
557.3065005566481
 30
0.0
 11
146.6563291891623
 21
650.3066225566481
 31
0.0
  0
LINE
  5
B1A
330
2
100
AcDbEntity
  8
0
100
AcDbLine
 10
64.65632918916231
 20
578.193218556648
 30
0.0
 11
64.65632918916231
 21
650.306500556648
 31
0.0
  0
LINE
  5
B1B
330
2
100
AcDbEntity
  8
0
100
AcDbLine
 10
155.1559021891623
 20
733.8067135566481
 30
0.0
 11
155.1559021891623
 21
566.8067445566481
 31
0.0
  0
LINE
  5
B1C
330
2
100
AcDbEntity
  8
0
100
AcDbLine
 10
158.1559021891623
 20
678.3067135566481
 30
0.0
 11
158.1559021891623
 21
622.3067445566481
 31
0.0
  0
LINE
  5
B1D
330
2
100
AcDbEntity
  8
0
100
AcDbLine
 10
95.13692018916231
 20
742.904797556648
 30
0.0
 11
67.15632918916231
 21
726.7501345566481
 31
0.0
  0
LINE
  5
B1E
330
2
100
AcDbEntity
  8
0
100
AcDbLine
 10
118.6563291891623
 20
710.734143556648
 30
0.0
 11
146.6563291891623
 21
710.734143556648
 31
0.0
  0
LINE
  5
B1F
330
2
100
AcDbEntity
  8
0
100
AcDbLine
 10
118.6563291891623
 20
713.360455556648
 30
0.0
 11
146.6563291891623
 21
713.360455556648
 31
0.0
  0
LINE
  5
B20
330
2
100
AcDbEntity
  8
0
100
AcDbLine
 10
118.6563291891623
 20
722.3101925566481
 30
0.0
 11
146.6563291891623
 21
722.3101925566481
 31
0.0
  0
LINE
  5
B21
330
2
100
AcDbEntity
  8
0
100
AcDbLine
 10
96.63692018916231
 20
743.3067445566481
 30
0.0
 11
146.6563291891623
 21
743.3067445566481
 31
0.0
  0
LINE
  5
B22
330
2
100
AcDbEntity
  8
0
100
AcDbLine
 10
146.6563291891623
 20
743.3067445566481
 30
0.0
 11
146.6563291891623
 21
650.3066225566481
 31
0.0
  0
LINE
  5
B23
330
2
100
AcDbEntity
  8
0
100
AcDbLine
 10
160.3507261891625
 20
701.801342556648
 30
0.0
 11
158.3017151891624
 21
690.1796385566481
 31
0.0
  0
LINE
  5
B24
330
2
100
AcDbEntity
  8
0
100
AcDbLine
 10
150.1562681891625
 20
725.3067445566481
 30
0.0
 11
150.1562071891624
 21
698.3067445566481
 31
0.0
  0
LINE
  5
B25
330
2
100
AcDbEntity
  8
0
100
AcDbLine
 10
159.3921081891624
 20
727.495251556648
 30
0.0
 11
158.3017151891624
 21
721.3108945566481
 31
0.0
  0
ARC
  5
B26
330
2
100
AcDbEntity
  8
0
100
AcDbCircle
 10
159.5987121891625
 20
736.2299925566479
 30
0.0
 40
1.0
100
AcDbArc
 50
90.0
 51
170.0007930000001
  0
LINE
  5
B27
330
2
100
AcDbEntity
  8
0
100
AcDbLine
 10
159.0299261891625
 20
738.7628905566481
 30
0.0
 11
158.3017151891624
 21
734.6330075566481
 31
0.0
  0
ARC
  5
B28
330
2
100
AcDbEntity
  8
0
100
AcDbCircle
 10
159.8649481891624
 20
737.7399415566479
 30
0.0
 40
1.0
100
AcDbArc
 50
90.0
 51
170.0007930000001
  0
ARC
  5
B29
330
2
100
AcDbEntity
  8
0
100
AcDbCircle
 10
160.0147281891626
 20
738.589306556648
 30
0.0
 40
1.0
100
AcDbArc
 50
90.0
 51
170.0007930000001
  0
LINE
  5
B2A
330
2
100
AcDbEntity
  8
0
100
AcDbLine
 10
146.6563291891623
 20
732.306622556648
 30
0.0
 11
155.1563291891623
 21
732.306622556648
 31
0.0
  0
ARC
  5
B2B
330
2
100
AcDbEntity
  8
0
100
AcDbCircle
 10
160.0249211891627
 20
734.0238765566478
 30
0.0
 40
1.0
100
AcDbArc
 50
90.0
 51
171.977386
  0
ARC
  5
B2C
330
2
100
AcDbEntity
  8
0
100
AcDbCircle
 10
160.0327331891625
 20
731.064434556648
 30
0.0
 40
1.0
100
AcDbArc
 50
90.0
 51
172.493805
  0
ARC
  5
B2D
330
2
100
AcDbEntity
  8
0
100
AcDbCircle
 10
160.3769111891623
 20
727.3216065566479
 30
0.0
 40
1.0
100
AcDbArc
 50
90.0
 51
170.0007930000001
  0
LINE
  5
B2E
330
2
100
AcDbEntity
  8
0
100
AcDbLine
 10
159.0347471891625
 20
734.163403556648
 30
0.0
 11
158.3017151891624
 21
728.9629945566481
 31
0.0
  0
LINE
  5
B2F
330
2
100
AcDbEntity
  8
0
100
AcDbLine
 10
159.0413391891623
 20
731.195080556648
 30
0.0
 11
158.3017151891624
 21
725.581249556648
 31
0.0
  0
ARC
  5
B30
330
2
100
AcDbEntity
  8
0
100
AcDbCircle
 10
157.3169131891626
 20
734.806713556648
 30
0.0
 40
1.0
100
AcDbArc
 50
270.0
 51
349.9999999999998
  0
LINE
  5
B31
330
2
100
AcDbEntity
  8
0
100
AcDbLine
 10
157.3169131891625
 20
733.8067135566481
 30
0.0
 11
155.1559021891623
 21
733.8067135566481
 31
0.0
  0
LINE
  5
B32
330
2
100
AcDbEntity
  8
0
100
AcDbLine
 10
146.6563291891623
 20
725.3067445566481
 30
0.0
 11
150.1562681891625
 21
725.3067445566481
 31
0.0
  0
ARC
  5
B33
330
2
100
AcDbEntity
  8
0
100
AcDbCircle
 10
161.3355291891624
 20
701.6276365566481
 30
0.0
 40
1.0
100
AcDbArc
 50
90.0
 51
170.0007930000001
  0
LINE
  5
B34
330
2
100
AcDbEntity
  8
0
100
AcDbLine
 10
159.8863101891622
 20
711.289654556648
 30
0.0
 11
158.3017151891624
 21
702.3018315566481
 31
0.0
  0
ARC
  5
B35
330
2
100
AcDbEntity
  8
0
100
AcDbCircle
 10
160.6079291891625
 20
718.8358885566479
 30
0.0
 40
1.0
100
AcDbArc
 50
90.0
 51
170.0007930000001
  0
ARC
  5
B36
330
2
100
AcDbEntity
  8
0
100
AcDbCircle
 10
160.8711121891623
 20
711.115917556648
 30
0.0
 40
1.0
100
AcDbArc
 50
90.0
 51
170.0007930000001
  0
LINE
  5
B37
330
2
100
AcDbEntity
  8
0
100
AcDbLine
 10
159.6231261891623
 20
719.0095945566481
 30
0.0
 11
158.3017151891624
 21
711.5144775566482
 31
0.0
  0
LINE
  5
B38
330
2
100
AcDbEntity
  8
0
100
AcDbLine
 10
146.6563291891623
 20
716.8067445566481
 30
0.0
 11
150.1562681891625
 21
716.8067445566481
 31
0.0
  0
LINE
  5
B39
330
2
100
AcDbEntity
  8
0
100
AcDbLine
 10
146.6563291891623
 20
698.3067445566481
 30
0.0
 11
150.1562071891624
 21
698.3067445566481
 31
0.0
  0
LINE
  5
B3A
330
2
100
AcDbEntity
  8
0
100
AcDbLine
 10
146.6563291891623
 20
706.8067445566481
 30
0.0
 11
150.1562681891625
 21
706.8067445566481
 31
0.0
  0
LINE
  5
B3B
330
2
100
AcDbEntity
  8
0
100
AcDbLine
 10
159.9913511891625
 20
687.8894775566481
 30
0.0
 11
158.3017151891624
 21
678.3067135566481
 31
0.0
  0
ARC
  5
B3C
330
2
100
AcDbEntity
  8
0
100
AcDbCircle
 10
160.9760931891625
 20
687.7157715566481
 30
0.0
 40
1.0
100
AcDbArc
 50
90.0
 51
170.0007930000001
  0
LINE
  5
B3D
330
2
100
AcDbEntity
  8
0
100
AcDbLine
 10
95.83308718916237
 20
650.3066225566481
 30
0.0
 11
95.83308718916237
 21
743.1970335566481
 31
0.0
  0
ARC
  5
B3E
330
2
100
AcDbEntity
  8
0
100
AcDbCircle
 10
118.6563291891624
 20
714.3604555566479
 30
0.0
 40
1.0
100
AcDbArc
 50
180.0
 51
270.0
  0
ARC
  5
B3F
330
2
100
AcDbEntity
  8
0
100
AcDbCircle
 10
118.6563291891624
 20
721.3101925566479
 30
0.0
 40
1.0
100
AcDbArc
 50
90.0
 51
180.0
  0
ARC
  5
B40
330
2
100
AcDbEntity
  8
0
100
AcDbCircle
 10
118.6563291891624
 20
711.7341435566479
 30
0.0
 40
1.0
100
AcDbArc
 50
180.0
 51
270.0
  0
LINE
  5
B41
330
2
100
AcDbEntity
  8
0
100
AcDbLine
 10
117.6563291891623
 20
721.3101925566481
 30
0.0
 11
117.6563291891623
 21
711.734143556648
 31
0.0
  0
ARC
  5
B42
330
2
100
AcDbEntity
  8
0
100
AcDbCircle
 10
96.63692018916243
 20
740.306744556648
 30
0.0
 40
3.0
100
AcDbArc
 50
90.0
 51
120.0000920000001
  0
LINE
  5
B43
330
2
100
AcDbEntity
  8
0
100
AcDbLine
 10
64.65632918916231
 20
722.4200255566481
 30
0.0
 11
64.65632918916231
 21
650.306500556648
 31
0.0
  0
ARC
  5
B44
330
2
100
AcDbEntity
  8
0
100
AcDbCircle
 10
69.65632918916242
 20
722.420025556648
 30
0.0
 40
5.0
100
AcDbArc
 50
120.0005
 51
180.0
  0
LINE
  5
B45
330
2
100
AcDbEntity
  8
0
100
AcDbLine
 10
95.13692018916231
 20
557.7084775566482
 30
0.0
 11
67.15632918916231
 21
573.863140556648
 31
0.0
  0
LINE
  5
B47
330
2
100
AcDbEntity
  8
0
100
AcDbLine
 10
118.6563291891623
 20
589.879132556648
 30
0.0
 11
146.6563291891623
 21
589.879132556648
 31
0.0
  0
LINE
  5
B48
330
2
100
AcDbEntity
  8
0
100
AcDbLine
 10
118.6563291891623
 20
587.2527895566482
 30
0.0
 11
146.6563291891623
 21
587.2527895566482
 31
0.0
  0
LINE
  5
B49
330
2
100
AcDbEntity
  8
0
100
AcDbLine
 10
118.6563291891623
 20
578.3030825566481
 30
0.0
 11
146.6563291891623
 21
578.3030825566481
 31
0.0
  0
LINE
  5
B4A
330
2
100
AcDbEntity
  8
0
100
AcDbLine
 10
96.63692018916231
 20
557.3065005566481
 30
0.0
 11
146.6563291891623
 21
557.3065005566481
 31
0.0
  0
LINE
  5
B4B
330
2
100
AcDbEntity
  8
0
100
AcDbLine
 10
150.1562681891625
 20
575.306500556648
 30
0.0
 11
150.1562071891624
 21
602.306500556648
 31
0.0
  0
LINE
  5
B4C
330
2
100
AcDbEntity
  8
0
100
AcDbLine
 10
159.8863101891622
 20
589.3237735566481
 30
0.0
 11
158.3017151891624
 21
598.311627556648
 31
0.0
  0
LINE
  5
B4D
330
2
100
AcDbEntity
  8
0
100
AcDbLine
 10
159.9913511891625
 20
612.723980556648
 30
0.0
 11
158.3017151891624
 21
622.3067445566481
 31
0.0
  0
ARC
  5
B4E
330
2
100
AcDbEntity
  8
0
100
AcDbCircle
 10
161.3355291891624
 20
598.985821556648
 30
0.0
 40
1.0
100
AcDbArc
 50
189.9992070000001
 51
270.0
  0
LINE
  5
B4F
330
2
100
AcDbEntity
  8
0
100
AcDbLine
 10
160.3507261891625
 20
598.8121155566481
 30
0.0
 11
158.3017151891624
 21
610.4338195566481
 31
0.0
  0
ARC
  5
B50
330
2
100
AcDbEntity
  8
0
100
AcDbCircle
 10
160.9760931891625
 20
612.897686556648
 30
0.0
 40
1.0
100
AcDbArc
 50
189.9992070000001
 51
270.0
  0
LINE
  5
B51
330
2
100
AcDbEntity
  8
0
100
AcDbLine
 10
146.6563291891623
 20
602.306500556648
 30
0.0
 11
150.1562071891624
 21
602.306500556648
 31
0.0
  0
LINE
  5
B52
330
2
100
AcDbEntity
  8
0
100
AcDbLine
 10
146.6563291891623
 20
593.806500556648
 30
0.0
 11
150.1562681891625
 21
593.806500556648
 31
0.0
  0
LINE
  5
B58
330
2
100
AcDbEntity
  8
0
100
AcDbLine
 10
159.3921081891624
 20
573.1182065566481
 30
0.0
 11
158.3017151891624
 21
579.3025325566481
 31
0.0
  0
ARC
  5
B59
330
2
100
AcDbEntity
  8
0
100
AcDbCircle
 10
160.6079291891625
 20
581.777569556648
 30
0.0
 40
1.0
100
AcDbArc
 50
189.9992070000001
 51
270.0
  0
ARC
  5
B5A
330
2
100
AcDbEntity
  8
0
100
AcDbCircle
 10
160.8711121891623
 20
589.497540556648
 30
0.0
 40
1.0
100
AcDbArc
 50
189.9992070000001
 51
270.0
  0
LINE
  5
B5B
330
2
100
AcDbEntity
  8
0
100
AcDbLine
 10
159.6231261891623
 20
581.6038635566481
 30
0.0
 11
158.3017151891624
 21
589.098980556648
 31
0.0
  0
LINE
  5
B5C
330
2
100
AcDbEntity
  8
0
100
AcDbLine
 10
146.6563291891623
 20
583.806500556648
 30
0.0
 11
150.1562681891625
 21
583.806500556648
 31
0.0
  0
LINE
  5
B5D
330
2
100
AcDbEntity
  8
0
100
AcDbLine
 10
146.6563291891623
 20
568.3066225566481
 30
0.0
 11
155.1563291891623
 21
568.3066225566481
 31
0.0
  0
ARC
  5
B5E
330
2
100
AcDbEntity
  8
0
100
AcDbCircle
 10
159.2533141891625
 20
566.306744556648
 30
0.0
 40
1.0
100
AcDbArc
 50
194.4774899999999
 51
270.0
  0
ARC
  5
B5F
330
2
100
AcDbEntity
  8
0
100
AcDbCircle
 10
157.3167301891625
 20
565.806744556648
 30
0.0
 40
1.0
100
AcDbArc
 50
14.47749299999998
 51
90.0
  0
ARC
  5
B60
330
2
100
AcDbEntity
  8
0
100
AcDbCircle
 10
160.0327331891625
 20
569.5489925566479
 30
0.0
 40
1.0
100
AcDbArc
 50
187.5061949999999
 51
270.0
  0
ARC
  5
B61
330
2
100
AcDbEntity
  8
0
100
AcDbCircle
 10
160.3769111891623
 20
573.2918515566479
 30
0.0
 40
1.0
100
AcDbArc
 50
189.9992070000001
 51
270.0
  0
LINE
  5
B62
330
2
100
AcDbEntity
  8
0
100
AcDbLine
 10
159.0413391891623
 20
569.4183775566481
 30
0.0
 11
158.3017151891624
 21
575.0322085566481
 31
0.0
  0
LINE
  5
B63
330
2
100
AcDbEntity
  8
0
100
AcDbLine
 10
157.3167301891624
 20
566.8067445566481
 30
0.0
 11
155.1559021891623
 21
566.8067445566481
 31
0.0
  0
LINE
  5
B64
330
2
100
AcDbEntity
  8
0
100
AcDbLine
 10
146.6563291891623
 20
575.306500556648
 30
0.0
 11
150.1562681891625
 21
575.306500556648
 31
0.0
  0
ARC
  5
B66
330
2
100
AcDbEntity
  8
0
100
AcDbCircle
 10
118.6563291891624
 20
586.252789556648
 30
0.0
 40
1.0
100
AcDbArc
 50
90.0
 51
180.0
  0
ARC
  5
B67
330
2
100
AcDbEntity
  8
0
100
AcDbCircle
 10
118.6563291891624
 20
579.303082556648
 30
0.0
 40
1.0
100
AcDbArc
 50
180.0
 51
270.0
  0
ARC
  5
B68
330
2
100
AcDbEntity
  8
0
100
AcDbCircle
 10
118.6563291891624
 20
588.8791325566479
 30
0.0
 40
1.0
100
AcDbArc
 50
90.0
 51
180.0
  0
LINE
  5
B69
330
2
100
AcDbEntity
  8
0
100
AcDbLine
 10
117.6563291891623
 20
579.3030825566481
 30
0.0
 11
117.6563291891623
 21
588.879132556648
 31
0.0
  0
ARC
  5
B6A
330
2
100
AcDbEntity
  8
0
100
AcDbCircle
 10
96.63692018916243
 20
560.3065005566479
 30
0.0
 40
3.0
100
AcDbArc
 50
239.9999009999998
 51
270.0
  0
ARC
  5
B6C
330
2
100
AcDbEntity
  8
0
100
AcDbCircle
 10
69.65632918916242
 20
578.1932185566479
 30
0.0
 40
5.0
100
AcDbArc
 50
180.0
 51
239.9995
  0
TEXT
  5
C11
330
2
100
AcDbEntity
  8
TITLE
100
AcDbText
 10
672.2720527528722
 20
606.3530956019181
 30
0.0
 40
12.0
  1
H2LB-40L-5~60-150
100
AcDbText
  0
LINE
  5
DE8
330
2
100
AcDbEntity
  8
CENTER
100
AcDbLine
 10
384.522295405886
 20
294.6649355925563
 30
0.0
 11
518.7897529724384
 21
294.6649355925563
 31
0.0
  0
LINE
  5
DE9
330
2
100
AcDbEntity
  8
0
100
AcDbLine
 10
430.1937441891623
 20
226.6649435925563
 30
0.0
 11
441.8559751891621
 21
226.6649435925563
 31
0.0
  0
LINE
  5
DEA
330
2
100
AcDbEntity
  8
0
100
AcDbLine
 10
431.7146181891621
 20
219.6649435925563
 30
0.0
 11
441.8559751891621
 21
219.6649435925563
 31
0.0
  0
LINE
  5
DEB
330
2
100
AcDbEntity
  8
0
100
AcDbLine
 10
429.2955201891622
 20
208.6649435925563
 30
0.0
 11
435.3559751891621
 21
208.6649435925563
 31
0.0
  0
LINE
  5
DEC
330
2
100
AcDbEntity
  8
0
100
AcDbLine
 10
422.2560001891622
 20
206.6649435925563
 30
0.0
 11
441.8559751891621
 21
206.6649435925563
 31
0.0
  0
LINE
  5
DED
330
2
100
AcDbEntity
  8
0
100
AcDbLine
 10
361.6560241891623
 20
129.6649425925562
 30
0.0
 11
541.6559631891622
 21
129.6649425925562
 31
0.0
  0
LINE
  5
DEE
330
2
100
AcDbEntity
  8
0
100
AcDbLine
 10
419.8415401891622
 20
381.6649515925562
 30
0.0
 11
483.4703551891623
 21
381.6649515925562
 31
0.0
  0
LINE
  5
DEF
330
2
100
AcDbEntity
  8
0
100
AcDbLine
 10
485.4134401891622
 20
154.6649435925563
 30
0.0
 11
417.8985781891622
 21
154.6649435925563
 31
0.0
  0
ARC
  5
DF0
330
2
100
AcDbEntity
  8
HIDS
100
AcDbCircle
 10
451.6560241891623
 20
294.6649355925563
 30
0.0
 40
20.0
100
AcDbArc
 50
17.45760000000026
 51
342.5423889999994
  0
CIRCLE
  5
DF1
330
2
100
AcDbEntity
  8
0
100
AcDbCircle
 10
451.6560241891623
 20
294.6649355925563
 30
0.0
 40
46.0
  0
ARC
  5
DF2
330
2
100
AcDbEntity
  8
0
100
AcDbCircle
 10
451.6560241891623
 20
294.6649355925563
 30
0.0
 40
52.0
100
AcDbArc
 50
12.73995999999959
 51
167.2601009999998
  0
ARC
  5
DF3
330
2
100
AcDbEntity
  8
0
100
AcDbCircle
 10
451.6560241891623
 20
294.6649355925563
 30
0.0
 40
47.71427899999999
100
AcDbArc
 50
167.2601009999998
 51
12.73995999999959
  0
LINE
  5
DF4
330
2
100
AcDbEntity
  8
0
100
AcDbLine
 10
421.6560241891622
 20
190.1649435925563
 30
0.0
 11
481.656024189162
 21
190.1649435925563
 31
0.0
  0
LINE
  5
DF5
330
2
100
AcDbEntity
  8
0
100
AcDbLine
 10
421.6560241891622
 20
185.8792225925563
 30
0.0
 11
481.656024189162
 21
185.8792225925563
 31
0.0
  0
LINE
  5
DF6
330
2
100
AcDbEntity
  8
0
100
AcDbLine
 10
409.5849791891621
 20
149.6649435925563
 30
0.0
 11
541.6559631891622
 21
149.6649435925563
 31
0.0
  0
LINE
  5
DF7
330
2
100
AcDbEntity
  8
0
100
AcDbLine
 10
361.6539791891623
 20
402.1649515925562
 30
0.0
 11
361.6564211891623
 21
342.1649355925563
 31
0.0
  0
LINE
  5
DF8
330
2
100
AcDbEntity
  8
0
100
AcDbLine
 10
358.4564091891621
 20
402.1649515925562
 30
0.0
 11
358.4564091891621
 21
342.1649355925563
 31
0.0
  0
LINE
  5
DF9
330
2
100
AcDbEntity
  8
CENTER
100
AcDbLine
 10
47.49095218916226
 20
245.1649435925563
 30
0.0
 11
376.0967591891622
 21
245.1649435925563
 31
0.0
  0
LINE
  5
DFA
330
2
100
AcDbEntity
  8
0
100
AcDbLine
 10
155.1560091891622
 20
328.6649355925563
 30
0.0
 11
157.3169131891622
 21
328.6649355925563
 31
0.0
  0
ARC
  5
DFD
330
2
100
AcDbEntity
  8
0
100
AcDbCircle
 10
148.6560091891622
 20
190.9148445925563
 30
0.0
 40
8.0
100
AcDbArc
 50
0.0
 51
90.0
  0
LINE
  5
DFE
330
2
100
AcDbEntity
  8
0
100
AcDbLine
 10
153.6560091891622
 20
178.5020025925563
 30
0.0
 11
156.6560091891622
 21
179.6353035925563
 31
0.0
  0
LINE
  5
DFF
330
2
100
AcDbEntity
  8
0
100
AcDbLine
 10
153.9559361891622
 20
173.9873995925563
 30
0.0
 11
156.3559751891621
 21
173.9873995925563
 31
0.0
  0
LINE
  5
E00
330
2
100
AcDbEntity
  8
0
100
AcDbLine
 10
155.1560091891622
 20
161.6649435925563
 30
0.0
 11
157.3169131891622
 21
161.6649435925563
 31
0.0
  0
LINE
  5
E01
330
2
100
AcDbEntity
  8
0
100
AcDbLine
 10
155.1560091891622
 20
179.0686525925563
 30
0.0
 11
155.1560091891622
 21
161.6649435925563
 31
0.0
  0
ARC
  5
E02
330
2
100
AcDbEntity
  8
0
100
AcDbCircle
 10
69.65591218916234
 20
173.0517425925563
 30
0.0
 40
5.0
100
AcDbArc
 50
180.0
 51
240.0001979999981
  0
LINE
  5
E03
330
2
100
AcDbEntity
  8
0
100
AcDbLine
 10
146.6560091891622
 20
338.1649355925563
 30
0.0
 11
146.6560091891622
 21
159.1649315925563
 31
0.0
  0
LINE
  5
E04
330
2
100
AcDbEntity
  8
0
100
AcDbLine
 10
95.83276718916227
 20
159.1649315925563
 30
0.0
 11
95.83276718916227
 21
338.0552405925563
 31
0.0
  0
LINE
  5
E05
330
2
100
AcDbEntity
  8
0
100
AcDbLine
 10
85.0482111891622
 20
159.1649315925563
 30
0.0
 11
146.6560091891622
 21
159.1649315925563
 31
0.0
  0
LINE
  5
E06
330
2
100
AcDbEntity
  8
0
100
AcDbLine
 10
67.15591218916234
 20
168.7215425925562
 30
0.0
 11
82.5482111891622
 21
159.8348235925563
 31
0.0
  0
ARC
  5
E07
330
2
100
AcDbEntity
  8
0
100
AcDbCircle
 10
85.0482111891622
 20
164.1649315925563
 30
0.0
 40
5.0
100
AcDbArc
 50
239.9996950000002
 51
270.0
  0
LINE
  5
E08
330
2
100
AcDbEntity
  8
0
100
AcDbLine
 10
146.6560091891622
 20
163.1649015925563
 30
0.0
 11
155.1563521891621
 21
163.1649015925563
 31
0.0
  0
LINE
  5
E09
330
2
100
AcDbEntity
  8
0
100
AcDbLine
 10
64.65601218916209
 20
317.2782475925564
 30
0.0
 11
64.65601218916209
 21
245.1649435925563
 31
0.0
  0
LINE
  5
E0A
330
2
100
AcDbEntity
  8
0
100
AcDbLine
 10
155.1560091891622
 20
328.6649355925563
 30
0.0
 11
155.1560091891622
 21
285.5227961601899
 31
0.0
  0
LINE
  5
E0B
330
2
100
AcDbEntity
  8
0
100
AcDbLine
 10
64.65601218916209
 20
173.0516125925563
 30
0.0
 11
64.65601218916209
 21
245.1649435925563
 31
0.0
  0
LINE
  5
E0C
330
2
100
AcDbEntity
  8
0
100
AcDbLine
 10
118.6560131891622
 20
173.1612695925563
 30
0.0
 11
146.6560091891622
 21
173.1612695925563
 31
0.0
  0
LINE
  5
E0D
330
2
100
AcDbEntity
  8
0
100
AcDbLine
 10
118.6560131891622
 20
182.1110185925563
 30
0.0
 11
146.6560091891622
 21
182.1110185925563
 31
0.0
  0
LINE
  5
E0E
330
2
100
AcDbEntity
  8
0
100
AcDbLine
 10
118.6560131891622
 20
184.7373155925563
 30
0.0
 11
146.6560091891622
 21
184.7373155925563
 31
0.0
  0
LINE
  5
E0F
330
2
100
AcDbEntity
  8
0
100
AcDbLine
 10
117.6560131891622
 20
174.1612695925563
 30
0.0
 11
117.6560131891622
 21
183.7373155925563
 31
0.0
  0
ARC
  5
E10
330
2
100
AcDbEntity
  8
0
100
AcDbCircle
 10
118.6560131891622
 20
174.1612695925563
 30
0.0
 40
1.0
100
AcDbArc
 50
180.0
 51
270.0
  0
ARC
  5
E11
330
2
100
AcDbEntity
  8
0
100
AcDbCircle
 10
118.6560131891622
 20
181.1110185925563
 30
0.0
 40
1.0
100
AcDbArc
 50
90.0
 51
180.0
  0
ARC
  5
E12
330
2
100
AcDbEntity
  8
0
100
AcDbCircle
 10
118.6560131891622
 20
183.7373155925563
 30
0.0
 40
1.0
100
AcDbArc
 50
90.0
 51
180.0
  0
ARC
  5
E13
330
2
100
AcDbEntity
  8
0
100
AcDbCircle
 10
148.6560091891622
 20
190.9148445925563
 30
0.0
 40
5.0
100
AcDbArc
 50
0.0
 51
90.0
  0
LINE
  5
E14
330
2
100
AcDbEntity
  8
0
100
AcDbLine
 10
150.6560091891622
 20
190.9148445925563
 30
0.0
 11
150.6560091891622
 21
178.0479195925563
 31
0.0
  0
LINE
  5
E15
330
2
100
AcDbEntity
  8
0
100
AcDbLine
 10
153.6560091891622
 20
190.9148445925563
 30
0.0
 11
153.6560091891622
 21
176.7898405925563
 31
0.0
  0
LINE
  5
E16
330
2
100
AcDbEntity
  8
0
100
AcDbLine
 10
150.1559711891623
 20
170.1647225925563
 30
0.0
 11
150.1559711891623
 21
192.2378045925563
 31
0.0
  0
LINE
  5
E17
330
2
100
AcDbEntity
  8
0
100
AcDbLine
 10
152.9559891891622
 20
177.0834235925563
 30
0.0
 11
152.9559891891622
 21
172.0884245925563
 31
0.0
  0
LINE
  5
E18
330
2
100
AcDbEntity
  8
0
100
AcDbLine
 10
153.1560091891622
 20
176.9994995925562
 30
0.0
 11
153.1560091891622
 21
172.0883635925563
 31
0.0
  0
LINE
  5
E19
330
2
100
AcDbEntity
  8
0
100
AcDbLine
 10
153.3559751891621
 20
176.9156415925563
 30
0.0
 11
153.3560291891622
 21
172.0884245925563
 31
0.0
  0
LINE
  5
E1A
330
2
100
AcDbEntity
  8
0
100
AcDbLine
 10
154.9559891891622
 20
178.9930225925563
 30
0.0
 11
154.9559891891622
 21
173.9873995925563
 31
0.0
  0
LINE
  5
E1B
330
2
100
AcDbEntity
  8
0
100
AcDbLine
 10
154.7559921891622
 20
178.9175835925563
 30
0.0
 11
154.7559921891622
 21
173.9873995925563
 31
0.0
  0
LINE
  5
E1C
330
2
100
AcDbEntity
  8
0
100
AcDbLine
 10
154.5560331891622
 20
178.8419605925563
 30
0.0
 11
154.5560331891622
 21
173.9873995925563
 31
0.0
  0
LINE
  5
E1D
330
2
100
AcDbEntity
  8
0
100
AcDbLine
 10
154.3560291891622
 20
178.7664605925563
 30
0.0
 11
154.3559751891621
 21
173.9873995925563
 31
0.0
  0
LINE
  5
E1E
330
2
100
AcDbEntity
  8
0
100
AcDbLine
 10
154.1559551891623
 20
178.6909595925562
 30
0.0
 11
154.1559551891623
 21
173.9873995925563
 31
0.0
  0
LINE
  5
E1F
330
2
100
AcDbEntity
  8
0
100
AcDbLine
 10
153.9559361891622
 20
178.6153405925563
 30
0.0
 11
153.9559361891622
 21
173.9873995925563
 31
0.0
  0
LINE
  5
E20
330
2
100
AcDbEntity
  8
0
100
AcDbLine
 10
152.1560091891622
 20
177.4189225925563
 30
0.0
 11
152.1560091891622
 21
172.0884245925563
 31
0.0
  0
LINE
  5
E21
330
2
100
AcDbEntity
  8
0
100
AcDbLine
 10
152.3559751891621
 20
177.3350025925563
 30
0.0
 11
152.3560291891622
 21
172.0884245925563
 31
0.0
  0
LINE
  5
E22
330
2
100
AcDbEntity
  8
0
100
AcDbLine
 10
151.9559891891622
 20
177.5027805925563
 30
0.0
 11
151.9559891891622
 21
172.0884245925563
 31
0.0
  0
LINE
  5
E23
330
2
100
AcDbEntity
  8
0
100
AcDbLine
 10
152.5560331891622
 20
177.2510835925562
 30
0.0
 11
152.5560331891622
 21
172.0884245925563
 31
0.0
  0
LINE
  5
E24
330
2
100
AcDbEntity
  8
0
100
AcDbLine
 10
151.7559921891622
 20
177.5866625925563
 30
0.0
 11
151.7559921891622
 21
172.0884245925563
 31
0.0
  0
LINE
  5
E25
330
2
100
AcDbEntity
  8
0
100
AcDbLine
 10
152.7559921891622
 20
177.1673425925563
 30
0.0
 11
152.7559921891622
 21
172.0884245925563
 31
0.0
  0
LINE
  5
E26
330
2
100
AcDbEntity
  8
0
100
AcDbLine
 10
151.5560331891622
 20
177.6705245925562
 30
0.0
 11
151.5560331891622
 21
172.0884245925563
 31
0.0
  0
LINE
  5
E27
330
2
100
AcDbEntity
  8
0
100
AcDbLine
 10
151.3559751891621
 20
177.7543825925563
 30
0.0
 11
151.3560291891622
 21
172.0884245925563
 31
0.0
  0
LINE
  5
E28
330
2
100
AcDbEntity
  8
0
100
AcDbLine
 10
151.1560091891622
 20
177.8382415925563
 30
0.0
 11
151.1560091891622
 21
172.0884815925562
 31
0.0
  0
LINE
  5
E29
330
2
100
AcDbEntity
  8
0
100
AcDbLine
 10
150.9559361891622
 20
177.9220995925562
 30
0.0
 11
150.9559891891622
 21
172.0884245925563
 31
0.0
  0
LINE
  5
E2A
330
2
100
AcDbEntity
  8
0
100
AcDbLine
 10
146.6560091891622
 20
178.6647225925563
 30
0.0
 11
150.1559551891623
 21
178.6647225925563
 31
0.0
  0
LINE
  5
E2B
330
2
100
AcDbEntity
  8
0
100
AcDbLine
 10
146.6560091891622
 20
170.1647225925563
 30
0.0
 11
150.1559711891623
 21
170.1647225925563
 31
0.0
  0
LINE
  5
E2C
330
2
100
AcDbEntity
  8
0
100
AcDbLine
 10
150.6560091891622
 20
178.0479195925563
 30
0.0
 11
153.6560091891622
 21
176.7898405925563
 31
0.0
  0
LINE
  5
E2D
330
2
100
AcDbEntity
  8
0
100
AcDbLine
 10
150.9559891891622
 20
172.0884245925563
 30
0.0
 11
153.3560291891622
 21
172.0884245925563
 31
0.0
  0
ARC
  5
E2E
330
2
100
AcDbEntity
  8
0
100
AcDbCircle
 10
148.6560091891622
 20
190.9148445925563
 30
0.0
 40
2.0
100
AcDbArc
 50
0.0
 51
90.0
  0
LINE
  5
E2F
330
2
100
AcDbEntity
  8
0
100
AcDbLine
 10
148.6560091891622
 20
192.9148445925562
 30
0.0
 11
146.6560091891622
 21
192.9148445925562
 31
0.0
  0
LINE
  5
E30
330
2
100
AcDbEntity
  8
0
100
AcDbLine
 10
148.6560091891622
 20
195.9148445925563
 30
0.0
 11
146.6560091891622
 21
195.9148445925563
 31
0.0
  0
LINE
  5
E31
330
2
100
AcDbEntity
  8
0
100
AcDbLine
 10
146.6560091891622
 20
188.6647225925563
 30
0.0
 11
150.1559551891623
 21
188.6647225925563
 31
0.0
  0
LINE
  5
E32
330
2
100
AcDbEntity
  8
0
100
AcDbLine
 10
148.6560091891622
 20
198.9148445925563
 30
0.0
 11
146.6560091891622
 21
198.9148445925563
 31
0.0
  0
LINE
  5
E33
330
2
100
AcDbEntity
  8
0
100
AcDbLine
 10
95.13661118916207
 20
337.7630195925562
 30
0.0
 11
67.15601218916209
 21
321.6083405925563
 31
0.0
  0
ARC
  5
E34
330
2
100
AcDbEntity
  8
0
100
AcDbCircle
 10
69.65601218916209
 20
317.2782475925564
 30
0.0
 40
5.0
100
AcDbArc
 50
120.0005039999991
 51
180.0
  0
LINE
  5
E35
330
2
100
AcDbEntity
  8
0
100
AcDbLine
 10
118.6560131891622
 20
317.1684145925563
 30
0.0
 11
146.6560091891622
 21
317.1684145925563
 31
0.0
  0
LINE
  5
E36
330
2
100
AcDbEntity
  8
0
100
AcDbLine
 10
118.6560131891622
 20
308.2186615925563
 30
0.0
 11
146.6560091891622
 21
308.2186615925563
 31
0.0
  0
LINE
  5
E37
330
2
100
AcDbEntity
  8
0
100
AcDbLine
 10
118.6560131891622
 20
305.5923645925563
 30
0.0
 11
146.6560091891622
 21
305.5923645925563
 31
0.0
  0
ARC
  5
E38
330
2
100
AcDbEntity
  8
0
100
AcDbCircle
 10
118.6560131891622
 20
316.1684145925563
 30
0.0
 40
1.0
100
AcDbArc
 50
90.0
 51
180.0
  0
ARC
  5
E39
330
2
100
AcDbEntity
  8
0
100
AcDbCircle
 10
118.6560131891622
 20
306.5923645925563
 30
0.0
 40
1.0
100
AcDbArc
 50
180.0
 51
270.0
  0
LINE
  5
E3A
330
2
100
AcDbEntity
  8
0
100
AcDbLine
 10
117.6560131891622
 20
316.1684145925563
 30
0.0
 11
117.6560131891622
 21
306.5923645925563
 31
0.0
  0
ARC
  5
E3B
330
2
100
AcDbEntity
  8
0
100
AcDbCircle
 10
118.6560131891622
 20
309.2186615925563
 30
0.0
 40
1.0
100
AcDbArc
 50
180.0
 51
270.0
  0
LINE
  5
E3C
330
2
100
AcDbEntity
  8
0
100
AcDbLine
 10
150.1559711891623
 20
320.1649665925563
 30
0.0
 11
150.1559101891621
 21
293.1649665925563
 31
0.0
  0
LINE
  5
E3D
330
2
100
AcDbEntity
  8
0
100
AcDbLine
 10
146.6560091891622
 20
301.6649665925563
 30
0.0
 11
150.1559551891623
 21
301.6649665925563
 31
0.0
  0
LINE
  5
E3E
330
2
100
AcDbEntity
  8
0
100
AcDbLine
 10
146.6560091891622
 20
293.1649665925563
 30
0.0
 11
150.1559101891621
 21
293.1649665925563
 31
0.0
  0
LINE
  5
E3F
330
2
100
AcDbEntity
  8
0
100
AcDbLine
 10
146.6560091891622
 20
311.6649665925563
 30
0.0
 11
150.1559551891623
 21
311.6649665925563
 31
0.0
  0
LINE
  5
E40
330
2
100
AcDbEntity
  8
0
100
AcDbLine
 10
146.6560091891622
 20
320.1649665925563
 30
0.0
 11
150.1559711891623
 21
320.1649665925563
 31
0.0
  0
LINE
  5
E41
330
2
100
AcDbEntity
  8
0
100
AcDbLine
 10
146.6560091891622
 20
327.1648445925563
 30
0.0
 11
155.1560091891622
 21
327.1648445925563
 31
0.0
  0
LINE
  5
E42
330
2
100
AcDbEntity
  8
0
100
AcDbLine
 10
96.63661918916227
 20
338.1649355925563
 30
0.0
 11
146.6560091891622
 21
338.1649355925563
 31
0.0
  0
ARC
  5
E43
330
2
100
AcDbEntity
  8
0
100
AcDbCircle
 10
96.63661918916227
 20
335.1649355925563
 30
0.0
 40
3.0
100
AcDbArc
 50
90.0
 51
120.0000989999973
  0
LINE
  5
E44
330
2
100
AcDbEntity
  8
0
100
AcDbLine
 10
361.6560241891623
 20
178.6159435925562
 30
0.0
 11
361.6560241891623
 21
129.6649425925562
 31
0.0
  0
LINE
  5
E45
330
2
100
AcDbEntity
  8
0
100
AcDbLine
 10
325.1560241891623
 20
328.6649355925563
 30
0.0
 11
325.1560241891623
 21
161.6649435925563
 31
0.0
  0
LINE
  5
E46
330
2
100
AcDbEntity
  8
0
100
AcDbLine
 10
159.5240811891622
 20
158.6649435925563
 30
0.0
 11
320.7879211891623
 21
158.6649435925563
 31
0.0
  0
LINE
  5
E47
330
2
100
AcDbEntity
  8
0
100
AcDbLine
 10
159.1560091891622
 20
162.9299275925563
 30
0.0
 11
321.1560241891623
 21
162.9299275925563
 31
0.0
  0
LINE
  5
E48
330
2
100
AcDbEntity
  8
0
100
AcDbLine
 10
321.1560241891623
 20
165.0649375925563
 30
0.0
 11
159.1560091891622
 21
165.0649375925563
 31
0.0
  0
LINE
  5
E49
330
2
100
AcDbEntity
  8
0
100
AcDbLine
 10
321.1560241891623
 20
167.0649375925563
 30
0.0
 11
159.1560091891622
 21
167.0649375925563
 31
0.0
  0
LINE
  5
E4A
330
2
100
AcDbEntity
  8
0
100
AcDbLine
 10
158.1560091891622
 20
161.2089195925563
 30
0.0
 11
158.1560091891622
 21
166.0649375925563
 31
0.0
  0
LINE
  5
E4B
330
2
100
AcDbEntity
  8
0
100
AcDbLine
 10
158.3017151891622
 20
160.8385885925563
 30
0.0
 11
158.5392791891622
 21
159.4912675925563
 31
0.0
  0
ARC
  5
E4C
330
2
100
AcDbEntity
  8
0
100
AcDbCircle
 10
157.3169131891622
 20
160.6649435925563
 30
0.0
 40
1.0
100
AcDbArc
 50
10.00000000000021
 51
90.0
  0
ARC
  5
E4D
330
2
100
AcDbEntity
  8
0
100
AcDbCircle
 10
159.1560091891622
 20
163.9299275925563
 30
0.0
 40
1.0
100
AcDbArc
 50
180.0
 51
270.0
  0
ARC
  5
E4E
330
2
100
AcDbEntity
  8
0
100
AcDbCircle
 10
159.1560091891622
 20
166.0649375925563
 30
0.0
 40
1.0
100
AcDbArc
 50
90.0
 51
270.0
  0
ARC
  5
E4F
330
2
100
AcDbEntity
  8
0
100
AcDbCircle
 10
159.5240811891622
 20
159.6649435925563
 30
0.0
 40
1.0
100
AcDbArc
 50
190.0000000000002
 51
270.0
  0
LINE
  5
E50
330
2
100
AcDbEntity
  8
0
100
AcDbLine
 10
409.5849791891621
 20
149.6649435925563
 30
0.0
 11
361.6560241891623
 21
149.6649435925563
 31
0.0
  0
LINE
  5
E51
330
2
100
AcDbEntity
  8
0
100
AcDbLine
 10
325.1560241891623
 20
162.6650615925563
 30
0.0
 11
351.6560241891623
 21
162.6650615925563
 31
0.0
  0
LINE
  5
E52
330
2
100
AcDbEntity
  8
0
100
AcDbLine
 10
322.1560241891623
 20
161.2089195925563
 30
0.0
 11
322.1560241891623
 21
166.0649375925563
 31
0.0
  0
LINE
  5
E53
330
2
100
AcDbEntity
  8
0
100
AcDbLine
 10
322.0103031891622
 20
160.8385885925563
 30
0.0
 11
321.7727231891622
 21
159.4912675925563
 31
0.0
  0
ARC
  5
E54
330
2
100
AcDbEntity
  8
0
100
AcDbCircle
 10
322.9951051891621
 20
160.6649435925563
 30
0.0
 40
1.0
100
AcDbArc
 50
90.0
 51
169.9999999999997
  0
ARC
  5
E55
330
2
100
AcDbEntity
  8
0
100
AcDbCircle
 10
321.1560241891623
 20
163.9299275925563
 30
0.0
 40
1.0
100
AcDbArc
 50
270.0
 51
0.0
  0
ARC
  5
E56
330
2
100
AcDbEntity
  8
0
100
AcDbCircle
 10
321.1560241891623
 20
166.0649375925563
 30
0.0
 40
1.0
100
AcDbArc
 50
270.0
 51
90.0
  0
LINE
  5
E57
330
2
100
AcDbEntity
  8
0
100
AcDbLine
 10
322.9951051891621
 20
161.6649435925563
 30
0.0
 11
325.1560241891623
 21
161.6649435925563
 31
0.0
  0
ARC
  5
E58
330
2
100
AcDbEntity
  8
0
100
AcDbCircle
 10
320.7879211891623
 20
159.6649435925563
 30
0.0
 40
1.0
100
AcDbArc
 50
270.0
 51
349.9999999999998
  0
ARC
  5
E59
330
2
100
AcDbEntity
  8
0
100
AcDbCircle
 10
351.6560241891623
 20
152.6650215925563
 30
0.0
 40
10.0
100
AcDbArc
 50
0.0
 51
90.0
  0
LINE
  5
E5A
330
2
100
AcDbEntity
  8
CENTER
100
AcDbLine
 10
391.6560241891623
 20
161.8323815925563
 30
0.0
 11
391.6560241891623
 21
118.8227225925562
 31
0.0
  0
LINE
  5
E5B
330
2
100
AcDbEntity
  8
HIDS
100
AcDbLine
 10
384.1560241891623
 20
149.6649435925563
 30
0.0
 11
384.1560241891623
 21
129.6649425925562
 31
0.0
  0
LINE
  5
E5C
330
2
100
AcDbEntity
  8
0
100
AcDbLine
 10
375.6560241891623
 20
146.7412625925562
 30
0.0
 11
375.6560241891623
 21
129.6649425925562
 31
0.0
  0
LINE
  5
E5D
330
2
100
AcDbEntity
  8
HIDS
100
AcDbLine
 10
399.1560241891623
 20
149.6649435925563
 30
0.0
 11
399.1560241891623
 21
129.6649425925562
 31
0.0
  0
ARC
  5
E5E
330
2
100
AcDbEntity
  8
0
100
AcDbCircle
 10
417.8985781891622
 20
151.6649435925563
 30
0.0
 40
3.0
100
AcDbArc
 50
90.0
 51
135.0003049999997
  0
ARC
  5
E5F
330
2
100
AcDbEntity
  8
0
100
AcDbCircle
 10
409.5849791891621
 20
154.6649435925563
 30
0.0
 40
5.0
100
AcDbArc
 50
270.0
 51
315.0000919999999
  0
LINE
  5
E60
330
2
100
AcDbEntity
  8
0
100
AcDbLine
 10
413.120379189162
 20
151.1294015925563
 30
0.0
 11
415.7773621891622
 21
153.7862625925562
 31
0.0
  0
LINE
  5
E61
330
2
100
AcDbEntity
  8
0
100
AcDbLine
 10
416.6560241891622
 20
153.8623825925563
 30
0.0
 11
416.6560241891622
 21
150.3725625925563
 31
0.0
  0
LINE
  5
E62
330
2
100
AcDbEntity
  8
0
100
AcDbLine
 10
321.1560241891623
 20
232.4649315925563
 30
0.0
 11
242.6560091891622
 21
232.4649315925563
 31
0.0
  0
LINE
  5
E63
330
2
100
AcDbEntity
  8
0
100
AcDbLine
 10
321.1560241891623
 20
230.4649315925563
 30
0.0
 11
242.6560091891622
 21
230.4649315925563
 31
0.0
  0
LINE
  5
E64
330
2
100
AcDbEntity
  8
0
100
AcDbLine
 10
321.1560241891623
 20
224.9649315925563
 30
0.0
 11
242.6560091891622
 21
224.9649315925563
 31
0.0
  0
LINE
  5
E65
330
2
100
AcDbEntity
  8
0
100
AcDbLine
 10
321.1560241891623
 20
222.9649315925563
 30
0.0
 11
242.6560091891622
 21
222.9649315925563
 31
0.0
  0
LINE
  5
E66
330
2
100
AcDbEntity
  8
0
100
AcDbLine
 10
321.1560241891623
 20
217.4649315925563
 30
0.0
 11
242.6560091891622
 21
217.4649315925563
 31
0.0
  0
LINE
  5
E67
330
2
100
AcDbEntity
  8
0
100
AcDbLine
 10
321.1560241891623
 20
215.4649315925563
 30
0.0
 11
238.6559326891623
 21
215.4649315925563
 31
0.0
  0
LINE
  5
E68
330
2
100
AcDbEntity
  8
0
100
AcDbLine
 10
321.1560241891623
 20
274.8649175925562
 30
0.0
 11
238.6559326891623
 21
274.8649175925562
 31
0.0
  0
LINE
  5
E69
330
2
100
AcDbEntity
  8
0
100
AcDbLine
 10
321.1560241891623
 20
272.8649175925562
 30
0.0
 11
242.6560091891622
 21
272.8649175925562
 31
0.0
  0
LINE
  5
E6A
330
2
100
AcDbEntity
  8
0
100
AcDbLine
 10
321.1560241891623
 20
267.3649175925563
 30
0.0
 11
242.6560091891622
 21
267.3649175925563
 31
0.0
  0
LINE
  5
E6B
330
2
100
AcDbEntity
  8
0
100
AcDbLine
 10
321.1560241891623
 20
265.3649175925563
 30
0.0
 11
242.6560091891622
 21
265.3649175925563
 31
0.0
  0
LINE
  5
E6C
330
2
100
AcDbEntity
  8
0
100
AcDbLine
 10
321.1560241891623
 20
259.8649175925562
 30
0.0
 11
242.6560091891622
 21
259.8649175925562
 31
0.0
  0
LINE
  5
E6D
330
2
100
AcDbEntity
  8
0
100
AcDbLine
 10
321.1560241891623
 20
257.8649175925562
 30
0.0
 11
242.6560091891622
 21
257.8649175925562
 31
0.0
  0
LINE
  5
E6E
330
2
100
AcDbEntity
  8
0
100
AcDbLine
 10
321.1560241891623
 20
250.3649255925563
 30
0.0
 11
242.6560091891622
 21
250.3649255925563
 31
0.0
  0
LINE
  5
E6F
330
2
100
AcDbEntity
  8
0
100
AcDbLine
 10
321.1560241891623
 20
252.3649255925563
 30
0.0
 11
242.6560091891622
 21
252.3649255925563
 31
0.0
  0
LINE
  5
E70
330
2
100
AcDbEntity
  8
0
100
AcDbLine
 10
321.1560241891623
 20
237.9649315925563
 30
0.0
 11
242.6560091891622
 21
237.9649315925563
 31
0.0
  0
LINE
  5
E71
330
2
100
AcDbEntity
  8
0
100
AcDbLine
 10
321.1560241891623
 20
239.9649315925563
 30
0.0
 11
242.6560091891622
 21
239.9649315925563
 31
0.0
  0
LINE
  5
E72
330
2
100
AcDbEntity
  8
0
100
AcDbLine
 10
321.1560241891623
 20
209.9649315925563
 30
0.0
 11
238.1287741213959
 21
209.9649315925563
 31
0.0
  0
LINE
  5
E73
330
2
100
AcDbEntity
  8
0
100
AcDbLine
 10
321.1560241891623
 20
282.3649175925563
 30
0.0
 11
237.0974975441964
 21
282.3649175925563
 31
0.0
  0
LINE
  5
E74
330
2
100
AcDbEntity
  8
0
100
AcDbLine
 10
321.1560241891623
 20
280.3649175925563
 30
0.0
 11
238.1287879013562
 21
280.3649175925563
 31
0.0
  0
LINE
  5
E75
330
2
100
AcDbEntity
  8
0
100
AcDbLine
 10
321.1560241891623
 20
207.9649315925563
 30
0.0
 11
237.0974713067973
 21
207.9649315925563
 31
0.0
  0
LINE
  5
E76
330
2
100
AcDbEntity
  8
0
100
AcDbLine
 10
321.1560241891623
 20
202.5649375925563
 30
0.0
 11
159.1560091891622
 21
202.5649375925563
 31
0.0
  0
LINE
  5
E77
330
2
100
AcDbEntity
  8
0
100
AcDbLine
 10
321.1560241891623
 20
200.5649375925563
 30
0.0
 11
159.1560091891622
 21
200.5649375925563
 31
0.0
  0
LINE
  5
E78
330
2
100
AcDbEntity
  8
0
100
AcDbLine
 10
321.1560241891623
 20
289.7649115925563
 30
0.0
 11
159.1560091891622
 21
289.7649115925563
 31
0.0
  0
LINE
  5
E79
330
2
100
AcDbEntity
  8
0
100
AcDbLine
 10
321.1560241891623
 20
287.7649115925563
 30
0.0
 11
159.1560091891622
 21
287.7649115925563
 31
0.0
  0
LINE
  5
E7A
330
2
100
AcDbEntity
  8
0
100
AcDbLine
 10
321.1560241891623
 20
323.2649115925562
 30
0.0
 11
159.1560091891622
 21
323.2649115925562
 31
0.0
  0
LINE
  5
E7B
330
2
100
AcDbEntity
  8
0
100
AcDbLine
 10
321.1560241891623
 20
325.2649115925562
 30
0.0
 11
159.1560091891622
 21
325.2649115925562
 31
0.0
  0
LINE
  5
E7C
330
2
100
AcDbEntity
  8
0
100
AcDbLine
 10
159.1560091891622
 20
327.3999515925563
 30
0.0
 11
321.1560241891623
 21
327.3999515925563
 31
0.0
  0
LINE
  5
E7D
330
2
100
AcDbEntity
  8
0
100
AcDbLine
 10
159.5240811891622
 20
331.6649355925563
 30
0.0
 11
320.7879211891623
 21
331.6649355925563
 31
0.0
  0
LINE
  5
E7E
330
2
100
AcDbEntity
  8
0
100
AcDbLine
 10
321.1560241891623
 20
302.1649355925563
 30
0.0
 11
159.1560091891622
 21
302.1649355925563
 31
0.0
  0
LINE
  5
E7F
330
2
100
AcDbEntity
  8
0
100
AcDbLine
 10
321.1560241891623
 20
300.1649355925563
 30
0.0
 11
159.1560091891622
 21
300.1649355925563
 31
0.0
  0
LINE
  5
E80
330
2
100
AcDbEntity
  8
0
100
AcDbLine
 10
321.1560241891623
 20
310.4649235925563
 30
0.0
 11
159.1560091891622
 21
310.4649235925563
 31
0.0
  0
LINE
  5
E81
330
2
100
AcDbEntity
  8
0
100
AcDbLine
 10
321.1560241891623
 20
308.4649235925563
 30
0.0
 11
159.1560091891622
 21
308.4649235925563
 31
0.0
  0
LINE
  5
E82
330
2
100
AcDbEntity
  8
0
100
AcDbLine
 10
321.1560241891623
 20
316.2649115925563
 30
0.0
 11
159.1560091891622
 21
316.2649115925563
 31
0.0
  0
LINE
  5
E83
330
2
100
AcDbEntity
  8
0
100
AcDbLine
 10
321.1560241891623
 20
318.2649115925562
 30
0.0
 11
159.1560091891622
 21
318.2649115925562
 31
0.0
  0
LINE
  5
E84
330
2
100
AcDbEntity
  8
0
100
AcDbLine
 10
321.1560241891623
 20
181.8649255925563
 30
0.0
 11
159.1560091891622
 21
181.8649255925563
 31
0.0
  0
LINE
  5
E85
330
2
100
AcDbEntity
  8
0
100
AcDbLine
 10
321.1560241891623
 20
179.8649255925563
 30
0.0
 11
159.1560091891622
 21
179.8649255925563
 31
0.0
  0
LINE
  5
E86
330
2
100
AcDbEntity
  8
0
100
AcDbLine
 10
321.1560241891623
 20
190.1649435925563
 30
0.0
 11
159.1560091891622
 21
190.1649435925563
 31
0.0
  0
LINE
  5
E87
330
2
100
AcDbEntity
  8
0
100
AcDbLine
 10
321.1560241891623
 20
188.1649435925563
 30
0.0
 11
159.1560091891622
 21
188.1649435925563
 31
0.0
  0
LINE
  5
E88
330
2
100
AcDbEntity
  8
0
100
AcDbLine
 10
321.1560241891623
 20
172.0649375925563
 30
0.0
 11
159.1560091891622
 21
172.0649375925563
 31
0.0
  0
LINE
  5
E89
330
2
100
AcDbEntity
  8
0
100
AcDbLine
 10
321.1560241891623
 20
174.0649375925563
 30
0.0
 11
159.1560091891622
 21
174.0649375925563
 31
0.0
  0
LINE
  5
E91
330
2
100
AcDbEntity
  8
0
100
AcDbLine
 10
156.6560091891622
 20
190.9148445925563
 30
0.0
 11
156.6560091891622
 21
179.6353035925563
 31
0.0
  0
ARC
  5
E92
330
2
100
AcDbEntity
  8
0
100
AcDbCircle
 10
159.1560091891622
 20
180.8649255925563
 30
0.0
 40
1.0
100
AcDbArc
 50
90.0
 51
270.0
  0
ARC
  5
E93
330
2
100
AcDbEntity
  8
0
100
AcDbCircle
 10
159.1560091891622
 20
173.0649375925563
 30
0.0
 40
1.0
100
AcDbArc
 50
90.0
 51
270.0
  0
LINE
  5
E94
330
2
100
AcDbEntity
  8
0
100
AcDbLine
 10
155.3560291891622
 20
179.1442635925563
 30
0.0
 11
155.3560291891622
 21
173.9873995925563
 31
0.0
  0
LINE
  5
E95
330
2
100
AcDbEntity
  8
0
100
AcDbLine
 10
155.5560331891622
 20
179.2197605925563
 30
0.0
 11
155.5560331891622
 21
173.9873995925563
 31
0.0
  0
LINE
  5
E96
330
2
100
AcDbEntity
  8
0
100
AcDbLine
 10
155.7559921891622
 20
179.2952805925563
 30
0.0
 11
155.7559921891622
 21
173.9873995925563
 31
0.0
  0
LINE
  5
E97
330
2
100
AcDbEntity
  8
0
100
AcDbLine
 10
155.9559891891622
 20
179.3709025925562
 30
0.0
 11
155.9559361891622
 21
173.9873995925563
 31
0.0
  0
LINE
  5
E98
330
2
100
AcDbEntity
  8
0
100
AcDbLine
 10
156.1560091891622
 20
179.4464035925563
 30
0.0
 11
156.1560091891622
 21
173.9873995925563
 31
0.0
  0
LINE
  5
E99
330
2
100
AcDbEntity
  8
0
100
AcDbLine
 10
156.3559751891621
 20
179.5220415925563
 30
0.0
 11
156.3559751891621
 21
173.9873995925563
 31
0.0
  0
ARC
  5
E9A
330
2
100
AcDbEntity
  8
0
100
AcDbCircle
 10
159.1560091891622
 20
189.1649435925563
 30
0.0
 40
1.0
100
AcDbArc
 50
90.0
 51
270.0
  0
ARC
  5
E9E
330
2
100
AcDbEntity
  8
0
100
AcDbCircle
 10
242.6560091891622
 20
223.9649315925563
 30
0.0
 40
1.0
100
AcDbArc
 50
90.0
 51
270.0
  0
ARC
  5
E9F
330
2
100
AcDbEntity
  8
0
100
AcDbCircle
 10
242.6560091891622
 20
221.9649315925563
 30
0.0
 40
1.0
100
AcDbArc
 50
90.0
 51
180.0
  0
ARC
  5
EA0
330
2
100
AcDbEntity
  8
0
100
AcDbCircle
 10
242.6560091891622
 20
218.4649315925563
 30
0.0
 40
1.0
100
AcDbArc
 50
180.0
 51
270.0
  0
ARC
  5
EA1
330
2
100
AcDbEntity
  8
0
100
AcDbCircle
 10
236.6560091891622
 20
220.1649435925563
 30
0.0
 40
5.0
100
AcDbArc
 50
293.5772220049322
 51
0.0
  0
LINE
  5
EA6
330
2
100
AcDbEntity
  8
0
100
AcDbLine
 10
241.6560091891622
 20
221.9649315925563
 30
0.0
 11
241.6560091891622
 21
218.4649315925563
 31
0.0
  0
ARC
  5
EA7
330
2
100
AcDbEntity
  8
0
100
AcDbCircle
 10
242.6560091891622
 20
249.3649255925563
 30
0.0
 40
1.0
100
AcDbArc
 50
90.0
 51
180.0
  0
ARC
  5
EA8
330
2
100
AcDbEntity
  8
0
100
AcDbCircle
 10
242.6560091891622
 20
240.9649315925563
 30
0.0
 40
1.0
100
AcDbArc
 50
180.0
 51
270.0
  0
ARC
  5
EA9
330
2
100
AcDbEntity
  8
0
100
AcDbCircle
 10
242.6560091891622
 20
236.9649315925563
 30
0.0
 40
1.0
100
AcDbArc
 50
90.0
 51
180.0
  0
ARC
  5
EAA
330
2
100
AcDbEntity
  8
0
100
AcDbCircle
 10
242.6560091891622
 20
238.9649315925563
 30
0.0
 40
1.0
100
AcDbArc
 50
90.0
 51
270.0
  0
ARC
  5
EAB
330
2
100
AcDbEntity
  8
0
100
AcDbCircle
 10
242.6560091891622
 20
231.4649315925563
 30
0.0
 40
1.0
100
AcDbArc
 50
90.0
 51
270.0
  0
ARC
  5
EAC
330
2
100
AcDbEntity
  8
0
100
AcDbCircle
 10
242.6560091891622
 20
233.4649315925563
 30
0.0
 40
1.0
100
AcDbArc
 50
180.0
 51
270.0
  0
ARC
  5
EAD
330
2
100
AcDbEntity
  8
0
100
AcDbCircle
 10
242.6560091891622
 20
225.9649315925563
 30
0.0
 40
1.0
100
AcDbArc
 50
180.0
 51
270.0
  0
ARC
  5
EAE
330
2
100
AcDbEntity
  8
0
100
AcDbCircle
 10
242.6560091891622
 20
229.4649315925563
 30
0.0
 40
1.0
100
AcDbArc
 50
90.0
 51
180.0
  0
LINE
  5
EAF
330
2
100
AcDbEntity
  8
0
100
AcDbLine
 10
241.6560091891622
 20
236.9649315925563
 30
0.0
 11
241.6560091891622
 21
233.4649315925563
 31
0.0
  0
LINE
  5
EB0
330
2
100
AcDbEntity
  8
0
100
AcDbLine
 10
241.6560091891622
 20
229.4649315925563
 30
0.0
 11
241.6560091891622
 21
225.9649315925563
 31
0.0
  0
LINE
  5
EB1
330
2
100
AcDbEntity
  8
0
100
AcDbLine
 10
241.6560091891622
 20
249.3649255925563
 30
0.0
 11
241.6560091891622
 21
240.9649315925563
 31
0.0
  0
ARC
  5
EB2
330
2
100
AcDbEntity
  8
0
100
AcDbCircle
 10
242.6560091891622
 20
271.8649175925563
 30
0.0
 40
1.0
100
AcDbArc
 50
90.0
 51
180.0
  0
ARC
  5
EB3
330
2
100
AcDbEntity
  8
0
100
AcDbCircle
 10
242.6560091891622
 20
266.3649175925562
 30
0.0
 40
1.0
100
AcDbArc
 50
90.0
 51
270.0
  0
ARC
  5
EB4
330
2
100
AcDbEntity
  8
0
100
AcDbCircle
 10
242.6560091891622
 20
268.3649175925562
 30
0.0
 40
1.0
100
AcDbArc
 50
180.0
 51
270.0
  0
ARC
  5
EB5
330
2
100
AcDbEntity
  8
0
100
AcDbCircle
 10
242.6560091891622
 20
264.3649175925562
 30
0.0
 40
1.0
100
AcDbArc
 50
90.0
 51
180.0
  0
ARC
  5
EB6
330
2
100
AcDbEntity
  8
0
100
AcDbCircle
 10
242.6560091891622
 20
260.8649175925563
 30
0.0
 40
1.0
100
AcDbArc
 50
180.0
 51
270.0
  0
ARC
  5
EB7
330
2
100
AcDbEntity
  8
0
100
AcDbCircle
 10
236.6560091891622
 20
270.1649355925563
 30
0.0
 40
5.0
100
AcDbArc
 50
0.0
 51
66.42277799506778
  0
ARC
  5
EB8
330
2
100
AcDbEntity
  8
0
100
AcDbCircle
 10
242.6560091891622
 20
251.3649255925563
 30
0.0
 40
1.0
100
AcDbArc
 50
90.0
 51
270.0
  0
ARC
  5
EB9
330
2
100
AcDbEntity
  8
0
100
AcDbCircle
 10
242.6560091891622
 20
256.8649175925563
 30
0.0
 40
1.0
100
AcDbArc
 50
90.0
 51
180.0
  0
ARC
  5
EBA
330
2
100
AcDbEntity
  8
0
100
AcDbCircle
 10
242.6560091891622
 20
253.3649175925563
 30
0.0
 40
1.0
100
AcDbArc
 50
180.0
 51
270.0
  0
ARC
  5
EBB
330
2
100
AcDbEntity
  8
0
100
AcDbCircle
 10
242.6560091891622
 20
258.8649175925563
 30
0.0
 40
1.0
100
AcDbArc
 50
90.0
 51
270.0
  0
LINE
  5
EBC
330
2
100
AcDbEntity
  8
0
100
AcDbLine
 10
241.6560091891622
 20
264.3649175925562
 30
0.0
 11
241.6560091891622
 21
260.8649175925563
 31
0.0
  0
LINE
  5
EBD
330
2
100
AcDbEntity
  8
0
100
AcDbLine
 10
241.6560091891622
 20
256.8649175925563
 30
0.0
 11
241.6560091891622
 21
253.3649175925563
 31
0.0
  0
LINE
  5
EBE
330
2
100
AcDbEntity
  8
0
100
AcDbLine
 10
241.6560091891622
 20
271.8649175925563
 30
0.0
 11
241.6560091891622
 21
268.3649175925562
 31
0.0
  0
LINE
  5
EC1
330
2
100
AcDbEntity
  8
0
100
AcDbLine
 10
158.3017151891622
 20
329.4912755925563
 30
0.0
 11
158.5392791891622
 21
330.8385965925563
 31
0.0
  0
ARC
  5
EC3
330
2
100
AcDbEntity
  8
0
100
AcDbCircle
 10
159.1560091891622
 20
288.7649115925563
 30
0.0
 40
1.0
100
AcDbArc
 50
90.0
 51
270.0
  0
ARC
  5
EC4
330
2
100
AcDbEntity
  8
0
100
AcDbCircle
 10
159.1560091891622
 20
301.1649355925563
 30
0.0
 40
1.0
100
AcDbArc
 50
90.0
 51
270.0
  0
ARC
  5
EC5
330
2
100
AcDbEntity
  8
0
100
AcDbCircle
 10
159.1560091891622
 20
317.2649115925563
 30
0.0
 40
1.0
100
AcDbArc
 50
90.0
 51
270.0
  0
ARC
  5
EC6
330
2
100
AcDbEntity
  8
0
100
AcDbCircle
 10
159.1560091891622
 20
309.4649235925563
 30
0.0
 40
1.0
100
AcDbArc
 50
90.0
 51
270.0
  0
LINE
  5
EC7
330
2
100
AcDbEntity
  8
0
100
AcDbLine
 10
158.1560091891622
 20
329.1209595925563
 30
0.0
 11
158.1560091891622
 21
324.2649115925563
 31
0.0
  0
ARC
  5
EC8
330
2
100
AcDbEntity
  8
0
100
AcDbCircle
 10
159.1560091891622
 20
324.2649115925563
 30
0.0
 40
1.0
100
AcDbArc
 50
90.0
 51
270.0
  0
ARC
  5
EC9
330
2
100
AcDbEntity
  8
0
100
AcDbCircle
 10
159.1560091891622
 20
326.3999515925564
 30
0.0
 40
1.0
100
AcDbArc
 50
90.0
 51
180.0
  0
ARC
  5
ECA
330
2
100
AcDbEntity
  8
0
100
AcDbCircle
 10
157.3169131891622
 20
329.6649355925563
 30
0.0
 40
1.0
100
AcDbArc
 50
270.0
 51
349.9999999999998
  0
ARC
  5
ECB
330
2
100
AcDbEntity
  8
0
100
AcDbCircle
 10
159.5240811891622
 20
330.6649355925563
 30
0.0
 40
1.0
100
AcDbArc
 50
90.0
 51
169.9999999999997
  0
LINE
  5
ECE
330
2
100
AcDbEntity
  8
0
100
AcDbLine
 10
384.3128231891622
 20
232.6079065925563
 30
0.0
 11
400.9361751891622
 21
306.1323435925562
 31
0.0
  0
LINE
  5
ECF
330
2
100
AcDbEntity
  8
0
100
AcDbLine
 10
388.4929991891622
 20
231.6628075925563
 30
0.0
 11
405.1163211891621
 21
305.1871375925563
 31
0.0
  0
LINE
  5
ED0
330
2
100
AcDbEntity
  8
0
100
AcDbLine
 10
349.6560241891623
 20
183.6159435925562
 30
0.0
 11
349.6560241891623
 21
306.7139475925563
 31
0.0
  0
ARC
  5
ED1
330
2
100
AcDbEntity
  8
0
100
AcDbCircle
 10
321.1560241891623
 20
223.9649315925563
 30
0.0
 40
1.0
100
AcDbArc
 50
270.0
 51
90.0
  0
ARC
  5
ED2
330
2
100
AcDbEntity
  8
0
100
AcDbCircle
 10
321.1560241891623
 20
180.8649255925563
 30
0.0
 40
1.0
100
AcDbArc
 50
270.0
 51
90.0
  0
ARC
  5
ED3
330
2
100
AcDbEntity
  8
0
100
AcDbCircle
 10
321.1560241891623
 20
173.0649375925563
 30
0.0
 40
1.0
100
AcDbArc
 50
270.0
 51
90.0
  0
ARC
  5
ED4
330
2
100
AcDbEntity
  8
0
100
AcDbCircle
 10
321.1560241891623
 20
189.1649435925563
 30
0.0
 40
1.0
100
AcDbArc
 50
270.0
 51
90.0
  0
ARC
  5
ED5
330
2
100
AcDbEntity
  8
0
100
AcDbCircle
 10
321.1560241891623
 20
208.9649315925563
 30
0.0
 40
1.0
100
AcDbArc
 50
270.0
 51
90.0
  0
ARC
  5
ED6
330
2
100
AcDbEntity
  8
0
100
AcDbCircle
 10
321.1560241891623
 20
201.5649375925563
 30
0.0
 40
1.0
100
AcDbArc
 50
270.0
 51
90.0
  0
ARC
  5
ED7
330
2
100
AcDbEntity
  8
0
100
AcDbCircle
 10
321.1560241891623
 20
216.4649315925563
 30
0.0
 40
1.0
100
AcDbArc
 50
270.0
 51
90.0
  0
ARC
  5
ED8
330
2
100
AcDbEntity
  8
0
100
AcDbCircle
 10
352.1560241891623
 20
183.6159435925562
 30
0.0
 40
2.5
100
AcDbArc
 50
180.0
 51
270.0
  0
LINE
  5
ED9
330
2
100
AcDbEntity
  8
0
100
AcDbLine
 10
359.1560241891623
 20
181.1159435925562
 30
0.0
 11
352.1560241891623
 21
181.1159435925562
 31
0.0
  0
ARC
  5
EDA
330
2
100
AcDbEntity
  8
0
100
AcDbCircle
 10
359.1560241891623
 20
178.6159435925562
 30
0.0
 40
2.5
100
AcDbArc
 50
0.0
 51
90.0
  0
ARC
  5
EDB
330
2
100
AcDbEntity
  8
0
100
AcDbCircle
 10
321.1560241891623
 20
231.4649315925563
 30
0.0
 40
1.0
100
AcDbArc
 50
270.0
 51
90.0
  0
ARC
  5
EDC
330
2
100
AcDbEntity
  8
0
100
AcDbCircle
 10
321.1560241891623
 20
238.9649315925563
 30
0.0
 40
1.0
100
AcDbArc
 50
270.0
 51
90.0
  0
ARC
  5
EDD
330
2
100
AcDbEntity
  8
0
100
AcDbCircle
 10
321.1560241891623
 20
251.3649255925563
 30
0.0
 40
1.0
100
AcDbArc
 50
270.0
 51
90.0
  0
ARC
  5
EDE
330
2
100
AcDbEntity
  8
0
100
AcDbCircle
 10
321.1560241891623
 20
258.8649175925563
 30
0.0
 40
1.0
100
AcDbArc
 50
270.0
 51
90.0
  0
ARC
  5
EDF
330
2
100
AcDbEntity
  8
0
100
AcDbCircle
 10
321.1560241891623
 20
273.8649175925563
 30
0.0
 40
1.0
100
AcDbArc
 50
270.0
 51
90.0
  0
ARC
  5
EE0
330
2
100
AcDbEntity
  8
0
100
AcDbCircle
 10
321.1560241891623
 20
266.3649175925562
 30
0.0
 40
1.0
100
AcDbArc
 50
270.0
 51
90.0
  0
ARC
  5
EE1
330
2
100
AcDbEntity
  8
0
100
AcDbCircle
 10
421.6560241891622
 20
224.1649435925563
 30
0.0
 40
34.0
100
AcDbArc
 50
167.2601009999998
 51
270.0
  0
ARC
  5
EE2
330
2
100
AcDbEntity
  8
0
100
AcDbCircle
 10
421.6560241891622
 20
224.1649435925563
 30
0.0
 40
38.285721
100
AcDbArc
 50
167.2601009999998
 51
270.0
  0
ARC
  5
EE3
330
2
100
AcDbEntity
  8
0
100
AcDbCircle
 10
432.8559751891621
 20
214.1909065925563
 30
0.0
 40
13.0
100
AcDbArc
 50
112.3525010000008
 51
215.3744960000016
  0
ARC
  5
EE4
330
2
100
AcDbEntity
  8
0
100
AcDbCircle
 10
433.8559751891621
 20
213.5639225925563
 30
0.0
 40
7.0
100
AcDbArc
 50
135.546096999998
 51
220.5290070000008
  0
ARC
  5
EE5
330
2
100
AcDbEntity
  8
0
100
AcDbCircle
 10
429.2955201891622
 20
209.6649435925563
 30
0.0
 40
1.0
100
AcDbArc
 50
220.5301969999983
 51
270.0
  0
ARC
  5
EE6
330
2
100
AcDbEntity
  8
0
100
AcDbCircle
 10
431.7146181891621
 20
215.6649435925563
 30
0.0
 40
4.0
100
AcDbArc
 50
90.0
 51
135.5462039999978
  0
ARC
  5
EE7
330
2
100
AcDbEntity
  8
0
100
AcDbCircle
 10
430.1939571891621
 20
220.6649435925563
 30
0.0
 40
6.0
100
AcDbArc
 50
90.0
 51
112.352698999997
  0
ARC
  5
EE8
330
2
100
AcDbEntity
  8
0
100
AcDbCircle
 10
371.6560241891623
 20
337.4969365925563
 30
0.0
 40
10.0
100
AcDbArc
 50
125.3404999999996
 51
180.0
  0
ARC
  5
EE9
330
2
100
AcDbEntity
  8
0
100
AcDbCircle
 10
366.6560241891623
 20
356.6649355925563
 30
0.0
 40
5.0
100
AcDbArc
 50
90.0
 51
180.0
  0
LINE
  5
EEA
330
2
100
AcDbEntity
  8
0
100
AcDbLine
 10
361.6560241891623
 20
311.7139475925563
 30
0.0
 11
361.6560241891623
 21
356.6649355925563
 31
0.0
  0
ARC
  5
EEB
330
2
100
AcDbEntity
  8
0
100
AcDbCircle
 10
351.6560241891623
 20
337.6650575925563
 30
0.0
 40
10.0
100
AcDbArc
 50
270.0
 51
0.0
  0
LINE
  5
EEC
330
2
100
AcDbEntity
  8
0
100
AcDbLine
 10
322.0103031891622
 20
329.4912755925563
 30
0.0
 11
321.7727231891622
 21
330.8385965925563
 31
0.0
  0
LINE
  5
EED
330
2
100
AcDbEntity
  8
0
100
AcDbLine
 10
325.1560241891623
 20
327.6650575925563
 30
0.0
 11
351.6560241891623
 21
327.6650575925563
 31
0.0
  0
ARC
  5
EEE
330
2
100
AcDbEntity
  8
0
100
AcDbCircle
 10
321.1560241891623
 20
288.7649115925563
 30
0.0
 40
1.0
100
AcDbArc
 50
270.0
 51
90.0
  0
ARC
  5
EEF
330
2
100
AcDbEntity
  8
0
100
AcDbCircle
 10
321.1560241891623
 20
281.3649175925562
 30
0.0
 40
1.0
100
AcDbArc
 50
270.0
 51
90.0
  0
ARC
  5
EF0
330
2
100
AcDbEntity
  8
0
100
AcDbCircle
 10
321.1560241891623
 20
301.1649355925563
 30
0.0
 40
1.0
100
AcDbArc
 50
270.0
 51
90.0
  0
ARC
  5
EF1
330
2
100
AcDbEntity
  8
0
100
AcDbCircle
 10
321.1560241891623
 20
317.2649115925563
 30
0.0
 40
1.0
100
AcDbArc
 50
270.0
 51
90.0
  0
ARC
  5
EF2
330
2
100
AcDbEntity
  8
0
100
AcDbCircle
 10
321.1560241891623
 20
309.4649235925563
 30
0.0
 40
1.0
100
AcDbArc
 50
270.0
 51
90.0
  0
LINE
  5
EF3
330
2
100
AcDbEntity
  8
0
100
AcDbLine
 10
322.1560241891623
 20
329.1209595925563
 30
0.0
 11
322.1560241891623
 21
324.2649115925563
 31
0.0
  0
ARC
  5
EF4
330
2
100
AcDbEntity
  8
0
100
AcDbCircle
 10
321.1560241891623
 20
324.2649115925563
 30
0.0
 40
1.0
100
AcDbArc
 50
270.0
 51
90.0
  0
ARC
  5
EF5
330
2
100
AcDbEntity
  8
0
100
AcDbCircle
 10
321.1560241891623
 20
326.3999515925564
 30
0.0
 40
1.0
100
AcDbArc
 50
0.0
 51
90.0
  0
ARC
  5
EF6
330
2
100
AcDbEntity
  8
0
100
AcDbCircle
 10
322.9951051891621
 20
329.6649355925563
 30
0.0
 40
1.0
100
AcDbArc
 50
190.0000000000002
 51
270.0
  0
LINE
  5
EF7
330
2
100
AcDbEntity
  8
0
100
AcDbLine
 10
322.9951051891621
 20
328.6649355925563
 30
0.0
 11
325.1560241891623
 21
328.6649355925563
 31
0.0
  0
LINE
  5
EF8
330
2
100
AcDbEntity
  8
0
100
AcDbLine
 10
352.1560241891623
 20
309.2139475925563
 30
0.0
 11
359.1560241891623
 21
309.2139475925563
 31
0.0
  0
ARC
  5
EF9
330
2
100
AcDbEntity
  8
0
100
AcDbCircle
 10
352.1560241891623
 20
306.7139475925563
 30
0.0
 40
2.5
100
AcDbArc
 50
90.0
 51
180.0
  0
ARC
  5
EFA
330
2
100
AcDbEntity
  8
0
100
AcDbCircle
 10
359.1560241891623
 20
311.7139475925563
 30
0.0
 40
2.5
100
AcDbArc
 50
270.0
 51
0.0
  0
ARC
  5
EFB
330
2
100
AcDbEntity
  8
0
100
AcDbCircle
 10
320.7879211891623
 20
330.6649355925563
 30
0.0
 40
1.0
100
AcDbArc
 50
10.00000000000021
 51
90.0
  0
LINE
  5
EFC
330
2
100
AcDbEntity
  8
0
100
AcDbLine
 10
351.1564211891623
 20
357.8549385925563
 30
0.0
 11
351.1564211891623
 21
346.4749485925563
 31
0.0
  0
LINE
  5
EFD
330
2
100
AcDbEntity
  8
0
100
AcDbLine
 10
356.4564091891621
 20
359.8649475925563
 30
0.0
 11
356.4564091891621
 21
344.4649385925564
 31
0.0
  0
LINE
  5
EFE
330
2
100
AcDbEntity
  8
0
100
AcDbLine
 10
358.4564091891621
 20
342.1649355925563
 30
0.0
 11
361.6564211891623
 21
342.1649355925563
 31
0.0
  0
LINE
  5
EFF
330
2
100
AcDbEntity
  8
0
100
AcDbLine
 10
352.6564211891623
 20
355.6021615925563
 30
0.0
 11
356.4564091891621
 21
355.6021615925563
 31
0.0
  0
LINE
  5
F00
330
2
100
AcDbEntity
  8
0
100
AcDbLine
 10
352.6564211891623
 20
348.7277255925564
 30
0.0
 11
356.4564091891621
 21
348.7277255925564
 31
0.0
  0
LINE
  5
F01
330
2
100
AcDbEntity
  8
0
100
AcDbLine
 10
352.6564211891623
 20
344.9749485925563
 30
0.0
 11
356.4564091891621
 21
344.9749485925563
 31
0.0
  0
ARC
  5
F02
330
2
100
AcDbEntity
  8
0
100
AcDbCircle
 10
352.6564211891623
 20
354.1021615925563
 30
0.0
 40
1.5
100
AcDbArc
 50
90.0
 51
180.0
  0
ARC
  5
F03
330
2
100
AcDbEntity
  8
0
100
AcDbCircle
 10
352.6564211891623
 20
350.2277255925563
 30
0.0
 40
1.5
100
AcDbArc
 50
180.0
 51
270.0
  0
ARC
  5
F04
330
2
100
AcDbEntity
  8
0
100
AcDbCircle
 10
352.6564211891623
 20
357.1021615925563
 30
0.0
 40
1.5
100
AcDbArc
 50
180.0
 51
270.0
  0
ARC
  5
F05
330
2
100
AcDbEntity
  8
0
100
AcDbCircle
 10
352.6564211891623
 20
347.2277255925563
 30
0.0
 40
1.5
100
AcDbArc
 50
90.0
 51
180.0
  0
ARC
  5
F06
330
2
100
AcDbEntity
  8
0
100
AcDbCircle
 10
352.6564211891623
 20
346.4749485925563
 30
0.0
 40
1.5
100
AcDbArc
 50
180.0
 51
270.0
  0
LINE
  5
F07
330
2
100
AcDbEntity
  8
0
100
AcDbLine
 10
356.4564091891621
 20
344.4649385925564
 30
0.0
 11
358.4564091891621
 21
344.4649385925564
 31
0.0
  0
LINE
  5
F08
330
2
100
AcDbEntity
  8
0
100
AcDbLine
 10
352.6564211891623
 20
359.3549385925563
 30
0.0
 11
356.4564091891621
 21
359.3549385925563
 31
0.0
  0
ARC
  5
F09
330
2
100
AcDbEntity
  8
0
100
AcDbCircle
 10
352.6564211891623
 20
357.8549385925563
 30
0.0
 40
1.5
100
AcDbArc
 50
90.0
 51
180.0
  0
LINE
  5
F0A
330
2
100
AcDbEntity
  8
0
100
AcDbLine
 10
356.4564091891621
 20
359.8649475925563
 30
0.0
 11
358.4564091891621
 21
359.8649475925563
 31
0.0
  0
LINE
  5
F0B
330
2
100
AcDbEntity
  8
HIDS
100
AcDbLine
 10
358.4564091891621
 20
376.1649355925563
 30
0.0
 11
361.6564211891623
 21
376.1649355925563
 31
0.0
  0
LINE
  5
F0C
330
2
100
AcDbEntity
  8
0
100
AcDbLine
 10
365.8718441891622
 20
345.6543615925562
 30
0.0
 11
414.0573611891623
 21
379.8223455925563
 31
0.0
  0
LINE
  5
F0D
330
2
100
AcDbEntity
  8
0
100
AcDbLine
 10
366.6560241891623
 20
361.6649355925563
 30
0.0
 11
387.4951961891623
 21
361.6649355925563
 31
0.0
  0
ARC
  5
F0E
330
2
100
AcDbEntity
  8
0
100
AcDbCircle
 10
387.4951961891623
 20
364.6649355925563
 30
0.0
 40
3.0
100
AcDbArc
 50
270.0
 51
305.3400880000015
  0
ARC
  5
F0F
330
2
100
AcDbEntity
  8
0
100
AcDbCircle
 10
419.8415401891622
 20
371.6649355925563
 30
0.0
 40
10.0
100
AcDbArc
 50
90.0
 51
125.3403020000026
  0
LINE
  5
F10
330
2
100
AcDbEntity
  8
CENTER
100
AcDbLine
 10
351.0926081891621
 20
386.1649515925563
 30
0.0
 11
369.1902341891623
 21
386.1649515925563
 31
0.0
  0
LINE
  5
F11
330
2
100
AcDbEntity
  8
HIDS
100
AcDbLine
 10
358.4564091891621
 20
396.1649515925562
 30
0.0
 11
361.6564211891623
 21
396.1649515925562
 31
0.0
  0
LINE
  5
F12
330
2
100
AcDbEntity
  8
0
100
AcDbLine
 10
358.4564091891621
 20
402.1649515925562
 30
0.0
 11
361.6539791891623
 21
402.1649515925562
 31
0.0
  0
LINE
  5
F13
330
2
100
AcDbEntity
  8
CENTER
100
AcDbLine
 10
451.6560241891623
 20
398.0083655925563
 30
0.0
 11
451.6560241891623
 21
117.3136025925563
 31
0.0
  0
LINE
  5
F14
330
2
100
AcDbEntity
  8
0
100
AcDbLine
 10
541.6559631891622
 20
337.4969365925563
 30
0.0
 11
541.6559631891622
 21
129.6649425925562
 31
0.0
  0
ARC
  5
F15
330
2
100
AcDbEntity
  8
0
100
AcDbCircle
 10
485.4134401891622
 20
151.6649435925563
 30
0.0
 40
3.0
100
AcDbArc
 50
45.00046899999949
 51
90.0
  0
LINE
  5
F16
330
2
100
AcDbEntity
  8
0
100
AcDbLine
 10
486.656024189162
 20
153.8623825925563
 30
0.0
 11
486.656024189162
 21
150.3725625925563
 31
0.0
  0
LINE
  5
F17
330
2
100
AcDbEntity
  8
0
100
AcDbLine
 10
487.5345641891621
 20
153.7862625925562
 30
0.0
 11
490.1915461891621
 21
151.1293825925563
 31
0.0
  0
ARC
  5
F18
330
2
100
AcDbEntity
  8
0
100
AcDbCircle
 10
493.7269471891623
 20
154.6649435925563
 30
0.0
 40
5.0
100
AcDbArc
 50
225.0001070000009
 51
270.0
  0
LINE
  5
F19
330
2
100
AcDbEntity
  8
CENTER
100
AcDbLine
 10
511.656024189162
 20
161.8323815925563
 30
0.0
 11
511.656024189162
 21
118.8227225925562
 31
0.0
  0
LINE
  5
F1A
330
2
100
AcDbEntity
  8
HIDS
100
AcDbLine
 10
504.156024189162
 20
149.6649435925563
 30
0.0
 11
504.156024189162
 21
129.6649425925562
 31
0.0
  0
LINE
  5
F1B
330
2
100
AcDbEntity
  8
HIDS
100
AcDbLine
 10
519.1559631891623
 20
149.6649435925563
 30
0.0
 11
519.1559631891623
 21
129.6649425925562
 31
0.0
  0
LINE
  5
F1C
330
2
100
AcDbEntity
  8
0
100
AcDbLine
 10
527.6559631891623
 20
146.7412625925562
 30
0.0
 11
527.6559631891623
 21
129.6649425925562
 31
0.0
  0
LINE
  5
F1D
330
2
100
AcDbEntity
  8
0
100
AcDbLine
 10
502.3758421891622
 20
306.1323435925562
 30
0.0
 11
518.9991641891622
 21
232.6079675925563
 31
0.0
  0
LINE
  5
F1E
330
2
100
AcDbEntity
  8
0
100
AcDbLine
 10
498.1955751891623
 20
305.1871375925563
 30
0.0
 11
514.8189571891621
 21
231.6628375925563
 31
0.0
  0
ARC
  5
F1F
330
2
100
AcDbEntity
  8
0
100
AcDbCircle
 10
481.656024189162
 20
224.1649435925563
 30
0.0
 40
34.0
100
AcDbArc
 50
270.0
 51
12.73995999999959
  0
ARC
  5
F20
330
2
100
AcDbEntity
  8
0
100
AcDbCircle
 10
481.656024189162
 20
224.1649435925563
 30
0.0
 40
38.285721
100
AcDbArc
 50
270.0
 51
12.73994999999906
  0
LINE
  5
F21
330
2
100
AcDbEntity
  8
0
100
AcDbLine
 10
458.3559751891621
 20
226.6649435925563
 30
0.0
 11
458.3559751891621
 21
219.6649435925563
 31
0.0
  0
LINE
  5
F22
330
2
100
AcDbEntity
  8
0
100
AcDbLine
 10
441.8559751891621
 20
219.6649435925563
 30
0.0
 11
441.8559751891621
 21
226.6649435925563
 31
0.0
  0
LINE
  5
F23
330
2
100
AcDbEntity
  8
0
100
AcDbLine
 10
444.3559751891621
 20
226.6649435925563
 30
0.0
 11
444.3559751891621
 21
219.6649435925563
 31
0.0
  0
LINE
  5
F24
330
2
100
AcDbEntity
  8
0
100
AcDbLine
 10
460.8559751891621
 20
226.6649435925563
 30
0.0
 11
460.8559751891621
 21
206.6649435925563
 31
0.0
  0
ARC
  5
F25
330
2
100
AcDbEntity
  8
0
100
AcDbCircle
 10
474.4559201891623
 20
218.3731415925563
 30
0.0
 40
9.0
100
AcDbArc
 50
311.8104210000017
 51
59.13299199999959
  0
LINE
  5
F26
330
2
100
AcDbEntity
  8
0
100
AcDbLine
 10
467.355975189162
 20
219.6649435925563
 30
0.0
 11
474.3559751891621
 21
219.6649435925563
 31
0.0
  0
LINE
  5
F27
330
2
100
AcDbEntity
  8
0
100
AcDbLine
 10
447.8559751891621
 20
206.6649435925563
 30
0.0
 11
454.855975189162
 21
206.6649435925563
 31
0.0
  0
LINE
  5
F28
330
2
100
AcDbEntity
  8
0
100
AcDbLine
 10
435.3559751891621
 20
216.6649435925563
 30
0.0
 11
435.3559751891621
 21
208.6649435925563
 31
0.0
  0
LINE
  5
F29
330
2
100
AcDbEntity
  8
0
100
AcDbLine
 10
441.8559751891621
 20
216.6649435925563
 30
0.0
 11
441.8559751891621
 21
206.6649435925563
 31
0.0
  0
LINE
  5
F2A
330
2
100
AcDbEntity
  8
0
100
AcDbLine
 10
447.8559751891621
 20
219.6649435925563
 30
0.0
 11
447.8559751891621
 21
206.6649435925563
 31
0.0
  0
LINE
  5
F2B
330
2
100
AcDbEntity
  8
0
100
AcDbLine
 10
435.3559751891621
 20
216.6649435925563
 30
0.0
 11
441.8559751891621
 21
216.6649435925563
 31
0.0
  0
LINE
  5
F2C
330
2
100
AcDbEntity
  8
0
100
AcDbLine
 10
444.3559751891621
 20
219.6649435925563
 30
0.0
 11
447.8559751891621
 21
219.6649435925563
 31
0.0
  0
LINE
  5
F2D
330
2
100
AcDbEntity
  8
0
100
AcDbLine
 10
454.855975189162
 20
219.6649435925563
 30
0.0
 11
454.855975189162
 21
206.6649435925563
 31
0.0
  0
LINE
  5
F2E
330
2
100
AcDbEntity
  8
0
100
AcDbLine
 10
467.355975189162
 20
219.6649435925563
 30
0.0
 11
467.355975189162
 21
206.6649435925563
 31
0.0
  0
LINE
  5
F2F
330
2
100
AcDbEntity
  8
0
100
AcDbLine
 10
460.8559751891621
 20
206.6649435925563
 30
0.0
 11
467.355975189162
 21
206.6649435925563
 31
0.0
  0
LINE
  5
F30
330
2
100
AcDbEntity
  8
0
100
AcDbLine
 10
454.855975189162
 20
219.6649435925563
 30
0.0
 11
458.3559751891621
 21
219.6649435925563
 31
0.0
  0
LINE
  5
F31
330
2
100
AcDbEntity
  8
0
100
AcDbLine
 10
469.8559751891621
 20
216.6649435925563
 30
0.0
 11
475.855975189162
 21
206.6649435925563
 31
0.0
  0
LINE
  5
F32
330
2
100
AcDbEntity
  8
0
100
AcDbLine
 10
483.4559201891623
 20
206.6649435925563
 30
0.0
 11
480.4559201891622
 21
211.6649435925563
 31
0.0
  0
LINE
  5
F33
330
2
100
AcDbEntity
  8
0
100
AcDbLine
 10
475.855975189162
 20
206.6649435925563
 30
0.0
 11
483.4559201891623
 21
206.6649435925563
 31
0.0
  0
ARC
  5
F34
330
2
100
AcDbEntity
  8
0
100
AcDbCircle
 10
474.3559751891621
 20
218.1649435925563
 30
0.0
 40
1.5
100
AcDbArc
 50
270.0
 51
90.0
  0
LINE
  5
F35
330
2
100
AcDbEntity
  8
0
100
AcDbLine
 10
469.8559751891621
 20
216.6649435925563
 30
0.0
 11
474.3559751891621
 21
216.6649435925563
 31
0.0
  0
LINE
  5
F36
330
2
100
AcDbEntity
  8
0
100
AcDbLine
 10
477.0212581891621
 20
226.6649435925563
 30
0.0
 11
460.8559751891621
 21
226.6649435925563
 31
0.0
  0
LINE
  5
F37
330
2
100
AcDbEntity
  8
0
100
AcDbLine
 10
444.3559751891621
 20
226.6649435925563
 30
0.0
 11
458.3559751891621
 21
226.6649435925563
 31
0.0
  0
ARC
  5
F38
330
2
100
AcDbEntity
  8
0
100
AcDbCircle
 10
477.0212581891621
 20
222.6649435925563
 30
0.0
 40
4.0
100
AcDbArc
 50
59.13309899999765
 51
90.0
  0
LINE
  5
F39
330
2
100
AcDbEntity
  8
0
100
AcDbLine
 10
489.2546571891621
 20
379.8223455925563
 30
0.0
 11
537.4401431891621
 21
345.6543615925562
 31
0.0
  0
LINE
  5
F3A
330
2
100
AcDbEntity
  8
HIDS
100
AcDbLine
 10
474.6560241891622
 20
300.6649355925563
 30
0.0
 11
466.6560241891622
 21
300.6649355925563
 31
0.0
  0
LINE
  5
F3B
330
2
100
AcDbEntity
  8
HIDS
100
AcDbLine
 10
474.6560241891622
 20
288.6649355925563
 30
0.0
 11
466.6560241891622
 21
288.6649355925563
 31
0.0
  0
LINE
  5
F3C
330
2
100
AcDbEntity
  8
HIDS
100
AcDbLine
 10
466.6560241891622
 20
288.6649355925563
 30
0.0
 11
466.6560241891622
 21
300.6649355925563
 31
0.0
  0
LINE
  5
F3D
330
2
100
AcDbEntity
  8
HIDS
100
AcDbLine
 10
474.6560241891622
 20
288.6649355925563
 30
0.0
 11
474.6560241891622
 21
300.6649355925563
 31
0.0
  0
ARC
  5
F3E
330
2
100
AcDbEntity
  8
0
100
AcDbCircle
 10
483.4703551891623
 20
371.6649355925563
 30
0.0
 40
10.0
100
AcDbArc
 50
54.66006900000163
 51
90.0
  0
ARC
  5
F3F
330
2
100
AcDbEntity
  8
0
100
AcDbCircle
 10
531.6559631891623
 20
337.4969365925563
 30
0.0
 40
10.0
100
AcDbArc
 50
0.0
 51
54.66004899999736
  0
LINE
  5
13E5
330
2
100
AcDbEntity
  8
CENTER
100
AcDbLine
 10
1026.598584755264
 20
294.6649355925563
 30
0.0
 11
1160.866042321817
 21
294.6649355925563
 31
0.0
  0
LINE
  5
14E5
330
2
100
AcDbEntity
  8
CENTER
100
AcDbLine
 10
524.9272641891622
 20
580.306622556648
 30
0.0
 11
498.3847841891622
 21
580.306622556648
 31
0.0
  0
LINE
  5
14E6
330
2
100
AcDbEntity
  8
CENTER
100
AcDbLine
 10
391.6560241891623
 20
593.577862556648
 30
0.0
 11
391.6560241891623
 21
567.0353825566479
 31
0.0
  0
LINE
  5
14E7
330
2
100
AcDbEntity
  8
CENTER
100
AcDbLine
 10
404.9272641891623
 20
580.306622556648
 30
0.0
 11
378.3847841891622
 21
580.306622556648
 31
0.0
  0
LINE
  5
14E8
330
2
100
AcDbEntity
  8
CENTER
100
AcDbLine
 10
511.6560241891622
 20
593.577862556648
 30
0.0
 11
511.6560241891622
 21
567.0353825566479
 31
0.0
  0
LINE
  5
14E9
330
2
100
AcDbEntity
  8
CENTER
100
AcDbLine
 10
524.9272641891622
 20
720.3066225566479
 30
0.0
 11
498.3847841891622
 21
720.3066225566479
 31
0.0
  0
LINE
  5
14EA
330
2
100
AcDbEntity
  8
CENTER
100
AcDbLine
 10
391.6560241891623
 20
733.577862556648
 30
0.0
 11
391.6560241891623
 21
707.0353825566479
 31
0.0
  0
LINE
  5
14EB
330
2
100
AcDbEntity
  8
CENTER
100
AcDbLine
 10
404.9272641891623
 20
720.3066225566479
 30
0.0
 11
378.3847841891622
 21
720.3066225566479
 31
0.0
  0
LINE
  5
14EC
330
2
100
AcDbEntity
  8
CENTER
100
AcDbLine
 10
511.6560241891622
 20
733.577862556648
 30
0.0
 11
511.6560241891622
 21
707.0353825566479
 31
0.0
  0
LINE
  5
1552
330
2
100
AcDbEntity
  8
0
100
AcDbLine
 10
650.1470293897971
 20
285.4649235925565
 30
0.0
 11
689.8598043594081
 21
285.4649235925565
 31
0.0
  0
LINE
  5
1553
330
2
100
AcDbEntity
  8
0
100
AcDbLine
 10
650.1598043594083
 20
204.8649475925565
 30
0.0
 11
689.8598043594081
 21
204.8649475925565
 31
0.0
  0
LINE
  5
1556
330
2
100
AcDbEntity
  8
0
100
AcDbLine
 10
238.6559326891624
 20
212.9649390925564
 30
0.0
 11
238.6559326891624
 21
277.3649480925563
 31
0.0
  0
LINE
  5
1557
330
2
100
AcDbEntity
  8
0
100
AcDbLine
 10
235.8559446891624
 20
212.9649390925564
 30
0.0
 11
235.8559446891624
 21
277.3649480925563
 31
0.0
  0
LINE
  5
1558
330
2
100
AcDbEntity
  8
0
100
AcDbLine
 10
643.3598043594081
 20
211.6649355925563
 30
0.0
 11
643.3598043594081
 21
278.6649355925563
 31
0.0
  0
ARC
  5
1559
330
2
100
AcDbEntity
  8
0
100
AcDbCircle
 10
155.4559356891619
 20
235.1649510925561
 30
0.0
 40
3.0
100
AcDbArc
 50
180.0
 51
270.0
  0
LINE
  5
155A
330
2
100
AcDbEntity
  8
0
100
AcDbLine
 10
149.6559326891623
 20
212.9649390925564
 30
0.0
 11
149.6559326891623
 21
277.3649480925563
 31
0.0
  0
CIRCLE
  5
155C
330
2
100
AcDbEntity
  8
0
100
AcDbCircle
 10
155.4559356891619
 20
224.1649510925561
 30
0.0
 40
4.0
  0
ARC
  5
155D
330
2
100
AcDbEntity
  8
0
100
AcDbCircle
 10
158.4559356891619
 20
212.9649390925561
 30
0.0
 40
8.8
100
AcDbArc
 50
180.0
 51
270.0
  0
ARC
  5
155E
330
2
100
AcDbEntity
  8
0
100
AcDbCircle
 10
158.4559356891619
 20
212.9649390925561
 30
0.0
 40
6.0
100
AcDbArc
 50
180.0
 51
270.0
  0
ARC
  5
155F
330
2
100
AcDbEntity
  8
0
100
AcDbCircle
 10
155.4557676891619
 20
213.1650270925562
 30
0.0
 40
3.0
100
AcDbArc
 50
90.21849099999606
 51
180.6016620000001
  0
LINE
  5
1574
330
2
100
AcDbEntity
  8
0
100
AcDbLine
 10
158.4559356891622
 20
206.9649390925563
 30
0.0
 11
229.8559296891623
 21
206.9649390925563
 31
0.0
  0
LINE
  5
1575
330
2
100
AcDbEntity
  8
0
100
AcDbLine
 10
229.8559296891623
 20
204.1649360925565
 30
0.0
 11
158.4559356891622
 21
204.1649360925565
 31
0.0
  0
ARC
  5
1576
330
2
100
AcDbEntity
  8
0
100
AcDbCircle
 10
155.4559356891619
 20
224.1649510925561
 30
0.0
 40
8.0
100
AcDbArc
 50
270.2184880000026
 51
90.0
  0
LINE
  5
1577
330
2
100
AcDbEntity
  8
0
100
AcDbLine
 10
152.4559356891622
 20
212.9649390925564
 30
0.0
 11
152.4559356891622
 21
213.1650270925564
 31
0.0
  0
ARC
  5
1578
330
2
100
AcDbEntity
  8
0
100
AcDbCircle
 10
229.8559296891618
 20
212.964939092556
 30
0.0
 40
8.8
100
AcDbArc
 50
270.0
 51
0.0
  0
ARC
  5
1579
330
2
100
AcDbEntity
  8
0
100
AcDbCircle
 10
229.8559296891618
 20
212.964939092556
 30
0.0
 40
6.0
100
AcDbArc
 50
270.0
 51
0.0
  0
ARC
  5
157A
330
2
100
AcDbEntity
  8
0
100
AcDbCircle
 10
650.159804359408
 20
211.6649355925559
 30
0.0
 40
6.799999999999998
100
AcDbArc
 50
180.0
 51
270.0
  0
LINE
  5
157B
330
2
100
AcDbEntity
  8
CENTER
100
AcDbLine
 10
149.1578856891634
 20
540.806744556648
 30
0.0
 11
166.1979246891625
 21
540.806744556648
 31
0.0
  0
ARC
  5
157C
330
2
100
AcDbEntity
  8
0
100
AcDbCircle
 10
152.9713616891618
 20
519.0343465566481
 30
0.0
 40
1.3
100
AcDbArc
 50
204.9999999999994
 51
295.000000000008
  0
LINE
  5
157E
330
2
100
AcDbEntity
  8
0
100
AcDbLine
 10
235.9672116891624
 20
563.3158995566482
 30
0.0
 11
149.6559326891626
 21
523.0682885566479
 31
0.0
  0
ARC
  5
157F
330
2
100
AcDbEntity
  8
0
100
AcDbCircle
 10
158.4559356891622
 20
277.364948092556
 30
0.0
 40
6.0
100
AcDbArc
 50
90.0
 51
180.0
  0
ARC
  5
1580
330
2
100
AcDbEntity
  8
0
100
AcDbCircle
 10
158.4559356891622
 20
277.364948092556
 30
0.0
 40
8.8
100
AcDbArc
 50
90.0
 51
180.0
  0
LINE
  5
1582
330
2
100
AcDbEntity
  8
0
100
AcDbLine
 10
151.7931396891637
 20
518.4849445566478
 30
0.0
 11
149.6559326891626
 21
523.0682885566479
 31
0.0
  0
LINE
  5
1583
330
2
100
AcDbEntity
  8
0
100
AcDbLine
 10
229.8559296891623
 20
286.1649430925563
 30
0.0
 11
158.4559356891622
 21
286.1649430925563
 31
0.0
  0
LINE
  5
1584
330
2
100
AcDbEntity
  8
0
100
AcDbLine
 10
158.4559356891622
 20
283.3649400925563
 30
0.0
 11
229.8559296891623
 21
283.3649400925563
 31
0.0
  0
LINE
  5
1585
330
2
100
AcDbEntity
  8
0
100
AcDbLine
 10
152.4559356891622
 20
235.1649510925564
 30
0.0
 11
152.4559356891622
 21
277.3649480925563
 31
0.0
  0
ARC
  5
1586
330
2
100
AcDbEntity
  8
0
100
AcDbCircle
 10
229.8559296891621
 20
277.364948092556
 30
0.0
 40
6.0
100
AcDbArc
 50
0.0
 51
90.0
  0
ARC
  5
1587
330
2
100
AcDbEntity
  8
0
100
AcDbCircle
 10
229.8559296891621
 20
277.364948092556
 30
0.0
 40
8.8
100
AcDbArc
 50
0.0
 51
90.0
  0
ARC
  5
1588
330
2
100
AcDbEntity
  8
0
100
AcDbCircle
 10
650.1598043594083
 20
278.6649355925559
 30
0.0
 40
6.799999999999998
100
AcDbArc
 50
90.0
 51
180.0
  0
LINE
  5
1589
330
2
100
AcDbEntity
  8
0
100
AcDbLine
 10
238.1064936891625
 20
558.7335175566481
 30
0.0
 11
235.9691646891623
 21
563.3168615566478
 31
0.0
  0
ARC
  5
158A
330
2
100
AcDbEntity
  8
0
100
AcDbCircle
 10
230.6443356891631
 20
561.0067415566482
 30
0.0
 40
2.799999999999998
100
AcDbArc
 50
24.99999999999935
 51
90.0
  0
LINE
  5
158B
330
2
100
AcDbEntity
  8
CENTER
100
AcDbLine
 10
196.6559326891623
 20
575.5304685566479
 30
0.0
 11
196.6559326891625
 21
514.806744556648
 31
0.0
  0
ARC
  5
158C
330
2
100
AcDbEntity
  8
0
100
AcDbCircle
 10
158.778368689162
 20
561.0067415566482
 30
0.0
 40
2.799999999999998
100
AcDbArc
 50
90.0
 51
180.0
  0
LINE
  5
158D
330
2
100
AcDbEntity
  8
0
100
AcDbLine
 10
237.4777096891624
 20
557.005917556648
 30
0.0
 11
153.5206786891636
 21
517.8561465566481
 31
0.0
  0
LINE
  5
158E
330
2
100
AcDbEntity
  8
0
100
AcDbLine
 10
225.8903076891626
 20
519.1662225566479
 30
0.0
 11
156.3302486891626
 21
519.1662225566479
 31
0.0
  0
LINE
  5
158F
330
2
100
AcDbEntity
  8
0
100
AcDbLine
 10
155.9783196891634
 20
561.0067415566482
 30
0.0
 11
155.9783196891636
 21
526.016498556648
 31
0.0
  0
LINE
  5
1590
330
2
100
AcDbEntity
  8
0
100
AcDbLine
 10
236.6902336891636
 20
529.966222556648
 30
0.0
 11
236.6902336891634
 21
556.0730145566481
 31
0.0
  0
ARC
  5
1591
330
2
100
AcDbEntity
  8
0
100
AcDbCircle
 10
225.8903076891621
 20
529.966222556648
 30
0.0
 40
10.8
100
AcDbArc
 50
270.0
 51
0.0
  0
ARC
  5
1592
330
2
100
AcDbEntity
  8
0
100
AcDbCircle
 10
236.9282706891616
 20
558.184113556648
 30
0.0
 40
1.3
100
AcDbArc
 50
295.000000000008
 51
24.99999999999935
  0
ARC
  5
1593
330
2
100
AcDbEntity
  8
0
100
AcDbCircle
 10
237.690233689162
 20
556.0730145566481
 30
0.0
 40
1.0
100
AcDbArc
 50
135.7174989999922
 51
180.0
  0
LINE
  5
1594
330
2
100
AcDbEntity
  8
0
100
AcDbLine
 10
233.1820556891624
 20
562.190075556648
 30
0.0
 11
233.2482176891634
 21
562.0480465566479
 31
0.0
  0
LINE
  5
1595
330
2
100
AcDbEntity
  8
0
100
AcDbLine
 10
158.7783686891624
 20
563.806744556648
 30
0.0
 11
230.6443356891636
 21
563.806744556648
 31
0.0
  0
LINE
  5
1596
330
2
100
AcDbEntity
  8
0
100
AcDbLine
 10
166.6559326891623
 20
563.806744556648
 30
0.0
 11
166.6559326891623
 21
565.306744556648
 31
0.0
  0
LINE
  5
1597
330
2
100
AcDbEntity
  8
0
100
AcDbLine
 10
226.6559326891623
 20
563.806744556648
 30
0.0
 11
226.6559326891623
 21
565.306744556648
 31
0.0
  0
LINE
  5
159B
330
2
100
AcDbEntity
  8
0
100
AcDbLine
 10
689.8598043594081
 20
204.8649475925565
 30
0.0
 11
689.8598043594082
 21
223.14798141465
 31
0.0
  0
LINE
  5
159C
330
2
100
AcDbEntity
  8
0
100
AcDbLine
 10
684.421957359408
 20
284.1649355925563
 30
0.0
 11
684.421957359408
 21
206.0622135925562
 31
0.0
  0
LINE
  5
159D
330
2
100
AcDbEntity
  8
0
100
AcDbLine
 10
691.3598043594081
 20
275.1649355925563
 30
0.0
 11
691.3598043594081
 21
267.3977691093086
 31
0.0
  0
LINE
  5
159F
330
2
100
AcDbEntity
  8
0
100
AcDbLine
 10
689.8598043594081
 20
215.1649355925563
 30
0.0
 11
691.3598043594081
 21
215.1649355925563
 31
0.0
  0
LINE
  5
15A0
330
2
100
AcDbEntity
  8
0
100
AcDbLine
 10
689.8598043594081
 20
215.1649355925563
 30
0.0
 11
691.3598043594081
 21
215.1649355925563
 31
0.0
  0
ARC
  5
15A1
330
2
100
AcDbEntity
  8
0
100
AcDbCircle
 10
685.721956359408
 20
206.1649355925559
 30
0.0
 40
1.3
100
AcDbArc
 50
180.0
 51
270.0
  0
LINE
  5
15A6
330
2
100
AcDbEntity
  8
0
100
AcDbLine
 10
689.8598043594081
 20
275.1649355925563
 30
0.0
 11
691.3598043594081
 21
275.1649355925563
 31
0.0
  0
LINE
  5
15A7
330
2
100
AcDbEntity
  8
0
100
AcDbLine
 10
689.8598043594081
 20
275.1649355925563
 30
0.0
 11
691.3598043594081
 21
275.1649355925563
 31
0.0
  0
ARC
  5
15A8
330
2
100
AcDbEntity
  8
0
100
AcDbCircle
 10
685.7219563594083
 20
284.1649355925559
 30
0.0
 40
1.3
100
AcDbArc
 50
90.0
 51
180.0
  0
ARC
  5
15DB
330
2
100
AcDbEntity
  8
0
100
AcDbCircle
 10
159.1560091891622
 20
201.5649375925563
 30
0.0
 40
1.0
100
AcDbArc
 50
90.0
 51
270.0
  0
LINE
  5
15DD
330
2
100
AcDbEntity
  8
0
100
AcDbLine
 10
691.3598043594081
 20
265.3320651883242
 30
0.0
 11
691.3598043594081
 21
259.9504970827534
 31
0.0
  0
LINE
  5
15DE
330
2
100
AcDbEntity
  8
0
100
AcDbLine
 10
689.8598043594081
 20
267.1818577704625
 30
0.0
 11
689.8598043594081
 21
285.4649235925565
 31
0.0
  0
LINE
  5
15DF
330
2
100
AcDbEntity
  8
0
100
AcDbLine
 10
691.3598043594082
 20
250.2496793765346
 30
0.0
 11
691.3598043594082
 21
240.0801608085779
 31
0.0
  0
LINE
  5
15E0
330
2
100
AcDbEntity
  8
0
100
AcDbLine
 10
689.8598043594081
 20
252.4277716105356
 30
0.0
 11
689.8598043594082
 21
257.8317191228535
 31
0.0
  0
LINE
  5
15E1
330
2
100
AcDbEntity
  8
0
100
AcDbLine
 10
689.859804359408
 20
259.8981139397115
 30
0.0
 11
689.8598043594081
 21
265.54797541465
 31
0.0
  0
LINE
  5
15E2
330
2
100
AcDbEntity
  8
0
100
AcDbLine
 10
691.3598043594082
 20
257.7793342404687
 30
0.0
 11
691.3598043594082
 21
252.4801506127058
 31
0.0
  0
LINE
  5
15E3
330
2
100
AcDbEntity
  8
0
100
AcDbLine
 10
691.3598043594081
 20
222.9320710758039
 30
0.0
 11
691.3598043594081
 21
215.1649355925563
 31
0.0
  0
LINE
  5
15E4
330
2
100
AcDbEntity
  8
0
100
AcDbLine
 10
689.8598043594082
 20
224.7818637704626
 30
0.0
 11
689.8598043594083
 21
230.431726245401
 31
0.0
  0
LINE
  5
15E5
330
2
100
AcDbEntity
  8
0
100
AcDbLine
 10
689.8598043594082
 20
232.498121062259
 30
0.0
 11
689.8598043594082
 21
237.9020681485112
 31
0.0
  0
LINE
  5
15E6
330
2
100
AcDbEntity
  8
0
100
AcDbLine
 10
691.3598043594082
 20
230.3793431023592
 30
0.0
 11
691.3598043594082
 21
224.9977749967883
 31
0.0
  0
LINE
  5
15E7
330
2
100
AcDbEntity
  8
0
100
AcDbLine
 10
691.3598043594084
 20
237.8496887947004
 30
0.0
 11
691.3598043594082
 21
232.5505059446438
 31
0.0
  0
LINE
  5
15E8
330
2
100
AcDbEntity
  8
0
100
AcDbLine
 10
689.8598043594082
 20
240.0277799092396
 30
0.0
 11
689.8598043594082
 21
250.302060275873
 31
0.0
  0
LINE
  5
1B7D
330
2
100
AcDbEntity
  8
0
100
AcDbLine
 10
155.1560091891622
 20
204.8070910249221
 30
0.0
 11
155.1560091891622
 21
195.5785325925563
 31
0.0
  0
LINE
  5
235A
330
2
100
AcDbEntity
  8
0
100
AcDbLine
 10
1386.232313538541
 20
318.2649185925576
 30
0.0
 11
1224.232313538541
 21
318.2649185925576
 31
0.0
  0
LINE
  5
235B
330
2
100
AcDbEntity
  8
0
100
AcDbLine
 10
1386.232313538541
 20
316.2649185925576
 30
0.0
 11
1224.232313538541
 21
316.2649185925576
 31
0.0
  0
LINE
  5
235C
330
2
100
AcDbEntity
  8
0
100
AcDbLine
 10
1386.232313538541
 20
308.4649305925576
 30
0.0
 11
1224.232313538541
 21
308.4649305925576
 31
0.0
  0
LINE
  5
235D
330
2
100
AcDbEntity
  8
0
100
AcDbLine
 10
1386.232313538541
 20
310.4649305925576
 30
0.0
 11
1224.232313538541
 21
310.4649305925576
 31
0.0
  0
LINE
  5
235E
330
2
100
AcDbEntity
  8
0
100
AcDbLine
 10
1224.600355538541
 20
331.6649435925576
 30
0.0
 11
1385.86421053854
 21
331.6649435925576
 31
0.0
  0
LINE
  5
235F
330
2
100
AcDbEntity
  8
0
100
AcDbLine
 10
1224.232313538541
 20
327.3999585925576
 30
0.0
 11
1386.232313538541
 21
327.3999585925576
 31
0.0
  0
LINE
  5
2360
330
2
100
AcDbEntity
  8
0
100
AcDbLine
 10
1386.232313538541
 20
325.2649185925576
 30
0.0
 11
1224.232313538541
 21
325.2649185925576
 31
0.0
  0
LINE
  5
2361
330
2
100
AcDbEntity
  8
0
100
AcDbLine
 10
1386.232313538541
 20
323.2649185925576
 30
0.0
 11
1224.232313538541
 21
323.2649185925576
 31
0.0
  0
LINE
  5
2362
330
2
100
AcDbEntity
  8
0
100
AcDbLine
 10
1386.232313538541
 20
239.9649305925576
 30
0.0
 11
1224.232313538541
 21
239.9649305925576
 31
0.0
  0
LINE
  5
2363
330
2
100
AcDbEntity
  8
0
100
AcDbLine
 10
1386.232313538541
 20
237.9649305925576
 30
0.0
 11
1224.232313538541
 21
237.9649305925576
 31
0.0
  0
LINE
  5
2364
330
2
100
AcDbEntity
  8
0
100
AcDbLine
 10
1386.232313538541
 20
252.3649245925576
 30
0.0
 11
1224.232313538541
 21
252.3649245925576
 31
0.0
  0
LINE
  5
2365
330
2
100
AcDbEntity
  8
0
100
AcDbLine
 10
1386.232313538541
 20
250.3649245925576
 30
0.0
 11
1224.232313538541
 21
250.3649245925576
 31
0.0
  0
LINE
  5
2366
330
2
100
AcDbEntity
  8
0
100
AcDbLine
 10
1386.232313538541
 20
174.0649375925576
 30
0.0
 11
1224.232313538541
 21
174.0649375925576
 31
0.0
  0
LINE
  5
2367
330
2
100
AcDbEntity
  8
0
100
AcDbLine
 10
1386.232313538541
 20
172.0649375925576
 30
0.0
 11
1224.232313538541
 21
172.0649375925576
 31
0.0
  0
LINE
  5
2368
330
2
100
AcDbEntity
  8
0
100
AcDbLine
 10
1386.232313538541
 20
302.1649435925576
 30
0.0
 11
1224.232313538541
 21
302.1649435925576
 31
0.0
  0
LINE
  5
2369
330
2
100
AcDbEntity
  8
0
100
AcDbLine
 10
1386.232313538541
 20
300.1649435925576
 30
0.0
 11
1224.232313538541
 21
300.1649435925576
 31
0.0
  0
LINE
  5
236A
330
2
100
AcDbEntity
  8
0
100
AcDbLine
 10
1386.232313538541
 20
179.8649245925576
 30
0.0
 11
1224.232313538541
 21
179.8649245925576
 31
0.0
  0
LINE
  5
236B
330
2
100
AcDbEntity
  8
0
100
AcDbLine
 10
1386.232313538541
 20
181.8649245925576
 30
0.0
 11
1224.232313538541
 21
181.8649245925576
 31
0.0
  0
LINE
  5
236C
330
2
100
AcDbEntity
  8
0
100
AcDbLine
 10
1386.232313538541
 20
167.0649375925576
 30
0.0
 11
1224.232313538541
 21
167.0649375925576
 31
0.0
  0
LINE
  5
236D
330
2
100
AcDbEntity
  8
0
100
AcDbLine
 10
1386.232313538541
 20
165.0649375925576
 30
0.0
 11
1224.232313538541
 21
165.0649375925576
 31
0.0
  0
LINE
  5
236E
330
2
100
AcDbEntity
  8
0
100
AcDbLine
 10
1224.232313538541
 20
162.9299275925576
 30
0.0
 11
1386.232313538541
 21
162.9299275925576
 31
0.0
  0
LINE
  5
236F
330
2
100
AcDbEntity
  8
0
100
AcDbLine
 10
1224.600355538541
 20
158.6649435925576
 30
0.0
 11
1385.86421053854
 21
158.6649435925576
 31
0.0
  0
LINE
  5
2370
330
2
100
AcDbEntity
  8
0
100
AcDbLine
 10
1386.232313538541
 20
257.8649245925576
 30
0.0
 11
1224.232313538541
 21
257.8649245925576
 31
0.0
  0
LINE
  5
2371
330
2
100
AcDbEntity
  8
0
100
AcDbLine
 10
1386.232313538541
 20
259.8649245925576
 30
0.0
 11
1224.232313538541
 21
259.8649245925576
 31
0.0
  0
LINE
  5
2372
330
2
100
AcDbEntity
  8
0
100
AcDbLine
 10
1386.232313538541
 20
265.3649245925576
 30
0.0
 11
1224.232313538541
 21
265.3649245925576
 31
0.0
  0
LINE
  5
2373
330
2
100
AcDbEntity
  8
0
100
AcDbLine
 10
1386.232313538541
 20
267.3649245925576
 30
0.0
 11
1224.232313538541
 21
267.3649245925576
 31
0.0
  0
LINE
  5
2374
330
2
100
AcDbEntity
  8
0
100
AcDbLine
 10
1386.232313538541
 20
272.8649245925576
 30
0.0
 11
1224.232313538541
 21
272.8649245925576
 31
0.0
  0
LINE
  5
2375
330
2
100
AcDbEntity
  8
0
100
AcDbLine
 10
1386.232313538541
 20
274.8649245925576
 30
0.0
 11
1224.232313538541
 21
274.8649245925576
 31
0.0
  0
LINE
  5
2376
330
2
100
AcDbEntity
  8
0
100
AcDbLine
 10
1386.232313538541
 20
280.3649245925576
 30
0.0
 11
1224.232313538541
 21
280.3649245925576
 31
0.0
  0
LINE
  5
2377
330
2
100
AcDbEntity
  8
0
100
AcDbLine
 10
1386.232313538541
 20
282.3649245925576
 30
0.0
 11
1224.232313538541
 21
282.3649245925576
 31
0.0
  0
LINE
  5
2378
330
2
100
AcDbEntity
  8
0
100
AcDbLine
 10
1386.232313538541
 20
287.7649185925576
 30
0.0
 11
1224.232313538541
 21
287.7649185925576
 31
0.0
  0
LINE
  5
2379
330
2
100
AcDbEntity
  8
0
100
AcDbLine
 10
1386.232313538541
 20
289.7649185925576
 30
0.0
 11
1224.232313538541
 21
289.7649185925576
 31
0.0
  0
LINE
  5
237A
330
2
100
AcDbEntity
  8
0
100
AcDbLine
 10
1386.232313538541
 20
200.5649375925576
 30
0.0
 11
1308.232313538541
 21
200.5649375925576
 31
0.0
  0
LINE
  5
237B
330
2
100
AcDbEntity
  8
0
100
AcDbLine
 10
1292.232313538541
 20
200.5649375925576
 30
0.0
 11
1224.232313538541
 21
200.5649375925576
 31
0.0
  0
LINE
  5
237C
330
2
100
AcDbEntity
  8
0
100
AcDbLine
 10
1386.232313538541
 20
202.5649375925576
 30
0.0
 11
1308.204423599823
 21
202.5649375925576
 31
0.0
  0
LINE
  5
237D
330
2
100
AcDbEntity
  8
0
100
AcDbLine
 10
1292.260203477261
 20
202.5649375925576
 30
0.0
 11
1224.232313538541
 21
202.5649375925576
 31
0.0
  0
LINE
  5
237E
330
2
100
AcDbEntity
  8
0
100
AcDbLine
 10
1386.232313538541
 20
207.9649305925576
 30
0.0
 11
1308.212820875841
 21
207.9649305925576
 31
0.0
  0
LINE
  5
237F
330
2
100
AcDbEntity
  8
0
100
AcDbLine
 10
1292.25180620122
 20
207.9649305925576
 30
0.0
 11
1224.232313538541
 21
207.9649305925576
 31
0.0
  0
LINE
  5
2380
330
2
100
AcDbEntity
  8
0
100
AcDbLine
 10
1386.232313538541
 20
209.9649305925576
 30
0.0
 11
1308.232313538541
 21
209.9649305925576
 31
0.0
  0
LINE
  5
2381
330
2
100
AcDbEntity
  8
0
100
AcDbLine
 10
1292.232313538541
 20
209.9649305925576
 30
0.0
 11
1224.232313538541
 21
209.9649305925576
 31
0.0
  0
LINE
  5
2382
330
2
100
AcDbEntity
  8
0
100
AcDbLine
 10
1386.232313538541
 20
215.4649305925576
 30
0.0
 11
1224.232313538541
 21
215.4649305925576
 31
0.0
  0
LINE
  5
2383
330
2
100
AcDbEntity
  8
0
100
AcDbLine
 10
1386.232313538541
 20
217.4649305925576
 30
0.0
 11
1224.232313538541
 21
217.4649305925576
 31
0.0
  0
LINE
  5
2384
330
2
100
AcDbEntity
  8
0
100
AcDbLine
 10
1386.232313538541
 20
222.9649305925576
 30
0.0
 11
1224.232313538541
 21
222.9649305925576
 31
0.0
  0
LINE
  5
2385
330
2
100
AcDbEntity
  8
0
100
AcDbLine
 10
1386.232313538541
 20
224.9649305925576
 30
0.0
 11
1224.232313538541
 21
224.9649305925576
 31
0.0
  0
LINE
  5
2386
330
2
100
AcDbEntity
  8
0
100
AcDbLine
 10
1386.232313538541
 20
230.4649305925576
 30
0.0
 11
1224.232313538541
 21
230.4649305925576
 31
0.0
  0
LINE
  5
2387
330
2
100
AcDbEntity
  8
0
100
AcDbLine
 10
1386.232313538541
 20
232.4649305925576
 30
0.0
 11
1224.232313538541
 21
232.4649305925576
 31
0.0
  0
LINE
  5
2388
330
2
100
AcDbEntity
  8
0
100
AcDbLine
 10
1224.232313538541
 20
190.1649435925576
 30
0.0
 11
1386.232313538541
 21
190.1649435925576
 31
0.0
  0
LINE
  5
2389
330
2
100
AcDbEntity
  8
0
100
AcDbLine
 10
1224.232313538541
 20
188.1649435925576
 30
0.0
 11
1386.232313538541
 21
188.1649435925576
 31
0.0
  0
LINE
  5
238A
330
2
100
AcDbEntity
  8
0
100
AcDbLine
 10
1220.232313538541
 20
328.6649435925576
 30
0.0
 11
1220.232313538541
 21
161.6649435925576
 31
0.0
  0
ARC
  5
238B
330
2
100
AcDbEntity
  8
0
100
AcDbCircle
 10
1224.232313538541
 20
166.0649375925576
 30
0.0
 40
1.0
100
AcDbArc
 50
90.0
 51
270.0
  0
LINE
  5
238C
330
2
100
AcDbEntity
  8
0
100
AcDbLine
 10
1223.232313538541
 20
161.2089185925575
 30
0.0
 11
1223.232313538541
 21
166.0649375925576
 31
0.0
  0
LINE
  5
238D
330
2
100
AcDbEntity
  8
0
100
AcDbLine
 10
1220.232313538541
 20
161.6649435925576
 30
0.0
 11
1222.39320153854
 21
161.6649435925576
 31
0.0
  0
ARC
  5
238E
330
2
100
AcDbEntity
  8
0
100
AcDbCircle
 10
1224.600355538541
 20
159.6649435925576
 30
0.0
 40
1.0
100
AcDbArc
 50
189.9999999999959
 51
270.0
  0
ARC
  5
238F
330
2
100
AcDbEntity
  8
0
100
AcDbCircle
 10
1224.232313538541
 20
163.9299275925576
 30
0.0
 40
1.0
100
AcDbArc
 50
180.0
 51
270.0
  0
ARC
  5
2390
330
2
100
AcDbEntity
  8
0
100
AcDbCircle
 10
1222.39320153854
 20
160.6649435925576
 30
0.0
 40
1.0
100
AcDbArc
 50
9.999999999995873
 51
90.0
  0
LINE
  5
2391
330
2
100
AcDbEntity
  8
0
100
AcDbLine
 10
1223.37800453854
 20
160.8385885925576
 30
0.0
 11
1223.615552538541
 21
159.4912675925576
 31
0.0
  0
ARC
  5
2392
330
2
100
AcDbEntity
  8
0
100
AcDbCircle
 10
1224.232313538541
 20
173.0649375925576
 30
0.0
 40
1.0
100
AcDbArc
 50
90.0
 51
270.0
  0
ARC
  5
2393
330
2
100
AcDbEntity
  8
0
100
AcDbCircle
 10
1224.232313538541
 20
180.8649245925576
 30
0.0
 40
1.0
100
AcDbArc
 50
90.0
 51
270.0
  0
ARC
  5
2394
330
2
100
AcDbEntity
  8
0
100
AcDbCircle
 10
1224.232313538541
 20
189.1649435925576
 30
0.0
 40
1.0
100
AcDbArc
 50
90.0
 51
270.0
  0
ARC
  5
2395
330
2
100
AcDbEntity
  8
0
100
AcDbCircle
 10
1224.232313538541
 20
201.5649375925576
 30
0.0
 40
1.0
100
AcDbArc
 50
90.0
 51
270.0
  0
ARC
  5
2396
330
2
100
AcDbEntity
  8
0
100
AcDbCircle
 10
1224.232313538541
 20
216.4649305925576
 30
0.0
 40
1.0
100
AcDbArc
 50
90.0
 51
270.0
  0
ARC
  5
2397
330
2
100
AcDbEntity
  8
0
100
AcDbCircle
 10
1224.232313538541
 20
208.9649305925576
 30
0.0
 40
1.0
100
AcDbArc
 50
90.0
 51
270.0
  0
LINE
  5
2398
330
2
100
AcDbEntity
  8
0
100
AcDbLine
 10
1223.232313538541
 20
329.1209675925576
 30
0.0
 11
1223.232313538541
 21
324.2649185925576
 31
0.0
  0
ARC
  5
2399
330
2
100
AcDbEntity
  8
0
100
AcDbCircle
 10
1224.232313538541
 20
231.4649305925576
 30
0.0
 40
1.0
100
AcDbArc
 50
90.0
 51
270.0
  0
ARC
  5
239A
330
2
100
AcDbEntity
  8
0
100
AcDbCircle
 10
1224.232313538541
 20
223.9649305925576
 30
0.0
 40
1.0
100
AcDbArc
 50
90.0
 51
270.0
  0
ARC
  5
239B
330
2
100
AcDbEntity
  8
0
100
AcDbCircle
 10
1224.232313538541
 20
238.9649305925576
 30
0.0
 40
1.0
100
AcDbArc
 50
90.0
 51
270.0
  0
ARC
  5
239C
330
2
100
AcDbEntity
  8
0
100
AcDbCircle
 10
1224.232313538541
 20
258.8649245925576
 30
0.0
 40
1.0
100
AcDbArc
 50
90.0
 51
270.0
  0
ARC
  5
239D
330
2
100
AcDbEntity
  8
0
100
AcDbCircle
 10
1224.232313538541
 20
251.3649245925576
 30
0.0
 40
1.0
100
AcDbArc
 50
90.0
 51
270.0
  0
ARC
  5
239E
330
2
100
AcDbEntity
  8
0
100
AcDbCircle
 10
1224.232313538541
 20
266.3649245925576
 30
0.0
 40
1.0
100
AcDbArc
 50
90.0
 51
270.0
  0
ARC
  5
239F
330
2
100
AcDbEntity
  8
0
100
AcDbCircle
 10
1224.232313538541
 20
281.3649245925576
 30
0.0
 40
1.0
100
AcDbArc
 50
90.0
 51
270.0
  0
ARC
  5
23A0
330
2
100
AcDbEntity
  8
0
100
AcDbCircle
 10
1224.232313538541
 20
273.8649245925576
 30
0.0
 40
1.0
100
AcDbArc
 50
90.0
 51
270.0
  0
ARC
  5
23A1
330
2
100
AcDbEntity
  8
0
100
AcDbCircle
 10
1224.232313538541
 20
288.7649185925576
 30
0.0
 40
1.0
100
AcDbArc
 50
90.0
 51
270.0
  0
ARC
  5
23A2
330
2
100
AcDbEntity
  8
0
100
AcDbCircle
 10
1224.232313538541
 20
301.1649435925576
 30
0.0
 40
1.0
100
AcDbArc
 50
90.0
 51
270.0
  0
ARC
  5
23A3
330
2
100
AcDbEntity
  8
0
100
AcDbCircle
 10
1224.232313538541
 20
309.4649305925576
 30
0.0
 40
1.0
100
AcDbArc
 50
90.0
 51
270.0
  0
ARC
  5
23A4
330
2
100
AcDbEntity
  8
0
100
AcDbCircle
 10
1224.232313538541
 20
317.2649185925576
 30
0.0
 40
1.0
100
AcDbArc
 50
90.0
 51
270.0
  0
ARC
  5
23A5
330
2
100
AcDbEntity
  8
0
100
AcDbCircle
 10
1224.232313538541
 20
324.2649185925576
 30
0.0
 40
1.0
100
AcDbArc
 50
90.0
 51
270.0
  0
LINE
  5
23A6
330
2
100
AcDbEntity
  8
0
100
AcDbLine
 10
1220.232313538541
 20
328.6649435925576
 30
0.0
 11
1222.39320153854
 21
328.6649435925576
 31
0.0
  0
ARC
  5
23A7
330
2
100
AcDbEntity
  8
0
100
AcDbCircle
 10
1224.600355538541
 20
330.6649435925576
 30
0.0
 40
1.0
100
AcDbArc
 50
90.0
 51
170.0000000000041
  0
ARC
  5
23A8
330
2
100
AcDbEntity
  8
0
100
AcDbCircle
 10
1222.39320153854
 20
329.6649435925576
 30
0.0
 40
1.0
100
AcDbArc
 50
270.0
 51
350.0000000000042
  0
ARC
  5
23A9
330
2
100
AcDbEntity
  8
0
100
AcDbCircle
 10
1224.232313538541
 20
326.3999585925576
 30
0.0
 40
1.0
100
AcDbArc
 50
90.0
 51
180.0
  0
LINE
  5
23AA
330
2
100
AcDbEntity
  8
0
100
AcDbLine
 10
1223.37800453854
 20
329.4912675925576
 30
0.0
 11
1223.615552538541
 21
330.8385885925576
 31
0.0
  0
LINE
  5
23AB
330
2
100
AcDbEntity
  8
0
100
AcDbLine
 10
1390.232313538541
 20
328.6649435925576
 30
0.0
 11
1390.232313538541
 21
161.6649435925576
 31
0.0
  0
LINE
  5
23AC
330
2
100
AcDbEntity
  8
0
100
AcDbLine
 10
1449.555250538541
 20
159.1650305925576
 30
0.0
 11
1449.555250538541
 21
338.0553395925576
 31
0.0
  0
LINE
  5
23AD
330
2
100
AcDbEntity
  8
0
100
AcDbLine
 10
1398.73200853854
 20
338.1650495925576
 30
0.0
 11
1398.73200853854
 21
159.1650305925576
 31
0.0
  0
LINE
  5
23AE
330
2
100
AcDbEntity
  8
0
100
AcDbLine
 10
1480.73200853854
 20
173.0517115925576
 30
0.0
 11
1480.73200853854
 21
245.1650425925576
 31
0.0
  0
LINE
  5
23AF
330
2
100
AcDbEntity
  8
0
100
AcDbLine
 10
1478.232130538541
 20
168.7216405925576
 30
0.0
 11
1462.83979653854
 21
159.8349225925576
 31
0.0
  0
LINE
  5
23B0
330
2
100
AcDbEntity
  8
0
100
AcDbLine
 10
1426.73200853854
 20
184.7374185925577
 30
0.0
 11
1398.73200853854
 21
184.7374185925577
 31
0.0
  0
LINE
  5
23B1
330
2
100
AcDbEntity
  8
0
100
AcDbLine
 10
1426.73200853854
 20
182.1111175925576
 30
0.0
 11
1398.73200853854
 21
182.1111175925576
 31
0.0
  0
LINE
  5
23B2
330
2
100
AcDbEntity
  8
0
100
AcDbLine
 10
1426.73200853854
 20
173.1613685925575
 30
0.0
 11
1398.73200853854
 21
173.1613685925575
 31
0.0
  0
LINE
  5
23B3
330
2
100
AcDbEntity
  8
0
100
AcDbLine
 10
1460.339796538541
 20
159.1650305925576
 30
0.0
 11
1398.73200853854
 21
159.1650305925576
 31
0.0
  0
ARC
  5
23B4
330
2
100
AcDbEntity
  8
0
100
AcDbCircle
 10
1386.232313538541
 20
166.0649375925576
 30
0.0
 40
1.0
100
AcDbArc
 50
270.0
 51
90.0
  0
LINE
  5
23B5
330
2
100
AcDbEntity
  8
0
100
AcDbLine
 10
1387.232313538541
 20
161.2089185925575
 30
0.0
 11
1387.232313538541
 21
166.0649375925576
 31
0.0
  0
LINE
  5
23B6
330
2
100
AcDbEntity
  8
0
100
AcDbLine
 10
1398.73292353854
 20
163.1650045925576
 30
0.0
 11
1390.232557538541
 21
163.1650045925576
 31
0.0
  0
LINE
  5
23B7
330
2
100
AcDbEntity
  8
0
100
AcDbLine
 10
1391.232313538541
 20
163.1649435925576
 30
0.0
 11
1390.232313538541
 21
163.1649435925576
 31
0.0
  0
ARC
  5
23B8
330
2
100
AcDbEntity
  8
0
100
AcDbCircle
 10
1385.86421053854
 20
159.6649435925576
 30
0.0
 40
1.0
100
AcDbArc
 50
270.0
 51
350.0000000000042
  0
ARC
  5
23B9
330
2
100
AcDbEntity
  8
0
100
AcDbCircle
 10
1386.232313538541
 20
163.9299275925576
 30
0.0
 40
1.0
100
AcDbArc
 50
270.0
 51
0.0
  0
ARC
  5
23BA
330
2
100
AcDbEntity
  8
0
100
AcDbCircle
 10
1388.07136353854
 20
160.6649435925576
 30
0.0
 40
1.0
100
AcDbArc
 50
90.0
 51
170.0000000000041
  0
LINE
  5
23BB
330
2
100
AcDbEntity
  8
0
100
AcDbLine
 10
1388.07136353854
 20
161.6649435925576
 30
0.0
 11
1390.232313538541
 21
161.6649435925576
 31
0.0
  0
LINE
  5
23BC
330
2
100
AcDbEntity
  8
0
100
AcDbLine
 10
1387.08656153854
 20
160.8385885925576
 30
0.0
 11
1386.84901253854
 21
159.4912675925576
 31
0.0
  0
LINE
  5
23BD
330
2
100
AcDbEntity
  8
0
100
AcDbLine
 10
1395.23298453854
 20
170.1648215925576
 30
0.0
 11
1395.23298453854
 21
197.1648215925576
 31
0.0
  0
ARC
  5
23BE
330
2
100
AcDbEntity
  8
HIDS
  6
sekkei_H
100
AcDbCircle
 10
1396.73292353854
 20
190.9149435925576
 30
0.0
 40
2.0
100
AcDbArc
 50
90.0
 51
180.0
  0
ARC
  5
23BF
330
2
100
AcDbEntity
  8
HIDS
  6
sekkei_H
100
AcDbCircle
 10
1396.73292353854
 20
190.9149435925576
 30
0.0
 40
5.0
100
AcDbArc
 50
90.0
 51
180.0
  0
ARC
  5
23C0
330
2
100
AcDbEntity
  8
HIDS
  6
sekkei_H
100
AcDbCircle
 10
1396.73292353854
 20
190.9149435925576
 30
0.0
 40
8.0
100
AcDbArc
 50
90.0
 51
180.0
  0
LINE
  5
23C1
330
2
100
AcDbEntity
  8
HIDS
  6
sekkei_H
100
AcDbLine
 10
1391.73292353854
 20
178.5021015925575
 30
0.0
 11
1388.73292353854
 21
179.6354025925576
 31
0.0
  0
LINE
  5
23C2
330
2
100
AcDbEntity
  8
HIDS
  6
sekkei_H
100
AcDbLine
 10
1391.73292353854
 20
190.9149435925576
 30
0.0
 11
1391.73292353854
 21
176.7899435925576
 31
0.0
  0
LINE
  5
23C3
330
2
100
AcDbEntity
  8
HIDS
  6
sekkei_H
100
AcDbLine
 10
1394.73292353854
 20
190.9149435925576
 30
0.0
 11
1394.73292353854
 21
178.0480225925577
 31
0.0
  0
LINE
  5
23C4
330
2
100
AcDbEntity
  8
HIDS
  6
sekkei_H
100
AcDbLine
 10
1394.73292353854
 20
178.0480225925577
 30
0.0
 11
1391.73292353854
 21
176.7899435925576
 31
0.0
  0
ARC
  5
23C5
330
2
100
AcDbEntity
  8
0
100
AcDbCircle
 10
1386.232313538541
 20
173.0649375925576
 30
0.0
 40
1.0
100
AcDbArc
 50
270.0
 51
90.0
  0
LINE
  5
23C6
330
2
100
AcDbEntity
  8
0
100
AcDbLine
 10
1398.73292353854
 20
170.1648215925576
 30
0.0
 11
1395.23298453854
 21
170.1648215925576
 31
0.0
  0
LINE
  5
23C7
330
2
100
AcDbEntity
  8
0
100
AcDbLine
 10
1398.73292353854
 20
178.6648215925576
 30
0.0
 11
1395.23298453854
 21
178.6648215925576
 31
0.0
  0
ARC
  5
23C8
330
2
100
AcDbEntity
  8
0
100
AcDbCircle
 10
1386.232313538541
 20
189.1649435925576
 30
0.0
 40
1.0
100
AcDbArc
 50
270.0
 51
90.0
  0
ARC
  5
23C9
330
2
100
AcDbEntity
  8
0
100
AcDbCircle
 10
1386.232313538541
 20
180.8649245925576
 30
0.0
 40
1.0
100
AcDbArc
 50
270.0
 51
90.0
  0
LINE
  5
23CA
330
2
100
AcDbEntity
  8
HIDS
  6
sekkei_H
100
AcDbLine
 10
1388.73292353854
 20
190.9149435925576
 30
0.0
 11
1388.73292353854
 21
179.6354025925576
 31
0.0
  0
LINE
  5
23CB
330
2
100
AcDbEntity
  8
0
100
AcDbLine
 10
1398.73292353854
 20
188.6648215925576
 30
0.0
 11
1395.23298453854
 21
188.6648215925576
 31
0.0
  0
ARC
  5
23CC
330
2
100
AcDbEntity
  8
0
100
AcDbCircle
 10
1386.232313538541
 20
201.5649375925576
 30
0.0
 40
1.0
100
AcDbArc
 50
270.0
 51
90.0
  0
LINE
  5
23CD
330
2
100
AcDbEntity
  8
0
100
AcDbLine
 10
1398.73292353854
 20
197.1648215925576
 30
0.0
 11
1395.23298453854
 21
197.1648215925576
 31
0.0
  0
LINE
  5
23CE
330
2
100
AcDbEntity
  8
HIDS
  6
sekkei_H
100
AcDbLine
 10
1396.73292353854
 20
195.9149435925576
 30
0.0
 11
1398.73292353854
 21
195.9149435925576
 31
0.0
  0
LINE
  5
23CF
330
2
100
AcDbEntity
  8
HIDS
  6
sekkei_H
100
AcDbLine
 10
1396.73292353854
 20
198.9149435925576
 30
0.0
 11
1398.73292353854
 21
198.9149435925576
 31
0.0
  0
LINE
  5
23D0
330
2
100
AcDbEntity
  8
HIDS
  6
sekkei_H
100
AcDbLine
 10
1396.73292353854
 20
192.9149435925576
 30
0.0
 11
1398.73292353854
 21
192.9149435925576
 31
0.0
  0
ARC
  5
23D1
330
2
100
AcDbEntity
  8
0
100
AcDbCircle
 10
1386.232313538541
 20
216.4649305925576
 30
0.0
 40
1.0
100
AcDbArc
 50
270.0
 51
90.0
  0
ARC
  5
23D2
330
2
100
AcDbEntity
  8
0
100
AcDbCircle
 10
1386.232313538541
 20
208.9649305925576
 30
0.0
 40
1.0
100
AcDbArc
 50
270.0
 51
90.0
  0
ARC
  5
23D3
330
2
100
AcDbEntity
  8
0
100
AcDbCircle
 10
1460.339796538541
 20
164.1650305925576
 30
0.0
 40
5.0
100
AcDbArc
 50
270.0
 51
300.000300999986
  0
LINE
  5
23D4
330
2
100
AcDbEntity
  8
0
100
AcDbLine
 10
1427.73200853854
 20
174.1613685925575
 30
0.0
 11
1427.73200853854
 21
183.7374185925576
 31
0.0
  0
ARC
  5
23D5
330
2
100
AcDbEntity
  8
0
100
AcDbCircle
 10
1426.73200853854
 20
174.1613685925575
 30
0.0
 40
1.0
100
AcDbArc
 50
270.0
 51
0.0
  0
ARC
  5
23D6
330
2
100
AcDbEntity
  8
0
100
AcDbCircle
 10
1426.73200853854
 20
181.1111175925576
 30
0.0
 40
1.0
100
AcDbArc
 50
0.0
 51
90.0
  0
ARC
  5
23D7
330
2
100
AcDbEntity
  8
0
100
AcDbCircle
 10
1426.73200853854
 20
183.7374185925576
 30
0.0
 40
1.0
100
AcDbArc
 50
0.0
 51
90.0
  0
ARC
  5
23D8
330
2
100
AcDbEntity
  8
0
100
AcDbCircle
 10
1475.732130538541
 20
173.0518415925576
 30
0.0
 40
5.0
100
AcDbArc
 50
299.9998020000031
 51
0.0
  0
LINE
  5
23D9
330
2
100
AcDbEntity
  8
0
100
AcDbLine
 10
1450.251417538541
 20
337.7631185925576
 30
0.0
 11
1478.23200853854
 21
321.6084395925576
 31
0.0
  0
LINE
  5
23DA
330
2
100
AcDbEntity
  8
0
100
AcDbLine
 10
1387.232313538541
 20
329.1209675925576
 30
0.0
 11
1387.232313538541
 21
324.2649185925576
 31
0.0
  0
LINE
  5
23DB
330
2
100
AcDbEntity
  8
0
100
AcDbLine
 10
1426.73200853854
 20
305.5924635925576
 30
0.0
 11
1398.73200853854
 21
305.5924635925576
 31
0.0
  0
LINE
  5
23DC
330
2
100
AcDbEntity
  8
0
100
AcDbLine
 10
1426.73200853854
 20
308.2187605925576
 30
0.0
 11
1398.73200853854
 21
308.2187605925576
 31
0.0
  0
LINE
  5
23DD
330
2
100
AcDbEntity
  8
0
100
AcDbLine
 10
1426.73200853854
 20
317.1685135925576
 30
0.0
 11
1398.73200853854
 21
317.1685135925576
 31
0.0
  0
ARC
  5
23DE
330
2
100
AcDbEntity
  8
0
100
AcDbCircle
 10
1386.232313538541
 20
231.4649305925576
 30
0.0
 40
1.0
100
AcDbArc
 50
270.0
 51
90.0
  0
ARC
  5
23DF
330
2
100
AcDbEntity
  8
0
100
AcDbCircle
 10
1386.232313538541
 20
223.9649305925576
 30
0.0
 40
1.0
100
AcDbArc
 50
270.0
 51
90.0
  0
ARC
  5
23E0
330
2
100
AcDbEntity
  8
0
100
AcDbCircle
 10
1386.232313538541
 20
238.9649305925576
 30
0.0
 40
1.0
100
AcDbArc
 50
270.0
 51
90.0
  0
ARC
  5
23E1
330
2
100
AcDbEntity
  8
0
100
AcDbCircle
 10
1386.232313538541
 20
258.8649245925576
 30
0.0
 40
1.0
100
AcDbArc
 50
270.0
 51
90.0
  0
ARC
  5
23E2
330
2
100
AcDbEntity
  8
0
100
AcDbCircle
 10
1386.232313538541
 20
251.3649245925576
 30
0.0
 40
1.0
100
AcDbArc
 50
270.0
 51
90.0
  0
ARC
  5
23E3
330
2
100
AcDbEntity
  8
0
100
AcDbCircle
 10
1386.232313538541
 20
266.3649245925576
 30
0.0
 40
1.0
100
AcDbArc
 50
270.0
 51
90.0
  0
LINE
  5
23E4
330
2
100
AcDbEntity
  8
0
100
AcDbLine
 10
1395.23298453854
 20
320.1650655925575
 30
0.0
 11
1395.23298453854
 21
293.1650655925576
 31
0.0
  0
ARC
  5
23E5
330
2
100
AcDbEntity
  8
0
100
AcDbCircle
 10
1386.232313538541
 20
281.3649245925576
 30
0.0
 40
1.0
100
AcDbArc
 50
270.0
 51
90.0
  0
ARC
  5
23E6
330
2
100
AcDbEntity
  8
0
100
AcDbCircle
 10
1386.232313538541
 20
273.8649245925576
 30
0.0
 40
1.0
100
AcDbArc
 50
270.0
 51
90.0
  0
ARC
  5
23E7
330
2
100
AcDbEntity
  8
0
100
AcDbCircle
 10
1386.232313538541
 20
288.7649185925576
 30
0.0
 40
1.0
100
AcDbArc
 50
270.0
 51
90.0
  0
LINE
  5
23E8
330
2
100
AcDbEntity
  8
0
100
AcDbLine
 10
1398.73292353854
 20
293.1650655925576
 30
0.0
 11
1395.23298453854
 21
293.1650655925576
 31
0.0
  0
ARC
  5
23E9
330
2
100
AcDbEntity
  8
0
100
AcDbCircle
 10
1386.232313538541
 20
301.1649435925576
 30
0.0
 40
1.0
100
AcDbArc
 50
270.0
 51
90.0
  0
ARC
  5
23EA
330
2
100
AcDbEntity
  8
0
100
AcDbCircle
 10
1386.232313538541
 20
309.4649305925576
 30
0.0
 40
1.0
100
AcDbArc
 50
270.0
 51
90.0
  0
LINE
  5
23EB
330
2
100
AcDbEntity
  8
0
100
AcDbLine
 10
1398.73292353854
 20
301.6650655925577
 30
0.0
 11
1395.23298453854
 21
301.6650655925577
 31
0.0
  0
LINE
  5
23EC
330
2
100
AcDbEntity
  8
0
100
AcDbLine
 10
1398.73292353854
 20
311.6650655925576
 30
0.0
 11
1395.23298453854
 21
311.6650655925576
 31
0.0
  0
ARC
  5
23ED
330
2
100
AcDbEntity
  8
0
100
AcDbCircle
 10
1386.232313538541
 20
317.2649185925576
 30
0.0
 40
1.0
100
AcDbArc
 50
270.0
 51
90.0
  0
ARC
  5
23EE
330
2
100
AcDbEntity
  8
0
100
AcDbCircle
 10
1386.232313538541
 20
324.2649185925576
 30
0.0
 40
1.0
100
AcDbArc
 50
270.0
 51
90.0
  0
LINE
  5
23EF
330
2
100
AcDbEntity
  8
0
100
AcDbLine
 10
1398.73292353854
 20
320.1650655925575
 30
0.0
 11
1395.23298453854
 21
320.1650655925575
 31
0.0
  0
LINE
  5
23F0
330
2
100
AcDbEntity
  8
0
100
AcDbLine
 10
1427.73200853854
 20
316.1685135925576
 30
0.0
 11
1427.73200853854
 21
306.5924635925576
 31
0.0
  0
ARC
  5
23F1
330
2
100
AcDbEntity
  8
0
100
AcDbCircle
 10
1426.73200853854
 20
309.2187605925576
 30
0.0
 40
1.0
100
AcDbArc
 50
270.0
 51
0.0
  0
ARC
  5
23F2
330
2
100
AcDbEntity
  8
0
100
AcDbCircle
 10
1426.73200853854
 20
306.5924635925576
 30
0.0
 40
1.0
100
AcDbArc
 50
270.0
 51
0.0
  0
ARC
  5
23F3
330
2
100
AcDbEntity
  8
0
100
AcDbCircle
 10
1426.73200853854
 20
316.1685135925576
 30
0.0
 40
1.0
100
AcDbArc
 50
0.0
 51
90.0
  0
LINE
  5
23F4
330
2
100
AcDbEntity
  8
0
100
AcDbLine
 10
1448.751417538541
 20
338.1650495925576
 30
0.0
 11
1398.73200853854
 21
338.1650495925576
 31
0.0
  0
LINE
  5
23F5
330
2
100
AcDbEntity
  8
0
100
AcDbLine
 10
1398.73292353854
 20
327.1649435925576
 30
0.0
 11
1390.23292353854
 21
327.1649435925576
 31
0.0
  0
LINE
  5
23F6
330
2
100
AcDbEntity
  8
0
100
AcDbLine
 10
1391.232313538541
 20
327.1649435925576
 30
0.0
 11
1390.232313538541
 21
327.1649435925576
 31
0.0
  0
ARC
  5
23F7
330
2
100
AcDbEntity
  8
0
100
AcDbCircle
 10
1385.86421053854
 20
330.6649435925576
 30
0.0
 40
1.0
100
AcDbArc
 50
9.999999999995873
 51
90.0
  0
ARC
  5
23F8
330
2
100
AcDbEntity
  8
0
100
AcDbCircle
 10
1388.07136353854
 20
329.6649435925576
 30
0.0
 40
1.0
100
AcDbArc
 50
189.9999999999959
 51
270.0
  0
ARC
  5
23F9
330
2
100
AcDbEntity
  8
0
100
AcDbCircle
 10
1386.232313538541
 20
326.3999585925576
 30
0.0
 40
1.0
100
AcDbArc
 50
0.0
 51
90.0
  0
LINE
  5
23FA
330
2
100
AcDbEntity
  8
0
100
AcDbLine
 10
1388.07136353854
 20
328.6649435925576
 30
0.0
 11
1390.232313538541
 21
328.6649435925576
 31
0.0
  0
LINE
  5
23FB
330
2
100
AcDbEntity
  8
0
100
AcDbLine
 10
1387.08656153854
 20
329.4912675925576
 30
0.0
 11
1386.84901253854
 21
330.8385885925576
 31
0.0
  0
ARC
  5
23FC
330
2
100
AcDbEntity
  8
0
100
AcDbCircle
 10
1448.751417538541
 20
335.1650495925576
 30
0.0
 40
3.0
100
AcDbArc
 50
59.9999009999891
 51
90.0
  0
LINE
  5
23FD
330
2
100
AcDbEntity
  8
0
100
AcDbLine
 10
1480.73200853854
 20
317.2783465925576
 30
0.0
 11
1480.73200853854
 21
245.1650425925576
 31
0.0
  0
ARC
  5
23FE
330
2
100
AcDbEntity
  8
0
100
AcDbCircle
 10
1475.73200853854
 20
317.2783465925576
 30
0.0
 40
5.0
100
AcDbArc
 50
0.0
 51
59.99949999998777
  0
LINE
  5
23FF
330
2
100
AcDbEntity
  8
CENTER
100
AcDbLine
 10
1348.732313538541
 20
278.272274830092
 30
0.0
 11
1348.732313538541
 21
212.0575963550217
 31
0.0
  0
ARC
  5
2400
330
2
100
AcDbEntity
  8
0
100
AcDbCircle
 10
1292.232313538541
 20
208.9647405925585
 30
0.0
 40
1.000000000000052
100
AcDbArc
 50
270.0
 51
90.0
  0
ARC
  5
2401
330
2
100
AcDbEntity
  8
0
100
AcDbCircle
 10
1292.232313538541
 20
201.565326592559
 30
0.0
 40
1.000000000000052
100
AcDbArc
 50
270.0
 51
90.0
  0
ARC
  5
2402
330
2
100
AcDbEntity
  8
0
100
AcDbCircle
 10
1308.232313538541
 20
208.9647405925583
 30
0.0
 40
1.000000000000276
100
AcDbArc
 50
90.0
 51
270.0
  0
ARC
  5
2403
330
2
100
AcDbEntity
  8
0
100
AcDbCircle
 10
1308.232313538541
 20
201.565326592559
 30
0.0
 40
1.0
100
AcDbArc
 50
90.0
 51
270.0
  0
LINE
  5
2404
330
2
100
AcDbEntity
  8
HIDS
100
AcDbLine
 10
1395.732251538542
 20
281.1649355925563
 30
0.0
 11
1395.732251538542
 21
209.1649355925563
 31
0.0
  0
LINE
  5
2405
330
2
100
AcDbEntity
  8
HIDS
100
AcDbLine
 10
1306.73231353854
 20
281.1649355925563
 30
0.0
 11
1306.73231353854
 21
209.1649355925563
 31
0.0
  0
LINE
  5
2406
330
2
100
AcDbEntity
  8
HIDS
100
AcDbLine
 10
1311.732251538542
 20
204.1649355925563
 30
0.0
 11
1390.732251538542
 21
204.1649355925563
 31
0.0
  0
ARC
  5
2407
330
2
100
AcDbEntity
  8
HIDS
100
AcDbCircle
 10
1311.732251538542
 20
209.1649355925564
 30
0.0
 40
5.0
100
AcDbArc
 50
180.0
 51
270.0
  0
ARC
  5
2408
330
2
100
AcDbEntity
  8
HIDS
100
AcDbCircle
 10
1390.732251538542
 20
209.1649355925564
 30
0.0
 40
5.0
100
AcDbArc
 50
270.0
 51
0.0
  0
LINE
  5
2409
330
2
100
AcDbEntity
  8
HIDS
100
AcDbLine
 10
1390.732251538542
 20
286.1649355925563
 30
0.0
 11
1311.732251538542
 21
286.1649355925563
 31
0.0
  0
ARC
  5
240A
330
2
100
AcDbEntity
  8
HIDS
100
AcDbCircle
 10
1311.732251538542
 20
281.1649355925564
 30
0.0
 40
5.0
100
AcDbArc
 50
90.0
 51
180.0
  0
ARC
  5
240B
330
2
100
AcDbEntity
  8
HIDS
100
AcDbCircle
 10
1390.732251538542
 20
281.1649355925564
 30
0.0
 40
5.0
100
AcDbArc
 50
0.0
 51
90.0
  0
ARC
  5
240C
330
2
100
AcDbEntity
  8
HIDS
100
AcDbCircle
 10
1390.732251538542
 20
281.1649355925564
 30
0.0
 40
5.0
100
AcDbArc
 50
0.0
 51
90.0
  0
ENDSEC
  0
SECTION
  2
OBJECTS
  0
DICTIONARY
  5
7
330
0
100
AcDbDictionary
281
     1
  3
ACAD_COLOR
350
1D3B
  3
ACAD_GROUP
350
75
  3
ACAD_LAYOUT
350
61
  3
ACAD_MATERIAL
350
1D0E
  3
ACAD_MLEADERSTYLE
350
1D60
  3
ACAD_MLINESTYLE
350
76
  3
ACAD_PLOTSETTINGS
350
77
  3
ACAD_PLOTSTYLENAME
350
6
  3
ACAD_SCALELIST
350
1D3E
  3
ACAD_TABLESTYLE
350
1D3C
  3
ACAD_VISUALSTYLE
350
1D27
  3
AcadDim
350
480
  3
ACDB_RECOMPOSE_DATA
350
24C3
  3
AcDbVariableDictionary
350
102
  3
DWGPROPS
350
24C4
  0
DICTIONARY
  5
1E65
330
6E
100
AcDbDictionary
280
     1
281
     1
  0
DICTIONARY
  5
1D67
330
66
100
AcDbDictionary
280
     1
281
     1
  3
ACAD_LAYERSTATES
360
1D68
  0
DICTIONARY
  5
1E50
330
5E
100
AcDbDictionary
280
     1
281
     1
  3
ADSK_XREC_LAYER_RECONCILED
360
1E51
  0
DICTIONARY
  5
1E52
330
3E
100
AcDbDictionary
280
     1
281
     1
  3
ADSK_XREC_LAYER_RECONCILED
360
1E53
  0
DICTIONARY
  5
1E58
330
2B5
100
AcDbDictionary
280
     1
281
     1
  3
ADSK_XREC_LAYER_RECONCILED
360
1E59
  0
DICTIONARY
  5
1E5C
330
3FA
100
AcDbDictionary
280
     1
281
     1
  3
ADSK_XREC_LAYER_RECONCILED
360
1E5D
  0
DICTIONARY
  5
1D3B
102
{ACAD_REACTORS
330
7
102
}
330
7
100
AcDbDictionary
281
     1
  0
DICTIONARY
  5
75
102
{ACAD_REACTORS
330
7
102
}
330
7
100
AcDbDictionary
281
     1
  0
DICTIONARY
  5
61
102
{ACAD_REACTORS
330
7
102
}
330
7
100
AcDbDictionary
281
     1
  3
Model
350
60
  3
レイアウト1
350
24BD
  0
DICTIONARY
  5
1D0E
102
{ACAD_REACTORS
330
7
102
}
330
7
100
AcDbDictionary
281
     1
  3
ByBlock
350
1D17
  3
ByLayer
350
1D0F
  3
Global
350
1D1F
  0
DICTIONARY
  5
1D60
102
{ACAD_REACTORS
330
7
102
}
330
7
100
AcDbDictionary
281
     1
  3
Standard
350
1D61
  0
DICTIONARY
  5
76
102
{ACAD_REACTORS
330
7
102
}
330
7
100
AcDbDictionary
281
     1
  3
STANDARD
350
78
  0
DICTIONARY
  5
77
102
{ACAD_REACTORS
330
7
102
}
330
7
100
AcDbDictionary
281
     1
  0
ACDBDICTIONARYWDFLT
  5
6
102
{ACAD_REACTORS
330
7
102
}
330
7
100
AcDbDictionary
281
     1
  3
Normal
350
5
100
AcDbDictionaryWithDefault
340
5
  0
DICTIONARY
  5
1D3E
102
{ACAD_REACTORS
330
7
102
}
330
7
100
AcDbDictionary
281
     1
  3
A0
350
1D3F
  3
A1
350
1D40
  3
A2
350
1D41
  3
A3
350
1D42
  3
A4
350
1D43
  3
A5
350
1D44
  3
A6
350
1D45
  3
A7
350
1D46
  3
A8
350
1D47
  3
A9
350
1D48
  3
B0
350
1D49
  3
B1
350
1D4A
  3
B2
350
1D4B
  3
B3
350
1D4C
  3
B4
350
1D4D
  3
B5
350
1D4E
  3
B6
350
1D4F
  3
B7
350
1D50
  3
B8
350
1D51
  3
B9
350
1D52
  3
C0
350
1D53
  3
C1
350
1D54
  3
C2
350
1D55
  3
C3
350
1D56
  3
C4
350
1D57
  3
C5
350
1D58
  3
C6
350
1D59
  3
C7
350
1D5A
  3
C8
350
1D5B
  3
C9
350
1D5C
  3
D0
350
1D5D
  3
D1
350
1D5E
  3
D2
350
1D5F
  0
DICTIONARY
  5
1D3C
102
{ACAD_REACTORS
330
7
102
}
330
7
100
AcDbDictionary
281
     1
  3
Standard
350
1D3D
  0
DICTIONARY
  5
1D27
102
{ACAD_REACTORS
330
7
102
}
330
7
100
AcDbDictionary
281
     1
  3
2dWireframe
350
1D2D
  3
3D Hidden
350
1D2F
  3
3dWireframe
350
1D2E
  3
Basic
350
1D2C
  3
Brighten
350
1D33
  3
ColorChange
350
1D37
  3
Conceptual
350
1D30
  3
Dim
350
1D32
  3
EdgeColorOff
350
1D3A
  3
Facepattern
350
1D36
  3
Flat
350
1D28
  3
FlatWithEdges
350
1D29
  3
Gouraud
350
1D2A
  3
GouraudWithEdges
350
1D2B
  3
JitterOff
350
1D38
  3
Linepattern
350
1D35
  3
OverhangOff
350
1D39
  3
Realistic
350
1D31
  3
Thicken
350
1D34
  0
XRECORD
  5
480
102
{ACAD_REACTORS
330
7
102
}
330
7
100
AcDbXrecord
280
     1
 90
   990106
  3

 60
     0
 61
     0
 62
     1
 63
     3
 64
     1
 65
     0
 66
     0
 67
     3
 68
     1
 69
     0
 70
     0
 71
     0
 72
     0
 40
0.0
170
     2
340
0
  0
XRECORD
  5
24C3
102
{ACAD_REACTORS
330
7
102
}
330
7
100
AcDbXrecord
280
     1
 90
        1
330
1D3D
  0
DICTIONARY
  5
102
102
{ACAD_REACTORS
330
7
102
}
330
7
100
AcDbDictionary
281
     1
  3
CANNOSCALE
350
1EA9
  3
CMLEADERSTYLE
350
1EA8
  3
CTABLESTYLE
350
1EA7
  3
DIMASSOC
350
103
  3
INDEXCTL
350
1EAB
  3
SORTENTS
350
1EAA
  3
XCLIPFRAME
350
24C1
  0
XRECORD
  5
24C4
102
{ACAD_REACTORS
330
7
102
}
330
7
100
AcDbXrecord
280
     1
  1
DWGPROPS COOKIE
  2

  3

  4

  6

  7

  8
ykitaga
  9

300
=
301
=
302
=
303
=
304
=
305
=
306
=
307
=
308
=
309
=
 40
0.1239280324074074
 41
2453482.684227604
 42
2455378.432114051
  1

 90
        0
  0
DICTIONARY
  5
1D68
102
{ACAD_REACTORS
330
1D67
102
}
330
1D67
100
AcDbDictionary
281
     1
  0
XRECORD
  5
1E51
102
{ACAD_REACTORS
330
1E50
102
}
330
1E50
100
AcDbXrecord
280
     1
290
     1
  0
XRECORD
  5
1E53
102
{ACAD_REACTORS
330
1E52
102
}
330
1E52
100
AcDbXrecord
280
     1
290
     1
  0
XRECORD
  5
1E59
102
{ACAD_REACTORS
330
1E58
102
}
330
1E58
100
AcDbXrecord
280
     1
290
     1
  0
XRECORD
  5
1E5D
102
{ACAD_REACTORS
330
1E5C
102
}
330
1E5C
100
AcDbXrecord
280
     1
290
     1
  0
LAYOUT
  5
60
102
{ACAD_XDICTIONARY
360
1D80
102
}
102
{ACAD_REACTORS
330
61
102
}
330
61
100
AcDbPlotSettings
  1

  2
Canon LBP-1420
  4
A4
  6

 40
5.873749732971191
 41
5.873747825622558
 42
5.873748779296875
 43
5.873748779296875
 44
209.9733276367187
 45
296.9259948730469
 46
0.0
 47
5.37
 48
0.0
 49
0.0
140
0.0
141
0.0
142
1.0
143
0.0880999410370753
 70
 11956
 72
     1
 73
     1
 74
     1
  7
Sekkei.ctb
 75
     0
147
11.35074539470086
148
-88.97401507731297
149
-101.3630682338996
100
AcDbLayout
  1
Model
 70
     1
 71
     0
 10
0.0
 20
0.0
 11
12.0
 21
9.0
 12
0.0
 22
0.0
 32
0.0
 14
0.0
 24
0.0
 34
0.0
 15
0.0
 25
0.0
 35
0.0
146
0.0
 13
0.0
 23
0.0
 33
0.0
 16
1.0
 26
0.0
 36
0.0
 17
0.0
 27
1.0
 37
0.0
 76
     0
330
2
331
1D0C
  0
LAYOUT
  5
24BD
102
{ACAD_XDICTIONARY
360
2500
102
}
102
{ACAD_REACTORS
330
61
102
}
330
61
100
AcDbPlotSettings
  1

  2
Symantec Fax Starter Edition
  4

  6

 40
0.0
 41
0.0
 42
0.0
 43
0.0
 44
0.0
 45
0.0
 46
0.0
 47
0.0
 48
0.0
 49
0.0
140
0.0
141
0.0
142
1.0
143
1.0
 70
   688
 72
     0
 73
     0
 74
     5
  7

 75
    16
147
1.0
148
0.0
149
0.0
100
AcDbLayout
  1
レイアウト1
 70
     1
 71
     1
 10
0.0
 20
0.0
 11
12.0
 21
9.0
 12
0.0
 22
0.0
 32
0.0
 14
0.0
 24
0.0
 34
0.0
 15
0.0
 25
0.0
 35
0.0
146
0.0
 13
0.0
 23
0.0
 33
0.0
 16
1.0
 26
0.0
 36
0.0
 17
0.0
 27
1.0
 37
0.0
 76
     0
330
24BC
  0
MATERIAL
  5
1D17
102
{ACAD_XDICTIONARY
360
1D18
102
}
102
{ACAD_REACTORS
330
1D0E
102
}
330
1D0E
100
AcDbMaterial
  1
ByBlock
 72
     0
 43
0.0208333333333333
 43
0.0
 43
0.0
 43
0.0
 43
0.0
 43
0.0208333333333333
 43
0.0
 43
0.0
 43
0.0
 43
0.0
 43
1.0
 43
0.0
 43
0.0
 43
0.0
 43
0.0
 43
1.0
 77
     0
 47
0.0208333333333333
 47
0.0
 47
0.0
 47
0.0
 47
0.0
 47
0.0208333333333333
 47
0.0
 47
0.0
 47
0.0
 47
0.0
 47
1.0
 47
0.0
 47
0.0
 47
0.0
 47
0.0
 47
1.0
171
     0
 49
0.0208333333333333
 49
0.0
 49
0.0
 49
0.0
 49
0.0
 49
0.0208333333333333
 49
0.0
 49
0.0
 49
0.0
 49
0.0
 49
1.0
 49
0.0
 49
0.0
 49
0.0
 49
0.0
 49
1.0
175
     0
142
0.0208333333333333
142
0.0
142
0.0
142
0.0
142
0.0
142
0.0208333333333333
142
0.0
142
0.0
142
0.0
142
0.0
142
1.0
142
0.0
142
0.0
142
0.0
142
0.0
142
1.0
179
     0
144
0.0208333333333333
144
0.0
144
0.0
144
0.0
144
0.0
144
0.0208333333333333
144
0.0
144
0.0
144
0.0
144
0.0
144
1.0
144
0.0
144
0.0
144
0.0
144
0.0
144
1.0
147
0.0208333333333333
147
0.0
147
0.0
147
0.0
147
0.0
147
0.0208333333333333
147
0.0
147
0.0
147
0.0
147
0.0
147
1.0
147
0.0
147
0.0
147
0.0
147
0.0
147
1.0
  0
MATERIAL
  5
1D0F
102
{ACAD_XDICTIONARY
360
1D10
102
}
102
{ACAD_REACTORS
330
1D0E
102
}
330
1D0E
100
AcDbMaterial
  1
ByLayer
 72
     0
 43
0.0208333333333333
 43
0.0
 43
0.0
 43
0.0
 43
0.0
 43
0.0208333333333333
 43
0.0
 43
0.0
 43
0.0
 43
0.0
 43
1.0
 43
0.0
 43
0.0
 43
0.0
 43
0.0
 43
1.0
 77
     0
 47
0.0208333333333333
 47
0.0
 47
0.0
 47
0.0
 47
0.0
 47
0.0208333333333333
 47
0.0
 47
0.0
 47
0.0
 47
0.0
 47
1.0
 47
0.0
 47
0.0
 47
0.0
 47
0.0
 47
1.0
171
     0
 49
0.0208333333333333
 49
0.0
 49
0.0
 49
0.0
 49
0.0
 49
0.0208333333333333
 49
0.0
 49
0.0
 49
0.0
 49
0.0
 49
1.0
 49
0.0
 49
0.0
 49
0.0
 49
0.0
 49
1.0
175
     0
142
0.0208333333333333
142
0.0
142
0.0
142
0.0
142
0.0
142
0.0208333333333333
142
0.0
142
0.0
142
0.0
142
0.0
142
1.0
142
0.0
142
0.0
142
0.0
142
0.0
142
1.0
179
     0
144
0.0208333333333333
144
0.0
144
0.0
144
0.0
144
0.0
144
0.0208333333333333
144
0.0
144
0.0
144
0.0
144
0.0
144
1.0
144
0.0
144
0.0
144
0.0
144
0.0
144
1.0
147
0.0208333333333333
147
0.0
147
0.0
147
0.0
147
0.0
147
0.0208333333333333
147
0.0
147
0.0
147
0.0
147
0.0
147
1.0
147
0.0
147
0.0
147
0.0
147
0.0
147
1.0
  0
MATERIAL
  5
1D1F
102
{ACAD_XDICTIONARY
360
1D20
102
}
102
{ACAD_REACTORS
330
1D0E
102
}
330
1D0E
100
AcDbMaterial
  1
Global
 72
     0
 43
0.0208333333333333
 43
0.0
 43
0.0
 43
0.0
 43
0.0
 43
0.0208333333333333
 43
0.0
 43
0.0
 43
0.0
 43
0.0
 43
1.0
 43
0.0
 43
0.0
 43
0.0
 43
0.0
 43
1.0
 77
     0
 47
0.0208333333333333
 47
0.0
 47
0.0
 47
0.0
 47
0.0
 47
0.0208333333333333
 47
0.0
 47
0.0
 47
0.0
 47
0.0
 47
1.0
 47
0.0
 47
0.0
 47
0.0
 47
0.0
 47
1.0
171
     0
 49
0.0208333333333333
 49
0.0
 49
0.0
 49
0.0
 49
0.0
 49
0.0208333333333333
 49
0.0
 49
0.0
 49
0.0
 49
0.0
 49
1.0
 49
0.0
 49
0.0
 49
0.0
 49
0.0
 49
1.0
175
     0
142
0.0208333333333333
142
0.0
142
0.0
142
0.0
142
0.0
142
0.0208333333333333
142
0.0
142
0.0
142
0.0
142
0.0
142
1.0
142
0.0
142
0.0
142
0.0
142
0.0
142
1.0
179
     0
144
0.0208333333333333
144
0.0
144
0.0
144
0.0
144
0.0
144
0.0208333333333333
144
0.0
144
0.0
144
0.0
144
0.0
144
1.0
144
0.0
144
0.0
144
0.0
144
0.0
144
1.0
147
0.0208333333333333
147
0.0
147
0.0
147
0.0
147
0.0
147
0.0208333333333333
147
0.0
147
0.0
147
0.0
147
0.0
147
1.0
147
0.0
147
0.0
147
0.0
147
0.0
147
1.0
  0
MLEADERSTYLE
  5
1D61
102
{ACAD_REACTORS
330
1D60
102
}
330
1D60
100
AcDbMLeaderStyle
170
     2
171
     1
172
     0
 90
        2
 40
0.0
 41
0.0
173
     1
 91
-1056964608
340
6A
 92
       -2
290
     1
 42
0.09
291
     1
 43
0.36
  3
Standard
 44
0.18
300

342
16
174
     1
178
     6
175
     1
176
     0
 93
-1056964608
 45
0.18
292
     0
297
     0
 46
0.18
 94
-1056964608
 47
1.0
 49
1.0
140
1.0
293
     1
141
0.0
294
     1
177
     0
142
1.0
295
     0
296
     0
143
0.125
1001
ACAD_MLEADERVER
1070
     2
  0
MLINESTYLE
  5
78
102
{ACAD_REACTORS
330
76
102
}
330
76
100
AcDbMlineStyle
  2
STANDARD
 70
     0
  3

 62
     0
 51
90.0
 52
90.0
 71
     2
 49
0.5
 62
   256
  6
BYLAYER
 49
-0.5
 62
   256
  6
BYLAYER
  0
ACDBPLACEHOLDER
  5
5
102
{ACAD_REACTORS
330
6
102
}
330
6
  0
SCALE
  5
1D3F
102
{ACAD_REACTORS
330
1D3E
102
}
330
1D3E
100
AcDbScale
 70
     0
300
1:1
140
1.0
141
1.0
290
     1
  0
SCALE
  5
1D40
102
{ACAD_REACTORS
330
1D3E
102
}
330
1D3E
100
AcDbScale
 70
     0
300
1:2
140
1.0
141
2.0
290
     0
  0
SCALE
  5
1D41
102
{ACAD_REACTORS
330
1D3E
102
}
330
1D3E
100
AcDbScale
 70
     0
300
1:4
140
1.0
141
4.0
290
     0
  0
SCALE
  5
1D42
102
{ACAD_REACTORS
330
1D3E
102
}
330
1D3E
100
AcDbScale
 70
     0
300
1:5
140
1.0
141
5.0
290
     0
  0
SCALE
  5
1D43
102
{ACAD_REACTORS
330
1D3E
102
}
330
1D3E
100
AcDbScale
 70
     0
300
1:8
140
1.0
141
8.0
290
     0
  0
SCALE
  5
1D44
102
{ACAD_REACTORS
330
1D3E
102
}
330
1D3E
100
AcDbScale
 70
     0
300
1:10
140
1.0
141
10.0
290
     0
  0
SCALE
  5
1D45
102
{ACAD_REACTORS
330
1D3E
102
}
330
1D3E
100
AcDbScale
 70
     0
300
1:16
140
1.0
141
16.0
290
     0
  0
SCALE
  5
1D46
102
{ACAD_REACTORS
330
1D3E
102
}
330
1D3E
100
AcDbScale
 70
     0
300
1:20
140
1.0
141
20.0
290
     0
  0
SCALE
  5
1D47
102
{ACAD_REACTORS
330
1D3E
102
}
330
1D3E
100
AcDbScale
 70
     0
300
1:30
140
1.0
141
30.0
290
     0
  0
SCALE
  5
1D48
102
{ACAD_REACTORS
330
1D3E
102
}
330
1D3E
100
AcDbScale
 70
     0
300
1:40
140
1.0
141
40.0
290
     0
  0
SCALE
  5
1D49
102
{ACAD_REACTORS
330
1D3E
102
}
330
1D3E
100
AcDbScale
 70
     0
300
1:50
140
1.0
141
50.0
290
     0
  0
SCALE
  5
1D4A
102
{ACAD_REACTORS
330
1D3E
102
}
330
1D3E
100
AcDbScale
 70
     0
300
1:100
140
1.0
141
100.0
290
     0
  0
SCALE
  5
1D4B
102
{ACAD_REACTORS
330
1D3E
102
}
330
1D3E
100
AcDbScale
 70
     0
300
2:1
140
2.0
141
1.0
290
     0
  0
SCALE
  5
1D4C
102
{ACAD_REACTORS
330
1D3E
102
}
330
1D3E
100
AcDbScale
 70
     0
300
4:1
140
4.0
141
1.0
290
     0
  0
SCALE
  5
1D4D
102
{ACAD_REACTORS
330
1D3E
102
}
330
1D3E
100
AcDbScale
 70
     0
300
8:1
140
8.0
141
1.0
290
     0
  0
SCALE
  5
1D4E
102
{ACAD_REACTORS
330
1D3E
102
}
330
1D3E
100
AcDbScale
 70
     0
300
10:1
140
10.0
141
1.0
290
     0
  0
SCALE
  5
1D4F
102
{ACAD_REACTORS
330
1D3E
102
}
330
1D3E
100
AcDbScale
 70
     0
300
100:1
140
100.0
141
1.0
290
     0
  0
SCALE
  5
1D50
102
{ACAD_REACTORS
330
1D3E
102
}
330
1D3E
100
AcDbScale
 70
     0
300
1/128" = 1'-0"
140
0.0078125
141
12.0
290
     0
  0
SCALE
  5
1D51
102
{ACAD_REACTORS
330
1D3E
102
}
330
1D3E
100
AcDbScale
 70
     0
300
1/64" = 1'-0"
140
0.015625
141
12.0
290
     0
  0
SCALE
  5
1D52
102
{ACAD_REACTORS
330
1D3E
102
}
330
1D3E
100
AcDbScale
 70
     0
300
1/32" = 1'-0"
140
0.03125
141
12.0
290
     0
  0
SCALE
  5
1D53
102
{ACAD_REACTORS
330
1D3E
102
}
330
1D3E
100
AcDbScale
 70
     0
300
1/16" = 1'-0"
140
0.0625
141
12.0
290
     0
  0
SCALE
  5
1D54
102
{ACAD_REACTORS
330
1D3E
102
}
330
1D3E
100
AcDbScale
 70
     0
300
3/32" = 1'-0"
140
0.09375
141
12.0
290
     0
  0
SCALE
  5
1D55
102
{ACAD_REACTORS
330
1D3E
102
}
330
1D3E
100
AcDbScale
 70
     0
300
1/8" = 1'-0"
140
0.125
141
12.0
290
     0
  0
SCALE
  5
1D56
102
{ACAD_REACTORS
330
1D3E
102
}
330
1D3E
100
AcDbScale
 70
     0
300
3/16" = 1'-0"
140
0.1875
141
12.0
290
     0
  0
SCALE
  5
1D57
102
{ACAD_REACTORS
330
1D3E
102
}
330
1D3E
100
AcDbScale
 70
     0
300
1/4" = 1'-0"
140
0.25
141
12.0
290
     0
  0
SCALE
  5
1D58
102
{ACAD_REACTORS
330
1D3E
102
}
330
1D3E
100
AcDbScale
 70
     0
300
3/8" = 1'-0"
140
0.375
141
12.0
290
     0
  0
SCALE
  5
1D59
102
{ACAD_REACTORS
330
1D3E
102
}
330
1D3E
100
AcDbScale
 70
     0
300
1/2" = 1'-0"
140
0.5
141
12.0
290
     0
  0
SCALE
  5
1D5A
102
{ACAD_REACTORS
330
1D3E
102
}
330
1D3E
100
AcDbScale
 70
     0
300
3/4" = 1'-0"
140
0.75
141
12.0
290
     0
  0
SCALE
  5
1D5B
102
{ACAD_REACTORS
330
1D3E
102
}
330
1D3E
100
AcDbScale
 70
     0
300
1" = 1'-0"
140
1.0
141
12.0
290
     0
  0
SCALE
  5
1D5C
102
{ACAD_REACTORS
330
1D3E
102
}
330
1D3E
100
AcDbScale
 70
     0
300
1-1/2" = 1'-0"
140
1.5
141
12.0
290
     0
  0
SCALE
  5
1D5D
102
{ACAD_REACTORS
330
1D3E
102
}
330
1D3E
100
AcDbScale
 70
     0
300
3" = 1'-0"
140
3.0
141
12.0
290
     0
  0
SCALE
  5
1D5E
102
{ACAD_REACTORS
330
1D3E
102
}
330
1D3E
100
AcDbScale
 70
     0
300
6" = 1'-0"
140
6.0
141
12.0
290
     0
  0
SCALE
  5
1D5F
102
{ACAD_REACTORS
330
1D3E
102
}
330
1D3E
100
AcDbScale
 70
     0
300
1'-0" = 1'-0"
140
12.0
141
12.0
290
     0
  0
TABLESTYLE
  5
1D3D
102
{ACAD_XDICTIONARY
360
1E5F
102
}
102
{ACAD_REACTORS
330
1D3C
102
}
330
1D3C
100
AcDbTableStyle
  3
Standard
 70
     0
 71
     0
 40
0.06
 41
0.06
280
     0
281
     0
  7
STANDARD
140
0.18
170
     2
 62
     0
 63
     7
283
     0
274
    -2
284
     1
 64
     0
275
    -2
285
     1
 65
     0
276
    -2
286
     1
 66
     0
277
    -2
287
     1
 67
     0
278
    -2
288
     1
 68
     0
279
    -2
289
     1
 69
     0
  7
STANDARD
140
0.25
170
     5
 62
     0
 63
     7
283
     0
274
    -2
284
     1
 64
     0
275
    -2
285
     1
 65
     0
276
    -2
286
     1
 66
     0
277
    -2
287
     1
 67
     0
278
    -2
288
     1
 68
     0
279
    -2
289
     1
 69
     0
  7
STANDARD
140
0.18
170
     5
 62
     0
 63
     7
283
     0
274
    -2
284
     1
 64
     0
275
    -2
285
     1
 65
     0
276
    -2
286
     1
 66
     0
277
    -2
287
     1
 67
     0
278
    -2
288
     1
 68
     0
279
    -2
289
     1
 69
     0
  0
VISUALSTYLE
  5
1D2D
102
{ACAD_XDICTIONARY
360
24DB
102
}
102
{ACAD_REACTORS
330
1D27
102
}
330
1D27
100
AcDbVisualStyle
  2
2dWireframe
 70
     4
 71
     0
 72
     2
 73
     0
 90
        0
 40
-0.6
 41
-30.0
 62
     5
 63
     7
 74
     1
 91
        4
 64
     7
 65
   257
 75
     1
175
     1
 42
1.0
 92
        0
 66
   257
 43
1.0
 76
     1
 77
     6
 78
     2
 67
     7
 79
     5
170
     0
171
     0
290
     0
174
     0
 93
        1
 44
0.0
173
     0
291
     0
 45
0.0
1001
ACAD
1000
AcDbSavedByObjectVersion
1070
     0
  0
VISUALSTYLE
  5
1D2F
102
{ACAD_XDICTIONARY
360
24DF
102
}
102
{ACAD_REACTORS
330
1D27
102
}
330
1D27
100
AcDbVisualStyle
  2
3D Hidden
 70
     6
 71
     1
 72
     2
 73
     2
 90
        0
 40
-0.6
 41
-30.0
 62
     5
 63
     7
 74
     2
 91
        2
 64
     7
 65
   257
 75
     2
175
     1
 42
179.0
 92
        0
 66
   257
 43
1.0
 76
     1
 77
     6
 78
     2
 67
     7
 79
     3
170
     0
171
     0
290
     0
174
     0
 93
        1
 44
0.0
173
     0
291
     0
 45
0.0
1001
ACAD
1000
AcDbSavedByObjectVersion
1070
     0
  0
VISUALSTYLE
  5
1D2E
102
{ACAD_XDICTIONARY
360
24DD
102
}
102
{ACAD_REACTORS
330
1D27
102
}
330
1D27
100
AcDbVisualStyle
  2
3dWireframe
 70
     5
 71
     0
 72
     2
 73
     0
 90
        0
 40
-0.6
 41
-30.0
 62
     5
 63
     7
 74
     1
 91
        4
 64
     7
 65
   257
 75
     1
175
     1
 42
1.0
 92
        0
 66
   257
 43
1.0
 76
     1
 77
     6
 78
     2
 67
     7
 79
     5
170
     0
171
     0
290
     0
174
     0
 93
        1
 44
0.0
173
     0
291
     0
 45
0.0
1001
ACAD
1000
AcDbSavedByObjectVersion
1070
     0
  0
VISUALSTYLE
  5
1D2C
102
{ACAD_XDICTIONARY
360
24D9
102
}
102
{ACAD_REACTORS
330
1D27
102
}
330
1D27
100
AcDbVisualStyle
  2
Basic
 70
     7
 71
     1
 72
     0
 73
     1
 90
        0
 40
-0.6
 41
-30.0
 62
     5
 63
     7
 74
     0
 91
        4
 64
     7
 65
   257
 75
     1
175
     1
 42
1.0
 92
        8
 66
     7
 43
1.0
 76
     1
 77
     6
 78
     2
 67
     7
 79
     5
170
     0
171
     0
290
     0
174
     0
 93
        1
 44
0.0
173
     0
291
     1
 45
0.0
1001
ACAD
1000
AcDbSavedByObjectVersion
1070
     0
  0
VISUALSTYLE
  5
1D33
102
{ACAD_XDICTIONARY
360
24E7
102
}
102
{ACAD_REACTORS
330
1D27
102
}
330
1D27
100
AcDbVisualStyle
  2
Brighten
 70
    12
 71
     2
 72
     2
 73
     0
 90
        0
 40
-0.6
 41
-30.0
 62
     5
 63
     7
 74
     1
 91
        4
 64
     7
 65
   257
 75
     1
175
     1
 42
1.0
 92
        8
 66
     7
 43
1.0
 76
     1
 77
     6
 78
     2
 67
     7
 79
     5
170
     0
171
     0
290
     0
174
     0
 93
        1
 44
50.0
173
     0
291
     1
 45
0.0
1001
ACAD
1000
AcDbSavedByObjectVersion
1070
     0
  0
VISUALSTYLE
  5
1D37
102
{ACAD_XDICTIONARY
360
24EF
102
}
102
{ACAD_REACTORS
330
1D27
102
}
330
1D27
100
AcDbVisualStyle
  2
ColorChange
 70
    16
 71
     2
 72
     2
 73
     3
 90
        0
 40
-0.6
 41
-30.0
 62
     5
 63
     8
 74
     1
 91
        4
 64
     7
 65
   257
 75
     1
175
     1
 42
1.0
 92
        8
 66
     8
 43
1.0
 76
     1
 77
     6
 78
     2
 67
     7
 79
     5
170
     0
171
     0
290
     0
174
     0
 93
        1
 44
0.0
173
     0
291
     1
 45
0.0
1001
ACAD
1000
AcDbSavedByObjectVersion
1070
     0
  0
VISUALSTYLE
  5
1D30
102
{ACAD_XDICTIONARY
360
24E1
102
}
102
{ACAD_REACTORS
330
1D27
102
}
330
1D27
100
AcDbVisualStyle
  2
Conceptual
 70
     9
 71
     3
 72
     2
 73
     0
 90
        0
 40
-0.6
 41
-30.0
 62
     5
 63
     7
 74
     2
 91
        2
 64
     7
 65
   257
 75
     1
175
     1
 42
179.0
 92
        8
 66
     7
 43
1.0
 76
     1
 77
     6
 78
     2
 67
     7
 79
     3
170
     0
171
     0
290
     0
174
     0
 93
        1
 44
0.0
173
     0
291
     0
 45
0.0
1001
ACAD
1000
AcDbSavedByObjectVersion
1070
     0
  0
VISUALSTYLE
  5
1D32
102
{ACAD_XDICTIONARY
360
24E5
102
}
102
{ACAD_REACTORS
330
1D27
102
}
330
1D27
100
AcDbVisualStyle
  2
Dim
 70
    11
 71
     2
 72
     2
 73
     0
 90
        0
 40
-0.6
 41
-30.0
 62
     5
 63
     7
 74
     1
 91
        4
 64
     7
 65
   257
 75
     1
175
     1
 42
1.0
 92
        8
 66
     7
 43
1.0
 76
     1
 77
     6
 78
     2
 67
     7
 79
     5
170
     0
171
     0
290
     0
174
     0
 93
        1
 44
-50.0
173
     0
291
     1
 45
0.0
1001
ACAD
1000
AcDbSavedByObjectVersion
1070
     0
  0
VISUALSTYLE
  5
1D3A
102
{ACAD_XDICTIONARY
360
24F5
102
}
102
{ACAD_REACTORS
330
1D27
102
}
330
1D27
100
AcDbVisualStyle
  2
EdgeColorOff
 70
    22
 71
     2
 72
     2
 73
     0
 90
        0
 40
-0.6
 41
-30.0
 62
     5
 63
     7
 74
     1
 91
        4
 64
     7
 65
   257
 75
     1
175
     1
 42
1.0
 92
        8
 66
     7
 43
1.0
 76
     1
 77
     6
 78
     2
 67
     7
 79
     5
170
     0
171
     0
290
     0
174
     0
 93
        1
 44
0.0
173
     0
291
     1
 45
0.0
1001
ACAD
1000
AcDbSavedByObjectVersion
1070
     0
  0
VISUALSTYLE
  5
1D36
102
{ACAD_XDICTIONARY
360
24ED
102
}
102
{ACAD_REACTORS
330
1D27
102
}
330
1D27
100
AcDbVisualStyle
  2
Facepattern
 70
    15
 71
     2
 72
     2
 73
     0
 90
        0
 40
-0.6
 41
-30.0
 62
     5
 63
     7
 74
     1
 91
        4
 64
     7
 65
   257
 75
     1
175
     1
 42
1.0
 92
        8
 66
     7
 43
1.0
 76
     1
 77
     6
 78
     2
 67
     7
 79
     5
170
     0
171
     0
290
     0
174
     0
 93
        1
 44
0.0
173
     0
291
     1
 45
0.0
1001
ACAD
1000
AcDbSavedByObjectVersion
1070
     0
  0
VISUALSTYLE
  5
1D28
102
{ACAD_XDICTIONARY
360
24D1
102
}
102
{ACAD_REACTORS
330
1D27
102
}
330
1D27
100
AcDbVisualStyle
  2
Flat
 70
     0
 71
     2
 72
     1
 73
     1
 90
        2
 40
-0.6
 41
30.0
 62
     5
 63
     7
 74
     0
 91
        4
 64
     7
 65
   257
 75
     1
175
     1
 42
1.0
 92
        8
 66
     7
 43
1.0
 76
     1
 77
     6
 78
     2
 67
     7
 79
     5
170
     0
171
     0
290
     0
174
     0
 93
       13
 44
0.0
173
     0
291
     1
 45
0.0
1001
ACAD
1000
AcDbSavedByObjectVersion
1070
     0
  0
VISUALSTYLE
  5
1D29
102
{ACAD_XDICTIONARY
360
24D3
102
}
102
{ACAD_REACTORS
330
1D27
102
}
330
1D27
100
AcDbVisualStyle
  2
FlatWithEdges
 70
     1
 71
     2
 72
     1
 73
     1
 90
        2
 40
-0.6
 41
30.0
 62
     5
 63
     7
 74
     1
 91
        4
 64
     7
 65
   257
 75
     1
175
     1
 42
1.0
 92
        0
 66
   257
 43
1.0
 76
     1
 77
     6
 78
     2
 67
     7
 79
     5
170
     0
171
     0
290
     0
174
     0
 93
       13
 44
0.0
173
     0
291
     1
 45
0.0
1001
ACAD
1000
AcDbSavedByObjectVersion
1070
     0
  0
VISUALSTYLE
  5
1D2A
102
{ACAD_XDICTIONARY
360
24D5
102
}
102
{ACAD_REACTORS
330
1D27
102
}
330
1D27
100
AcDbVisualStyle
  2
Gouraud
 70
     2
 71
     2
 72
     2
 73
     1
 90
        2
 40
-0.6
 41
30.0
 62
     5
 63
     7
 74
     0
 91
        4
 64
     7
 65
   257
 75
     1
175
     1
 42
1.0
 92
        0
 66
     7
 43
1.0
 76
     1
 77
     6
 78
     2
 67
     7
 79
     5
170
     0
171
     0
290
     0
174
     0
 93
       13
 44
0.0
173
     0
291
     1
 45
0.0
1001
ACAD
1000
AcDbSavedByObjectVersion
1070
     0
  0
VISUALSTYLE
  5
1D2B
102
{ACAD_XDICTIONARY
360
24D7
102
}
102
{ACAD_REACTORS
330
1D27
102
}
330
1D27
100
AcDbVisualStyle
  2
GouraudWithEdges
 70
     3
 71
     2
 72
     2
 73
     1
 90
        2
 40
-0.6
 41
30.0
 62
     5
 63
     7
 74
     1
 91
        4
 64
     7
 65
   257
 75
     1
175
     1
 42
1.0
 92
        0
 66
   257
 43
1.0
 76
     1
 77
     6
 78
     2
 67
     7
 79
     5
170
     0
171
     0
290
     0
174
     0
 93
       13
 44
0.0
173
     0
291
     1
 45
0.0
1001
ACAD
1000
AcDbSavedByObjectVersion
1070
     0
  0
VISUALSTYLE
  5
1D38
102
{ACAD_XDICTIONARY
360
24F1
102
}
102
{ACAD_REACTORS
330
1D27
102
}
330
1D27
100
AcDbVisualStyle
  2
JitterOff
 70
    20
 71
     2
 72
     2
 73
     0
 90
        0
 40
-0.6
 41
-30.0
 62
     5
 63
     7
 74
     1
 91
        4
 64
     7
 65
   257
 75
     1
175
     1
 42
1.0
 92
       10
 66
     7
 43
1.0
 76
     1
 77
     6
 78
     2
 67
     7
 79
     5
170
     0
171
     0
290
     0
174
     0
 93
        1
 44
0.0
173
     0
291
     1
 45
0.0
1001
ACAD
1000
AcDbSavedByObjectVersion
1070
     0
  0
VISUALSTYLE
  5
1D35
102
{ACAD_XDICTIONARY
360
24EB
102
}
102
{ACAD_REACTORS
330
1D27
102
}
330
1D27
100
AcDbVisualStyle
  2
Linepattern
 70
    14
 71
     2
 72
     2
 73
     0
 90
        0
 40
-0.6
 41
-30.0
 62
     5
 63
     7
 74
     1
 91
        4
 64
     7
 65
   257
 75
     7
175
     7
 42
1.0
 92
        8
 66
     7
 43
1.0
 76
     1
 77
     6
 78
     2
 67
     7
 79
     5
170
     0
171
     0
290
     0
174
     0
 93
        1
 44
0.0
173
     0
291
     1
 45
0.0
1001
ACAD
1000
AcDbSavedByObjectVersion
1070
     0
  0
VISUALSTYLE
  5
1D39
102
{ACAD_XDICTIONARY
360
24F3
102
}
102
{ACAD_REACTORS
330
1D27
102
}
330
1D27
100
AcDbVisualStyle
  2
OverhangOff
 70
    21
 71
     2
 72
     2
 73
     0
 90
        0
 40
-0.6
 41
-30.0
 62
     5
 63
     7
 74
     1
 91
        4
 64
     7
 65
   257
 75
     1
175
     1
 42
1.0
 92
        9
 66
     7
 43
1.0
 76
     1
 77
     6
 78
     2
 67
     7
 79
     5
170
     0
171
     0
290
     0
174
     0
 93
        1
 44
0.0
173
     0
291
     1
 45
0.0
1001
ACAD
1000
AcDbSavedByObjectVersion
1070
     0
  0
VISUALSTYLE
  5
1D31
102
{ACAD_XDICTIONARY
360
24E3
102
}
102
{ACAD_REACTORS
330
1D27
102
}
330
1D27
100
AcDbVisualStyle
  2
Realistic
 70
     8
 71
     2
 72
     2
 73
     0
 90
        0
 40
-0.6
 41
-30.0
 62
     5
 63
     7
 74
     1
 91
        0
 64
     7
 65
   257
 75
     1
175
     1
 42
1.0
 92
        8
 66
     8
 43
1.0
 76
     1
 77
     6
 78
     2
 67
     7
 79
     5
170
     0
171
     0
290
     0
174
     0
 93
       13
 44
0.0
173
     0
291
     0
 45
0.0
1001
ACAD
1000
AcDbSavedByObjectVersion
1070
     0
  0
VISUALSTYLE
  5
1D34
102
{ACAD_XDICTIONARY
360
24E9
102
}
102
{ACAD_REACTORS
330
1D27
102
}
330
1D27
100
AcDbVisualStyle
  2
Thicken
 70
    13
 71
     2
 72
     2
 73
     0
 90
        0
 40
-0.6
 41
-30.0
 62
     5
 63
     7
 74
     1
 91
        4
 64
     7
 65
   257
 75
     1
175
     1
 42
1.0
 92
       12
 66
     7
 43
1.0
 76
     1
 77
     6
 78
     2
 67
     7
 79
     5
170
     0
171
     0
290
     0
174
     0
 93
        1
 44
0.0
173
     0
291
     1
 45
0.0
1001
ACAD
1000
AcDbSavedByObjectVersion
1070
     0
  0
DICTIONARYVAR
  5
1EA9
102
{ACAD_REACTORS
330
102
102
}
330
102
100
DictionaryVariables
280
     0
  1
1:1
  0
DICTIONARYVAR
  5
1EA8
102
{ACAD_REACTORS
330
102
102
}
330
102
100
DictionaryVariables
280
     0
  1
STANDARD
  0
DICTIONARYVAR
  5
1EA7
102
{ACAD_REACTORS
330
102
102
}
330
102
100
DictionaryVariables
280
     0
  1
STANDARD
  0
DICTIONARYVAR
  5
103
102
{ACAD_REACTORS
330
102
102
}
330
102
100
DictionaryVariables
280
     0
  1
1
  0
DICTIONARYVAR
  5
1EAB
102
{ACAD_REACTORS
330
102
102
}
330
102
100
DictionaryVariables
280
     0
  1
0
  0
DICTIONARYVAR
  5
1EAA
102
{ACAD_REACTORS
330
102
102
}
330
102
100
DictionaryVariables
280
     0
  1
127
  0
DICTIONARYVAR
  5
24C1
102
{ACAD_REACTORS
330
102
102
}
330
102
100
DictionaryVariables
280
     0
  1
2
  0
DICTIONARY
  5
1D80
330
60
100
AcDbDictionary
280
     1
281
     1
  3
ACAD_XREC_ROUNDTRIP
360
24C5
  3
ADSK_XREC_LAYOUTTHUMBNAIL
360
1D81
  0
DICTIONARY
  5
2500
330
24BD
100
AcDbDictionary
280
     1
281
     1
  3
ACAD_XREC_ROUNDTRIP
360
2501
  0
DICTIONARY
  5
1D18
330
1D17
100
AcDbDictionary
280
     1
281
     1
  3
ACAD_XREC_ROUNDTRIP
360
24CF
  3
BUMPTILE
360
1D1A
  3
DIFFUSETILE
360
1D19
  3
OPACITYTILE
360
1D1D
  3
REFLECTIONTILE
360
1D1C
  3
REFRACTIONTILE
360
1D1E
  3
SPECULARTILE
360
1D1B
  0
DICTIONARY
  5
1D10
330
1D0F
100
AcDbDictionary
280
     1
281
     1
  3
ACAD_XREC_ROUNDTRIP
360
24CE
  3
BUMPTILE
360
1D12
  3
DIFFUSETILE
360
1D11
  3
OPACITYTILE
360
1D15
  3
REFLECTIONTILE
360
1D14
  3
REFRACTIONTILE
360
1D16
  3
SPECULARTILE
360
1D13
  0
DICTIONARY
  5
1D20
330
1D1F
100
AcDbDictionary
280
     1
281
     1
  3
ACAD_XREC_ROUNDTRIP
360
24D0
  3
BUMPTILE
360
1D22
  3
DIFFUSETILE
360
1D21
  3
OPACITYTILE
360
1D25
  3
REFLECTIONTILE
360
1D24
  3
REFRACTIONTILE
360
1D26
  3
SPECULARTILE
360
1D23
  0
DICTIONARY
  5
1E5F
330
1D3D
100
AcDbDictionary
280
     1
281
     1
  3
ACAD_ROUNDTRIP_2008_TABLESTYLE_CELLSTYLEMAP
360
24C2
  3
ACAD_XREC_ROUNDTRIP
360
24F7
  0
DICTIONARY
  5
24DB
330
1D2D
100
AcDbDictionary
280
     1
281
     1
  3
ACAD_XREC_ROUNDTRIP
360
24DC
  0
DICTIONARY
  5
24DF
330
1D2F
100
AcDbDictionary
280
     1
281
     1
  3
ACAD_XREC_ROUNDTRIP
360
24E0
  0
DICTIONARY
  5
24DD
330
1D2E
100
AcDbDictionary
280
     1
281
     1
  3
ACAD_XREC_ROUNDTRIP
360
24DE
  0
DICTIONARY
  5
24D9
330
1D2C
100
AcDbDictionary
280
     1
281
     1
  3
ACAD_XREC_ROUNDTRIP
360
24DA
  0
DICTIONARY
  5
24E7
330
1D33
100
AcDbDictionary
280
     1
281
     1
  3
ACAD_XREC_ROUNDTRIP
360
24E8
  0
DICTIONARY
  5
24EF
330
1D37
100
AcDbDictionary
280
     1
281
     1
  3
ACAD_XREC_ROUNDTRIP
360
24F0
  0
DICTIONARY
  5
24E1
330
1D30
100
AcDbDictionary
280
     1
281
     1
  3
ACAD_XREC_ROUNDTRIP
360
24E2
  0
DICTIONARY
  5
24E5
330
1D32
100
AcDbDictionary
280
     1
281
     1
  3
ACAD_XREC_ROUNDTRIP
360
24E6
  0
DICTIONARY
  5
24F5
330
1D3A
100
AcDbDictionary
280
     1
281
     1
  3
ACAD_XREC_ROUNDTRIP
360
24F6
  0
DICTIONARY
  5
24ED
330
1D36
100
AcDbDictionary
280
     1
281
     1
  3
ACAD_XREC_ROUNDTRIP
360
24EE
  0
DICTIONARY
  5
24D1
330
1D28
100
AcDbDictionary
280
     1
281
     1
  3
ACAD_XREC_ROUNDTRIP
360
24D2
  0
DICTIONARY
  5
24D3
330
1D29
100
AcDbDictionary
280
     1
281
     1
  3
ACAD_XREC_ROUNDTRIP
360
24D4
  0
DICTIONARY
  5
24D5
330
1D2A
100
AcDbDictionary
280
     1
281
     1
  3
ACAD_XREC_ROUNDTRIP
360
24D6
  0
DICTIONARY
  5
24D7
330
1D2B
100
AcDbDictionary
280
     1
281
     1
  3
ACAD_XREC_ROUNDTRIP
360
24D8
  0
DICTIONARY
  5
24F1
330
1D38
100
AcDbDictionary
280
     1
281
     1
  3
ACAD_XREC_ROUNDTRIP
360
24F2
  0
DICTIONARY
  5
24EB
330
1D35
100
AcDbDictionary
280
     1
281
     1
  3
ACAD_XREC_ROUNDTRIP
360
24EC
  0
DICTIONARY
  5
24F3
330
1D39
100
AcDbDictionary
280
     1
281
     1
  3
ACAD_XREC_ROUNDTRIP
360
24F4
  0
DICTIONARY
  5
24E3
330
1D31
100
AcDbDictionary
280
     1
281
     1
  3
ACAD_XREC_ROUNDTRIP
360
24E4
  0
DICTIONARY
  5
24E9
330
1D34
100
AcDbDictionary
280
     1
281
     1
  3
ACAD_XREC_ROUNDTRIP
360
24EA
  0
XRECORD
  5
24C5
102
{ACAD_REACTORS
330
1D80
102
}
330
1D80
100
AcDbXrecord
280
     1
102
SHADEPLOT
 70
     0
102
SHADEPLOTRESLEVEL
 70
     2
102
SHADEPLOTCUSTOMDPI
 70
   300
  0
XRECORD
  5
1D81
102
{ACAD_REACTORS
330
1D80
102
}
330
1D80
100
AcDbXrecord
280
     1
310
280000000001000074000000010008000000000000740000000000000000000000010000000000000000000000000000FFFFFF000000000000000000000000000000000000000000000000000000000000000000330000006600000099000000CC000000FF00000000330000333300006633000099330000CC330000FF3300
310
0000660000336600006666000099660000CC660000FF66000000990000339900006699000099990000CC990000FF99000000CC000033CC000066CC000099CC0000CCCC0000FFCC000000FF000033FF000066FF000099FF0000CCFF0000FFFF000000003300330033006600330099003300CC003300FF003300003333003333
310
33006633330099333300CC333300FF33330000663300336633006666330099663300CC663300FF66330000993300339933006699330099993300CC993300FF99330000CC330033CC330066CC330099CC3300CCCC3300FFCC330000FF330033FF330066FF330099FF3300CCFF3300FFFF330000006600330066006600660099
310
006600CC006600FF00660000336600333366006633660099336600CC336600FF33660000666600336666006666660099666600CC666600FF66660000996600339966006699660099996600CC996600FF99660000CC660033CC660066CC660099CC6600CCCC6600FFCC660000FF660033FF660066FF660099FF6600CCFF6600
310
FFFF660000009900330099006600990099009900CC009900FF00990000339900333399006633990099339900CC339900FF33990000669900336699006666990099669900CC669900FF66990000999900339999006699990099999900CC999900FF99990000CC990033CC990066CC990099CC9900CCCC9900FFCC990000FF99
310
0033FF990066FF990099FF9900CCFF9900FFFF99000000CC003300CC006600CC009900CC00CC00CC00FF00CC000033CC003333CC006633CC009933CC00CC33CC00FF33CC000066CC003366CC006666CC009966CC00CC66CC00FF66CC000099CC003399CC006699CC009999CC00CC99CC00FF99CC0000CCCC0033CCCC0066CC
310
CC0099CCCC00CCCCCC00FFCCCC0000FFCC0033FFCC0066FFCC0099FFCC00CCFFCC00FFFFCC000000FF003300FF006600FF009900FF00CC00FF00FF00FF000033FF003333FF006633FF009933FF00CC33FF00FF33FF000066FF003366FF006666FF009966FF00CC66FF00FF66FF000099FF003399FF006699FF009999FF00CC
310
99FF00FF99FF0000CCFF0033CCFF0066CCFF0099CCFF00CCCCFF00FFCCFF0000FFFF0033FFFF0066FFFF0099FFFF00CCFFFF00FFFFFF00000000000D0D0D001A1A1A00282828003535350043434300505050005D5D5D006B6B6B00787878008686860093939300A1A1A100AEAEAE00BBBBBB00C9C9C900D6D6D600E4E4E400
310
F1F1F100FFFFFF0000000000000000000000000000000000000000000000000000000000000000000000000000000000E2E2E2E2E2E2E2E2E2E2E2E2E2E2E2E2E2E2E2E2E2E2E2E2E2E2E2E2E2E2E2E2E2E2E2E2E2E2E2E2E2E2E2E2E2E2E2E2E2E2E2E2E2E2E2E2E2E2E2E2E2E2E2E2E22DE2E2E2E2E2E2E2E2E2E2E2E2E2
310
E2E2E2E2E2E2E2E2E2E2E2E2E2E22DE2E2E2E2E2E2E2E2E2E2E2E2E2E2E2E2E2E2E2E2E2E22DE2E2E2E2E2E2E2E2E2E2E2E2E2E2E2E2E2E2E2E2E2E2E2E2E2E2E22DE2E2E2E2E2E2E2E2E2E2E2E2E2E2E2E2E2E2E2E2E2E2E2E2E2E2E2E2E2E2E2E2E2E2E2E2E2E2E2E2E2E2E2E2E2E2E2E2E2E2E2E2E2E2E2E2E2E2E2E2E2
310
E2E2E2E2E2E2E2E2E2E2E2E2E2E2E2E2E2E2E2E2E2E2E2E2E2E2E2E2E2E2E2E2E2E2E2E2E2E2E2E2E2E2E2E2E2E2E2E2E2E2E2E2E2E2E2E2E2E2E2E2E2E2E2E2E2E2E2E2E2E2E2E2E2E2E2E2E2E2E2E2E2E2E2E2E2E2E2E2E2E2E2E2E2E2E2E2E2E2E2E2E2E2E2E2E2E2E2E2E2E2E2E2E2E2E22D2D2D2D2D2D2D2D2D2D2D2D
310
2D2D2D2D2D2D2D2D2D2D2D2D2D2D2D2D2DE2E2E2E2E2E2E2E2E2E2E2E2E2E2E2E2E2E2E2E2E2E22D2D2D2D2D2D2D2D2D2D2D2D2D2D2D2D2D2D2D2D2D2D2D2D2D2D2D2D2DE2E2E2E2E2E2E2E2E2E2E2E2E2E2E2E2E2E2E2E2E2E2E2E2E2E2E2E2E2E2E2E2E2E2E2E2E2E2E2E2E2E2E2E2E2E2E2E2E2E2E2E2E2E2E2E2E2E2E2
310
E2E2E2E2E2E2E2E2E2E2E2E2E2E2E2E2E2E2E2E2E2E2E2E2E2E2E2E2E2E2E2E2E2E2E2E2E2E2E2E2E2E2E2E2E2E2E2E2E2E2E2E2E2E2E2E2E2E2E2E2E2E2E2E2E2E2E2E2E2E2E2E2E2E2E2E2E2E2E2E2E2E2E2E2E2E2E2E2E2E2E2E2E2E2E2E2E2E2E2E2E2E2E2E2E2E2E2E2E2E2E2E2E2E2E2E2E22DE2E2E2E2E2E2E2E2E2
310
E2E2E22D2D2DE2E2E2E2E2E2E2E2E2E2E2E22DE2E2E2E2E2E2E2E2E2E2E2E2E2E2E2E2E2E2E2E2E2E22DE2E2E2E2E2E2E2E2E2E2E2E22D2D2DE2E2E2E2E2E2E2E2E2E2E2E22DE2E2E2E2E2E2E2E2E2E2E2E2E2E2E2E2E2E2E2E2E2E2E2E2E2E2E2E2E2E2E2E2E2E2E2E2E2E2E2E2E2E2E2E2E2E2E2E2E2E2E2E2E2E2E2E2E2
310
E2E2E2E2E2E2E2E2E2E2E2E2E2E2E2E2E2E2E2E2E2E2E2E2E2E2E2E2E2E2E2E2E2E2E2E2E2E2E2E2E2E2E2E2E2E2E2E2E2E2E2E2E2E2E2E2E2E2E2E2E2E2E2E2E2E2E2E2E2E2E2E2E2E2E2E2E2E2E2E2E2E2E2E2E2E2E2E2E2E2E2E2E2E2E2E2E2E2E2E2E2E2E2E2E2E2E2E2E2E2E2E2E2E2E2E2E2E2E22DE2E2E2E2E2E2E2
310
E2E2E2E2E22D2D2DE2E2E2E2E2E2E2E2E2E2E2E22DE2E2E2E2E2E2E2E2E2E2E2E2E2E2E2E2E2E2E2E2E2E22DE2E2E2E2E2E2E2E2E2E2E22D2D2D2DE2E2E2E2E2E2E2E2E2E2E2E22DE2E2E2E2E2E2E2E2E2E2E2E2E2E2E2E2E2E2E2E2E2E2E2E2E2E2E2E2E2E2E2E2E2E2E2E2E2E2E2E2E2E2E2E2E2E2E2E2E2E2E2E2E2E2E2
310
E2E2E2E2E2E2E2E2E2E2E2E2E2E2E2E2E2E2E2E2E2E2E2E2E2E2E2E2E2E2E2E2E2E2E2E2E2E2E2E2E2E2E2E2E2E2E2E2E2E2E2E2E2E2E2E2E2E2E2E2E2E2E2E2E2E2E2E2E2E2E2E2E2E2E2E2E2E2E2E22D2D2D2D2D2D2D2D2D2D2D2D2D2D2DE2E2E2E2E2E2E2E2E2E2E2E2E2E2E2E2E2E2E2E2E2E2E2E2E2E22DE2E2E2E22D
310
E2E2E2E2E2E2E2E2E2E2E2E2E2E2E2E2E22DE2E2E2E22DE2E22D2D2D2D2D2D2DE2E2E2E2E2E2E2E2E2E2E2E2E22DE2E22DE2E2E2E2E2E2E2E2E2E2E2E2E2E2E2E2E2E2E2E22DE2E2E22DE2E2E2E2E2E22DE2E2E2E2E2E2E2E2E2E2E2E2E2E2E2E2E2E2E2E2E2E2E2E2E2E2E2E2E2E2E2E2E2E2E2E2E2E2E2E2E2E2E2E2E2E2
310
E2E2E2E2E2E2E2E2E2E2E2E2E2E2E2E2E2E2E2E2E2E2E2E2E2E2E2E2E2E2E2E2E2E2E2E2E2E2E2E2E2E2E2E2E2E2E2E2E2E2E2E2E2E2E2E2E2E2E2E2E2E2E2E2E2E2E2E2E2E2E2E2E2E2E2E2E2E2E2E2E2E22D2D2D2D2D2D2D2D2D2D2D2D2DE22DE2E2E2E2E2E2E2E2E2E2E2E2E2E2E2E2E2E2E2E2E2E2E2E2E2E22DE2E2E2
310
E22D2D2D2D2D2D2D2D2D2D2D2D2D2D2D2D2D2D2DE2E2E2E22DE22DE22DE22D2D2DE2E2E2E2E2E2E2E2E2E2E2E2E2E22DE2E22D2D2D2D2D2D2D2D2D2D2D2D2D2D2D2D2D2D2D2D2D2D2D2D2D2D2D2D2D2D2D2D2DE2E2E2E2E2E2E2E2E2E2E2E2E2E2E2E2E2E2E2E2E2E2E2E2E2E2E2E2E2E2E2E2E2E2E2E2E2E2E2E2E2E2E2E2
310
E2E2E2E2E2E2E2E2E2E2E2E2E2E2E2E2E2E2E2E2E2E2E2E2E2E2E2E2E2E2E2E2E2E2E2E2E2E2E2E2E2E2E2E2E2E2E2E2E2E2E2E2E2E2E2E2E2E2E2E2E2E2E2E2E2E2E2E2E2E2E2E2E2E2E2E2E2E2E2E2E2E2E2E2E22DE2E2E22DE22D2D2DE22D2D2D2DE2E2E2E2E2E2E2E2E2E2E2E2E2E2E2E2E2E2E2E2E2E2E2E2E2E22DE2
310
E2E2E22DE2E2E2E2E2E2E22D2D2DE2E2E2E2E2E2E22DE2E2E2E22D2DE2E2E2E2E2E2E2E2E2E2E2E2E2E2E2E2E2E2E2E2E22DE2E22DE2E2E2E2E2E2E2E22D2D2D2DE2E2E2E2E2E2E2E22DE2E2E22D2D2D2DE2E2E22DE2E2E2E2E2E2E2E2E2E2E2E2E2E2E2E2E2E2E2E2E2E2E2E2E2E2E2E2E2E2E2E2E2E2E2E2E2E2E2E2E2E2
310
E2E2E2E2E2E2E2E2E2E2E2E2E2E2E2E2E2E2E2E2E2E2E2E2E2E2E2E2E2E2E2E2E2E2E2E2E2E2E2E2E2E2E2E2E2E2E2E2E2E2E2E2E2E2E2E2E2E2E2E2E2E2E2E2E2E2E2E2E2E2E2E2E2E2E2E2E2E2E2E2E2E2E2E2E2E2E22DE2E2E22D2D2D2D2D2D2D2D2D2D2D2D2D2D2D2D2D2D2DE2E2E2E2E2E2E2E2E2E2E2E2E2E2E2E2E2
310
2DE2E2E2E22DE2E2E2E2E2E2E2E2E2E2E2E2E2E2E2E2E22DE2E2E22D2DE2E2E2E2E2E2E2E2E2E2E2E2E2E2E2E2E2E2E2E2E2E22DE2E22DE2E2E2E2E2E2E2E2E2E2E2E2E2E2E2E2E2E2E2E22DE2E2E22DE2E2E2E2E2E22DE2E2E2E2E2E2E2E2E2E2E2E2E2E2E2E2E2E2E2E2E2E2E2E2E2E2E2E2E2E2E2E2E2E2E2E2E2E2E2E2
310
E2E2E2E2E2E2E2E2E2E2E2E2E2E2E2E2E2E2E2E2E2E2E2E2E2E2E2E2E2E2E2E2E2E2E2E2E2E2E2E2E2E2E2E2E2E2E2E2E2E2E2E2E2E2E2E2E2E2E2E2E2E2E2E2E2E2E2E2E2E2E2E2E2E2E2E2E2E2E2E2E2E2E2E2E2E2E2E2E22DE2E2E22D2D2D2D2D2D2D2D2D2D2D2D2D2D2D2D2D2DE2E2E2E2E2E2E2E2E2E2E2E2E2E2E2E2
310
E2E22DE2E2E2E22DE2E2E2E2E2E2E2E228E2E2E2E2E2E2E2E22DE2E22DE22DE2E2E2E2E2E2E2E2E2E2E2E2E2E2E2E2E2E2E2E2E2E22DE2E22DE2E2E2E2E2E2E2E2E2E228E2E2E2E2E2E2E2E2E22DE2E2E22DE2E2E2E2E2E22DE2E2E22DE2E2E2E2E2E2E2E2E2E2E2E2E2E2E2E2E2E2E2E2E2E2E228E2E2E2E2E2E2E2E2E2E2
310
E2E2E2E2E2E2E2E2E2E2E2E2E2E2E2E2E2E2E2E2E2E2E2E2E2E2E2E2E2E2E2E2E2E2E2E2E2E2E2E2E2E2E2E2E2E2E2E2E2E2E2E2E2E2E2E2E2E2E2E2E2E2E2E2E2E2E2E2E2E2E2E2E2E2E2E2E2E2E2E2E2E2E2E2E2E2E2E2E2E2E2E22DE2E2E22D2DE2E22DE22DE22D2D2D2D2D2D2D2D2DE2E2E2E2E2E2E2E2E2E2E2E2E2E2
310
E2E2E2E22DE2E2E2E22DE2E2E2E2E2E2E2E228E2E2E2E2E2E2E2E22D2D2DE2E22DE2E2E2E2E2E2E2E2E2E2E2E2E2E2E2E2E2E2E2E2E2E22DE2E22DE2E2E2E2E2E2E2E2E2E228E2E2E2E2E2E2E2E2E22DE2E2E22DE2E2E2E2E2E22DE2E2E22DE2E2E2E2E2E2E2E2E2E2E2E2E2E228E2E2E2E2E2E2E2E228E2E2E2E2E2E2E2E2
310
28E2E2E2E2E2E2E2E2E2E2E2E2E2E2E2E2E2E2E2E2E2E2E2E2E2E2E2E2E2E2E2E2E2E2E2E2E2E2E2E2E2E2E2E2E2E2E2E2E2E2E2E2E2E2E2E2E2E2E2E2E2E2E2E2E2E2E2E2E2E2E2E2E2E2E2E2E2E2E2E2E2E2E2E2E2E2E2E2E2E2E2E2E22DE2E2E22DE2E2E2E2E2E2E2E2E2E2E2E2E2E2E2E2E2E2E2E2E2E2E2E2E2E2E2E2
310
E2E2E2E2E2E22DF5F5F5BE28BEF5F5F5F5F5F5F528F5F5F5F5F5F5F5BE2D2DBEF5F52D2D2D2D2D2D2DE2E2E2E22D2D2D2D2D2D2D2D2D2D2D2D2DF5BE28BEF5F5F5F5E2E2E2E2E228E2E2E2E2F5F5F5F5BE28F5BEF52D2D2D2D2D2D2D2D2D2D2D2D2D2D2D2DE2E2E2E2E2F5F5F5BEF528BEF5F5F5F5F5F5F528F5F5F5F5F5F5
310
F5BE28BEF5F5F5F5E2E2E2E2E2E2E2E2E2E2E2E2E2E2E2E2E2E2E2E2E2E2E2E2E2E2E2E2E2E2E2E2E2E2E2E2E2E2E2E2E2E2E2E2E2E2E2E2E2E2E2E2E2E2E2E2E2E2E2E2E2E2E2E2E2E2E2E2E2E2E2E2E2E2E2E2E2E2E2E2E2E2E2E2E2E2E2E22DE2E2E22DE2E2E2E2E2E2E2E2E2E2E2E2E2E2E2E2E2E2E2E2E2E2E2E2E2E2
310
E2E2E2E2E2E2E2E2F5E2F5E2BE28BEE2E2E2E2E2E2E228E2E2E2E2E2E2E2BE28E2BEF5E2F5E2E2E2E22DE2E2E2E2E2E22DE2E2E2E2E2E2E2E2E2E2F5E2BE28BEE2F5E2F5F5F5F5F5F528F5F5F5F5F5E2E2F5BE28E2BEE2F5E2E2E2E2E2E22DE22D2D2DE2E22D2DE2E2E2E2E2F5E2F5BEE228BEE2E2E2E2E2E2E228E2E2E2E2
310
E2E2E2BE28BEE2F5E2F5E2E2E2E2E2E2E2E2E2E2E2E2E2E2E2E2E2E2E2E2E2E2E2E2E2E2E2E2E2E2E2E2E2E2E2E2E2E2E2E2E2E2E2E2E2E2E2E2E2E2E2E2E2E2E2E2E2E2E2E2E2E2E2E2E2E2E2E2E2E2E2E2E2E2E2E2E2E2E2E2E2E2E2E2E2E2E2E2E22DE2E22DE2E2E2E2E2E2E2E2E2E2E2E2E2E2E2E2E2E2E2E2E2E2E2E2
310
E2E2E2E2E2E2E2E2E2E2F5E2F5E2BE28BEE2E2E2E2E2E2E228E2E2E2E2E2E2E2BE28E2BEF5E2F5E2E2E2E22DE2E2E2E2E2E22DE2E2E2E2E2E2E2E2E2E2F5E2BE28BEE2F5E2E2E2E2E2E2E228E2E2E2E2E2E2E2F5BE28E2BEE2F5E2E2E2E2E2E22DE22D2D2DE2E2E22DE2E2E2E2E2F5E2F5BEE228BEE2E2E2E2E2E2E228E2E2
310
E2E2E2E2E2BE28BEE2F5E2F5E2E2E2E2E2E2E2E2E2E2E2E2E2E2E2E2E2E2E2E2E2E2E2E2E2E2E2E2E2E2E2E2E2E2E2E2E2E2E2E2E2E2E2E2E2E2E2E2E2E2E2E2E2E2E2E2E2E2E2E2E2E2E2E2E2E2E2E2E2E2E2E2E2E2E2E2E2E2E2E2E2E2E2E2E2E2E2E2E22DE2E2E22DE2E2E2E2E2E2E2E2E2E2E2E2E2E2E2E2E2E2E2E2E2
310
E2E2E2E2E2E2E2E2E2E2E2E2F5F5F5F5BE28BEF5F5F5F5F5F5F528F5F5F5F5F5F5F5BE28F5BEF5F5F5E2E2E2E22DE2E2E2E2E2E22DE2E2E2E2E2E2E2E2E2E2F5F5BE28BEF5F5E2E2E2E2E2E2E228E2E2E2E2E2E2E2F5BE28F5BE2D2D2D2D2D2D2D2D2D2D2D2D2D2DE2E22DE2E2E2E2E2F5F5F5BEF528BEF5F5F5F5F5F5F528
310
F5F5F5F5F5F5F5BE28BEF5F5F5F5E2E2E2E2E2E2E2E2E2E2E2E2E2E2E2E2E2E2E2E2E2E2E2E2E2E2E2E2E2E2E2E2E2E2E2E2E2E2E2E2E2E2E2E2E2E2E2E2E2E2E2E2E2E2E2E2E2E2E2E2E2E2E2E2E2E2E2E2E2E2E2E2E2E2E2E2E2E2E2E2E2E2E2E2E2E2E2E2E22DE2E2E22DE2E2E2E2E2E2E2E2E2E2E2E2E2E2E2E2E2E2E2
310
E2E2E2E2E2E2E2E2E2E2E2E2E2E2F5E2E2E2E228E2E2F5F5F5F5F5F528F5F5F5F5F5F5E2E228E2E2E2E2F5E2E2E2E22DE2E2E2E2E2E22DE2E2E2E2E2E2E2E2E2E2E2E2E228F5F5F5E2E2E2E2E2E2E228E2E2E2E2E2E2E2F5F528E2E2E2E2E2E2E2E2E2E22DE2E2E22DE2E2E22DE2E2E2E2E2F5E2E2E2E228E2E2F5F5F5F5F5
310
F5F5F5F5F5F5F5F5E2E228E2E2E2E2F5E2E2E2E2E2E2E2E2E2E2E2E2E2E2E2E2E2E2E2E2E2E2E2E2E2E2E2E2E2E2E2E2E2E2E2E2E2E2E2E2E2E2E2E2E2E2E2E2E2E2E2E2E2E2E2E2E2E2E2E2E2E2E2E2E2E2E2E2E2E2E2E2E2E2E2E2E2E2E2E2E2E2E2F5F5F5F5F5F5F52DF5F52DF5F5F5F5F5F5F5F5F5F5F5F5F5F5F5F5F5
310
F5F5F5F5F5F5F5F5F5F5F5F5F5F5F5F5F5E2E2E2E228E2E2E2E2E2E2E2E228E2E2E2E2E2E2E2E228E2E2E2E2F5E2E2E2E22DE2E2E2E2E2E22DE2E2E2E2E2E2E2E2E2E2E2E2E228E2E2F5E2E2E2E2E2E2E228E2E2E2E2E2E2E2F5E228E2E2E2E2E2E2E2E2E2E22DE2E2E22DE2E2E22DE2E2E2E2E2F5E2E2E2E228E2E2E2F5F5
310
E2E2E228E2E2E2F5F5E2E2E228E2E2E2E2F5F5F5F5F5F5F5F5F5F5F5F5F5F5F5F5F5F5F5F5F5F5F5F5F5F5F5F5F5F5F5F5F5F5F5F5F5F5F5F5F5F5F5F5F5E2E2E2E2E2E2E2E2E2E2E2E2E2E2E2E2E2E2E2E2E2E2E2E2E2E2E2E2E2E2E2E2E2E2E2E2E2F5F5E2E2E2F5E2E2E22DE2E22DF5F5F5F5F5F5F5F5F5F5F5F5F5F5F5
310
F5F5F5F5F5F5F5F5F5F5F5F5F5E2E2E2E2E2F5E2E2E2E2E2E2E2E2E2E2E2E2E228E2E2E2E2E2E2E2E2E2E2E2E2E2F5E2E2E2E22DE2E2E2E2E2E22DE2E2E2E2E2E2E2E2E2E2E2E2E2E2E2E2F5E2E2E2E2E2E2E228E2E2E2E2E2E2E2F5E2E2E2E2E2E2E2E2E2E2E2E22DE2E2E22DE2E2E22DE2E2E2E2E2F5E2E2E2E2E2E2F5F5
310
E2E2E2E2E228E2E2E2E2E2F5F5E2E2E2E2E2E2F5E2E2E2E2E2F5F5F5F5F5F5F5F5F5F5F5F5F5F5F5F5F5F5F5F5F5F5F5F5F5F5F5F5E2E2E2E2E2E2E2F5E2E2E2F5F5E2E2E2E2E2E2E2E2E2E2E2E2E2E2E2E2E2E2E2E2E2E2E2E2E2E2E2E2E2E2E2E2E2E2E2F5E2E2E2E2F5E2E2F5F52DF5F52DF5F5F5F5F5F5F5F5F5F5F5F5
310
F5F5F5F5F5F5F5F5F5F5F5F5F5F5F5E2E2E2E2E2F5E2E2E2E2E2E2E2E2E2E2E2E2E228E2E2E2E2E2E2E2E2E2E2E2E2E2F5E2E2E2E22DE2E2E2E2E2E22DE2E2E2E2E2E2E2E2E2E2E2E2E2E2F5F5F5E2E2E2E2E2E2E228E2E2E2E2E2E2E2F5F5E2E2E2E2E2E2E2E2E2E2E22DE2E2E2E2E2E2E22DE2E2E2E2E2F5E2E2E2E2E2F5
310
E2E2E2E2E2E2E228E2E2E2E2E2E2E2F5E2E2E2E2E2F5E2E2E2E2E2F5F5F5F5F5F5F5F5F5F5F5F5F5F5F5F5F5F5F5F5F5F5F5F5F5F5F5F5F5F5F5F5F5E2E2F5E2E2E2E2F5E2E2E2E2E2E2E2E2E2E2E2E2E2E2E2E2E2E2E2E2E2E2E2E2E2E2E2E2E2E2E2E2E2E2E2F5E2E2E2E2F5E2E2F5F52DF5F52DF5F5F5F5F5F5F5F5F5F5
310
F5F5F5F5F5F5F5F5F5F5F5F5F5F5F5F5F5E2E2E2F5F5F5E2E2E2E2E2E2E2E2E2E2E2E2E228E2E2E2E2E2E2E2E2E2E2E2E2E2F5E2E2E2E22DE2E2E2E2E2E22DE2E2E2E2E2E2E2E2E2E2E2E2E2F5F5F5F5E2E2E2E2E2E2E228E2E2E2E2E2E2E2F5F5F5E2E2E2E2E2E2E2E2E2E22DE2E2E2E2E2E2E22DE2E2E2E2E2F5E2E2E2E2
310
F5E2E2E2E2E2E2E2E228E2E2E2E2E2E2E2E2F5E2E2E2E2F5F5F5E2E2E2F5F5F5F5F5F5F5F5F5F5F5F5F5F5F5F5F5F5F5F5F5F5F5F5F5F5BEF5F5F5F5F5F5E2E2F5E2E2E2E2F5E2E2E2E2E2E2E2E2E2E2E2E2E2E2E2E2E2E2E2E2E2E2E2E2E2E2E2E2E2E2E2E2E2E2E2F5E2E2E2E2F5E2E2F5F52DF5F52D2DF5F5F5F5F5F5F5
310
F5F5F5F5F5F5F5F5F5F5F5F5F5F5F5F5F5F5F5E2E2E2F5E2E2E2E2E2E2E2E2E2F5F5F5F5F5F528F5F5F5F5F5F5F5E2E2E2E2E2E2F5E2E2E2E22DE2E2E2E2E2E22DE2E2E2E2E2E2E2E2E2E2E2E2F5F5F5F5F5E2E2E2E2E2E2E228E2E2E2E2E2E2E2F5F5F5F5E2E2E2E2E2E2E2E2E22DE2E2E2E2E2E2E22DE2E2E2E2E2F5E2E2
310
E2F5E2E2E2F5F5F5F5F5F5F5F5F5F5F5F5F5E2E2E2F5E2E2E2E2E2F5E2E2E2F5F5F5F5F5F5F5F5F5F5F5F5E2F5F5F5F5F5F5F5F5F5F5F5F5F5BEF5F5F5F5F5F5E2E2F5E2E2E2E2F5E2E2E2E2E2E2E2E2E2E2E2E2E2E2E2E2E2E2E2E2E2E2E2E2E2E2E2E2E2E2E2E2E2E2E2F5E2E2E2E2F5E2E2E2E2E22DE2F5F5F5F5F5F5F5
310
F5F5F5F5F5F5F5F5F5F5F5F5F5F5F5F5F5F5F5F5F5E2E2E2F5E2E2E2E2E2E2E2F5F5F5F5F5F5F5F528F5F5F5F5F5F5E2F5E2E2E2E2E2F5E2E2E2E22DE2E2E2E2E2E22DE2E2E2E2E2E2E2E2E2E2E2F5E2F5F5E2F5E2E2E2E2E2E2E228E2E2E2E2E2E2E2F5E2F5F5E2E2E2E2E2E2E2E2E22DE2E2E2E2E2E2E22DE2E2E2E2E2F5
310
E2E2F5E2E2F5F5F5F5F5F5F5F5F5F5F5F5F5F5F5F5F5E2E2F5E2E2E2E2F5E2E2E2F5F5F5F5F5F5F5F5F5F5F5F5E2F5F5F5F5F5F5F5F5F5F5F5F5F5BEBEE2E2E2E2E2E2E2F5E2E2E2E2F5E2E2E2E2E2E2E2E2E2E2E2E2E2E2E2E2E2E2E2E2E2E2E2E2E2E2E2E2E2E2E2E2E2E2E2F5E2E2E2E2F5E2E2E2E2E22DE2F5F5F5F5F5
310
F5F5F5F5F5F5F5F5F5F5F5F5F5F5F5F5F5F5F5F5F5F5F5E2E2E2F5E2E2E2E2E2E2F5F5F5E2E2E2E2E2E228E2E2E2E2E2E2F5F5F5E2E2E2E2F5E2E2E2E22DE2E2E2E2E2E22DE2E2E2E2E2E2E2E2E2E2E2F5F5F5E2E2F5E2E2E2E2E2E2E228E2E2E2E2E2E2E2F5E2F5F5F5E2E2E2E2E2E2E2E22DE2E2E2E2E2E2E22DE2E2E2E2
310
E2F5E2E2F5E2F5F5F5E2E2E2E2E2E228E2E2E2E2E2E2F5F5F5E2E2F5E2E2E2F5E2E2E2F5F5F5F5F5F5F5F5F5F5F5F5F5F5F5F5F5F5F5F5F5F5F5F5F5F5F5BEE2E2E2E2E2E2E2F5E2E2E2E2F5E2E2E2E2E2E2E2E2E2E2E2E2E2E2E2E2E2E2E2E2E2E2E2E2E2E2E2E2E2E2E2E2E2E2E2F5E2E2E2E2F5E2E2E2E2E22DE2F5F5F5
310
F5F5F5F5F5F5F5F5F5F5F5F5F5F5F5F5F5F5F5F5F5F5F5F5F5E2E2E2F5E2E2E2E2E2E2F5E2E2E2E2F5F5F5F5F5F5F5F5F5F5E2E2E2F5F5E2E2E2F5E2E2E2E22DE2E2E2E2E2E22DE2E2E2F5F5F5F5F5F5F5F5F52DF5E2E2F5E2E2E2E2E2E2E228E2E2E2E2E2E2E2F5E2F5F5F5F5E2E2E2E2E2E2E22DE2E2E2E2E22D2D2DE2E2
310
E2E2E2F5E2F5E2E2F5E2E2E2F5F5F5F5F5F5F5F5E2F5F5E2E2E2F5F5E2F5E2E2E2F5E2E2E2F5F5F5F5F5F5F5F5F5F5F5F5F5BEBEBEBEBEBEBEBEBEBEBEBEBEBEBEE2E2E2E2E2E2E2F5E2E2E2E2F5E2E2E2E2E2E2E2E2E2E2E2E2E2E2E2E2E2E2E2E2E2E2E2E2E2E2E2E2E2E22DE2E2E2E2F5E2E2E2E2F5E2E2E2E2E2E22DF5
310
F5E2E2E22D2DE2E2E2E2E2E2E2F5F5F5F5F5F5F5F5F5F5F5F5F5F5E2E2E2F5E2E2E2E2E2F5F5E2E2E2F5F5E2F5F5F5F5F5F5F5F5E2E2E2E2F5E2E2E2F5E2E2E2E22DE2E2E2E2E2E22DE2E2E2F5E2E2E2E2E2F5F5F5F52D2DE2F5E2E2E2E2E2E2E228E2E2E2E2E2E2E2F5E2F5F5F5F5E2E2E2E2E2E2E22DE2E2E2E2E22D2D2D
310
E2E2E2E2E2F5E2F5E2F5E2E2E2E2F5F5F5F5F528F5F5E2F5F5E2E2E2E2F5E2F5E2E2E2F5E2E2E2F5F5F5F5F5F5F5F5F5F5F5F5F5BEF5F5F5F5F5F5F5F5F5F5F5F5F5BEE2E2E2E2E2E2E2F5E2E2E2E2F5E2E2E2E2E2E2E2E2E2E2E2E2E2E2E2E2E2E2E2E2E2E2E2E2E2E2E2E2E2E22DE2E2E2E2F5E2E2E2E2F5E2E2E2E2E2E2
310
2DF5F5F5E2E2E22DE2E2E2E2E2E2E2F5F5F5F5F5F5F5F5F5F5F5F5F5F5E2E2E2F5E2E2E2E2F5F5E2E2E2E2F5E2F5F5F5F5F5F5F5F5F5E2E2E2E2F5F5E2E2F5E2E2E2E22DE2E2E2E2E2E22DE2E2E2F5E2E2E2E2E2F5F5F5F5F5E22D2DE2E2E2E2E2E2E228E2E2E2E2E2E2E2F5E2F5E2F5F5F5E2E2E2E2E2E22DE2E2E2E2E22D
310
2D2DE2E2E2E2E2F5F5E2F5F5E2E2E2E2F5F5F5F5F5F5F5F5F5F5F5E2E2E2E2F5F5E2F5E2E2F5E2E2E2F5F5F5F5F5F5F5F5F5F5F5F5F5BEF5F5F5F5F5F5F5F5F5F5F5F5F5BEE2E2E2E2E2E2E2F5E2E2E2E2F5E2E2E2E2E2E2E2E2E2E2E2E2E2E2E2E2E2E2E2E2E2E2E2E2E2E2E2E2E2E22DE2E2E2E2F5E2E2E2E2F5E2E2E2E2
310
E2E22DF5F5F5E2E2E22DE2E2E2E2E2E2E2F5F5F5F5F5F5F5F5F5F5F5F5F5F5E2E2E2F5E2E2E2E2E2F5E2E2E2E2E2F5F5F5F5F5F5F5F5F5F5E2E2E2E2F5F5E2E2F5E2E2E2E22DE2E2E2E2E2E22DE2E2E2F5E2E2E2E2E2F5F5F5E2F5E2E22D2D2DE2E2E2E2E228E2E2E2E2E2E2E2F5E2F5E2F5F5F5E2E2E2E2E2E22DE2E2E2E2
310
E2E2E22DE2E2E2E2E2F5F5E2F5F5E2E2E2E2E2F5F5F5F5F5F5F5F5F5F5E2E2E2E2F5F5E2F5E2E2F5E2E2E2F5F5F5F5F5F5F5F5F5F5F5F5F5BEF5F5F5F5F5F5F5F5F5F5F5F5F5BEE2E2E2E2E2E2E2F5E2E2E2E2F5E2E2E2E2E2E2E2E2E2E2E2E2E2E2E2E2E2E2E2E2E2E2E2E2E2E2E2E2E22D2DE2E2E2E2F5E2E2E2E2F5E2E2
310
E2E2E2E2E2F5F5F5E2E2E22DE2E2E2E2E2E2E2F5F5F5F5F5F5F5F5F5F5F5F5F5F5E2E2E2F5E2E2E2E2E2F5E2E2E2E2E2E2E2E2E228E2E2E2E2E2E2E2E2E2F5F5E2E2F5E2E2E2E22DE2E2E2E2E2E22DE2E2E2F5E2E2E2E2E2F5F5F5E2F5E2E22D2D2D2D2DE2E2E228E2E2E2E2E2E2E2F5E2F5E2F5F5F5E2E2E2E2E2E22DE2E2
310
E2E2E2E2E22DE2E2E2E2E2F5F5E2F5F5E2E2E2E2E2E2E2E2E228E2E2E2E2E2E2E2E2E2F5E2E2F5E2E2F5E2E2E2F5F5F5F5F5F5F5F5F5F5F5F5F5BEF5F5F5F5F5F5F5F5F5F5F5F5F5BEE2E2E2E2E2E2E2F5E2E2E2E2F5E2E2E2E2E2E2E2E2E2E2E2E2E2E2E2E2E2E2E2E2E2E2E2E2E2E2E2E2E22D2DE2E2E2E2F5E2E2E2E2F5
310
E2E2E2E2E2E2E2F5F5E2E2E2E22DE2E2E2E2E2E2E2F5F5F5F5F5F5F5F5F5F5F5F5F5F5E2E2E2F5E2E2E2E2E2F5E2E2E2E2E2E2E2E2E228E2E2E2E2E2E2E2E2E2F5F5E2E2F5E2E2E2E22DE2E2E2E2E2E22DE2E2E2F5E2E2E2E2E2F5F5F5E2F5E2E2F52D2D2D2DE2E2E228E2E2E2E2E2E2E2F5E2F5E2F5F5F5E2E2E2E2E2E22D
310
E2E2E2E2E2E2E22DE2E2E2E2E2F5F5E2F5F5E2E2E2E2E2E2E2E2E228E2E2E2E2E2E2E2E2E2F5E2E2F5E2E2F5E2E2E2F5F5F5F5F5F5F5F5F5F5F5F5F5BEF5F5F5F5F5F5F5F5F5F5F5F5F5BEE2E2E2E2E2E2E2F5E2E2E2E2F5E2E2E2E2E2E2E2E2E2E2E2E2E2E2E2E2E2E2E2E2E2E2E2E2E2E2E2E2E22D2DE2282828F5282828
310
28F528282828282828F5F5282828282D28282828282828F5282828282828282828282828F5282828F528282D2DE2F5F5E2E2E2E2E2E2E2E228E2E2E2E2E2E2E2E2F5F5E2E2E2F5E2E22D2D2DE2E2E2E2E2E22DE2E228F52828282828F5F5F528F52828F528282D282828282828282828282828F528F528F5F5F52828E2E2E2
310
E22DE2E2E2E2E2E2E22DE2E2E2E2E2F5F5E2E2F5F5E2E2E2E2E2E2E2E228E2E2E2E2E2E2E2E2F5F52828F528282828282828282828282828282828282828BE282828282828282828282828F5BE28282828282828F528282828F5282828E2E2E2E2E2E2E2E2E2E2E2E2E2E2E2E2E2E2E2E2E2E2E2E2E2E22D2DE2E2E2E2F5E2
310
E2E2E2F5E2E2E2E2E2E2E2F5F5E2E2E2E22DE2E2E2E2E2E2E2F5F5F5F5F5F5F5F5F5F5F5F5F5F5E2E2E2F5E2E22D2DE2E2F5E2E2E2E2F5F5F5F528F5F5F5F5E2E2E2E2F5F5E2E2E2F5E2E22D2D2DE2E2E2E22D2D2DE2E2E2F5E2E2E2E2E2F5F5F5F5F5E2E2F5E2E2E2E2E2E2E228E2E2E2E2E2E2E2F5E2F5F5F5F5F5E2E2E2
310
E2E2E22DE2E2E2E2E2E2E22DE2E2E2E2E2F5F5E2E2F5F5E2E2E2E2F5F5F5F528F5F5F5F5E2E2E2E2F5E2E2E2F5E2E2F5E2E2E2F5F5F5F5F5F5F5F5F5F5F5F5F5BEF5F5F5F5F5F5F5F5F5F5F5F5F5BEE2E2E2E2E2E2E2F5E2E2E2E2F5E2E2E2E2E2E2E2E2E2E2E2E2E2E2E2E2E2E2E2E2E2E2E2E2E2E2E2E2E22D2DE2E2E2E2
310
F5E2E2E2E2F5E2E2E2E2E2E2E2F5F5E2E22D2D2DE2E2E2E2E2E2E2F5F5F5F5F5F5F5F5F5F5F5F5F5F5E2E2E2F5E2E22DE2E2E2F5E2E2E2F5E2F5E2E228E2E2F5F5F5E2E2E2F5F5E2E2E2F5E2E22D2D2DE2E2E2E22D2D2DE2E2E2F5E2E2E2E2E2F5F5F5F5F5E2E2F5E2E2E2E2E2E2E228E2E2E2E2E2E2E2F5E2F5F5F5F5F5E2
310
E2E2E2E2E22DE2E2E2E2E2E2E22DE2E2E2E2E2F5F5E2E2F5F5E2E2E2F5F5F5E2E228E2E2F5F5F5E2E2E2F5E2E2E2F5E2E2F5E2E2E2F5F5F5F5F5F5F5F5F5F5F5F5F5BEF5F5F5F5F5F5F5F5F5F5F5F5F5BEE2E2E2E2E2E2E2F5E2E2E2E2F5E2E2E2E2E2E2E2E2E2E2E2E2E2E2E2E2E2E2E2E2E2E2E2E2E2E2E2E2E2E22DE2E2
310
E2E2F5E2E2E2E2F5E2E2E2E2E2E2E2F5F5E2E22D2D2DE2E2E2E2E2E2E2F5F5F5F5F5F5F5F5F5F5F5F5F5F5E2E2E2F5E22D2DE2E2E2F5E2E2E2F5F5E2E2E228E2E2E2E2F5F5E2E2F5F5E2E2E2F5E2E22D2D2DE2E2E2E22D2D2DE2E2E2F5E2E2E2E2E2F5F5F5F5F5E2E2F5E2E2E2E2E2E2E228E2E2E2E2E2E2E2F5E2F5F5F5F5
310
F5E2E2E2E2E2E22DE2E2E2E2E2E2E22DE2E2E2E2E2F5F5E2E2F5F5E2E2E2F5E2E2E2E228E2E2E2E2F5F5E2E2F5E2E2E2F5E2E2F5E2E2E2F5F5F5F5F5F5F5F5F5F5F5F5F5BEF5F5F5F5F5F5F5F5F5F5F5F5F5BEE2E2E2E2E2E2E2F5E2E2E2E2F5E2E2E2E2E2E2E2E2E2E2E2E2E2E2E2E2E2E2E2E2E2E2E2E2E2E2E2E2E2E22D
310
E2E2E2E2F5E2E2E2E2F5E2E2E2E2E2E2E2F5F5E2E2E22D2DE2E2E2E2E2E2E2F5F5F5F5F5F5F5F5F5F5F5F5F5F5E2E2E2F5E22D2DE2E2E2F5F5E2F5E2E2E2E2E228E2E2E2E2E2F5E2F5F5E2E2E2E2F5E2E2E2E22DE2E2E2E22D2D2DE2E2E2F5E2E2E2E2E2F5F5F5F5F5E2E2F5E2E2E2E2E2E2E228E2E2E2E2E2E2E2F5E2F5F5
310
F5F5E2E2E2E2E2E2E22DE2E2E2E2E2E2E22DE2E2E2E2E2F5F5E2E2E2F5F5E2F5E2E2E2E2E228E2E2E2E2E2F5E2F5F5E2E2E2F5E2E2F5E2E2E2F5F5F5F5F5F5F5F5F5F5F5F5F5BEF5F5F5F5F5F5F5F5F5F5F5F5F5BEE2E2E2E2E2E2E2F5E2E2E2E2F5E2E2E2E2E2E2E2E2E2E2E2E2E2E2E2E2E2E2E2E2E2E2E2E2E2E2E2E2E2
310
E22DE2E2E2E2F5E2E2E2E2F5E2E2E2E2E2E2E2F5F5E2E2E22D2DE2E2E2E2E2E2E2F5F5F5F5F5F5F5F5F5F5F5F5F5F5E2E2E2F5E22D2DE2E2E2F5F5E2F5E2E2E2E2BE28BEBEE2E2E2E2F5F5F5E2E2E2E2F5E2E2E2E22DE2E2E2E22D2D2DE2E2E2F5E2E2E2E2E2F5F5F5F5F5E2E2F5E2E2E2E2E2E2E228E2E2E2E2E2E2E2F5E2
310
F5F5F5F5F5F5F5F5F5F5F52D2D2D2D2D2DE2E22DE2E2E2E2E2F5F5E2E2E2F5F5E2F5E2E2E2E2F5F5F5F5E2E2E2E2F5F5F5E2E2E2F5E2E2F5E2E2E2F5F5F5F5F5F5F5F5F5F5F5F5F5BEF5F5F5F5F5F5F5F5F5F5F5F5F5BEE2E2E2E2E2E2E2F5E2E2E2E2F5E2E2E2E2E2E2E2E2E2E2E2E2E2E2E2E2E2E2E2E2E2E2E2E2E2E2E2
310
E2E2E22DE2E2E2E2F5E2E2E2E2F5E2E2E2E2E2E2E2F5F5F5F5F5F5F5F5F5F5F5F5F5F5F5F5F5F5F5F5F5F5F5F5F5F5F5F5E2E2E2F5E22D2DE2E2E2F5F5F5E2E2E2BEBEE228E2BEE2E2E2E2F5F5F5E2E2E2E2F5E2E2E2E22DE2E2E2E2E2E22DE2E2E2F5F5F5F5F5F5F5F5F5F5F5E2E2F5E2E2E2E2E2E2E228E2E2E2E2E2E2E2
310
F5E2F52DE2E2E2E2E2E2E2E2E2F5E2E2E22DE2E2E22DE2E2E2E2E2F5F5E2E2E2F5F5F5E2E2E2E2F5E228E2E2F5E2E2E2F5F5F5E2E2E2F5E2E2F5E2E2E2F5F5F5F5F5F5F5F5F5F5F5F5F5BEBEBEBEBEBEBEBEBEBEBEBEBEBEBEE2E2E2E2E2E2E2F5E2E2E2E2F5E2E2E2E2E2E2E2E2E2E2E2E2E2E2E2E2E2E2E2E2E2E2E2E2E2
310
E2E2E2E2E22DE2E2E2E2F5E2E2E2E2F5E2E2E2E2E2E2E22DF5F5F5F5F5F5F5F5F5F5F5F5F52DF5F5F5F5F5F5F5F5F5F5F5F5F5E2E2E2F5E2E22D2DE2E2E2F5F5E2E2E2BEE2E228E2BEBEBEE2E2F5F5F5E2E2E2E2F5E2E2E2E22DE2E2E2E2E2E22DE2E2E22DE2E2E2E2E2E2E2F5F5F5E2E2F5E2E2E2E2E2E2E228E2E2E2E2E2
310
E2E2F5E2F5F5F5F5F5F5F5F5F5F5F5F5E2E2E22DE2E22D2DE2E2E2E2E2F5F5E2E2E2F5F5F5E2E2F5F5F5E228E2E2F5E2E2E2F5F5E2E2E2E2F5E2E2F5E2E2E2F5F5F5F5F5F5F5F5F5F5F5F5F5F5F5F5F5F5F5F5F5F5F5F5F5F5F5F5E2E2E2E2E2E2E2F5E2E2E2E2F5E2E2E2E2E2E2E2E2E2E2E2E2E2E2E2E2E2E2E2E2E2E2E2
310
E2E2E2E2E2E2E22DE2E2E2E2F5E2E2E2E2F5E2E2E2E2E2E2E22DF5E2E2E2E2E2E2E2E2E2E2E2E22DE2E2E2E2E2E2E2E2E2E2E2E2F5E2E2E2F5E2E22D2D2D2D28F5F5282828BE28282828BE28BE2828F5F5282828E2E2F5E2E2E2E22DE2E2E2E2E2E22DE2E2E22DE2E2E2E2E2E2E228F5F52828F52828282828282828282828
310
28282828F528F5F52D2828282828282828F5282D2D2D2D2D2D2DE2E2E2E2E2F5F5E2E2282828282828282828282828282828282828282828E2E2F5E2E2F5E2E2E2F5E2E2E2E2E2E2E2E2E2E2E2E2E2E2E2E2E2E2E2E2E2E2E2E2E2F5F5E2E2E2E2E2E2E2F5E2E2E2E2F5E2E2E2E2E2E2E2E2E2E2E2E2E2E2E2E2E2E2E2E2E2
310
E2E2E2E2E2E2E2E2E22DE2E2E2E2F5E2E2E2E2F5E2E2F5F5F5F5F52DF5F5F5F5F5F5F5F5F5F5F5F5F52DF5F5F5F5F5F5F5F5F5F5F5F5F5E2E2E2F5E2E2E2E2E2E2E2F5F5E2E2E2BEE2E228E2BEBEBEE2E2F5F5E2E2E2E2E2F5E2E2E2E22DE2E2E2E2E2E22DE2E2E22DE2E2E2E2E2E2E2E2F5E2E2E2F5E2E2E2E2E2E2E228E2
310
E2E2E2E2E2E2F5E2E2F52DF5F5F5F5F5F5F5F5F5E2E2E22DE2E2E2E2E2E2E2E2E2F5F5E2E2E2E2F5F5E2E2F5F5F5E228E2E2F5E2E2E2F5F5E2E2E2E2F5E2E2F5E2E2E2F5F5F5F5F5F5F5F5F5F5F5F5F5F5F5F5F5F5F5F5F5F5F5F5F5F5F5F5F5F5F5F5F5E2E2F5E2E2E2E2F5E2E2E2E2E2E2E2E2E2E2E2E2E2E2E2E2E2E2E2
310
E2E2E2E2E2E2E2E2E2E2E22DE2E2E2E2F5E2E2E2E2F5E2E2F5F5F5F5F52DF5F5F5F5F5F5F5F5F5F5F5F5F52DF5F5F5F5F5F5F5F5F5F5F5F5F5E2E2E2F5F5F5E2E2E2E2E2E2F5E2E2E2E2BEBE28E2BEE2E2E2E2F5F5E2E2E2E2E2F5E2E2E2E22DE2E2E2E2E2E22DE2E2E22DE2E2E2E2E2E2E2E2F5E2E2E2F5E2E2E2E2E2E2E2
310
28E2E2E2E2E2E2E2F5E2E2F52DE2E2E2E2E2E2E2E2F5E2E2E22DE2E2E2E2E2E2E2E2E2F5F5E2E2E2E2E2F5E2E2E2E2F5F528E2F5E2E2E2E2F5F5E2E2E2E2F5F5F5F5E2E2E2F5F5F5F5F5F5F5F5F5F5F5F5F5F5F5F5F5F5F5F5F5F5F5F5F5F5F5F5F5F5F5F5F5E2E2F5E2E2E2E2F5E2E2E2E2E2E2E2E2E2E2E2E2E2E2E2E2E2
310
E2E2E2E2E2E2E2E2E2E2E2E2E22DE2E2E2E22DE2E2E2E2F5E2E2F5F5F5F5F52DF5F5F5F5F5F5F5F5F5F5F5F5F52DF5F5F5F5F5F5F5F5F5F5F5F5F5E2E2E2E2E2F5E2E2E2E2E2E2F5F5E2E2E2E2BE28BEE2E2E2E2F5F5E2E2E2E2E2E2F5E2E2E2E22DE2E2E2E2E2E22DE2E2E22DE2E2E2E2E2E2E2E2F5E2E2E2F5E2E2E2E2E2
310
E2E228E2E2E2E2E2E2E2F5E2E22D2DF5F5F5F5F5F5F5F52D2D2D2D2D2DE2E2E2E2E2E2E2E2F5E2F5E2E2E2E2F5F5E2E2E2E2E2F5F5E2E2E2E2F5F5E2E2E2E2E2F5F5E2E2E2E2E2F5F5F5F5F5F5F5F5F5F5F5F5F5F5F5F5F5F5F5F5F5F5F5F5F5F5F5F5F5F5F5F5F5E2E2F5E2E2E2E2F5E2E2E2E2E2E2E2E2E2E2E2E2E2E2E2
310
E2E2E2E2E2E2E2E2E2E2E2E2E2E2E22DE2E2E2E22DF5E2E2E2F5E2E2E2E2E2E2E22DF5F5F5F5F5F5F5F5F5F5F5F5F52DF5F5F5F5F5F5F5F5F5F5F5F5F5E2E2E2E2E2F5E2E2E2E2E2E2E2F5F5E2E2E2E228E2E2E2E2E2F5F5E2E2E2E2E2E2F5E2E2E2E22DE2E2E2E2E2E22DE2E2E22DE2E2E2E2E2E2E2E2F5E2E2E2F5E2E2E2
310
E2E2E2E228E2E2E2E2E2E2E2F5E2E22D2DE2E2E2E2E2E2E2E22DE2E22D2DE2E2E2E2E2E2E2E2E2F5E2F5E2E2E2E2E2F5F5E2E2E2E228E2E2E2E2E2F5F5E2E2E2E2F5E2F5E2E2E2E2E2F5F5F5F5F5F5F5F5F5F5F5F5F5F5F5F5F5F5F5F5F5F5F5F5F5F5F5F5E2E2E2E2E2E2E2F5E2E2E2F5F5E2E2E2E2E2E2E2E2E2E2E2E2E2
310
E2E2E2E2E2E2E2E2E2E2E2E2E2E2E2E2E22D2DE2E2E22DE2F5F5E2F5E2E2E2E2E2E2E22DF5F5F5F5F5F5F5F5F5F5F5F5F52DF5F5F5F5F5F5F5F5F5F5F5F52DF5F5F5F5F5F5E2E2E2E2E2E2E2F5F5E2E2E2E228E2E2E2E2F5F5E2E2E2E2E2E2E2F5E2E2E2E22DE2E2E2E2E2E22DE2E2E22DE2E2E2E2E2E2E2E2F5E2E2E2F5E2
310
E2E2E2E2E2E228E2E2E2E2E2E2E2F5E2E22D2DE2E2E2E2E2E2E2E22DE22D2D2DE2E2E2E2E2E2E2E2E2F5E2F5E2E2E2E2E2F5F5E2E2E2E228E2E2E2E2F5F5E2E2E2E2E2F5E2F5F5F5F5F5F5F5F5F5F5F5F5F5F5F5F5F5F5F5F5F5F5F5F5F5F5F5F5F5F5F5F5F5F5E2E2E2E2E2E2E2F5E2F5F5E2E2E2E2E2E2E2E2E2E2E2E2E2
310
E2E2E2E2E2E2E2E2E2E2E2E2E2E2E2E2E2E2E22D2D2D2D2D2D2D2D2D2D2DF5F5F5F5F5F5F52DE2E2E2E2E2E2E2E2E2E2E2E2E22DE2E2E2E2E2E2E2E2E2E2E2E22DE2E2E2E2E2F5E2E2E2E2E2E2E2E2F5F5F5E2E228E2E2E2F5F5E2E2E2E2E2E2E2E22DE2E2E2E22DE2E2E2E2E2E22DE2E2E22DE2E2E2E2E2E2E2E2F5E2E2E2
310
F5E2E2E2E2E2E2E228E2E2E2E2E2E2E2F5E2E22D2DE2E2E2E2E2E2E2E22DE22D2D2DE2E2E2E2E2E2E2E2E2F5E2E2F5E2E2E2E2E2F5F5E2E2E228E2E2E2F5F5E2E2E2E2E2F5E2E2F5E2E2E2E2E2E2E2E2E2E2E2E2E2E2E2E2E2E2E2E2E2E2E2E2E2E2E2E2E2E2E2E2F5F5F5F5F5F5F5F5F5F5E2E2E2E2E2E2E2E2E2E2E2E2E2
310
E2E2E2E2E2E2E2E2E2E2E2E2E2E2E2E2E2E2E2E2E2E2E2E2E2E22DE2E2E2E2E2E2E2E2E2E2E2E22DE2E2E2E2E2E2E2E2E2E2E2E2E22DE2E2E2E2E2E2E2E2E2E2E2E22DE2E2E2E2F5F5E2E2E2E2E2E2E2E2E2F5F5F5F528F5F5F5F5E2E2E2E2E2E2E2E2E22DE2E2E2E22DE2E2E2E2E2E22DE2E2E22DE2E2E2E2E2E2E2E2E2F5
310
F5E2F5F5F5F5F5F5F5F528F5F5F5F5F5F5F5F5F5F52D2DE2E2E2E2E2E2E2E22DE22D2D2DE2E2E2E2E2E2E2E2E2F5E2E2F5E2E2E2E2E2E2F5F5F5F528F5F5F5F5E2E2E2E2E2E2F5E2E2F5F5E2E2E2E2E2E2E2E2E2E2E2E2E2E2E2E2E2E2E2E2E2E2E2E2E2E2E2E2E2E2E2E2E2E2E2E2E2E2E2E2E2E2E2E2E2E2E2E2E2E2E2E2
310
E2E2E2E2E2E2E2E2E2E2E2E2E2E2E2E2E2E2E2E2E2E2E2E2E2E2E2E22DE2E2E2E2E2E2E2E2E2E2E2E22DE2E2E2E2E2E2E2E2E2E2E2E2E22DE2E2E2E2E2E2E2E2E2E2E2E22DE2E2E2F5F5F5F5E2E2E2E2E2E2E2E2E2E2E2F528F5E2E2E2E2E2E2E2E2E2E2E2F52DE2E2E2E22DE2E2E2E2E2E22DE2E2E22DE2E2E2E2E2E2E2E2
310
E2E2E2F5F5E2E2E2E2E2E2E228E2E2E2E2E2E2E2F5E2E22D2DE2E2E2E2E2E2E2E22DE2E22D2DE2E2E2E2E2E2E2E2E2E2F5E2E2F5E2E2E2E2E2E2E2E2F528F5E2E2E2E2E2E2E2E2F5E2E2F5F5F5F5E2E2E2E2E2E2E2E2E2E2E2E2E2E2E2E2E2E2E2E2E2E2E2E2E2E2E2E2E2E2E2E2E2E2E2E2E2E2E2E2E2E2E2E2E2E2E2E2E2
310
E2E2E2E2E2E2E2E2E2E2E2E2E2E2E2E2E2E2E2E2E2E2E2E2E2E2E2E2E2E22DE2E2E2E2E2E2E2E2E2E2E2E22DE2E2E2E2E2E2E2E2E2E2E2E2E22DE2E2E2E2E2E2E2E2E2E2E2E22DE2E2E2F5F5F5E2F5F5E2E2E2E2E2E2E2E2E2E228E2E2E2E2E2E2E2E2E2E2F5F5E22DE2E2E2E22DE2E2E2E2E2E22DE2E2E22DE2E2E2E2E2E2
310
E2E2E2E2E2E2F5E2E2E2E2E2E2E228E2E2E2E2E2E2E2F5E2E22D2DE2E2E2E2E2E2E2E22DE22D2D2DE2E2E2E2E2E2E2E2E2E2E2F5F5E2F5E2E2E2E2E2E2E2E228E2E2E2E2E2E2E2E2F5E2F5F5E2F5F5F5E2E2E2E2E2E2E2E2E2E2E2E2E2E2E2E2E2E2E2E2E2E2E2E2E2E2E2E2E2E2E2E2E2E2E2E2E2E2E2E2E2E2E2E2E2E2E2
310
E2E2E2E2E2E2E2E2E2E2E2E2E2E2E2E2E2E2E2E2E2E2E2E2E2E2E2E2E2E2E2E22DE2E2E2E2E2E2E2E2E2E2E2E22DE2E2E2E2E2E2E2E2E2E2E2E2E22DE2E2E2E2E2E2E2E2E2E2E2E22DE2E2E2E2F5F5F5F5F5F5E2E2E2E2E2E2E2E2E228E2E2E2E2E2E2E2E2E2F5E2E2E22DE2E2E2E22DE2E2E2E2E2E22DE2E2E22DE2E2E2E2
310
E2E2E2E2E2E2E2E2F5E2E2E2E2E2E2E228E2E2E2E2E2E2E2F5E2E22D2DE2E2E2E2E2E2E2E22DE2E2E22DE2E2E2E2E2E2E2E2E2E2E2E2E2F5E2F5F5E2E2E2E2E2E228E2E2E2E2E2E2F5F5E2F5F5F5F5F5F5F5E2E2E2E2E2E2E2E2E2E2E2E2E2E2E2E2E2E2E2E2E2E2E2E2E2E2E2E2E2E2E2E2E2E2E2E2E2E2E2E2E2E2E2E2E2
310
E2E2E2E2E2E2E2E2E2E2E2E2E2E2E2E2E2E2E2E2E2E2E2E2E2E2E2E2E2E2E2E2E2E22DE2E2E2E2E2E2E2E2E2E2E2E22DE2E2E2E2E2E2E2E2E2E2E2E2E22DE2E2E2E2E2E2E2E2E2E2E2E22DE2E2E2E2E2F5E2E2E2E2F5E2E2E2E2E2E2E2E228E2E2E2E2E2E2E2E2F5E2E2E2E22DE2E2E2E22DE2E2E2E2E2E22DE2E2E22DE2E2
310
E2E2E2E2E2E2E2E2E2E2F5E2E2E2E2E2E2E228E2E2E2E2E2E2E2F5E2E22D2DE2E2E2E2E2E2E2E22DE2E2E2E2E2E2E2E2E2E2E2E2E2E2E2E2E2E2F5E2E2F5F5E2E2E2E228E2E2E2E2F5F5E2E2F5E2E2E2E2F5E2E2E2E2E2E2E2E2E2E2E2E2E2E2E2E2E2E2E2E2E2E2E2E2E2E2E2E2E2E2E2E2E2E2E2E2E2E2E2E2E2E2E2E2E2
310
E2E2E2E2E2E2E2E2E2E2E2E2E2E2E2E2E2E2E2E2E2E2E2E2E2E2E2E2E2E2E2E2E2E2E2E22DE2E2E2E2E2E2E2E2E2E2E2E22DE2E2E2E2E2E2E2E2E2E2E2E2E22DE2E2E2E2E2E2E2E2E2E2E2E22DE2E2E2E2E2BEE2E2E2E2E2F5F5E2E2E2E2E2E228E2E2E2E2E2E2F5F5E2E2E2E2E22DE2E2E2E22DE2E2E2E2E2E22DE2E2E22D
310
E2E2E2E2E2E2E2E2E2E2E2E2F5E2E2E2E2E2E2E228E2E2E2E2E2E2E2F5E2E22D2DE2E2E2E2E2E2E2E22DE2E2E2E2E2E2E2E2E2E2E2E2E2E2E2E2E2E2E2F5F5E2E2F5F5F5F528F5F5F5F5E2E2F5F5E2E2E2E2E2BEE2E2E2E2E2E2E2E2E2E2E2E2E2E2E2E2E2E2E2E2E2E2E2E2E2E2E2E2E2E2E2E2E2E2E2E2E2E2E2E2E2E2E2
310
E2E2E2E2E2E2E2E2E2E2E2E2E2E2E2E2E2E2E2E2E2E2E2E2E2E2E2E2E2E2E2E2E2E2E2E2E2E22DE2E2E2E2E2E2E2E2E2E2E2E22DE2E2E2E2E2E2E2E2E2E2E2E2E22DE2E2E2E2E2E2E2E2E2E2E2E22DE2E2E2E2E2F5E2E2E2E2E2E2E2F5F5F5F5F5F528F5F5F5F52D2D2D2D2D2D2D2D2D2D2D2D2D2D2D2DE2E2E2E2E22DE2E2
310
E22DE2E2E2E2E2E2E2E2E2E2E2E2F5F5F5F5F5F5F5F5F5F5F5F5F5F5F5F5F5E2E22D2D2DE2E2E2E2E2E22D2DE2E2E2E2E2E2E2E2E2E2E2E2E2E2E2E2E2E2E2E2E2F5F5F5F5F5F5F5F5F5F5F5F5F5E2E2E2E2E2E2E2F5E2E2E2E2E2E2E2E2E2E2E2E2E2E2E2E2E2E2E2E2E2E2E2E2E2E2E2E2E2E2E2E2E2E2E2E2E2E2E2E2E2
310
E2E2E2E2E2E2E2E2E2E2E2E2E2E2E2E2E2E2E2E2E2E2E2E2E2E2E2E2E2E2E2E2E2E2E2E2E2E2E2E22DE2E2E2E2E2E2E2E2E2E2E2E22DE2E2E2E2E2E2E2E2E2E2E2E2E22DE2E2E2E2E2E2E2E2E2E2E2E22DE2E2E228282D28E2E2E2E2E2E2E2E2E2E2E2E228E2E2E2E2E2E2E2E2E2E2E2E2E22DE2E2E2E2E2E2E2E2E2E2E22D
310
E2E2E22DE2E2E2E2E2E2E2E2E2E2E2E2E2E2E2E228F528282828F528E2E2E2E2E2E2E22D2D2D2D2D2D2D2D2D2D2DE2E2E2E2E2E2E2E2E2E2E2E2E2E2E2E2E2E2E2E2E2E2E2E2E2E2E228E2E2E2E2E2E2E2E2E2E2E2E228282828E2E2E2E2E2E2E2E2E2E2E2E2E2E2E2E2E2E2E2E2E2E2E2E2E2E2E2E2E2E2E2E2E2E2E2E2E2
310
E2E2E2E2E2E2E2E2E2E2E2E2E2E2E2E2E2E2E2E2E2E2E2E2E2E2E2E2E2E2E2E2E2E2E2E2E2E2E2E2E2E22DE2E2E2E2E2E2E2E2E2E2E2E22DE2E2E2E2E2E2E2E2E2E2E2E2E22DE2E2E2E2E2E2E2E2E2E2E2E22DE2E2E2E2E2BE2DE2E2E2E2E2E2E2E2E2E2E2E228E2E2E2E2E2E2E2E2E2E2E2E2E22DE2E2E2E2E2E2E2E2E2E2
310
E22DE2E2E22DE2E2E2E2E2E2E2E2E2E2E2E2E2E2E2E2E2F5F5F5F5F5F5E2E2E2E2E2E2E2E22DE2E2E2E22D2D2DE2E22DE2E2E2E2E2E2E2E2E2E2E2E2E2E2E2E2E2E2E2E2E2E2E2E2E2E2E228E2E2E2E2E2E2E2E2E2E2E2E2E2BEE2E2E2E2E2E2E2E2E2E2E2E2E2E2E2E2E2E2E2E2E2E2E2E2E2E2E2E2E2E2E2E2E2E2E2E2E2
310
E2E2E2E2E2E2E2E2E2E2E2E2E2E2E2E2E2E2E2E2E2E2E2E2E2E2E2E2E2E2E2E2E2E2E2E2E2E2E2E2E2E2E2E22DE2E2E2E2E2E2E2E2E2E2E2E22DE2E2E2E2E2E2E2E2E2E2E2E2E22DE2E2E2E2E2E2E2E2E2E2E2E22DE2E2E2E2E2F5E22DE2E2E2E2E2E2E2E2E2E2E22DE2E2E2E2E2E2E2E2E2E2E2E2E22DE2E2E2E2E2E2E2E2
310
E2E22D2D2D2D2D2D2D2D2D2D2D2D2D2D2D2D2D2D2D2D2D2D2D2D2D2D2DF5E2E2E2E2E2E2E2E2E22DE2E2E2E2E2E2E2E2E22DE2E2E2E2E2E2E2E2E2E2E2E2E2E2E2E2E2E2E2E2E2E2E2E2E2E2E228E2E2E2E2E2E2E2E2E2E2E2E2E2F5E2E2E2E2E2E2E2E2E2E2E2E2E2E2E2E2E2E2E2E2E2E2E2E2E2E2E2E2E2E2E2E2E2E2E2
310
E2E2E2E2E2E2E2E2E2E2E2E2E2E2E2E2E2E2E2E2E2E2E2E2E2E2E2E2E2E2E2E2E2E2E2E2E2E2E2E2E2E2E2E2E2E22DE2E2E2E2E2E2E2E2E2E2E2E22D2D2D2D2D2D2D2D2D2D2D2D2D2D2D2D2D2D2D2D2D2D2D2D2D2D2D2DE2E2E2E2E2E2E2E22D2D2D2D2DE2E2E2E2E2E22DE2E2E2E2E2E2E2E2E2E2E2E2E22DE2E2E2E2E2E2
310
E2E2E2E2E2E2E2E2E22DE2E2E2E2E2E2E2E2E2E2E2E2E2E2E2E2E2E2E2E228E2E2E2E2E2E2E2E2E2E22D2D2D2D2D2D2D2D2D2D2DE2E2E2E2E2E2E2E2E2E2E2E2E2E2E2E2E2E2E2E2E2E2E2E2E2E2E2E2E2E2E2E2E2E2E2E2E2E2E2E2E2E2E2E2E2E2E2E2E2E2E2E2E2E2E2E2E2E2E2E2E2E2E2E2E2E2E2E2E2E2E2E2E2E2E2
310
E2E2E2E2E2E2E2E2E2E2E2E2E2E2E2E2E2E2E2E2E2E2E2E2E2E2E2E2E2E2E2E2E2E2E2E2E2E2E2E2E2E2E2E2E2E2E2E22DE2E2E2E2E2E2E2E2E2E2E2E22D2DE2E2E2E22D2D2DE2E2E2E22D2D2DE2E2E22D2D2D2DE2E2E22D2DE2E2E2E2E2E2E2E22D2D2D2DE2E2E2E2E2E2E22DE2E2E2E2E2E2E2E2E2E2E2E2E22DE2E2E2E2
310
E2E2E2E2E2E2E2E2E2E2E22DE2E2E2E2E2E2E2E2E2E2E2E2E2E2E2E2E2E2E2E22DE2E2E2E2E2E2E2E2E2E22D2DE2E22D2D2DE2E22D2DE2E2E2E2E2E2E2E2E2E2E2E2E2E2E2E2E2E2E2E2E2E2E2E2E2E2E2E2E2E2E2E2E2E2E2E2E2E2E2E2E2E2E2E2E2E2E2E2E2E2E2E2E2E2E2E2E2E2E2E2E2E2E2E2E2E2E2E2E2E2E2E2E2
310
E2E2E2E2E2E2E2E2E2E2E2E2E2E2E2E2E2E2E2E2E2E2E2E2E2E2E2E2E2E2E2E2E2E2E2E2E2E2E2E2E2E2E2E2E2E2E2E2E2E22DE2E2E2E2E2E2E2E2E2E2E2E2E2E2E2E2E2E22D2D2DE2E2E2E2E2E2E2E2E2E22D2D2D2DE2E2E2E22DE2E2E2E2E2E2E2E22D2D2D2DE2E2E2E2E2E2E22DE2E2E2E2E2E2E2E2E2E2E2E2E22DE2E2
310
E2E2E2E2E2E2E2E2E2E2E2E2E22DE2E2E2E2E2E2E2E2E2E2E2E2E2E2E2E2E2E2E2E22DE2E2E2E2E2E2E2E2E2E2E2E2E2E22D2D2DE2E2E22DE2E2E2E2E2E2E2E2E2E2E2E2E2E2E2E2E2E2E2E2E2E2E2E2E2E2E2E2E2E2E2E2E2E2E2E2E2E2E2E2E2E2E2E2E2E2E2E2E2E2E2E2E2E2E2E2E2E2E2E2E2E2E2E2E2E2E2E2E2E2E2
310
E2E2E2E2E2E2E2E2E2E2E2E2E2E2E2E2E2E2E2E2E2E2E2E2E2E2E2E2E2E2E2E2E2E2E2E2E2E2E2E2E2E2E2E2E2E2E2E2E2E2E2E22DE2E2E2E2E2E2E2E2E2E2E2E2E2E2E2E2E2E2E2E2E2E2E2E2E2E2E2E2E2E2E2E2E2E2E2E2E2E2E22DE2E2E2E2E2E2E2E2E2E2E2E2E2E2E2E2E2E2E22DE2E2E2E2E2E2E2E2E2E2E2E2E22D
310
E2E2E2E2E2E2E2E2E2E2E2E2E2E2E22DE2E2E2E2E2E2E2E2E2E2E2E2E2E2E2E2E2E2E2E22DE2E2E2E2E2E2E2E2E2E2E2E2E2E2E2E2E2E2E2E22DE2E2E2E2E2E2E2E2E2E2E2E2E2E2E2E2E2E2E2E2E2E2E2E2E2E2E2E2E2E2E2E2E2E2E2E2E2E2E2E2E2E2E2E2E2E2E2E2E2E2E2E2E2E2E2E2E2E2E2E2E2E2E2E2E2E2E2E2E2
310
E2E2E2E2E2E2E2E2E2E2E2E2E2E2E2E2E2E2E2E2E2E2E2E2E2E2E2E2E2E2E2E2E2E2E2E2E2E2E2E2E2E2E2E2E2E2E2E2E2E2E2E2E2E22D2D2D2D2D2D2D2D2D2D2D2D2D2D2D2D2D2D2D2D2D2D2D2D2D2D2D2D2D2D2D2D2D2D2D2D2D2D2D2D2D2D2D2D2D2D2D2D2D2D2D2D2D2D2D2D2D2D2D2D2D2D2D2D2D2D2D2D2D2D2D2D2D
310
2D2DE2E2E2E2E2E2E2E2E2E2E2E2E2E2E22D2D2D2D2D2D2D2D2D2D2D2D2D2D2D2D2D2D2D2D2D2D2D2D2D2D2D2D2D2D2D2D2D2D2D2D2D2D2D2D2D2D2DE2E2E2E2E2E2E2E2E2E2E2E2E2E2E2E2E2E2E2E2E2E2E2E2E2E2E2E2E2E2E2E2E2E2E2E2E2E2E2E2E2E2E2E2E2E2E2E2E2E2E2E2E2E2E2E2E2E2E2E2E2E2E2E2E2E2E2
310
E2E2E2E2E2E2E2E2E2E2E2E2E2E2E2E2E2E2E2E2E2E2E2E2E2E2E2E2E2E2E2E2E2E2E2E2E2E2E2E2E2E2E2E2E2E2E2E2E2E2E2E2E2E2E2E22DE2E2E2E2E2E2E2E2E2E2E2E2E2E2E2E2E22D2D2D2D2DE2E2E2E2E2E2E2E2E2E2E2E2E2E2E2E2E22DE2E2E2E2E2E2E22D2D2D2D2DE2E2E2E2E2E2E22DE2E2E2E2E22D2D2DE2E2
310
E2E2E22DE2E2E2E2E2E2E2E2E2E2E2E2E2E2E22DE2E2E2E2E2E2E2E22D2D2D2DE2E2E2E2E2E2E2E22DE2E2E2E2E2E2E2E22D2D2D2DE2E2E2E2E2E2E2E22DE2E2E2E2E2E2E2E2E2E2E2E2E2E2E2E2E2E2E2E2E2E2E2E2E2E2E2E2E2E2E2E2E2E2E2E2E2E2E2E2E2E2E2E2E2E2E2E2E2E2E2E2E2E2E2E2E2E2E2E2E2E2E2E2E2
310
E2E2E2E2E2E2E2E2E2E2E2E2E2E2E2E2E2E2E2E2E2E2E2E2E2E2E2E2E2E2E2E2E2E2E2E2E2E2E2E2E2E2E2E2E2E2E2E2E2E2E2E2E2E2E2E2E2E22DE2E2E2E2E2E2E2E2E2E2E2E2E2E2E2E2E22D2D2D2D2DE2E2E2E2E2E2E2E2E2E2E2E2E2E2E2E2E2E2E2E2E2E2E2E2E22D2D2D2D2DE2E2E2E2E2E2E2E2E2E2E2E2E22D2D2D
310
E2E2E2E2E22DE2E2E2E2E2E2E2E2E2E2E2E2E2E2E22DE2E2E2E2E2E2E2E22D2D2D2DE2E2E2E2E2E2E2E2E2E2E2E2E2E2E2E2E22DE22D2DE2E2E2E2E2E2E2E22DE2E2E2E2E2E2E2E2E2E2E2E2E2E2E2E2E2E2E2E2E2E2E2E2E2E2E2E2E2E2E2E2E2E2E2E2E2E2E2E2E2E2E2E2E2E2E2E2E2E2E2E2E2E2E2E2E2E2E2E2E2E2E2
310
E2E2E2E2E2E2E2E2E2E2E2E2E2E2E2E2E2E2E2E2E2E2E2E2E2E2E2E2E2E2E2E2E2E2E2E2E2E2E2E2E2E2E2E2E2E2E2E2E2E2E2E2E2E2E2E2E2E2E2E22DE2E2E2E2E2E2E2E2E2E2E2E2E2E2E2E2E2E2E2E2E2E2E2E2E2E2E2E2E2E2E2E2E2E2E2E2E2E2E2E2E2E2E2E2E2E2E2E2E2E2E2E2E2E2E2E2E2E2E2E2E2E2E2E2E2E2
310
E2E2E2E2E2E2E22DE2E2E2E2E2E2E2E2E2E2E2E2E2E2E22DE2E2E2E2E2E2E2E2E2E2E2E2E2E2E2E2E2E2E2E2E2E2E2E2E2E2E2E2E2E2E2E2E2E2E2E2E2E2E2E2E22DE2E2E2E2E2E2E2E2E2E2E2E2E2E2E2E2E2E2E2E2E2E2E2E2E2E2E2E2E2E2E2E2E2E2E2E2E2E2E2E2E2E2E2E2E2E2E2E2E2E2E2E2E2E2E2E2E2E2E2E2E2
310
E2E2E2E2E2E2E2E2E2E2E2E2E2E2E2E2E2E2E2E2E2E2E2E2E2E2E2E2E2E2E2E2E2E2E2E2E2E2E2E2E2E2E2E2E2E2E2E2E2E2E2E2E2E2E2E2E2E2E2E2E2E22D2D2D2D2D2D2D2D2D2D2D2D2D2D2D2D2D2D2D2D2D2D2D2D2D2D2D2D2D2D2D2D2D2D2D2D2D2D2D2D2D2D2D2D2D2D2D2D2D2D2D2D2D2D2D2D2D2D2D2D2D2D2D2D2D
310
2D2D2D2D2D2D2D2D2D2DE2E2E2E2E2E2E2E2E2E2E2E2E2E2E22D2D2D2D2D2D2D2D2D2D2D2D2D2D2D2D2D2D2D2D2D2D2D2D2D2D2D2D2D2D2D2D2D2D2D2D2D2D2D2D2D2D2DE2E2E2E2E2E2E2E2E2E2E2E2E2E2E2E2E2E2E2E2E2E2E2E2E2E2E2E2E2E2E2E2E2E2E2E2E2E2E2E2E2E2E2E2E2E2E2E2E2E2E2E2E2E2E2E2E2E2E2
310
E2E2E2E2E2E2E2E2E2E2E2E2E2E2E2E2E2E2E2E2E2E2E2E2E2E2E2E2E2E2E2E2E2E2E2E2E2E2E2E2E2E2E2E2E2E2E2E2E2E2E2E2E2E2E2E2E2E2E2E2E2E2E2E22DE2E2E2E2E2E2E2E2E2E2E2E2E2E2E2E2E2E2E2E2E2E2E2E2E2E2E2E2E2E2E2E2E2E2E22D2D2DE2E2E2E2E2E2E2E2E2E2E2E2E2E2E2E2E2E2E2E2E2E2E2E2
310
E2E2E2E2E2E2E2E2E2E2E22DE2E2E2E2E2E2E2E2E2E2E2E2E2E2E22DE2E2E2E2E2E2E2E2E2E2E2E2E2E2E2E2E2E2E22D2D2D2DE2E2E2E2E2E2E2E2E2E2E2E2E2E2E2E2E2E22DE2E2E2E2E2E2E2E2E2E2E2E2E2E2E2E2E2E2E2E2E2E2E2E2E2E2E2E2E2E2E2E2E2E2E2E2E2E2E2E2E2E2E2E2E2E2E2E2E2E2E2E2E2E2E2E2E2
310
E2E2E2E2E2E2E2E2E2E2E2E2E2E2E2E2E2E2E2E2E2E2E2E2E2E2E2E2E2E2E2E2E2E2E2E2E2E2E2E2E2E2E2E2E2E2E2E2E2E2E2E2E2E2E2E2E2E2E2E2E2E2E2E2E2E2E2E2E2E2E2E2E2E2E2E2E2E2E2E2E2E2E2E2E2E2E2E2E2E2E2E2E2E2E2E2E2E2E2E2E2E2E2E2E2E2E2E2E2E2E2E2E2E2E2E2E2E2E2E2E2E2E2E2E2E2E2
310
E2E2E2E2E2E2E2E2E2E2E2E2E2E2E2E2E2E2E2E2E2E2E2E2E2E2E2E2E2E2E2E2E2E2E2E2E2E2E2E2E2E2E2E2E2E2E2E2E2E2E2E2E2E2E2E2E2E2E2E2E2E2E2E2E2E2E2E2E2E2E2E2E2E2E2E2E2E2E2E2E2E2E2E2E2E2E2E2E2E2E2E2E2E2E2E2E2E2E2E2E2E2E2E2E2E2E2E2E2E2E2E2E2E2E2E2E2E2E2E2E2E2E2E2E2E2E2
310
E2E2E2E2E2E2E2E2E2E2E2E2E2E2E2E2E2E2E2E2E2E2E2E2E2E2E2E2E2E2E2E2E2E2E2E2E2E2E2E2E2E2E2E2E2E2E2E2E2E2E2E2E2E2E2E2E2E2E2E2E2E2E2E2E2E2E2E2E2E2E2E2E2E2E2E2E2E2E2E2E2E2E2E2E2E2E2E2E2E2E2E2E2E2E2E2E2E2E2E2E2E2E2E2E2E2E2E2E2E2E2E2E2E2E2E2E2E2E2E2E2E2E2E2E2E2E2
310
E2E2E2E2E2E2E2E2E2E2E2E2E2E2E2E2E2E2E2E2E2E2E2E2E2E2E2E2E2E2E2E2E2E2E2E2E2E2E2E2E2E2E2E2E2E2E2E2E2E2E2E2E2E2E2E2E2E2E2E2E2E2E2E2E2E2E2E2E2E2E2E2E2E2E2E2E2E2E2E2E2E2E2E2E2E2E2E2E2E2E2E2E2E2E2E2E2E2E2E2E2E2E2E2E2E2E2E2E2E2E2E2E2E2E2E2E2E2E2E2E2E2E2E2E2E2E2
310
E2E2E2E2E2E2E2E2E2E2E2E2E2E2E2E2E2E2E2E2E2E2E2E2E2E2E2E2E2E2E2E2E2E2E2E2E2E2E2E2E2E2E2E2E2E2E2E2E2E2E2E2E2E2E2E2E2E2E2E2E2E2E2E2E2E2E2E2E2E2E2E2E2E2E2E2E2E2E2E2E2E2E2E2E2E2E2E2E2E2E2E2E2E2E2E2E2E2E2E2E2E2E2E2E2E2E2E2E2E2E2E2E2E2E2E2E2E2E2E2E2E2E2E2E2E2E2
310
E2E2E2E2E2E2E2E2E2E2E2E2E2E2E2E2E2E2E2E2E2E2E2E2E2E2E2E2E2E2E2E2E2E2E2E2E2E2E2E2E2E2E2E2E2E2E2E2E2E2E2E2E2E2E2E2E2E2E2E2E2E2E2E2E2E2E2E2E2E2E2E2E2E2E2E2E2E2E2E2E2E2E2E2E2E2E2E2E2E2E2E2E2E2E2E2E2E2E2E2E2E2E2E2E2E2E2E2E2E2E2E2E2E2E2E2E2E2E2E2E2E2E2E2E2E2E2
310
E2E2E2E2E2E2E2E2E2E2E2E2E2E2E2E2E2E2E2E2E2E2E2E2E2E2E2E2E2E2E2E2E2E2E2E2E2E2E2E2E2E2E2E2E2E2E2E2E2E2E2E2E2E2E2E2E2E2E2E2E2E2E2E2E2E2E2E2E2E2E2E2E2E2E2E2E2E2E2E2E2E2E2E2E2E2E2E2E2E2E2E2E2E2E2E2E2E2E2E2E2E2E2E2E2E2E2E2E2E2E2E2E2E2E2E2E2E2E2E2E2E2E2E2E2E2E2
310
E2E2E2E2E2E2E2E2E2E2E2E2E2E2E2E2E2E2E2E2E2E2E2E2E2E2E2E2E2E2E2E2E2E2E2E2E2E2E2E2E2E2E2E2E2E2E2E2E2E2E2E2E2E2E2E2E2E2E2E2E2E2E2E2E2E2E2E2E2E2E2E2E2E2E2E2E2E2E2E2E2E2E2E2E2E2E2E2E2E2E2E2E2E2E2E2E2E2E2E2E2E2E2E2E2E2E2E2E2E2E2E2E2E2E2E2E2E2E2E2E2E2E2E2E2E2E2
310
E2E2E2E2E2E2E2E2E2E2E2E2E2E2E2E2E2E2E2E2E2E2E2E2E2E2E2E2E2E2E2E2E2E2E2E2E2E2E2E2E2E2E2E2E2E2E2E2E2E2E2E2E2E2E2E2E2E2E2E2E2E2E2E2E2E2E2E2E2E2E2E2E2E2E2E2E2E2E2E2E2E2E2E2E2E2E2E2E2E2E2E2E2E2E2E2E2E2E2E2E2E2E2E2E2E2E2E2E2E2E2E2E2E2E2E2E2E2E2E2E2E2E2E2E2E2E2
310
E2E2E2E2E2E2E2E2E2E2E2E2E2E2E2E2E2E2E2E2E2E2E2E2E2E2E2E2E2E2E2E2E2E2E2E2E2E2E2E2E2E2E2E2E2E2E2E2E2E2E2E2E2E2E2E2E2E2E2E2E2E2E2E2E2E2E2E2E2E2E2E2E2E2E2E2E2E2E2E2E2E2E2E2E2E2E2E2E2E2E2E2E2E2E2E2E2E2E2E2E2E2E2E2E2E2E2E2E2E2E2E2E2E2E2E2E2E2E2E2E2E2E2E2E2E2E2
310
E2E2E2E2E2E2E2E2E2E2E2E2E2E2E2E2E2E2E2E2E2E2E2E2E2E2E2E2E2E2E2E2E2E2E2E2E2E2E2E2E2E2E2E2E2E2E2E2E2E2E2E2E2E2E2E2E2E2E2E2E2E2E2E2E2E2E2E2E2E2E2E2E2E2E2E2E2E2E2E2E2E2E2E2E2E2E2E2E2E2E2E2E2E2E2E2E2E2E2E2E2E2E2E2E2E2E2E2E2E2E2E2E2E2E2E2E2E2E2E2E2E2E2E2E2E2E2
310
E2E2E2E2E2E2E2E2E2E2E2E2E2E2E2E2E2E2E2E2E2E2E2E2E2E2E2E2E2E2E2E2E2E2E2E2E2E2E2E2E2E2E2E2E2E2E2E2E2E2E2E2E2E2E2E2E2E2E2E2E2E2E2E2E2E2E2E2E2E2E2E2E2E2E2E2E2E2E2E2E2E2E2E2E2E2E2E2E2E2E2E2E2E2E2E2E2E2E2E2E2E2E2E2E2E2E2E2E2E2E2E2E2E2E2E2E2E2E2E2E2E2E2E2E2E2E2
310
E2E2E2E2E2E2E2E2E2E2E2E2E2E2E2E2E2E2E2E2E2E2E2E2E2E2E2E2E2E2E2E2E2E2E2E2E2E2E2E2E2E2E2E2E2E2E2E2E2E2E2E2E2E2E2E2E2E2E2E2E2E2E2E2E2E2E2E2E2E2E2E2E2E2E2E2E2E2E2E2E2E2E2E2E2E2E2E2E2E2E2E2E2E2E2E2E2E2E2E2E2E2E2E2E2E2E2E2E2E2E2E2E2E2E2E2E2E2E2E2E2E2E2E2E2E2E2
310
E2E2E2E2E2E2E2E2E2E2E2E2E2E2E2E2E2E2E2E2E2E2E2E2E2E2E2E2E2E2E2E2E2E2E2E2E2E2E2E2E2E2E2E2E2E2E2E2E2E2E2E2E2E2E2E2E2E2E2E2E2E2E2E2E2E2E2E2E2E2E2E2E2E2E2E2E2E2E2E2E2E2E2E2E2E2E2E2E2E2E2E2E2E2E2E2E2E2E2E2E2E2E2E2E2E2E2E2E2E2E2E2E2E2E2E2E2E2E2E2E2E2E2E2E2E2E2
310
E2E2E2E2E2E2E2E2E2E2E2E2E2E2E2E2E2E2E2E2E2E2E2E2E2E2E2E2E2E2E2E2E2E2E2E2E2E2E2E2E2E2E2E2E2E2E2E2E2E2E2E2E2E2E2E2E2E2E2E2E2E2E2E2E2E2E2E2E2E2E2E2E2E2E2E2E2E2E2E2E2E2E2E2E2E2E2E2E2E2E2E2E2F5F5F5F5F5F5F5F5F5F5F5F5F5E2E2E2E2E2E2E2E2E2E2E2E2E2E2E2E2E2E2E2E2E2
310
E2E2E2E2E2E2E2E2E2E2E2E2E2E2E2E2E2E2E2E2E2E2E2E2E2E2E2E2E2E2E2E2E2E2E2E2E2E2E2E2E2E2E2E2E2E2E2E2E2E2E2E2E2E2E2E2E2E2E2E2E2E2E2E2E2E2E2E2E2E2E2E2E2E2E2E2E2E2E2E2E2E2E2E2E2E2E2E2E2E2E2E2E2E2E2E2E2E2E2E2E2E2E2E2E2E2E2E2E2E2E2E2E2E2E2E2E2E2E2E2E2E2E2E2E2E2E2
310
E2E2E2E2E2E2E2E2E2E2E2E2E2E2E2E2E2E2E2E2E2E2E2E2E2E2E2E2E2E2E2E2E2E2E2E2E2E2E2E2E2E2E2E2E2E2E2E2E2E2E2E2E2E2E2E2E2E2E2E2E2E2E2E2E2E2E2E2E2E2E2E2E2E2E2E2E2E2E2E2E2E2E2E2E2E2E2E2E2E2E2E2E2E2E2F5F5E2F5F5E2E228E2E2E2E2E2F5E2E2E2E2E2E2E2E2E2E2E2E2E2E2E2E2E2E2
310
E2E2E2E2E2E2E2E2E2E2E2E2E2E2E2E2E2E2E2E2E2E2E2E2E2E2E2E2E2E2E2E2E2E2E2E2E2E2E2E2E2E2E2E2E2E2E2E2E2E2E2E2E2E2E2E2E2E2E2E2E2E2E2E2E2E2E2E2E2E2E2E2E2E2E2E2E2E2E2E2E2E2E2E2E2E2E2E2E2E2E2E2E2E2E2E2E2E2E2E2E2E2E2E2E2E2E2E2E2E2E2E2E2E2E2E2E2E2E2E2E2E2E2E2E2E2E2
310
E2E2E2E2E2E2E2E2E2E2E2E2E2E2E2E2E2E2E2E2E2E2E2E2E2E2E2E2E2E2E2E2E2E2E2E2E2E2E2E2E2E2E2E2E2E2E2E2E2E2E2E2E2E2E2E2E2E2E2E2E2E2E2E2E2E2E2E2E2E2E2E2E2E2E2E2E2E2E2E2E2E2E2E2E2E2E2E2E2E2E2E2E2E2E2E2E2E2F5F5F5E2F5F528E2E2E2E2E2E2F5E2E2E2E2E2E2E2E2E2E2E2E2E2E2E2
310
E2E2E2E2E2E2E2E2E2E2E2E2E2E2E2E2E2E2E2E2E2E2E2E2E2E2E2E2E2E2E2E2E2E2E2E2E2E2E2E2E2E2E2E2E2E2E2E2E2E2E2E2E2E2E2E2E2E2E2E2E2E2E2E2E2E2E2E2E2E2E2E2E2E2E2E2E2E2E2E2E2E2E2E2E2E2E2E2E2E2E2E2E2E2E2E2E2E2E2E2E2E2E2E2E2E2E2E2E2E2E2E2E2E2E2E2E2E2E2E2E2E2E2E2E2E2E2
310
E2E2E2E2E2E2E2E2E2E2E2E2E2E2E2E2E2E2E2E2E2E2E2E2E2E2E2E2E2E2E2E2E2E2E2E2E2E2E2E2E2E2E2E2E2E2E2E2E2E2E2E2E2E2E2E2E2E2E2E2E2E2E2E2E2E2E2E2E2E2E2E2E2E2E2E2E2E2E2E2E2E2E2E2E2E2E2E2E2E2E2E2E2E2E2E2E2E2E2E2F5E2E2F5F5E2F5F5E2E2E2E2E2F5E2E2E2E2E2E2E2E2E2E2E2E2E2
310
E2E2E2E2E2E2E2E2E2E2E2E2E2E2E2E2E2E2E228E2E2E2E2E2E2E2E2E2E2E2E2E2E2E2E2E2E2E2E2E2E2E2E2E2E2E2E2E2E2E2E2E22DE22D2D2D2D2D2DE2E2E22D2D2D2DE2E22D2D2DE22D2D2D2DE2E22D2D2D2D2D2D2DE2E2E2E2E2E2E2E2E2E2E2E2E2E2E2E2E2E2E2E2E2E2E2E2E2E2E2E2E2E2E2E2E2E2E2E2E2E2E2E2
310
E2E2E2E2E2E2E2E2E2E2E2E2E2E2E2E2E2E2E2E2E2E2E2E2E2E2E2E2E2E2E2E2E2E2E2E2E2E2E2E2E2E2E2E2E2E2E2E2E2E2E2E2E2E2E2E2E2E2E2E2E2E2E2E2E2E2E2E2E2E2E2E2E2E2E2E2E2E2E2E2E2E2E2E2E2E2E2E2E2E2E2E2E2E2E2E2E2E2E2E2E228F52828E2E2F528F5F5F5E2E2E2F5E2E2E2E2E2E2E2E2E2E2E2
310
E2E2E2E2E2E2E2E2E2E2E2E2E2E2E2E2E2E2E2E2E228E2E2E2E2E2E2E2E2E2E2E2E2E2E2E2E2E2E2E2E2E2E2E2E2E2E2E2E2E2E2E2E2E22D2D2D2D2DE22D2D2D2D2D2D2D2DE22D2D2D2D2D2D2D2D2D2D2D2D2DE22D2D2D2D2D2DE2E2E2E2E2E2E2E2E2E2E2E2E2E2E2E2E2E2E2E2E2E2E2E2E2E2E2E2E2E2E2E2E2E2E2E2E2
310
E2E2E2E2E2E2E2E2E2E2E2E2E2E2E2E2E2E2E2E2E2E2E2E2E2E2E2E2E2E2E2E2E2E2E2E2E2E2E2E2E2E2E2E2E2E2E2E2E2E2E2E2E2E2E2E2E2E2E2E2E2E2E2E2E2E2E2E2E2E2E2E2E2E2E2E2E2E2E2E2E2E2E2E2E2E2E2E2E2E2E2E2E2E2E2E2E2E2E2E2E2E2E2E2F5E2E2E2E2E228E2F5F5F5F5E2F5E2E2E2E2E2E2E2E2E2
310
E2E2E2E2E2E2E2E2E2E2E2E2E2E2E2E2E2E2E2E2E2E2E228E2E2E2E2E2E2E2E2E2E2E2E2E2E2E2E2E2E2E2E2E2E2E2E2E2E2E2E2E2E2E2E2E22DE22D2D2DE22D2DE2E2E22D2D2DE2E2E22D2DE2E22D2D2D2DE2E22DE22D2D2D2D2D2DE2E2E2E2E2E2E2E2E2E2E2E2E2E2E2E2E2E2E2E2E2E2E2E2E2E2E2E2E2E2E2E2E2E2E2
310
E2E2E2E2E2E2E2E2E2E2E2E2E2E2E2E2E2E2E2E2E2E2E2E2E2E2E2E2E2E2E2E2E2E2E2E2E2E2E2E2E2E2E2E2E2E2E2E2E2E2E2E2E2E2E2E2E2E2E2E2E2E2E2E2E2E2E2E2E2E2E2E2E2E2E2E2E2E2E2E2E2E2E2E2E2E2E2E2E2E2E2E2E2E2E2E2E2F5F5F5F5F5F5F5F5F5F5E2E2E2E2E228E2E2E2F5F5F5F5E2E2E2E2E2E2E2
310
E2E2E2E2E2E2E2E2E2E2E2E2E2E2E2E2E2E2E2E2E2E2E2E2E228E2E2E2E2E2E2E2E2E2E2E2E2E2E2E2E2E2E2E2E2E2E2E2E2E2E2E2E2E2E2E2E2E22DE22D2D2D2D2D2DE2E2E22D2D2D2DE2E22D2DE2E22D2D2D2DE2E22DE22D2D2D2D2DE2E2E2E2E2E2E2E2E2E2E2E2E2E2E2E2E2E2E2E2E2E2E2E2E2E2E2E2E2E2E2E2E2E2
310
E2E2E2E2E2E2E2E2E2E2E2E2E2E2E2E2E2E2E2E2E2E2E2E2E2E2E2E2E2E2E2E2E2E2E2E2E2E2E2E2E2E2E2E2E2E2E2E2E2E2E2E2E2E2E2E2E2E2E2E2E2E2E2E2E2E2E2E2E2E2E2E2E2E2E2E2E2E2E2E2E2E2E2E2E2E2E2E2E2E2E2E2E2E2E2E2E2F5F5F5E2E2E2E2E2E2E2F5F5F5F5F5F5F5F5F5F5F5F5F5F5F5F5F5F5F5F5
310
F5F5F5F5F5F5F5F5E2E2E2E2E2E2E2F5F5F5F5F5F5F5F5F5F5F5F5F5F5F5F5F5F5F5F5F5F5F5F5F5E2E2E2E2E2E2E2E2E2E2E2E2E2E2E2E2E2E2E2E2E22D2D2D2D2DE22D2D2D2D2D2D2D2DE22D2D2D2D2D2D2D2D2D2D2D2D2D2D2D2D2DE22DE2E2E2E2E2E2E2E2E2E2E2E2E2E2E2E2E2E2E2E2E2E2E2E2E2E2E2E2E2E2E2E2
310
E2E2E2E2E2E2E2E2E2E2E2E2E2E2E2E2E2E2E2E2E2E2E2E2E2E2E2E2E2E2E2E2E2E2E2E2E2E2E2E2E2E2E2E2E2E2E2E2E2E2E2E2E2E2E2E2E2E2E2E2E2E2E2E2E2E2E2E2E2E2E2E2E2E2E2E2E2E2E2E2E2E2E2E2E2E2E2E2E2E2E2E2E2E2E2E2E2F5F5E2E2F5E2E2E2E2E2E2E2F5F5F5F5F5F5F528F5F5F5F5F5F5F5F5F5F5
310
F5F5F5F5F5F5F5F5F5F5F5F5F5F5E2E2E2F5E2E228E2E2E2E2E2E2E2E228E2E2E2E2E2E2E2E228E2E2F5E2E2E2E2E2E2E2E2E2E2E2E2E2E2E2E2E2E2E2E2E22DE22D2D2DE22D2DE2E2E22D2D2DE2E2E22D2DE2E22D2D2D2DE2E22DE22D2D2D2D2DE2E2E2E2E2E2E2E2E2E2E2E2E2E2E2E2E2E2E2E2E2E2E2E2E2E2E2E2E2E2
310
E2E2E2E2E2E2E2E2E2E2E2E2E2E2E2E2E2E2E2E2E2E2E2E2E2E2E2E2E2E2E2E2E2E2E2E2E2E2E2E2E2E2E2E2E2E2E2E2E2E2E2E2E2E2E2E2E2E2E2E2E2E2E2E2E2E2E2E2E2E2E2E2E2E2E2E2E2E2E2E2E2E2E2E2E2E2E2E2E2E2E2E2E2E2E2E2E2E2F5E2E2E2E2F5E2E2F5F5F5F5F5F5F5F5E2E2E2E228E2E2E2E2E2E2E2E2
310
E2E2E2E2E2E2E2E2E2E2E2F5E2E2E2F5E2E2E2F5E2F528F5F5F5F5F5F5F5F528F5F5F5F5F5F5F5F528F5E2E2F5E2E2E2E2E2E2E2E2E2E2E2E2E2E2E2E2E2E2E2E2E2E2E2E2E2E2E2E2E2E2E2E2E2E2E2E2E2E2E2E2E2E2E2E2E2E2E2E2E2E2E2E2E2E2E2E2E2E2E2E2E2E2E2E2E2E2E2E2E2E2E2E2E2E2E2E2E2E2E2E2E2E2
310
E2E2E2E2E2E2E2E2E2E2E2E2E2E2E2E2E2E2E2E2E2E2E2E2E2E2E2E2E2E2E2E2E2E2E2E2E2E2E2E2E2E2E2E2E2E2E2E2E2E2E2E2E2E2E2E2E2E2E2E2E2E2E2E2E2E2E2E2E2E2E2E2E2E2E2E2E2E2E2E2E2E2E2E2E2E2E2E2E2E2E2E2E2E2E2E2E2E2E2E2F5E2E2E2E2F5E2E2F5E2E2E2E2F5F5F5F5F5F5F5F5F5F5F5F5F5F5
310
F5F5F5F5F5F5F5F5F5F5F5F5F5F5E2E2E2F5E2E2F5E22828282828E2E2E2E2E2E228E2E2E2E2E2E22828282828E2F5E2E2E2E2E2E2E2E2E2E2E2E2E2E2E2E2E2E2E2E22DE22D2D2D2D2D2DE2E2E22D2D2D2DE2E22D2DE2E2E22D2D2DE2E2E22D2D2D2DE22DE2E2E2E2E2E2E2E2E2E2E2E2E2E2E2E2E2E2E2E2E2E2E2E2E2E2
310
E2E2E2E2E2E2E2E2E2E2E2E2E2E2E2E2E2E2E2E2E2E2E2E2E2E2E2E2E2E2E2E2E2E2E2E2E2E2E2E2E2E2E2E2E2E2E2E2E2E2E2E2E2E2E2E2E2E2E2E2E2E2E2E2E2E2E2E2E2E2E2E2E2E2E2E2E2E2E2E2E2E2E2E2E2E2E2E2E2E2E2E2E2E2E2E2E2E2E2E2E2E2F5E2E2E2E2F5E2E2F5F5F5F5F5F5F5F5F5F5F5F5F5F5F5F5F5
310
F5F5F5F5F5F5F5F5F5F5F5F5F5F5F5F5E2E2E2F5E2E2F5E2E2F528E2E2E2E2E2E2E2E228E2E2E2E2E2E2E2E228F5E2E2E2F5E2E2E2E2E2E2E2E2E2E2E2E2E2E2E2E2E2E2E22D2D2D2D2DE22D2D2D2D2D2D2D2DE22D2D2D2D2D2D2D2D2D2D2D2DE22D2D2DE22D2D2DE2E2E2E2E2E2E2E2E2E2E2E2E2E2E2E2E2E2E2E2E2E2E2
310
E2E2E2E2E2E2E2E2E2E2E2E2E2E2E2E2E2E2E2E2E2E2E2E2E2E2E2E2E2E2E2E2E2E2E2E2E2E2E2E2E2E2E2E2E2E2E2E2E2E2E2E2E2E2E2E2E2E2E2E2E2E2E2E2E2E2E2E2E2E2E2E2E2E2E2E2E2E2E2E2E2E2E2E2E2E2E2E2E2E2E2E2E2E2E2E2E2E2E2E2E2E2E2E2F5E2E2E2E2F5E2E2E2E2E2E2E2F5F5F5F5F5F5F5F5F5F5
310
F5F5F5F5F5F5F5F5F5F5F5F5F5F5F5F5F5F5E2E2E2F5F5F5E2E2F5E228E2E2E2E2E2E2E2E228E2E2E2E2E2E2E2E228E2F5E2E2F5E2E2E2E2E2E2E2E2E2E2E2E2E2E2E2E2E2E2E22DE22D2D2DE22D2DE2E2E22D2D2DE2E2E22D2DE2E22D2D2D2DE2E22D2D2D2D2D2D2D2DE2E2E2E2E2E2E2E2E2E2E2E2E2E2E2E2E2E2E2E2E2
310
E2E2E2E2E2E2E2E2E2E2E2E2E2E2E2E2E2E2E2E2E2E2E2E2E2E2E2E2E2E2E2E2E2E2E2E2E2E2E2E2E2E2E2E2E2E2E2E2E2E2E2E2E2E2E2E2E2E2E2E2E2E2E2E2E2E2E2E2E2E2E2E2E2E2E2E2E2E2E2E2E2E2E2E2E2E2E2E2E2E2E2E2E2E2E2E2E2E2E2E2E2E2E2E2E2E2F5E2E2E2E2F5E2E2E2E2E2E2E2F5F5F5E2E2E2E2E2
310
E2E2E2E2E2E2E2E2E2E2E2E2E2E2E2E2E2E2E2F5E2E2E2E2F5F5F5F5F5F5F5F5F5F5F5F5F5F5F528F5F5F5F5F5F5F5F5F5F5F5F5F5F5E2E2E2E2E2E2E2E2E2E2E2E2E2E2E2E2E2E2E2E2E2E2E2E2E2E2E2E2E2E2E2E2E2E2E2E2E2E2E2E2E2E2E2E2E2E2E2E2E2E2E2E2E2E2E2E2E2E2E2E2E2E2E2E2E2E2E2E2E2E2E2E2E2
310
E2E2E2E2E2E2E2E2E2E2E2E2E2E2E2E2E2E2E2E2E2E2E2E2E2E2E2E2E2E2E2E2E2E2E2E2E2E2E2E2E2E2E2E2E2E2E2E2E2E2E2E2E2E2E2E2E2E2E2E2E2E2E2E2E2E2E2E2E2E2E2E2E2E2E2E2E2E2E2E2E2E2E2E2E2E2E2E2E2E2E2E2E2E2E2E2E2E2E2E2E2E2E2E2E2E2E2E2F5E2E2E2E2F5E2E2E2E2E2E2E2F5F5E2E2E2E2
310
E2E2E2E2E2E2E2E2E2E2E2E2E2E2E2E2E2E2E2E2E2F5E2E2E2E2E2F5E2E2E2E2E2E2E2E2F5E2E2E2E228E2E2E2E2E2F5E2E2E2E2E2E2E2F5E2E2E2E2E2E2E2E2E2E2E2E2E2E2E2E2E2E2E22DE22D2D2D2D2D2DE2E22D2D2D2D2DE2E22D2D2D2D2D2D2D2DE2E2E22D2D2D2D2DE2E2E2E2E2E2E2E2E2E2E2E2E2E2E2E2E2E2E2
310
E2E2E2E2E2E2E2E2E2E2E2E2E2E2E2E2E2E2E2E2E2E2E2E2E2E2E2E2E2E2E2E2E2E2E2E2E2E2E2E2E2E2E2E2E2E2E2E2E2E2E2E2E2E2E2E2E2E2E2E2E2E2E2E2E2E2E2E2E2E2E2E2E2E2E2E2E2E2E2E2E2E2E2E2E2E2E2E2E2E2E2E2E2E2E2E2E2E2E2E2E2E2E2E2E2E2E2E2E2E2F5E2E2E2E2F5E2E2E2E2E2E2E2F5F5F5F5
310
F5F5F5F5F5F5F5F5F5F5F5F5F5F5F5F5F5F5F5F5F5F5F5F5E2E2E2E2E2F5E2E2E2E2E2E2E2E2F5E2E2E2E228E2E2E2E2E2F5E2E2E2E2E2E2E2F5E2E2E2E2E2E2E2E2E2E2E2E2E2E2E2E2E2E2E22D2D2D2D2DE22D2D2D2DE22D2D2DE22D2D2D2D2D2D2D2D2D2D2D2D2D2D2D2DE22DE2E2E2E2E2E2E2E2E2E2E2E2E2E2E2E2E2
310
E2E2E2E2E2E2E2E2E2E2E2E2E2E2E2E2E2E2E2E2E2E2E2E2E2E2E2E2E2E2E2E2E2E2E2E2E2E2E2E2E2E2E2E2E2E2E2E2E2E2E2E2E2E2E2E2E2E2E2E2E2E2E2E2E2E2E2E2E2E2E2E2E2E2E2E2E2E2E2E2E2E2E2E2E2E2E2E2E2E2E2E2E2E2E2E2E2E2E2E2E2E2E2E2E2E2E2E2E2E2E2E2F5E2E2E2E2F5E2E2E2E2E2E2E2F5F5
310
F5F5F5F5F5F5F5F5F5F5F5F5F5F5F5F5F5F5F5F5F5F5F5F5F5F5E2E2E2E2E2F5E2E2E2E2E2E2E2E2F5E2E2E2E228E2E2E2E2E2F5E2E2E2E2E2E2E2F5E2E2E2E2E2E2E2E2E2E2E2E2E2E2E2E2E2E2E22DE22D2D2DE22D2DE2E2E22D2D2DE2E2E22D2DE2E2E22D2D2DE2E2E22D2D2D2DE2E2E2E2E2E2E2E2E2E2E2E2E2E2E2E2
310
E2E2E2E2E2E2E2E2E2E2E2E2E2E2E2E2E2E2E2E2E2E2E2E2E2E2E2E2E2E2E2E2E2E2E2E2E2E2E2E2E2E2E2E2E2E2E2E2E2E2E2E2E2E2E2E2E2E2E2E2E2E2E2E2E2E2E2E2E2E2E2E2E2E2E2E2E2E2E2E2E2E2E2E2E2E2E2E2E2E2E2E2E2E2E2E2E2E2E2E2E2E2E2E2E2E2E2E2E2E2E2E2E2E2F5E2E2E2E2F5E2E2E2E2E2E2E2
310
F5F5E2E2E2E2E2E2E2E2E2E2E2E2E2E2E2E2E2E2E2E2E2E2E2E2E2F5E2E2E2E2E2F5F5F5F5F5E2E2E2E2F5E2E2E2E228E2E2E2E2E2F5E2E2E2E2E2E2E2F5E2E2E2E2E2E2E2E2E2E2E2E2E2E2E2E2E2E2E2E2E2E2E2E2E2E2E2E2E2E2E2E2E2E2E2E2E2E2E2E2E2E2E2E2E2E2E2E2E2E2E2E2E2E2E2E2E2E2E2E2E2E2E2E2E2
310
E2E2E2E2E2E2E2E2E2E2E2E2E2E2E2E2E2E2E2E2E2E2E2E2E2E2E2E2E2E2E2E2E2E2E2E2E2E2E2E2E2E2E2E2E2E2E2E2E2E2E2E2E2E2E2E2E2E2E2E2E2E2E2E2E2E2E2E2E2E2E2E2E2E2E2E2E2E2E2E2E2E2E2E2E2E2E2E2E2E2E2E2E2E2E2E2E2E2E2E2E2E2E2E2E2E2E2E2E2E2E2E2E2E2E2E2F5E2E2E2E2F5E2E2E2E2E2
310
E2E2F5F5E2E2E2E2E2E2E2E2E2E2E2E2E2E2E2E2E2E2E2E2E2E2E2E2E2F5E2E2E2E2E2F5E2E2E2F5E2E2E2E2F5E2E2E2E228E2E2E2E2E2F5E2E2E2E2E2E2E2F5E2E2E2E2E2E2E2E2E2E2E2E2E2E2E2E2E2E2E2E2E2E2E2E2E2E2E2E2E2E2E2E2E2E2E2E2E2E2E2E2E2E2E2E2E2E2E2E2E2E2E2E2E2E2E2E2E2E2E2E2E2E2E2
310
E2E2E2E2E2E2E2E2E2E2E2E2E2E2E2E2E2E2E2E2E2E2E2E2E2E2E2E2E2E2E2E2E2E2E2E2E2E2E2E2E2E2E2E2E2E2E2E2E2E2E2E2E2E2E2E2E2E2E2E2E2E2E2E2E2E2E2E2E2E2E2E2E2E2E2E2E2E2E2E2E2E2E2E2E2E2E2E2E2E2E2E2E2E2E2E2E2E2E2E2E2E2E2E2E2E2E2E2E2E2E2E2E2E2E2E2E2E2F5E2E2E2E2F5E2E2E2
310
E2E2E2E2F5F5E2E2E2E2E2E2E2E2E2E2E2E2E2E2E2E2E2E2E2E2E2E2E2E2E2F5E2E2E2E2F5F5E2E2E2F5E2E2E2E2F5E2E2E2E228E2E2E2E2E2F5E2E2E2E2E2E2E2F5E2E2E2E2E2E2E2E2E2E2E2E2E2E2E2E2E2E2E2E2E2E2E2E2E2E2E2E2E2E2E2E2E2E2E2E2E2E2E2E2E2E2E2E2E2E2E2E2E2E2E2E2E2E2E2E2E2E2E2E2E2
310
E2E2E2E2E2E2E2E2E2E2E2E2E2E2E2E2E2E2E2E2E2E2E2E2E2E2E2E2E2E2E2E2E2E2E2E2E2E2E2E2E2E2E2E2E2E2E2E2E2E2E2E2E2E2E2E2E2E2E2E2E2E2E2E2E2E2E2E2E2E2E2E2E2E2E2E2E2E2E2E2E2E2E2E2E2E2E2E2E2E2E2E2E2E2E2E2E2E2E2E2E2E2E2E2E2E2E2E2E2E2E2E2E2E2E2E2E2E2E2E2F5E2E2E2E2F5E2
310
E2E2E2E2E2E2F5F5E2E2E2E2E2E2E2E2E2E2E2E2E2E2E2E2E2E2E2E2E2E2E2E2E2F5E2E2E2F5F5F5E2E2E2F5E2E2E2E2F5E2E2E2E228E2E2E2E2E2F5E2E2E2E2E2E2E2F5E2E2E2E2E2E2E2E2E2E2E2E2E2E2E2E2E2E2E2E2E2E2E2E2E2E2E2E2E2E2E2E2E2E2E2E2E2E2E2E2E2E2E2E2E2E2E2E2E2E2E2E2E2E2E2E2E2E2E2
310
E2E2E2E2E2E2E2E2E2E2E2E2E2E2E2E2E2E2E2E2E2E2E2E2E2E2E2E2E2E2E2E2E2E2E2E2E2E2E2E2E2E2E2E2E2E2E2E2E2E2E2E2E2E2E2E2E2E2E2E2E2E2E2E2E2E2E2E2E2E2E2E2E2E2E2E2E2E2E2E2E2E2E2E2E2E2E2E2E2E2E2E2E2E2E2E2E2E2E2E2E2E2E2E2E2E2E2E2E2E2E2E2E2E2E2E2E2E2E2282828F528282828
310
F528282828282828F5F528282828282828282828282828282828282828282828282828F5282828F5F5F5282828F528282828F528282828282828282828F528282828282828F528282828E2E2E2E2E2E2E2E2E2E2E2E2E2E2E2E2E2E2E2E2E2E2E2E2E2E2E2E2E2E2E2E2E2E2E2E2E2E2E2E2E2E2E2E2E2E2E2E2E2E2E2E2E2
310
E2E2E2E2E2E2E2E2E2E2E2E2E2E2E2E2E2E2E2E2E2E2E2E2E2E2E2E2E2E2E2E2E2E2E2E2E2E2E2E2E2E2E2E2E2E2E2E2E2E2E2E2E2E2E2E2E2E2E2E2E2E2E2E2E2E2E2E2E2E2E2E2E2E2E2E2E2E2E2E2E2E2E2E2E2E2E2E2E2E2E2E2E2E2E2E2E2E2E2E2E2E2E2E2E2E2E2E2E2E2E2E2E2E2E2E2E2E2E2E2E2E2E2E2F5E2E2
310
E2E2F5E2E2E2E2E2E2E2F5F5E2E2E2E2E2E2E2E2E2E2E2E2E2E2E2E2E2E2E2E2E2E2E2E2E2F5E2E2E2E2F5F5E2E2E2F5E2E2E2E2F5E2E2E2E228E2E2E2E2E2F5E2E2E2E2E2E2E2F5E2E2E2E2E2E2E2E2E2E2E2E2E2E2E2E2E2E2E2E2E2E2E2E2E2E2E2E2E2E2E2E2E2E2E2E2E2E2E2E2E2E2E2E2E2E2E2E2E2E2E2E2E2E2E2
310
E2E2E2E2E2E2E2E2E2E2E2E2E2E2E2E2E2E2E2E2E2E2E2E2E2E2E2E2E2E2E2E2E2E2E2E2E2E2E2E2E2E2E2E2E2E2E2E2E2E2E2E2E2E2E2E2E2E2E2E2E2E2E2E2E2E2E2E2E2E2E2E2E2E2E2E2E2E2E2E2E2E2E2E2E2E2E2E2E2E2E2E2E2E2E2E2E2E2E2E2E2E2E2E2E2E2E2E2E2E2E2E2E2E2E2E2E2E2E2E2E2E2E2E2E2E2F5
310
E2E2E2E2F5E2E2E2E2E2E2E2F5F5E2E2E2E2E2E2E2E2E2E2E2E2E2E2E2E2E2E2E2E2E2E2E2E2E2F5E2E2E2E2E2F5E2E2E2F5E2E2E2E2F5E2E2E2E228E2E2E2E2E2F5E2E2E2E2E2E2E2F5E2E2E2E2E2E2E2E2E2E2E2E2E2E2E2E2E2E2E2E2E2E2E2E2E2E2E2E2E2E2E2E2E2E2E2E2E2E2E2E2E2E2E2E2E2E2E2E2E2E2E2E2E2
310
E2E2E2E2E2E2E2E2E2E2E2E2E2E2E2E2E2E2E2E2E2E2E2E2E2E2E2E2E2E2E2E2E2E2E2E2E2E2E2E2E2E2E2E2E2E2E2E2E2E2E2E2E2E2E2E2E2E2E2E2E2E2E2E2E2E2E2E2E2E2E2E2E2E2E2E2E2E2E2E2E2E2E2E2E2E2E2E2E2E2E2E2E2E2E2E2E2E2E2E2E2E2E2E2E2E2E2E2E2E2E2E2E2E2E2E2E2E2E2E2E2E2E2E2E2E2E2
310
E2F5E2E2E2E2F5E2E2E2E2E2E2E2F5F5E2E2E2E2E2E2E2E2E2E2E2E2E2E2E2E2E2E2E2E2E2E2E2E2E2F5E2E2E2E2E2F5F5F5F5F5E2E2E2E2F5E2E2E2E228E2E2E2E2E2F5E2E2E2E2E2E2E2F5E2E2E2E2E2E2E2E2E2E2E2E2E2E2E2E2E2E2E2E2E2E2E2E2E2E2E2E2E2E2E2E2E2E2E2E2E2E2E2E2E2E2E2E2E2E2E2E2E2E2E2
310
E2E2E2E2E2E2E2E2E2E2E2E2E2E2E2E2E2E2E2E2E2E2E2E2E2E2E2E2E2E2E2E2E2E2E2E2E2E2E2E2E2E2E2E2E2E2E2E2E2E2E2E2E2E2E2E2E2E2E2E2E2E2E2E2E2E2E2E2E2E2E2E2E2E2E2E2E2E2E2E2E2E2E2E2E2E2E2E2E2E2E2E2E2E2E2E2E2E2E2E2E2E2E2E2E2E2E2E2E2E2E2E2E2E2E2E2E2E2E2E2E2E2E2E2E2E2E2
310
E2E2E2F5E2E2E2E2F5E2E2E2E2E2E2E2F5F5F5F5F5F5F5F5F5F5F5F5F5F5F5F5F5F5F5F5F5F5F5F5F5F5F5F5E2E2E2E2E2F5E2E2E2E2E2E2E2E2F5E2E2E2E228E2E2E2E2E2F5E2E2E2E2E2E2E2F5E2E2E2E2E2E2E2E2E2E2E2E2E2E2E2E2E2E2E2E2E2E2E2E2E2E2E2E2E2E2E2E2E2E2E2E2E2E2E2E2E2E2E2E2E2E2E2E2E2
310
E2E2E2E2E2E2E2E2E2E2E2E2E2E2E2E2E2E2E2E2E2E2E2E2E2E2E2E2E2E2E2E2E2E2E2E2E2E2E2E2E2E2E2E2E2E2E2E2E2E2E2E2E2E2E2E2E2E2E2E2E2E2E2E2E2E2E2E2E2E2E2E2E2E2E2E2E2E2E2E2E2E2E2E2E2E2E2E2E2E2E2E2E2E2E2E2E2E2E2E2E2E2E2E2E2E2E2E2E2E2E2E2E2E2E2E2E2E2E2E2E2E2E2E2E2E2E2
310
E2E2E2E2E2F5E2E2E2E2F5E2E2E2E2E2E2E2F5F5F5F5F5F5F5F5F5F5F5F5F5F5F5F5F5F5F5F5F5F5F5F5F5F5F5F5E2E2E2E2E2F5E2E2E2E2E2E2E2E2F5E2E2E2E228E2E2E2E2E2F5E2E2E2E2E2E2E2F5E2E2E2E2E2E2E2E2E2E2E2E2E2E2E2E2E2E2E2E2E2E2E2E2E2E2E2E2E2E2E2E2E2E2E2E2E2E2E2E2E2E2E2E2E2E2E2
310
E2E2E2E2E2E2E2E2E2E2E2E2E2E2E2E2E2E2E2E2E2E2E2E2E2E2E2E2E2E2E2E2E2E2E2E2E2E2E2E2E2E2E2E2E2E2E2E2E2E2E2E2E2E2E2E2E2E2E2E2E2E2E2E2E2E2E2E2E2E2E2E2E2E2E2E2E2E2E2E2E2E2E2E2E2E2E2E2E2E2E2E2E2E2E2E2E2E2E2E2E2E2E2E2E2E2E2E2E2E2E2E2E2E2E2E2E2E2E2E2E2E2E2E2E2E2E2
310
E2E2E2E2E2E2E2F5E2E2E2E2F5E2E2E2E2E2E2E2F5F5E2E2E2E2E2E2E2E2E2E2E2E2E2E2E2E2E2E2E2E2E2E2E2E2E2F5E2E2E2E2E2F5E2E2E2E2E2E2E2E2F5E2E2E2E228E2E2E2E2E2F5E2E2E2E2E2E2E2F5E2E2E2E2E2E2E2E2E2E2E2E2E2E2E2E2E2E2E2E2E2E2E2E2E2E2E2E2E2E2E2E2E2E2E2E2E2E2E2E2E2E2E2E2E2
310
E2E2E2E2E2E2E2E2E2E2E2E2E2E2E2E2E2E2E2E2E2E2E2E2E2E2E2E2E2E2E2E2E2E2E2E2E2E2E2E2E2E2E2E2E2E2E2E2E2E2E2E2E2E2E2E2E2E2E2E2E2E2E2E2E2E2E2E2E2E2E2E2E2E2E2E2E2E2E2E2E2E2E2E2E2E2E2E2E2E2E2E2E2E2E2E2E2E2E2E2E2E2E2E2E2E2E2E2E2E2E2E2E2E2E2E2E2E2E2E2E2E2E2E2E2E2E2
310
E2E2E2E2E2E2E2E2E2F5E2E2E2E2F5E2E2E2E2E2E2E2F5F5F5E2E2E2E2E2E2E2E2E2E2E2E2E2E2E2E2E2E2E2E2E2E2E2E2F5E2E2E2E2E2F5E2E2E2E2E2E2E2E2F5E2E2E2E228E2E2E2E2E2F5E2E2E2E2E2E2E2F5E2E2E2E2E2E2E2E2E2E2E2E2E2E2E2E2E2E2E2E2E2E2E2E2E2E2E2E2E2E2E2E2E2E2E2E2E2E2E2E2E2E2E2
310
E2E2E2E2E2E2E2E2E2E2E2E2E2E2E2E2E2E2E2E2E2E2E2E2E2E2E2E2E2E2E2E2E2E2E2E2E2E2E2E2E2E2E2E2E2E2E2E2E2E2E2E2E2E2E2E2E2E2E2E2E2E2E2E2E2E2E2E2E2E2E2E2E2E2E2E2E2E2E2E2E2E2E2E2E2E2E2E2E2E2E2E2E2E2E2E2E2E2E2E2E2E2E2E2E2E2E2E2E2E2E2E2E2E2E2E2E2E2E2E2E2E2E2E2E2E2E2
310
E2E2E2E2E2E2E2E2E2E2E2F5E2E2E2E2F5E2E2E2E2E2E2E2F5F5F5F5F5F5F5F5F5F5F5F5F5F5F5F5F5F5F5F5F5F5F5F5F5F5F5F5E2E2E2F5F5F5F5F5F5F528F5F5F5F5F5F5F5F528F5F5F5F5F5F5F5F528F5F5F5F5F5E2E2E2E2E2E2E2E2E2E2E2E2E2E2E2E2E2E2E2E2E2E2E2E2E2E2E2E2E2E2E2E2E2E2E2E2E2E2E2E2E2
310
E2E2E2E2E2E2E2E2E2E2E2E2E2E2E2E2E2E2E2E2E2E2E2E2E2E2E2E2E2E2E2E2E2E2E2E2E2E2E2E2E2E2E2E2E2E2E2E2E2E2E2E2E2E2E2E2E2E2E2E2E2E2E2E2E2E2E2E2E2E2E2E2E2E2E2E2E2E2E2E2E2E2E2E2E2E2E2E2E2E2E2E2E2E2E2E2E2E2E2E2E2E2E2E2E2E2E2E2E2E2E2E2E2E2E2E2E2E2E2E2E2E2E2E2E2E2E2
310
E2E2E2E2E2E2E2E2E2E2E2E2E2F5E2E2E2E2F5E2E2F5F5F5F5F5F5F5F5F5F5F5F5F5F5F5F5F5F5F5F5F5F5F5F5F5F5F5F5F5F5F5F5F5E2E2E2F5E2E2F5E2E2F528E2E2E2E2E2E2E2E228E2E2E2E2E2E2E2E228F5E2E2E2F5E2E2E2E2E2E2E2E2E2E2E2E2E2E2E2E2E2E2E2E2E2E2E2E2E2E2E2E2E2E2E2E2E2E2E2E2E2E2E2
310
E2E2E2E2E2E2E2E2E2E2E2E2E2E2E2E2E2E2E2E2E2E2E2E2E2E2E2E2E2E2E2E2E2E2E2E2E2E2E2E2E2E2E2E2E2E2E2E2E2E2E2E2E2E2E2E2E2E2E2E2E2E2E2E2E2E2E2E2E2E2E2E2E2E2E2E2E2E2E2E2E2E2E2E2E2E2E2E2E2E2E2E2E2E2E2E2E2E2E2E2E2E2E2E2E2E2E2E2E2E2E2E2E2E2E2E2E2E2E2E2E2E2E2E2E2E2E2
310
E2E2E2E2E2E2E2E2E2E2E2E2E2E2E2F5E2E2E2E2F5E2E2F5E2E2E2E2F5F5F5F5F5F5F5F5F5F5F5F5F5F5F5F5F5F5F5F5F5F5F5F5F5F5F5F5E2E2E2F5E2E2F5E22828282828E2E2E2E2E2E228E2E2E2E2E2E22828282828E2F5E2E2E2E2E2E2E2E2E2E2E2E2E2E2E2E2E2E2E2E2E2E2E2E2E2E2E2E2E2E2E2E2E2E2E2E2E2E2
310
E2E2E2E2E2E2E2E2E2E2E2E2E2E2E2E2E2E2E2E2E2E2E2E2E2E2E2E2E2E2E2E2E2E2E2E2E2E2E2E2E2E2E2E2E2E2E2E2E2E2E2E2E2E2E2E2E2E2E2E2E2E2E2E2E2E2E2E2E2E2E2E2E2E2E2E2E2E2E2E2E2E2E2E2E2E2E2E2E2E2E2E2E2E2E2E2E2E2E2E2E2E2E2E2E2E2E2E2E2E2E2E2E2E2E2E2E2E2E2E2E2E2E2E2E2E2E2
310
E2E2E2E2E2E2E2E2E2E2E2E2E2E2E2E2E2F5E2E2E2E2F5E2E2F5F5F5F5F5F5F5F5E2E2E2E2E2E2E2E2E2E2E2E2E2E2E2E2E2E2E2E2E2E2E2E2F5E2E2E2F5E2E2E2F5E2F528F5F5F5F5F5F5F5F5F5F5F5F5F5F5F5F5F528F5E2E2F5E2E2E2E2E2E2E2E2E2E2E2E2E2E2E2E2E2E2E2E2E2E2E2E2E2E2E2E2E2E2E2E2E2E2E2E2
310
E2E2E2E2E2E2E2E2E2E2E2E2E2E2E2E2E2E2E2E2E2E2E2E2E2E2E2E2E2E2E2E2E2E2E2E2E2E2E2E2E2E2E2E2E2E2E2E2E2E2E2E2E2E2E2E2E2E2E2E2E2E2E2E2E2E2E2E2E2E2E2E2E2E2E2E2E2E2E2E2E2E2E2E2E2E2E2E2E2E2E2E2E2E2E2E2E2E2E2E2E2E2E2E2E2E2E2E2E2E2E2E2E2E2E2E2E2E2E2E2E2E2E2E2E2E2E2
310
E2E2E2E2E2E2E2E2E2E2E2E2E2E2E2E2E2E2E2E2F5F5E2E2F5E2E2E2E2E2E2E2F5F5F5F5F5F5F5F5F5F5F5F5F5F5F5F5F5F5F5F5F5F5F5F5F5F5F5F5F5F5F5F5E2E2E2F5E2E228E2E2E2E2E2F5E2E228E2E2F5F5E2E2E2E228E2E2F5E2E2E2E2E2E2E2E2E2E2E2E2E2E2E2E2E2E2E2E2E2E2E2E2E2E2E2E2E2E2E2E2E2E2E2
310
E2E2E2E2E2E2E2E2E2E2E2E2E2E2E2E2E2E2E2E2E2E2E2E2E2E2E2E2E2E2E2E2E2E2E2E2E2E2E2E2E2E2E2E2E2E2E2E2E2E2E2E2E2E2E2E2E2E2E2E2E2E2E2E2E2E2E2E2E2E2E2E2E2E2E2E2E2E2E2E2E2E2E2E2E2E2E2E2E2E2E2E2E2E2E2E2E2E2E2E2E2E2E2E2E2E2E2E2E2E2E2E2E2E2E2E2E2E2E2E2E2E2E2E2E2E2E2
310
E2E2E2E2E2E2E2E2E2E2E2E2E2E2E2E2E2E2E2E2E2E2E2E2F5F5F5E2E2E2E2E2E2E2F5F5F5F5F5F5F5F5F5F5F5F5F5F5F5F5F5F5F5F5F5F5F5F5F5F5F5F5E2E2E2E2E2E2E2F5F5F5F5F5F5F5F5F5F5E2E228E2E2F5F5F5F5F5F5F5F5F5F5E2E2E2E2E2E2E2E2E2E2E2E2E2E2E2E2E2E2E2E2E2E2E2E2E2E2E2E2E2E2E2E2E2
310
E2E2E2E2E2E2E2E2E2E2E2E2E2E2E2E2E2E2E2E2E2E2E2E2E2E2E2E2E2E2E2E2E2E2E2E2E2E2E2E2E2E2E2E2E2E2E2E2E2E2E2E2E2E2E2E2E2E2E2E2E2E2E2E2E2E2E2E2E2E2E2E2E2E2E2E2E2E2E2E2E2E2E2E2E2E2E2E2E2E2E2E2E2E2E2E2E2E2E2E2E2E2E2E2E2E2E2E2E2E2E2E2E2E2E2E2E2E2E2E2E2E2E2E2E2E2E2
310
E2E2E2E2E2E2E2E2E2E2E2E2E2E2E2E2E2E2E2E2E2E2E2E2E2E2E2E2F5F5F5F5F5F5F5F5F5E2E2E2E2E2E2E2E2E2E2E2E2E2E2E2E2E2E2E2E2E2E2E2E2E2E2E2E2E2E2E2E2E2E2E2E2E2E2E2E2E2E2E2F5E2E228E2E2F5F5E2E2E2E2E2E2E2E2E2E2E2E2E2E2E2E2E2E2E2E2E2E2E2E2E2E2E2E2E2E2E2E2E2E2E2E2E2E2E2
310
E2E2E2E2E2E2E2E2E2E2E2E2E2E2E2E2E2E2E2E2E2E2E2E2E2E2E2E2E2E2E2E2E2E2E2E2E2E2E2E2E2E2E2E2E2E2E2E2E2E2E2E2E2E2E2E2E2E2E2E2E2E2E2E2E2E2E2E2E2E2E2E2E2E2E2E2E2E2E2E2E2E2E2E2E2E2E2E2E2E2E2E2E2E2E2E2E2E2E2E2E2E2E2E2E2E2E2E2E2E2E2E2E2E2E2E2E2E2E2E2E2E2E2E2E2E2E2
310
E2E2E2E2E2E2E2E2E2E2E2E2E2E2E2E2E2E2E2E2E2E2E2E2E2E2E2E2E2E2E2E2E2E2E2E2E2E2E2E2E2E2E2E2E2E2E2E2E2E2E2E2E2E2E2E2E2E2E2E2E2E2E2E2E2E2E2E2E2E2E2E2E2E2E2E2E2E2E2E2E2E2F5E2E228E2E2F5F5E2E2E2E2E2E2E2E2E2E2E2E2E2E2E2E2E2E2E2E2E2E2E2E2E2E2E2E2E2E2E2E2E2E2E2E2E2
310
E2E2E2E2E2E2E2E2E2E2E2E2E2E2E2E2E2E2E2E2E2E2E2E2E2E2E2E2E2E2E2E2E2E2E2E2E2E2E2E2E2E2E2E2E2E2E2E2E2E2E2E2E2E2E2E2E2E2E2E2E2E2E2E2E2E2E2E2E2E2E2E2E2E2E2E2E2E2E2E2E2E2E2E2E2E2E2E2E2E2E2E2E2E2E2E2E2E2E2E2E2E2E2E2E2E2E2E2E2E2E2E2E2E2E2E2E2E2E2E2E2E2E2E2E2E2E2
310
E2E2E2E2E2E2E2E2E2E2E2E2E2E2E2E2E2E2E2E2E2E2E2E2E2E2E2E2E2E2E2E2E2E2E2E2E2E2E2E2E2E2E2E2E2E2E2E2E2E2E2E2E2E2E2E2E2E2E2E2E2E2E2E2E2E2E2E2E2E2E2E2E2E2E2E2E2E2E2E2E2E2E2E2F5E2E228E2E2F5F5E2E2E2E2E2E2E2E2E2E2E2E2E2E2E2E2E2E2E2E2E2E2E2E2E2E2E2E2E2E2E2E2E2E2E2
310
E2E2E2E2E2E2E2E2E2E2E2E2E2E2E2E2E2E2E2E2E2E2E2E2E2E2E2E2E2E2E2E2E2E2E2E2E2E2E2E2E2E2E2E2E2E2E2E2E2E2E2E2E2E2E2E2E2E2E2E2E2E2E2E2E2E2E2E2E2E2E2E2E2E2E2E2E2E2E2E2E2E2E2E2E2E2E2E2E2E2E2E2E2E2E2E2E2E2E2E2E2E2E2E2E2E2E2E2E2E2E2E2E2E2E2E2E2E2E2E2E2E2E2E2E2E2E2
310
E2E2E2E2E2E2E2E2E2E2E2E2E2E2E2E2E2E2E2E2E2E2E2E2E2E2E2E2E2E2E2E2E2E2E2E2E2E2E2E2E2E2E2E2E2E2E2E2E2E2E2E2E2E2E2E2E2E2E2E2E2E2E2E2E2E2E2E2E2E2E2E2E2E2E2E2E2E2E2E2E2E2E2E2E2E2F5E2E228E2E2F5F5E2E2E2E2E2E2E2E2E2E2E2E2E2E2E2E2E2E2E2E2E2E2E2E2E2E2E2E2E2E2E2E2E2
310
E2E2E2E2E2E2E2E2E2E2E2E2E2E2E2E2E2E2E2E2E2E2E2E2E2E2E2E2E2E2E2E2E2E2E2E2E2E2E2E2E2E2E2E2E2E2E2E2E2E2E2E2E2E2E2E2E2E2E2E2E2E2E2E2E2E2E2E2E2E2E2E2E2E2E2E2E2E2E2E2E2E2E2E2E2E2E2E2E2E2E2E2E2E2E2E2E2E2E2E2E2E2E2E2E2E2E2E2E2E2E2E2E2E2E2E2E2E2E2E2E2E2E2E2E2E2E2
310
E2E2E2E2E2E2E2E2E2E2E2E2E2E2E2E2E2E2E2E2E2E2E2E2E2E2E2E2E2E2E2E2E2E2E2E2E2E2E2E2E2E2E2E2E2E2E2E2E2E2E2E2E2E2E2E2E2E2E2E2E2E2E2E2E2E2E2E2E2E2E2E2E2E2E2E2E2E2E2E2E2E2E2E2E2E2E2E2F5E2E228E2E2F5F5E2E2E2E2E2E2E2E2E2E2E2E2E2E2E2E2E2E2E2E2E2E2E2E2E2E2E2E2E2E2E2
310
E2E2E2E2E2E2E2E2E2E2E2E2E2E2E2E2E2E2E2E2E2E2E2E2E2E2E2E2E2E2E2E2E2E2E2E2E2E2E2E2E2E2E2E2E2E2E2E2E2E2E2E2E2E2E2E2E2E2E2E2E2E2E2E2E2E2E2E2E2E2E2E2E2E2E2E2E2E2E2E2E2E2E2E2E2E2E2E2E2E2E2E2E2E2E2E2E2E2E2E2E2E2E2E2E2E2E2E2E2E2E2E2E2E2E2E2E2E2E2E2E2E2E2E2E2E2E2
310
E2E2E2E2E2E2E2E2E2E2E2E2E2E2E2E2E2E2E2E2E2E2E2E2E2E2E2E2E2E2E2E2E2E2E2E2E2E2E2E2E2E2E2E2E2E2E2E2E2E2E2E2E2E2E2E2E2E2E2E2E2E2E2E2E2E2E2E2E2E2E2E2E2E2E2E2E2E2E2E2E2E2E2E2E2E2E2E2E2E2F5E2E228E2E2F5F5E2E2E2E2E2E2E2E2E2E2E2E2E2E2E2E2E2E2E2E2E2E2E2E2E2E2E2E2E2
310
E2E2E2E2E2E2E2E2E2E2E2E2E2E2E2E2E2E2E2E2E2E2E2E2E2E2E2E2E2E2E2E2E2E2E2E2E2E2E2E2E2E2E2E2E2E2E2E2E2E2E2E2E2E2E2E2E2E2E2E2E2E2E2E2E2E2E2E2E2E2E2E2E2E2E2E2E2E2E2E2E2E2E2E2E2E2E2E2E2E2E2E2E2E2E2E2E2E2E2E2E2E2E2E2E2E2E2E2E2E2E2E2E2E2E2E2E2E2E2E2E2E2E2E2E2E2E2
310
E2E2E2E2E2E2E2E2E2E2E2E2E2E2E2E2E2E2E2E2E2E2E2E2E2E2E2E2E2E2E2E2E2E2E2E2E2E2E2E2E2E2E2E2E2E2E2E2E2E2E2E2E2E2E2E2E2E2E2E2E2E2E2E2E2E2E2E2E2E2E2E2E2E2E2E2E2E2E2E2E2E2E2E2E2E2E2E2E2E2E2E2F5E2E228E2E2F5F5E2E2E2E2E2E2E2E2E2E2E2E2E2E2E2E2E2E2E2E2E2E2E2E2E2E2E2
310
E2E2E2E2E2E2E2E2E2E2E2E2E2E2E2E2E2E2E2E2E2E2E2E2E2E2E2E2E2E2E2E2E2E2E2E2E2E2E2E2E2E2E2E2E2E2E2E2E2E2E2E2E2E2E2E2E2E2E2E2E2E2E2E2E2E2E2E2E2E2E2E2E2E2E2E2E2E2E2E2E2E2E2E2E2E2E2E2E2E2E2E2E2E2E2E2E2E2E2E2E2E2E2E2E2E2E2E2E2E2E2E2E2E2E2E2E2E2E2E2E2E2E2E2E2E2E2
310
E2E2E2E2E2E2E2E2E2E2E2E2E2E2E2E2E2E2E2E2E2E2E2E2E2E2E2E2E2E2E2E2E2E2E2E2E2E2E2E2E2E2E2E2E2E2E2E2E2E2E2E2E2E2E2E2E2E2E2E2E2E2E2E2E2E2E2E2E2E2E2E2E2E2E2E2E2E2E2E2E2E2E2E2E2E2E2E2E2E2E2E2E2E2F5F5F5F5F5F5F5F5E2E2E2E2E2E2E2E2E2E2E2E2E2E2E2E2E2E2E2E2E2E2E2E2E2
310
E2E2E2E2E2E2E2E2E2E2E2E2E2E2E2E2E2E2E2E2E2E2E2E2E2E2E2E2E2E2E2E2E2E2E2E2E2E2E2E2E2E2E2E2E2E2E2E2E2E2E2E2E2E2E2E2E2E2E2E2E2E2E2E2E2E2E2E2E2E2E2E2E2E2E2E2E2E2E2E2E2E2E2E2E2E2E2E2E2E2E2E2E2E2E2E2E2E2E2E2E2E2E2E2E2E2E2E2E2E2E2E2E2E2E2E2E2E2E2E2E2E2E2E2E2E2E2
310
E2E2E2E2E2E2E2E2E2E2E2E2E2E2E2E2E2E2E2E2E2E2E2E2E2E2E2E2E2E2E2E2E2E2E2E2E2E2E2E2E2E2E2E2E2E2E2E2E2E2E2E2E2E2E2E2E2E2E2E2E2E2E2E2E2E2E2E2E2E2E2E2E2E2E2E2E2E2E2E2E2E2E2E2E2E2E2E2E2E2E2E2E2E2E2E2E2E2E228E2E2E2E2E2E2E2E2E2E2E2E2E2E2E2E2E2E2E2E2E2E2E2E2E2E2E2
310
E2E2E2E2E2E2E2E2E2E2E2E2E2E2E2E2E2E2E2E2E2E2E2E2E2E2E2E2E2E2E2E2E2E2E2E2E2E2E2E2E2E2E2E2E2E2E2E2E2E2E2E2E2E2E2E2E2E2E2E2E2E2E2E2E2E2E2E2E2E2E2E2E2E2E2E2E2E2E2E2E2E2E2E2E2E2E2E2E2E2E2E2E2E2E2E2E2E2E2E2E2E2E2E2E2E2E2E2E2E2E2E2E2E2E2E2E2E2E2E2E2E2E2E2E2E2E2
310
E2E2E2E2E2E2E2E2E2E2E2E2E2E2E2E2E2E2E2E2E2E2E2E2E2E2E2E2E2E2E2E2E2E2E2E2E2E2E2E2E2E2E2E2E2E2E2E2E2E2E2E2E2E2E2E2E2E2E2E2E2E2E2E2E2E2E2E2E2E2E2E2E2E2E2E2E2E2E2E2E2E2E2E2E2E2E2E2E2E2E2E2E2E2E2E2E2E2E2E2E228E2E2E2E2E2E2E2E2E2E2E2E2E2E2E2E2E2E2E2E2E2E2E2E2E2
310
E2E2E2E2E2E2E2E2E2E2E2E2E2E2E2E2E2E2E2E2E2E2E2E2E2E2E2E2E2E2E2E2E2E2E2E2E2E2E2E2E2E2E2E2E2E2E2E2E2E2E2E2E2E2E2E2E2E2E2E2E2E2E2E2E2E2E2E2E2E2E2E2E2E2E2E2E2E2E2E2E2E2E2E2E2E2E2E2E2E2E2E2E2E2E2E2E2E2E2E2E2E2E2E2E2E2E2E2E2E2E2E2E2E2E2E2E2E2E2E2E2E2E2E2E2E2E2
310
E2E2E2E2E2E2E2E2E2E2E2E2E2E2E2E2E2E2E2E2E2E2E2E2E2E2E2E2E2E2E2E2E2E2E2E2E2E2E2E2E2E2E2E2E2E2E2E2E2E2E2E2E2E2E2E2E2E2E2E2E2E2E2E2E2E2E2E2E2E2E2E2E2E2E2E2E2E2E2E2E2E2E2E2E2E2E2E2E2E2E2E2E2E2E2E2E2E2E2E2E2E2E228E2E2E2E2E2E2E2E2E2E2E2E2E2E2E2E2E2E2E2E2E2E2E2
310
E2E2E2E2E2E2E2E2E2E2E2E2E2E2E2E2E2E2E2E2E2E2E2E2E2E2E2E2E2E2E2E2E2E2E2E2E2E2E2E2E2E2E2E2E2E2E2E2E2E2E2E2E2E2E2E2E2E2E2E2E2E2E2E2E2E2E2E2E2E2E2E2E2E2E2E2E2E2E2E2E2E2E2E2E2E2E2E2E2E2E2E2E2E2E2E2E2E2E2E2E2E2E2E2E2E2E2E2E2E2E2E2E2E2E2E2E2E2E2E2E2E2E2E2E2E2E2
310
E2E2E2E2E2E2E2E2E2E2E2E2E2E2E2E2E2E2E2E2E2E2E2E2E2E2
  0
XRECORD
  5
2501
102
{ACAD_REACTORS
330
2500
102
}
330
2500
100
AcDbXrecord
280
     1
102
SHADEPLOT
 70
     0
102
SHADEPLOTRESLEVEL
 70
     2
102
SHADEPLOTCUSTOMDPI
 70
   300
  0
XRECORD
  5
24CF
102
{ACAD_REACTORS
330
1D18
102
}
330
1D18
100
AcDbXrecord
280
     1
102
MATERIAL
148
0.0
149
0.0
149
0.0
 93
        0
 94
      127
282
     0
 72
     0
 77
     0
171
     0
175
     0
179
     0
273
     0
  0
XRECORD
  5
1D1A
102
{ACAD_REACTORS
330
1D18
102
}
330
1D18
100
AcDbXrecord
280
     1
270
     1
271
     1
  0
XRECORD
  5
1D19
102
{ACAD_REACTORS
330
1D18
102
}
330
1D18
100
AcDbXrecord
280
     1
270
     1
271
     1
  0
XRECORD
  5
1D1D
102
{ACAD_REACTORS
330
1D18
102
}
330
1D18
100
AcDbXrecord
280
     1
270
     1
271
     1
  0
XRECORD
  5
1D1C
102
{ACAD_REACTORS
330
1D18
102
}
330
1D18
100
AcDbXrecord
280
     1
270
     1
271
     1
  0
XRECORD
  5
1D1E
102
{ACAD_REACTORS
330
1D18
102
}
330
1D18
100
AcDbXrecord
280
     1
270
     1
271
     1
  0
XRECORD
  5
1D1B
102
{ACAD_REACTORS
330
1D18
102
}
330
1D18
100
AcDbXrecord
280
     1
270
     1
271
     1
  0
XRECORD
  5
24CE
102
{ACAD_REACTORS
330
1D10
102
}
330
1D10
100
AcDbXrecord
280
     1
102
MATERIAL
148
0.0
149
0.0
149
0.0
 93
        0
 94
      127
282
     0
 72
     0
 77
     0
171
     0
175
     0
179
     0
273
     0
  0
XRECORD
  5
1D12
102
{ACAD_REACTORS
330
1D10
102
}
330
1D10
100
AcDbXrecord
280
     1
270
     1
271
     1
  0
XRECORD
  5
1D11
102
{ACAD_REACTORS
330
1D10
102
}
330
1D10
100
AcDbXrecord
280
     1
270
     1
271
     1
  0
XRECORD
  5
1D15
102
{ACAD_REACTORS
330
1D10
102
}
330
1D10
100
AcDbXrecord
280
     1
270
     1
271
     1
  0
XRECORD
  5
1D14
102
{ACAD_REACTORS
330
1D10
102
}
330
1D10
100
AcDbXrecord
280
     1
270
     1
271
     1
  0
XRECORD
  5
1D16
102
{ACAD_REACTORS
330
1D10
102
}
330
1D10
100
AcDbXrecord
280
     1
270
     1
271
     1
  0
XRECORD
  5
1D13
102
{ACAD_REACTORS
330
1D10
102
}
330
1D10
100
AcDbXrecord
280
     1
270
     1
271
     1
  0
XRECORD
  5
24D0
102
{ACAD_REACTORS
330
1D20
102
}
330
1D20
100
AcDbXrecord
280
     1
102
MATERIAL
148
0.0
149
0.0
149
0.0
 93
        0
 94
      127
282
     0
 72
     0
 77
     0
171
     0
175
     0
179
     0
273
     0
  0
XRECORD
  5
1D22
102
{ACAD_REACTORS
330
1D20
102
}
330
1D20
100
AcDbXrecord
280
     1
270
     1
271
     1
  0
XRECORD
  5
1D21
102
{ACAD_REACTORS
330
1D20
102
}
330
1D20
100
AcDbXrecord
280
     1
270
     1
271
     1
  0
XRECORD
  5
1D25
102
{ACAD_REACTORS
330
1D20
102
}
330
1D20
100
AcDbXrecord
280
     1
270
     1
271
     1
  0
XRECORD
  5
1D24
102
{ACAD_REACTORS
330
1D20
102
}
330
1D20
100
AcDbXrecord
280
     1
270
     1
271
     1
  0
XRECORD
  5
1D26
102
{ACAD_REACTORS
330
1D20
102
}
330
1D20
100
AcDbXrecord
280
     1
270
     1
271
     1
  0
XRECORD
  5
1D23
102
{ACAD_REACTORS
330
1D20
102
}
330
1D20
100
AcDbXrecord
280
     1
270
     1
271
     1
  0
CELLSTYLEMAP
  5
24C2
102
{ACAD_REACTORS
330
1E5F
102
}
330
1E5F
100
AcDbCellStyleMap
 90
        3
300
CELLSTYLE
  1
TABLEFORMAT_BEGIN
 90
        5
170
     1
 91
        0
 92
    32768
 62
   257
 93
        1
300
CONTENTFORMAT
  1
CONTENTFORMAT_BEGIN
 90
        0
 91
        0
 92
      512
 93
        0
300

 40
0.0
140
1.0
 94
        5
 62
     0
340
16
144
0.25
309
CONTENTFORMAT_END
171
     0
 94
        0
309
TABLEFORMAT_END
  1
CELLSTYLE_BEGIN
 90
        1
 91
        1
300
_TITLE
309
CELLSTYLE_END
300
CELLSTYLE
  1
TABLEFORMAT_BEGIN
 90
        5
170
     1
 91
        0
 92
        0
 62
   257
 93
        1
300
CONTENTFORMAT
  1
CONTENTFORMAT_BEGIN
 90
        0
 91
        0
 92
      512
 93
        0
300

 40
0.0
140
1.0
 94
        5
 62
     0
340
16
144
0.18
309
CONTENTFORMAT_END
171
     0
 94
        0
309
TABLEFORMAT_END
  1
CELLSTYLE_BEGIN
 90
        2
 91
        1
300
_HEADER
309
CELLSTYLE_END
300
CELLSTYLE
  1
TABLEFORMAT_BEGIN
 90
        5
170
     1
 91
        0
 92
        0
 62
   257
 93
        1
300
CONTENTFORMAT
  1
CONTENTFORMAT_BEGIN
 90
        0
 91
        0
 92
      512
 93
        0
300

 40
0.0
140
1.0
 94
        2
 62
     0
340
16
144
0.18
309
CONTENTFORMAT_END
171
     0
 94
        0
309
TABLEFORMAT_END
  1
CELLSTYLE_BEGIN
 90
        3
 91
        2
300
_DATA
309
CELLSTYLE_END
  0
XRECORD
  5
24F7
102
{ACAD_REACTORS
330
1E5F
102
}
330
1E5F
100
AcDbXrecord
280
     1
102
ACAD_ROUNDTRIP_PRE2007_TABLESTYLE
 90
      512
 91
        0
  1

 92
      512
 93
        0
  2

 94
      512
 95
        0
  3

  0
XRECORD
  5
24DC
102
{ACAD_REACTORS
330
24DB
102
}
330
24DB
100
AcDbXrecord
280
     1
102
RTVSPropertyOp0
 70
     1
102
RTVSPropertyOp1
 70
     1
102
RTVSPropertyOp2
 70
     1
102
RTVSPropertyOp3
 70
     1
102
RTVSPropertyOp4
 70
     1
102
RTVSPropertyOp5
 70
     1
102
RTVSPropertyOp6
 70
     1
102
RTVSPropertyOp7
 70
     1
102
RTVSPropertyOp8
 70
     1
102
RTVSPropertyOp9
 70
     1
102
RTVSPropertyOp10
 70
     1
102
RTVSPropertyOp11
 70
     1
102
RTVSPropertyOp12
 70
     1
102
RTVSPropertyOp13
 70
     1
102
RTVSPropertyOp14
 70
     1
102
RTVSPropertyOp15
 70
     1
102
RTVSPropertyOp16
 70
     1
102
RTVSPropertyOp17
 70
     1
102
RTVSPropertyOp18
 70
     1
102
RTVSPropertyOp19
 70
     1
102
RTVSPropertyOp20
 70
     1
102
RTVSPropertyOp21
 70
     1
102
RTVSPropertyOp22
 70
     1
102
RTVSPropertyOp23
 70
     1
102
RTVSPropertyOp24
 70
     1
102
RTVSPropertyOp25
 70
     1
102
RTVSPropertyOp26
 70
     1
102
RTVSPropertyOp27
 70
     1
  0
XRECORD
  5
24E0
102
{ACAD_REACTORS
330
24DF
102
}
330
24DF
100
AcDbXrecord
280
     1
102
RTVSPropertyOp0
 70
     1
102
RTVSPropertyOp1
 70
     1
102
RTVSPropertyOp2
 70
     1
102
RTVSPropertyOp3
 70
     1
102
RTVSPropertyOp4
 70
     1
102
RTVSPropertyOp5
 70
     1
102
RTVSPropertyOp6
 70
     1
102
RTVSPropertyOp7
 70
     1
102
RTVSPropertyOp8
 70
     1
102
RTVSPropertyOp9
 70
     1
102
RTVSPropertyOp10
 70
     1
102
RTVSPropertyOp11
 70
     1
102
RTVSPropertyOp12
 70
     1
102
RTVSPropertyOp13
 70
     1
102
RTVSPropertyOp14
 70
     1
102
RTVSPropertyOp15
 70
     1
102
RTVSPropertyOp16
 70
     1
102
RTVSPropertyOp17
 70
     1
102
RTVSPropertyOp18
 70
     1
102
RTVSPropertyOp19
 70
     1
102
RTVSPropertyOp20
 70
     1
102
RTVSPropertyOp21
 70
     1
102
RTVSPropertyOp22
 70
     1
102
RTVSPropertyOp23
 70
     1
102
RTVSPropertyOp24
 70
     1
102
RTVSPropertyOp25
 70
     1
102
RTVSPropertyOp26
 70
     1
102
RTVSPropertyOp27
 70
     1
  0
XRECORD
  5
24DE
102
{ACAD_REACTORS
330
24DD
102
}
330
24DD
100
AcDbXrecord
280
     1
102
RTVSPropertyOp0
 70
     1
102
RTVSPropertyOp1
 70
     1
102
RTVSPropertyOp2
 70
     1
102
RTVSPropertyOp3
 70
     1
102
RTVSPropertyOp4
 70
     1
102
RTVSPropertyOp5
 70
     1
102
RTVSPropertyOp6
 70
     1
102
RTVSPropertyOp7
 70
     1
102
RTVSPropertyOp8
 70
     1
102
RTVSPropertyOp9
 70
     1
102
RTVSPropertyOp10
 70
     1
102
RTVSPropertyOp11
 70
     1
102
RTVSPropertyOp12
 70
     1
102
RTVSPropertyOp13
 70
     1
102
RTVSPropertyOp14
 70
     1
102
RTVSPropertyOp15
 70
     1
102
RTVSPropertyOp16
 70
     1
102
RTVSPropertyOp17
 70
     1
102
RTVSPropertyOp18
 70
     1
102
RTVSPropertyOp19
 70
     1
102
RTVSPropertyOp20
 70
     1
102
RTVSPropertyOp21
 70
     1
102
RTVSPropertyOp22
 70
     1
102
RTVSPropertyOp23
 70
     1
102
RTVSPropertyOp24
 70
     1
102
RTVSPropertyOp25
 70
     1
102
RTVSPropertyOp26
 70
     1
102
RTVSPropertyOp27
 70
     1
  0
XRECORD
  5
24DA
102
{ACAD_REACTORS
330
24D9
102
}
330
24D9
100
AcDbXrecord
280
     1
102
RTVSPropertyOp0
 70
     1
102
RTVSPropertyOp1
 70
     1
102
RTVSPropertyOp2
 70
     1
102
RTVSPropertyOp3
 70
     1
102
RTVSPropertyOp4
 70
     1
102
RTVSPropertyOp5
 70
     1
102
RTVSPropertyOp6
 70
     1
102
RTVSPropertyOp7
 70
     1
102
RTVSPropertyOp8
 70
     1
102
RTVSPropertyOp9
 70
     1
102
RTVSPropertyOp10
 70
     1
102
RTVSPropertyOp11
 70
     1
102
RTVSPropertyOp12
 70
     1
102
RTVSPropertyOp13
 70
     1
102
RTVSPropertyOp14
 70
     1
102
RTVSPropertyOp15
 70
     1
102
RTVSPropertyOp16
 70
     1
102
RTVSPropertyOp17
 70
     1
102
RTVSPropertyOp18
 70
     1
102
RTVSPropertyOp19
 70
     1
102
RTVSPropertyOp20
 70
     1
102
RTVSPropertyOp21
 70
     1
102
RTVSPropertyOp22
 70
     1
102
RTVSPropertyOp23
 70
     1
102
RTVSPropertyOp24
 70
     1
102
RTVSPropertyOp25
 70
     1
102
RTVSPropertyOp26
 70
     1
102
RTVSPropertyOp27
 70
     1
  0
XRECORD
  5
24E8
102
{ACAD_REACTORS
330
24E7
102
}
330
24E7
100
AcDbXrecord
280
     1
102
RTVSPropertyOp0
 70
     1
102
RTVSPropertyOp1
 70
     1
102
RTVSPropertyOp2
 70
     1
102
RTVSPropertyOp3
 70
     1
102
RTVSPropertyOp4
 70
     1
102
RTVSPropertyOp5
 70
     1
102
RTVSPropertyOp6
 70
     1
102
RTVSPropertyOp7
 70
     1
102
RTVSPropertyOp8
 70
     1
102
RTVSPropertyOp9
 70
     1
102
RTVSPropertyOp10
 70
     1
102
RTVSPropertyOp11
 70
     1
102
RTVSPropertyOp12
 70
     1
102
RTVSPropertyOp13
 70
     1
102
RTVSPropertyOp14
 70
     1
102
RTVSPropertyOp15
 70
     1
102
RTVSPropertyOp16
 70
     1
102
RTVSPropertyOp17
 70
     1
102
RTVSPropertyOp18
 70
     1
102
RTVSPropertyOp19
 70
     1
102
RTVSPropertyOp20
 70
     1
102
RTVSPropertyOp21
 70
     1
102
RTVSPropertyOp22
 70
     1
102
RTVSPropertyOp23
 70
     1
102
RTVSPropertyOp24
 70
     1
102
RTVSPropertyOp25
 70
     1
102
RTVSPropertyOp26
 70
     1
102
RTVSPropertyOp27
 70
     1
  0
XRECORD
  5
24F0
102
{ACAD_REACTORS
330
24EF
102
}
330
24EF
100
AcDbXrecord
280
     1
102
RTVSPropertyOp0
 70
     1
102
RTVSPropertyOp1
 70
     1
102
RTVSPropertyOp2
 70
     1
102
RTVSPropertyOp3
 70
     1
102
RTVSPropertyOp4
 70
     1
102
RTVSPropertyOp5
 70
     1
102
RTVSPropertyOp6
 70
     1
102
RTVSPropertyOp7
 70
     1
102
RTVSPropertyOp8
 70
     1
102
RTVSPropertyOp9
 70
     1
102
RTVSPropertyOp10
 70
     1
102
RTVSPropertyOp11
 70
     1
102
RTVSPropertyOp12
 70
     1
102
RTVSPropertyOp13
 70
     1
102
RTVSPropertyOp14
 70
     1
102
RTVSPropertyOp15
 70
     1
102
RTVSPropertyOp16
 70
     1
102
RTVSPropertyOp17
 70
     1
102
RTVSPropertyOp18
 70
     1
102
RTVSPropertyOp19
 70
     1
102
RTVSPropertyOp20
 70
     1
102
RTVSPropertyOp21
 70
     1
102
RTVSPropertyOp22
 70
     1
102
RTVSPropertyOp23
 70
     1
102
RTVSPropertyOp24
 70
     1
102
RTVSPropertyOp25
 70
     1
102
RTVSPropertyOp26
 70
     1
102
RTVSPropertyOp27
 70
     1
  0
XRECORD
  5
24E2
102
{ACAD_REACTORS
330
24E1
102
}
330
24E1
100
AcDbXrecord
280
     1
102
RTVSPropertyOp0
 70
     1
102
RTVSPropertyOp1
 70
     1
102
RTVSPropertyOp2
 70
     1
102
RTVSPropertyOp3
 70
     1
102
RTVSPropertyOp4
 70
     1
102
RTVSPropertyOp5
 70
     1
102
RTVSPropertyOp6
 70
     1
102
RTVSPropertyOp7
 70
     1
102
RTVSPropertyOp8
 70
     1
102
RTVSPropertyOp9
 70
     1
102
RTVSPropertyOp10
 70
     1
102
RTVSPropertyOp11
 70
     1
102
RTVSPropertyOp12
 70
     1
102
RTVSPropertyOp13
 70
     1
102
RTVSPropertyOp14
 70
     1
102
RTVSPropertyOp15
 70
     1
102
RTVSPropertyOp16
 70
     1
102
RTVSPropertyOp17
 70
     1
102
RTVSPropertyOp18
 70
     1
102
RTVSPropertyOp19
 70
     1
102
RTVSPropertyOp20
 70
     1
102
RTVSPropertyOp21
 70
     1
102
RTVSPropertyOp22
 70
     1
102
RTVSPropertyOp23
 70
     1
102
RTVSPropertyOp24
 70
     1
102
RTVSPropertyOp25
 70
     1
102
RTVSPropertyOp26
 70
     1
102
RTVSPropertyOp27
 70
     1
  0
XRECORD
  5
24E6
102
{ACAD_REACTORS
330
24E5
102
}
330
24E5
100
AcDbXrecord
280
     1
102
RTVSPropertyOp0
 70
     1
102
RTVSPropertyOp1
 70
     1
102
RTVSPropertyOp2
 70
     1
102
RTVSPropertyOp3
 70
     1
102
RTVSPropertyOp4
 70
     1
102
RTVSPropertyOp5
 70
     1
102
RTVSPropertyOp6
 70
     1
102
RTVSPropertyOp7
 70
     1
102
RTVSPropertyOp8
 70
     1
102
RTVSPropertyOp9
 70
     1
102
RTVSPropertyOp10
 70
     1
102
RTVSPropertyOp11
 70
     1
102
RTVSPropertyOp12
 70
     1
102
RTVSPropertyOp13
 70
     1
102
RTVSPropertyOp14
 70
     1
102
RTVSPropertyOp15
 70
     1
102
RTVSPropertyOp16
 70
     1
102
RTVSPropertyOp17
 70
     1
102
RTVSPropertyOp18
 70
     1
102
RTVSPropertyOp19
 70
     1
102
RTVSPropertyOp20
 70
     1
102
RTVSPropertyOp21
 70
     1
102
RTVSPropertyOp22
 70
     1
102
RTVSPropertyOp23
 70
     1
102
RTVSPropertyOp24
 70
     1
102
RTVSPropertyOp25
 70
     1
102
RTVSPropertyOp26
 70
     1
102
RTVSPropertyOp27
 70
     1
  0
XRECORD
  5
24F6
102
{ACAD_REACTORS
330
24F5
102
}
330
24F5
100
AcDbXrecord
280
     1
102
RTVSPropertyOp0
 70
     0
102
RTVSPropertyOp1
 70
     0
102
RTVSPropertyOp2
 70
     0
102
RTVSPropertyOp3
 70
     0
102
RTVSPropertyOp4
 70
     0
102
RTVSPropertyOp5
 70
     0
102
RTVSPropertyOp6
 70
     0
102
RTVSPropertyOp7
 70
     0
102
RTVSPropertyOp8
 70
     0
102
RTVSPropertyOp9
 70
     0
102
RTVSPropertyOp10
 70
     0
102
RTVSPropertyOp11
 70
     0
102
RTVSPropertyOp12
 70
     0
102
RTVSPropertyOp13
 70
     0
102
RTVSPropertyOp14
 70
     2
102
RTVSPropertyOp15
 70
     0
102
RTVSPropertyOp16
 70
     0
102
RTVSPropertyOp17
 70
     0
102
RTVSPropertyOp18
 70
     0
102
RTVSPropertyOp19
 70
     0
102
RTVSPropertyOp20
 70
     0
102
RTVSPropertyOp21
 70
     0
102
RTVSPropertyOp22
 70
     0
102
RTVSPropertyOp23
 70
     0
102
RTVSPropertyOp24
 70
     0
102
RTVSPropertyOp25
 70
     0
102
RTVSPropertyOp26
 70
     0
102
RTVSPropertyOp27
 70
     0
  0
XRECORD
  5
24EE
102
{ACAD_REACTORS
330
24ED
102
}
330
24ED
100
AcDbXrecord
280
     1
102
RTVSPropertyOp0
 70
     1
102
RTVSPropertyOp1
 70
     1
102
RTVSPropertyOp2
 70
     1
102
RTVSPropertyOp3
 70
     1
102
RTVSPropertyOp4
 70
     1
102
RTVSPropertyOp5
 70
     1
102
RTVSPropertyOp6
 70
     1
102
RTVSPropertyOp7
 70
     1
102
RTVSPropertyOp8
 70
     1
102
RTVSPropertyOp9
 70
     1
102
RTVSPropertyOp10
 70
     1
102
RTVSPropertyOp11
 70
     1
102
RTVSPropertyOp12
 70
     1
102
RTVSPropertyOp13
 70
     1
102
RTVSPropertyOp14
 70
     1
102
RTVSPropertyOp15
 70
     1
102
RTVSPropertyOp16
 70
     1
102
RTVSPropertyOp17
 70
     1
102
RTVSPropertyOp18
 70
     1
102
RTVSPropertyOp19
 70
     1
102
RTVSPropertyOp20
 70
     1
102
RTVSPropertyOp21
 70
     1
102
RTVSPropertyOp22
 70
     1
102
RTVSPropertyOp23
 70
     1
102
RTVSPropertyOp24
 70
     1
102
RTVSPropertyOp25
 70
     1
102
RTVSPropertyOp26
 70
     1
102
RTVSPropertyOp27
 70
     1
  0
XRECORD
  5
24D2
102
{ACAD_REACTORS
330
24D1
102
}
330
24D1
100
AcDbXrecord
280
     1
102
RTVSPropertyOp0
 70
     1
102
RTVSPropertyOp1
 70
     1
102
RTVSPropertyOp2
 70
     1
102
RTVSPropertyOp3
 70
     1
102
RTVSPropertyOp4
 70
     1
102
RTVSPropertyOp5
 70
     1
102
RTVSPropertyOp6
 70
     1
102
RTVSPropertyOp7
 70
     1
102
RTVSPropertyOp8
 70
     1
102
RTVSPropertyOp9
 70
     1
102
RTVSPropertyOp10
 70
     1
102
RTVSPropertyOp11
 70
     1
102
RTVSPropertyOp12
 70
     1
102
RTVSPropertyOp13
 70
     1
102
RTVSPropertyOp14
 70
     1
102
RTVSPropertyOp15
 70
     1
102
RTVSPropertyOp16
 70
     1
102
RTVSPropertyOp17
 70
     1
102
RTVSPropertyOp18
 70
     1
102
RTVSPropertyOp19
 70
     1
102
RTVSPropertyOp20
 70
     1
102
RTVSPropertyOp21
 70
     1
102
RTVSPropertyOp22
 70
     1
102
RTVSPropertyOp23
 70
     1
102
RTVSPropertyOp24
 70
     1
102
RTVSPropertyOp25
 70
     1
102
RTVSPropertyOp26
 70
     1
102
RTVSPropertyOp27
 70
     1
  0
XRECORD
  5
24D4
102
{ACAD_REACTORS
330
24D3
102
}
330
24D3
100
AcDbXrecord
280
     1
102
RTVSPropertyOp0
 70
     1
102
RTVSPropertyOp1
 70
     1
102
RTVSPropertyOp2
 70
     1
102
RTVSPropertyOp3
 70
     1
102
RTVSPropertyOp4
 70
     1
102
RTVSPropertyOp5
 70
     1
102
RTVSPropertyOp6
 70
     1
102
RTVSPropertyOp7
 70
     1
102
RTVSPropertyOp8
 70
     1
102
RTVSPropertyOp9
 70
     1
102
RTVSPropertyOp10
 70
     1
102
RTVSPropertyOp11
 70
     1
102
RTVSPropertyOp12
 70
     1
102
RTVSPropertyOp13
 70
     1
102
RTVSPropertyOp14
 70
     1
102
RTVSPropertyOp15
 70
     1
102
RTVSPropertyOp16
 70
     1
102
RTVSPropertyOp17
 70
     1
102
RTVSPropertyOp18
 70
     1
102
RTVSPropertyOp19
 70
     1
102
RTVSPropertyOp20
 70
     1
102
RTVSPropertyOp21
 70
     1
102
RTVSPropertyOp22
 70
     1
102
RTVSPropertyOp23
 70
     1
102
RTVSPropertyOp24
 70
     1
102
RTVSPropertyOp25
 70
     1
102
RTVSPropertyOp26
 70
     1
102
RTVSPropertyOp27
 70
     1
  0
XRECORD
  5
24D6
102
{ACAD_REACTORS
330
24D5
102
}
330
24D5
100
AcDbXrecord
280
     1
102
RTVSPropertyOp0
 70
     1
102
RTVSPropertyOp1
 70
     1
102
RTVSPropertyOp2
 70
     1
102
RTVSPropertyOp3
 70
     1
102
RTVSPropertyOp4
 70
     1
102
RTVSPropertyOp5
 70
     1
102
RTVSPropertyOp6
 70
     1
102
RTVSPropertyOp7
 70
     1
102
RTVSPropertyOp8
 70
     1
102
RTVSPropertyOp9
 70
     1
102
RTVSPropertyOp10
 70
     1
102
RTVSPropertyOp11
 70
     1
102
RTVSPropertyOp12
 70
     1
102
RTVSPropertyOp13
 70
     1
102
RTVSPropertyOp14
 70
     1
102
RTVSPropertyOp15
 70
     1
102
RTVSPropertyOp16
 70
     1
102
RTVSPropertyOp17
 70
     1
102
RTVSPropertyOp18
 70
     1
102
RTVSPropertyOp19
 70
     1
102
RTVSPropertyOp20
 70
     1
102
RTVSPropertyOp21
 70
     1
102
RTVSPropertyOp22
 70
     1
102
RTVSPropertyOp23
 70
     1
102
RTVSPropertyOp24
 70
     1
102
RTVSPropertyOp25
 70
     1
102
RTVSPropertyOp26
 70
     1
102
RTVSPropertyOp27
 70
     1
  0
XRECORD
  5
24D8
102
{ACAD_REACTORS
330
24D7
102
}
330
24D7
100
AcDbXrecord
280
     1
102
RTVSPropertyOp0
 70
     1
102
RTVSPropertyOp1
 70
     1
102
RTVSPropertyOp2
 70
     1
102
RTVSPropertyOp3
 70
     1
102
RTVSPropertyOp4
 70
     1
102
RTVSPropertyOp5
 70
     1
102
RTVSPropertyOp6
 70
     1
102
RTVSPropertyOp7
 70
     1
102
RTVSPropertyOp8
 70
     1
102
RTVSPropertyOp9
 70
     1
102
RTVSPropertyOp10
 70
     1
102
RTVSPropertyOp11
 70
     1
102
RTVSPropertyOp12
 70
     1
102
RTVSPropertyOp13
 70
     1
102
RTVSPropertyOp14
 70
     1
102
RTVSPropertyOp15
 70
     1
102
RTVSPropertyOp16
 70
     1
102
RTVSPropertyOp17
 70
     1
102
RTVSPropertyOp18
 70
     1
102
RTVSPropertyOp19
 70
     1
102
RTVSPropertyOp20
 70
     1
102
RTVSPropertyOp21
 70
     1
102
RTVSPropertyOp22
 70
     1
102
RTVSPropertyOp23
 70
     1
102
RTVSPropertyOp24
 70
     1
102
RTVSPropertyOp25
 70
     1
102
RTVSPropertyOp26
 70
     1
102
RTVSPropertyOp27
 70
     1
  0
XRECORD
  5
24F2
102
{ACAD_REACTORS
330
24F1
102
}
330
24F1
100
AcDbXrecord
280
     1
102
RTVSPropertyOp0
 70
     0
102
RTVSPropertyOp1
 70
     0
102
RTVSPropertyOp2
 70
     0
102
RTVSPropertyOp3
 70
     0
102
RTVSPropertyOp4
 70
     0
102
RTVSPropertyOp5
 70
     0
102
RTVSPropertyOp6
 70
     0
102
RTVSPropertyOp7
 70
     0
102
RTVSPropertyOp8
 70
     0
102
RTVSPropertyOp9
 70
     0
102
RTVSPropertyOp10
 70
     0
102
RTVSPropertyOp11
 70
     0
102
RTVSPropertyOp12
 70
     0
102
RTVSPropertyOp13
 70
     0
102
RTVSPropertyOp14
 70
     2
102
RTVSPropertyOp15
 70
     0
102
RTVSPropertyOp16
 70
     0
102
RTVSPropertyOp17
 70
     0
102
RTVSPropertyOp18
 70
     0
102
RTVSPropertyOp19
 70
     0
102
RTVSPropertyOp20
 70
     0
102
RTVSPropertyOp21
 70
     0
102
RTVSPropertyOp22
 70
     0
102
RTVSPropertyOp23
 70
     0
102
RTVSPropertyOp24
 70
     0
102
RTVSPropertyOp25
 70
     0
102
RTVSPropertyOp26
 70
     0
102
RTVSPropertyOp27
 70
     0
  0
XRECORD
  5
24EC
102
{ACAD_REACTORS
330
24EB
102
}
330
24EB
100
AcDbXrecord
280
     1
102
RTVSPropertyOp0
 70
     1
102
RTVSPropertyOp1
 70
     1
102
RTVSPropertyOp2
 70
     1
102
RTVSPropertyOp3
 70
     1
102
RTVSPropertyOp4
 70
     1
102
RTVSPropertyOp5
 70
     1
102
RTVSPropertyOp6
 70
     1
102
RTVSPropertyOp7
 70
     1
102
RTVSPropertyOp8
 70
     1
102
RTVSPropertyOp9
 70
     1
102
RTVSPropertyOp10
 70
     1
102
RTVSPropertyOp11
 70
     1
102
RTVSPropertyOp12
 70
     1
102
RTVSPropertyOp13
 70
     1
102
RTVSPropertyOp14
 70
     1
102
RTVSPropertyOp15
 70
     1
102
RTVSPropertyOp16
 70
     1
102
RTVSPropertyOp17
 70
     1
102
RTVSPropertyOp18
 70
     1
102
RTVSPropertyOp19
 70
     1
102
RTVSPropertyOp20
 70
     1
102
RTVSPropertyOp21
 70
     1
102
RTVSPropertyOp22
 70
     1
102
RTVSPropertyOp23
 70
     1
102
RTVSPropertyOp24
 70
     1
102
RTVSPropertyOp25
 70
     1
102
RTVSPropertyOp26
 70
     1
102
RTVSPropertyOp27
 70
     1
  0
XRECORD
  5
24F4
102
{ACAD_REACTORS
330
24F3
102
}
330
24F3
100
AcDbXrecord
280
     1
102
RTVSPropertyOp0
 70
     0
102
RTVSPropertyOp1
 70
     0
102
RTVSPropertyOp2
 70
     0
102
RTVSPropertyOp3
 70
     0
102
RTVSPropertyOp4
 70
     0
102
RTVSPropertyOp5
 70
     0
102
RTVSPropertyOp6
 70
     0
102
RTVSPropertyOp7
 70
     0
102
RTVSPropertyOp8
 70
     0
102
RTVSPropertyOp9
 70
     0
102
RTVSPropertyOp10
 70
     0
102
RTVSPropertyOp11
 70
     0
102
RTVSPropertyOp12
 70
     0
102
RTVSPropertyOp13
 70
     0
102
RTVSPropertyOp14
 70
     2
102
RTVSPropertyOp15
 70
     0
102
RTVSPropertyOp16
 70
     0
102
RTVSPropertyOp17
 70
     0
102
RTVSPropertyOp18
 70
     0
102
RTVSPropertyOp19
 70
     0
102
RTVSPropertyOp20
 70
     0
102
RTVSPropertyOp21
 70
     0
102
RTVSPropertyOp22
 70
     0
102
RTVSPropertyOp23
 70
     0
102
RTVSPropertyOp24
 70
     0
102
RTVSPropertyOp25
 70
     0
102
RTVSPropertyOp26
 70
     0
102
RTVSPropertyOp27
 70
     0
  0
XRECORD
  5
24E4
102
{ACAD_REACTORS
330
24E3
102
}
330
24E3
100
AcDbXrecord
280
     1
102
RTVSPropertyOp0
 70
     1
102
RTVSPropertyOp1
 70
     1
102
RTVSPropertyOp2
 70
     1
102
RTVSPropertyOp3
 70
     1
102
RTVSPropertyOp4
 70
     1
102
RTVSPropertyOp5
 70
     1
102
RTVSPropertyOp6
 70
     1
102
RTVSPropertyOp7
 70
     1
102
RTVSPropertyOp8
 70
     1
102
RTVSPropertyOp9
 70
     1
102
RTVSPropertyOp10
 70
     1
102
RTVSPropertyOp11
 70
     1
102
RTVSPropertyOp12
 70
     1
102
RTVSPropertyOp13
 70
     1
102
RTVSPropertyOp14
 70
     1
102
RTVSPropertyOp15
 70
     1
102
RTVSPropertyOp16
 70
     1
102
RTVSPropertyOp17
 70
     1
102
RTVSPropertyOp18
 70
     1
102
RTVSPropertyOp19
 70
     1
102
RTVSPropertyOp20
 70
     1
102
RTVSPropertyOp21
 70
     1
102
RTVSPropertyOp22
 70
     1
102
RTVSPropertyOp23
 70
     1
102
RTVSPropertyOp24
 70
     1
102
RTVSPropertyOp25
 70
     1
102
RTVSPropertyOp26
 70
     1
102
RTVSPropertyOp27
 70
     1
  0
XRECORD
  5
24EA
102
{ACAD_REACTORS
330
24E9
102
}
330
24E9
100
AcDbXrecord
280
     1
102
RTVSPropertyOp0
 70
     1
102
RTVSPropertyOp1
 70
     1
102
RTVSPropertyOp2
 70
     1
102
RTVSPropertyOp3
 70
     1
102
RTVSPropertyOp4
 70
     1
102
RTVSPropertyOp5
 70
     1
102
RTVSPropertyOp6
 70
     1
102
RTVSPropertyOp7
 70
     1
102
RTVSPropertyOp8
 70
     1
102
RTVSPropertyOp9
 70
     1
102
RTVSPropertyOp10
 70
     1
102
RTVSPropertyOp11
 70
     1
102
RTVSPropertyOp12
 70
     1
102
RTVSPropertyOp13
 70
     1
102
RTVSPropertyOp14
 70
     1
102
RTVSPropertyOp15
 70
     1
102
RTVSPropertyOp16
 70
     1
102
RTVSPropertyOp17
 70
     1
102
RTVSPropertyOp18
 70
     1
102
RTVSPropertyOp19
 70
     1
102
RTVSPropertyOp20
 70
     1
102
RTVSPropertyOp21
 70
     1
102
RTVSPropertyOp22
 70
     1
102
RTVSPropertyOp23
 70
     1
102
RTVSPropertyOp24
 70
     1
102
RTVSPropertyOp25
 70
     1
102
RTVSPropertyOp26
 70
     1
102
RTVSPropertyOp27
 70
     1
  0
ENDSEC
  0
EOF
