  0
SECTION
  2
HEADER
  9
$CLAYER
  8
1
  9
$LTSCALE
 40
3.0
  0
ENDSEC
  0
SECTION
  2
TABLES
  0
TABLE
  2
LTYPE
 70
     4
  0
LTYPE
  2
CONTINUOUS
  3
solid line
 70
    64
 72
    65
 73
     0
 40
0.0
  0
LTYPE
  2
DASHED
  3
__ __ __ __ __ __ __ __ __ __ __ __ __ __ __
 70
    64
 72
    65
 73
     2
 40
0.75
 49
0.5
 49
-0.25
  0
LTYPE
  2
CENTER
  3
____ _ ____ _ ____ _ ____ _ ____ _ ____ _ ____
 70
    64
 72
    65
 73
     4
 40
2.0
 49
1.25
 49
-0.25
 49
0.25
 49
-0.25
  0
LTYPE
  2
PHANTOM
  3
_____ _ _ _____ _ _ _____ _ _ _____ _ _ ____
 70
    64
 72
    65
 73
     6
 40
2.5
 49
1.25
 49
-0.25
 49
0.25
 49
-0.25
 49
0.25
 49
-0.25
  0
ENDTAB
  0
TABLE
  2
LAYER
 70
     1
  0
LAYER
  2
0
 70
    64
 62
     7
  6
CONTINUOUS
  0
ENDTAB
  0
TABLE
  2
STYLE
 70
     1
  0
STYLE
  2
STANDARD
 70
     0
 40
0.000000
 41
1.000000
 50
0.000000
 71
     0
 42
3.000000
  3
txt
  4
BIGFONT
  0
ENDTAB
  0
ENDSEC
  0
SECTION
  2
BLOCKS
  0
ENDSEC
  0
SECTION
  2
ENTITIES
  0
LINE
  8
0
  6
CONTINUOUS
 10
51.012074
 20
580.240723
 11
60.551262
 21
580.323975
  0
LINE
  8
0
  6
CONTINUOUS
 10
95.529877
 20
586.227539
 11
64.175171
 21
586.227539
  0
LINE
  8
0
  6
CONTINUOUS
 10
97.042656
 20
224.128326
 11
97.042656
 21
184.519318
  0
LINE
  8
0
  6
CONTINUOUS
 10
51.012074
 20
430.240723
 11
60.551262
 21
430.157471
  0
LINE
  8
0
  6
CONTINUOUS
 10
51.011761
 20
219.641464
 11
54.240959
 21
219.669647
  0
LINE
  8
0
  6
CONTINUOUS
 10
51.011761
 20
69.641464
 11
54.240959
 21
69.613281
  0
LINE
  8
0
  6
CONTINUOUS
 10
95.529564
 20
66.654671
 11
57.231949
 21
66.654671
  0
LINE
  8
0
  6
CONTINUOUS
 10
95.529564
 20
225.628265
 11
56.706440
 21
225.628265
  0
LINE
  8
0
  6
CONTINUOUS
 10
95.529877
 20
424.253937
 11
64.175171
 21
424.253937
  0
LINE
  8
0
  6
CONTINUOUS
 10
97.042969
 20
584.727600
 11
97.042969
 21
425.753876
  0
LINE
  8
0
  6
CONTINUOUS
 10
98.042664
 20
84.141495
 11
98.042664
 21
72.641472
  0
LINE
  8
0
  6
CONTINUOUS
 10
104.042641
 20
73.881172
 11
107.042641
 21
75.014534
  0
LINE
  8
0
  6
CONTINUOUS
 10
106.542641
 20
74.825630
 11
106.542641
 21
68.953995
  0
LINE
  8
0
  6
CONTINUOUS
 10
106.342613
 20
74.750069
 11
106.342613
 21
68.953995
  0
LINE
  8
0
  6
CONTINUOUS
 10
106.142647
 20
74.674515
 11
106.142647
 21
68.953995
  0
LINE
  8
0
  6
CONTINUOUS
 10
105.942657
 20
74.598969
 11
105.942657
 21
68.953995
  0
LINE
  8
0
  6
CONTINUOUS
 10
105.742676
 20
74.523415
 11
105.742676
 21
68.953995
  0
LINE
  8
0
  6
CONTINUOUS
 10
105.542641
 20
74.447891
 11
105.542641
 21
68.953995
  0
LINE
  8
0
  6
CONTINUOUS
 10
105.342613
 20
74.372292
 11
105.342613
 21
68.953995
  0
LINE
  8
0
  6
CONTINUOUS
 10
105.142647
 20
74.296768
 11
105.142647
 21
68.953995
  0
LINE
  8
0
  6
CONTINUOUS
 10
104.942657
 20
74.221214
 11
104.942657
 21
68.953995
  0
LINE
  8
0
  6
CONTINUOUS
 10
104.742676
 20
74.145653
 11
104.742676
 21
68.953995
  0
LINE
  8
0
  6
CONTINUOUS
 10
104.542641
 20
74.070068
 11
104.542641
 21
68.953995
  0
LINE
  8
0
  6
CONTINUOUS
 10
103.542641
 20
72.378654
 11
103.542641
 21
66.735229
  0
LINE
  8
0
  6
CONTINUOUS
 10
103.342613
 20
72.462532
 11
103.342613
 21
66.735229
  0
LINE
  8
0
  6
CONTINUOUS
 10
103.142647
 20
72.546394
 11
103.142647
 21
66.735229
  0
LINE
  8
0
  6
CONTINUOUS
 10
102.942657
 20
72.630249
 11
102.942657
 21
66.735229
  0
LINE
  8
0
  6
CONTINUOUS
 10
102.742676
 20
72.714134
 11
102.742676
 21
66.735229
  0
LINE
  8
0
  6
CONTINUOUS
 10
102.542641
 20
72.797989
 11
102.542641
 21
66.735229
  0
LINE
  8
0
  6
CONTINUOUS
 10
102.342613
 20
72.881851
 11
102.342613
 21
66.735229
  0
LINE
  8
0
  6
CONTINUOUS
 10
102.142647
 20
72.965714
 11
102.142647
 21
66.735229
  0
LINE
  8
0
  6
CONTINUOUS
 10
101.942657
 20
73.049629
 11
101.942657
 21
66.735229
  0
LINE
  8
0
  6
CONTINUOUS
 10
101.742676
 20
73.133469
 11
101.742676
 21
66.735229
  0
LINE
  8
0
  6
CONTINUOUS
 10
101.542641
 20
73.217354
 11
101.542641
 21
66.735229
  0
LINE
  8
0
  6
CONTINUOUS
 10
101.042641
 20
73.427010
 11
104.042641
 21
72.168953
  0
LINE
  8
0
  6
CONTINUOUS
 10
101.042641
 20
82.141495
 11
101.042641
 21
73.427010
  0
LINE
  8
0
  6
CONTINUOUS
 10
104.042641
 20
82.141495
 11
104.042641
 21
72.168953
  0
LINE
  8
0
  6
CONTINUOUS
 10
107.042641
 20
82.141495
 11
107.042641
 21
75.014534
  0
LINE
  8
0
  6
CONTINUOUS
 10
99.042641
 20
84.141495
 11
97.042641
 21
84.141495
  0
LINE
  8
0
  6
CONTINUOUS
 10
99.042641
 20
87.141495
 11
97.042641
 21
87.141495
  0
LINE
  8
0
  6
CONTINUOUS
 10
99.042641
 20
90.141495
 11
97.042641
 21
90.141495
  0
LINE
  8
0
  6
CONTINUOUS
 10
217.042664
 20
194.641479
 11
102.042664
 21
194.641479
  0
LINE
  8
0
  6
CONTINUOUS
 10
217.042664
 20
192.641479
 11
102.042664
 21
192.641479
  0
LINE
  8
0
  6
CONTINUOUS
 10
217.042664
 20
201.441467
 11
102.042664
 21
201.441467
  0
LINE
  8
0
  6
CONTINUOUS
 10
217.042664
 20
199.441467
 11
102.042664
 21
199.441467
  0
LINE
  8
0
  6
CONTINUOUS
 10
217.042664
 20
207.941467
 11
102.042664
 21
207.941467
  0
LINE
  8
0
  6
CONTINUOUS
 10
217.042664
 20
205.941467
 11
102.042664
 21
205.941467
  0
LINE
  8
0
  6
CONTINUOUS
 10
217.042664
 20
214.441467
 11
102.042664
 21
214.441467
  0
LINE
  8
0
  6
CONTINUOUS
 10
217.042664
 20
212.441467
 11
102.042664
 21
212.441467
  0
LINE
  8
0
  6
CONTINUOUS
 10
102.042664
 20
215.696320
 11
217.042664
 21
215.696320
  0
LINE
  8
0
  6
CONTINUOUS
 10
102.587067
 20
220.641479
 11
216.498260
 21
220.641479
  0
LINE
  8
0
  6
CONTINUOUS
 10
217.042664
 20
149.841476
 11
185.542664
 21
149.841476
  0
LINE
  8
0
  6
CONTINUOUS
 10
217.042664
 20
151.841476
 11
185.542664
 21
151.841476
  0
LINE
  8
0
  6
CONTINUOUS
 10
217.042664
 20
159.441467
 11
185.542664
 21
159.441467
  0
LINE
  8
0
  6
CONTINUOUS
 10
217.042664
 20
157.441452
 11
185.542664
 21
157.441452
  0
LINE
  8
0
  6
CONTINUOUS
 10
217.042664
 20
167.041473
 11
185.542664
 21
167.041473
  0
LINE
  8
0
  6
CONTINUOUS
 10
217.042664
 20
165.041473
 11
185.542664
 21
165.041473
  0
LINE
  8
0
  6
CONTINUOUS
 10
217.042664
 20
172.641479
 11
185.542664
 21
172.641479
  0
LINE
  8
0
  6
CONTINUOUS
 10
217.042664
 20
116.641464
 11
185.542664
 21
116.641464
  0
LINE
  8
0
  6
CONTINUOUS
 10
217.042664
 20
124.241470
 11
185.542664
 21
124.241470
  0
LINE
  8
0
  6
CONTINUOUS
 10
217.042664
 20
122.241470
 11
185.542664
 21
122.241470
  0
LINE
  8
0
  6
CONTINUOUS
 10
217.042664
 20
131.841476
 11
185.542664
 21
131.841476
  0
LINE
  8
0
  6
CONTINUOUS
 10
217.042664
 20
129.841476
 11
185.542664
 21
129.841476
  0
LINE
  8
0
  6
CONTINUOUS
 10
217.042664
 20
137.441452
 11
185.542664
 21
137.441452
  0
LINE
  8
0
  6
CONTINUOUS
 10
217.042664
 20
139.441452
 11
185.542664
 21
139.441452
  0
LINE
  8
0
  6
CONTINUOUS
 10
217.042664
 20
174.641479
 11
181.542770
 21
174.641479
  0
LINE
  8
0
  6
CONTINUOUS
 10
217.042664
 20
182.241486
 11
179.691132
 21
182.241486
  0
LINE
  8
0
  6
CONTINUOUS
 10
217.042664
 20
180.241486
 11
180.859406
 21
180.241486
  0
LINE
  8
0
  6
CONTINUOUS
 10
217.042664
 20
96.641464
 11
102.042664
 21
96.641464
  0
LINE
  8
0
  6
CONTINUOUS
 10
217.042664
 20
109.041458
 11
180.859406
 21
109.041458
  0
LINE
  8
0
  6
CONTINUOUS
 10
217.042664
 20
107.041458
 11
179.691132
 21
107.041458
  0
LINE
  8
0
  6
CONTINUOUS
 10
217.042664
 20
114.641464
 11
181.542770
 21
114.641464
  0
LINE
  8
0
  6
CONTINUOUS
 10
217.042664
 20
83.341484
 11
106.952126
 21
83.341484
  0
LINE
  8
0
  6
CONTINUOUS
 10
217.042664
 20
89.841484
 11
102.042664
 21
89.841484
  0
LINE
  8
0
  6
CONTINUOUS
 10
217.042664
 20
87.841484
 11
104.656029
 21
87.841484
  0
LINE
  8
0
  6
CONTINUOUS
 10
217.042664
 20
94.641472
 11
102.042664
 21
94.641472
  0
LINE
  8
0
  6
CONTINUOUS
 10
104.042641
 20
73.586632
 11
217.042664
 21
73.586632
  0
LINE
  8
0
  6
CONTINUOUS
 10
217.042664
 20
76.841484
 11
107.042641
 21
76.841484
  0
LINE
  8
0
  6
CONTINUOUS
 10
217.042664
 20
74.841484
 11
106.584572
 21
74.841484
  0
LINE
  8
0
  6
CONTINUOUS
 10
217.042664
 20
81.341484
 11
107.042641
 21
81.341484
  0
LINE
  8
0
  6
CONTINUOUS
 10
102.587067
 20
68.641472
 11
216.498260
 21
68.641472
  0
LINE
  8
0
  6
CONTINUOUS
 10
238.042664
 20
72.641472
 11
218.881775
 21
72.641472
  0
LINE
  8
0
  6
CONTINUOUS
 10
217.483063
 20
69.467827
 11
217.896957
 21
71.815117
  0
LINE
  8
0
  6
CONTINUOUS
 10
218.042664
 20
75.841484
 11
218.042664
 21
72.185440
  0
LINE
  8
0
  6
CONTINUOUS
 10
238.042664
 20
216.641479
 11
218.881775
 21
216.641479
  0
LINE
  8
0
  6
CONTINUOUS
 10
218.042664
 20
213.441467
 11
218.042664
 21
217.097504
  0
LINE
  8
0
  6
CONTINUOUS
 10
217.483063
 20
219.815125
 11
217.896957
 21
217.467834
  0
LINE
  8
0
  6
CONTINUOUS
 10
98.042664
 20
216.641479
 11
98.042664
 21
184.999252
  0
LINE
  8
0
  6
CONTINUOUS
 10
100.203552
 20
72.641472
 11
98.042664
 21
72.641472
  0
LINE
  8
0
  6
CONTINUOUS
 10
101.602257
 20
69.467827
 11
101.188370
 21
71.815117
  0
LINE
  8
0
  6
CONTINUOUS
 10
101.042664
 20
75.841484
 11
101.042664
 21
72.185440
  0
LINE
  8
0
  6
CONTINUOUS
 10
184.542664
 20
120.241470
 11
184.542664
 21
119.641464
  0
LINE
  8
0
  6
CONTINUOUS
 10
184.542664
 20
135.441452
 11
184.542664
 21
133.841476
  0
LINE
  8
0
  6
CONTINUOUS
 10
184.542664
 20
127.841476
 11
184.542664
 21
126.241470
  0
LINE
  8
0
  6
CONTINUOUS
 10
184.542664
 20
147.841476
 11
184.542664
 21
141.441452
  0
LINE
  8
0
  6
CONTINUOUS
 10
184.542664
 20
155.441452
 11
184.542664
 21
153.841476
  0
LINE
  8
0
  6
CONTINUOUS
 10
184.542664
 20
169.641479
 11
184.542664
 21
169.041473
  0
LINE
  8
0
  6
CONTINUOUS
 10
184.542664
 20
163.041473
 11
184.542664
 21
161.441467
  0
LINE
  8
0
  6
CONTINUOUS
 10
101.042664
 20
213.441467
 11
101.042664
 21
217.097504
  0
LINE
  8
0
  6
CONTINUOUS
 10
100.203552
 20
216.641479
 11
98.042664
 21
216.641479
  0
LINE
  8
0
  6
CONTINUOUS
 10
101.602257
 20
219.815125
 11
101.188370
 21
217.467834
  0
LINE
  8
0
  6
CONTINUOUS
 10
97.042656
 20
74.141479
 11
98.042656
 21
74.141479
  0
LINE
  8
0
  6
CONTINUOUS
 10
97.042656
 20
215.141479
 11
98.042656
 21
215.141479
  0
LINE
  8
0
  6
CONTINUOUS
 10
101.042969
 20
477.362061
 11
101.042969
 21
533.119385
  0
LINE
  8
0
  6
CONTINUOUS
 10
101.263641
 20
432.042877
 11
101.188660
 21
432.414368
  0
LINE
  8
0
  6
CONTINUOUS
 10
185.976166
 20
428.194427
 11
216.227203
 21
428.194427
  0
LINE
  8
0
  6
CONTINUOUS
 10
186.327164
 20
426.455383
 11
215.876190
 21
426.455383
  0
LINE
  8
0
  6
CONTINUOUS
 10
185.542923
 20
426.286560
 11
184.542969
 21
431.240723
  0
LINE
  8
0
  6
CONTINUOUS
 10
100.203857
 20
433.240723
 11
98.042969
 21
433.240723
  0
LINE
  8
0
  6
CONTINUOUS
 10
184.542969
 20
431.240723
 11
102.243874
 21
431.240723
  0
LINE
  8
0
  6
CONTINUOUS
 10
102.531113
 20
435.056793
 11
101.042969
 21
443.496399
  0
LINE
  8
0
  6
CONTINUOUS
 10
102.857986
 20
443.099365
 11
101.042969
 21
453.392792
  0
LINE
  8
0
  6
CONTINUOUS
 10
103.174255
 20
449.144287
 11
101.042969
 21
461.231415
  0
LINE
  8
0
  6
CONTINUOUS
 10
103.415833
 20
458.134064
 11
101.042969
 21
471.591187
  0
LINE
  8
0
  6
CONTINUOUS
 10
102.254662
 20
470.490204
 11
101.042969
 21
477.362061
  0
LINE
  8
0
  6
CONTINUOUS
 10
216.680542
 20
431.582397
 11
218.042969
 21
439.309143
  0
LINE
  8
0
  6
CONTINUOUS
 10
216.554840
 20
435.056793
 11
218.042969
 21
443.496399
  0
LINE
  8
0
  6
CONTINUOUS
 10
216.227966
 20
443.099365
 11
218.042969
 21
453.392792
  0
LINE
  8
0
  6
CONTINUOUS
 10
215.911682
 20
449.144287
 11
218.042969
 21
461.231415
  0
LINE
  8
0
  6
CONTINUOUS
 10
215.670120
 20
458.134064
 11
218.042969
 21
471.591187
  0
LINE
  8
0
  6
CONTINUOUS
 10
216.831268
 20
470.490204
 11
218.042969
 21
477.362061
  0
LINE
  8
0
  6
CONTINUOUS
 10
101.042969
 20
477.362061
 11
218.042969
 21
477.362061
  0
LINE
  8
0
  6
CONTINUOUS
 10
215.846466
 20
469.663849
 11
103.239471
 21
469.663849
  0
LINE
  8
0
  6
CONTINUOUS
 10
214.685303
 20
457.307709
 11
104.400635
 21
457.307709
  0
LINE
  8
0
  6
CONTINUOUS
 10
214.926880
 20
448.317932
 11
104.159065
 21
448.317932
  0
LINE
  8
0
  6
CONTINUOUS
 10
215.243149
 20
442.273010
 11
103.842789
 21
442.273010
  0
LINE
  8
0
  6
CONTINUOUS
 10
103.515907
 20
434.230438
 11
215.570038
 21
434.230438
  0
LINE
  8
0
  6
CONTINUOUS
 10
215.695724
 20
430.756042
 11
184.640793
 21
430.756042
  0
LINE
  8
0
  6
CONTINUOUS
 10
215.680206
 20
425.484406
 11
186.523148
 21
425.484406
  0
LINE
  8
0
  6
CONTINUOUS
 10
216.660446
 20
426.286560
 11
217.897278
 21
432.414368
  0
LINE
  8
0
  6
CONTINUOUS
 10
102.858742
 20
582.287048
 11
216.227203
 21
582.287048
  0
LINE
  8
0
  6
CONTINUOUS
 10
102.405411
 20
578.899048
 11
101.042969
 21
571.172302
  0
LINE
  8
0
  6
CONTINUOUS
 10
102.531113
 20
575.424683
 11
101.042969
 21
566.985046
  0
LINE
  8
0
  6
CONTINUOUS
 10
102.857986
 20
567.382080
 11
101.042969
 21
557.088684
  0
LINE
  8
0
  6
CONTINUOUS
 10
103.174255
 20
561.337158
 11
101.042969
 21
549.250061
  0
LINE
  8
0
  6
CONTINUOUS
 10
103.415833
 20
552.347412
 11
101.042969
 21
538.890259
  0
LINE
  8
0
  6
CONTINUOUS
 10
102.254662
 20
539.991272
 11
101.042969
 21
533.119385
  0
LINE
  8
0
  6
CONTINUOUS
 10
102.425507
 20
584.194885
 11
101.188660
 21
578.067078
  0
LINE
  8
0
  6
CONTINUOUS
 10
216.680542
 20
578.899048
 11
218.042969
 21
571.172302
  0
LINE
  8
0
  6
CONTINUOUS
 10
216.554840
 20
575.424683
 11
218.042969
 21
566.985046
  0
LINE
  8
0
  6
CONTINUOUS
 10
216.227966
 20
567.382080
 11
218.042969
 21
557.088684
  0
LINE
  8
0
  6
CONTINUOUS
 10
215.911682
 20
561.337158
 11
218.042969
 21
549.250061
  0
LINE
  8
0
  6
CONTINUOUS
 10
215.670120
 20
552.347412
 11
218.042969
 21
538.890259
  0
LINE
  8
0
  6
CONTINUOUS
 10
216.831268
 20
539.991272
 11
218.042969
 21
533.119385
  0
LINE
  8
0
  6
CONTINUOUS
 10
101.042969
 20
533.119385
 11
218.042969
 21
533.119385
  0
LINE
  8
0
  6
CONTINUOUS
 10
215.846466
 20
540.817627
 11
103.239471
 21
540.817627
  0
LINE
  8
0
  6
CONTINUOUS
 10
214.685303
 20
553.173767
 11
104.400635
 21
553.173767
  0
LINE
  8
0
  6
CONTINUOUS
 10
214.926880
 20
562.163513
 11
104.159065
 21
562.163513
  0
LINE
  8
0
  6
CONTINUOUS
 10
215.243149
 20
568.208435
 11
103.842789
 21
568.208435
  0
LINE
  8
0
  6
CONTINUOUS
 10
215.570038
 20
576.251038
 11
103.515907
 21
576.251038
  0
LINE
  8
0
  6
CONTINUOUS
 10
215.695724
 20
579.725403
 11
103.390221
 21
579.725403
  0
LINE
  8
0
  6
CONTINUOUS
 10
103.209747
 20
584.026062
 11
215.876190
 21
584.026062
  0
LINE
  8
0
  6
CONTINUOUS
 10
215.680206
 20
584.997070
 11
103.405731
 21
584.997070
  0
LINE
  8
0
  6
CONTINUOUS
 10
98.042969
 20
577.240723
 11
98.042969
 21
433.240723
  0
LINE
  8
0
  6
CONTINUOUS
 10
100.203857
 20
577.240723
 11
98.042969
 21
577.240723
  0
LINE
  8
0
  6
CONTINUOUS
 10
238.042969
 20
433.240723
 11
218.882080
 21
433.240723
  0
LINE
  8
0
  6
CONTINUOUS
 10
238.042969
 20
577.240723
 11
218.882080
 21
577.240723
  0
LINE
  8
0
  6
CONTINUOUS
 10
218.042969
 20
477.362061
 11
218.042969
 21
533.119385
  0
LINE
  8
0
  6
CONTINUOUS
 10
216.660446
 20
584.194885
 11
217.897278
 21
578.067078
  0
LINE
  8
0
  6
CONTINUOUS
 10
97.042969
 20
434.740723
 11
98.042969
 21
434.740723
  0
LINE
  8
0
  6
CONTINUOUS
 10
97.042969
 20
575.740723
 11
98.042969
 21
575.740723
  0
LINE
  8
0
  6
CONTINUOUS
 10
97.042969
 20
575.740723
 11
98.042969
 21
575.740723
  0
ARC
  8
0
  6
CONTINUOUS
 10
95.542969
 20
584.727600
 40
1.500000
 50
0.000000
 51
90.500000
  0
ARC
  8
0
  6
CONTINUOUS
 10
64.175171
 20
584.227539
 40
2.000000
 50
90.000000
 51
168.553116
  0
ARC
  8
0
  6
CONTINUOUS
 10
60.542534
 20
581.323975
 40
1.000000
 50
270.500000
 51
349.062744
  0
ARC
  8
0
  6
CONTINUOUS
 10
51.012074
 20
565.240723
 40
15.000000
 50
90.000000
 51
171.480377
  0
ARC
  8
0
  6
CONTINUOUS
 10
95.542969
 20
425.753876
 40
1.500000
 50
-90.500000
 51
0.000000
  0
ARC
  8
0
  6
CONTINUOUS
 10
95.542656
 20
224.128326
 40
1.500000
 50
0.000000
 51
90.500000
  0
ARC
  8
0
  6
CONTINUOUS
 10
95.542656
 20
68.154610
 40
1.500000
 50
-90.500000
 51
0.000000
  0
ARC
  8
0
  6
CONTINUOUS
 10
60.542534
 20
429.157501
 40
1.000000
 50
10.937243
 51
89.500000
  0
ARC
  8
0
  6
CONTINUOUS
 10
64.175171
 20
426.253937
 40
2.000000
 50
191.446884
 51
270.000000
  0
ARC
  8
0
  6
CONTINUOUS
 10
51.012074
 20
445.240723
 40
15.000000
 50
188.519623
 51
270.000000
  0
ARC
  8
0
  6
CONTINUOUS
 10
56.706440
 20
223.628265
 40
2.000000
 50
90.000000
 51
191.331467
  0
ARC
  8
0
  6
CONTINUOUS
 10
54.232231
 20
220.669617
 40
1.000000
 50
-89.500000
 51
10.984692
  0
ARC
  8
0
  6
CONTINUOUS
 10
57.231949
 20
68.654671
 40
2.000000
 50
180.789703
 51
270.000000
  0
ARC
  8
0
  6
CONTINUOUS
 10
54.232231
 20
68.613319
 40
1.000000
 50
0.789699
 51
89.500000
  0
ARC
  8
0
  6
CONTINUOUS
 10
51.011761
 20
84.641464
 40
15.000000
 50
188.519623
 51
270.000000
  0
ARC
  8
0
  6
CONTINUOUS
 10
451.542664
 20
144.641464
 40
420.000000
 50
171.480377
 51
188.519623
  0
ARC
  8
0
  6
CONTINUOUS
 10
51.011761
 20
204.641464
 40
15.000000
 50
90.000000
 51
171.480377
  0
ARC
  8
0
  6
CONTINUOUS
 10
-337.457336
 20
144.641464
 40
400.000000
 50
-10.968414
 51
11.331461
  0
ARC
  8
0
  6
CONTINUOUS
 10
454.258606
 20
505.240723
 40
400.000000
 50
168.553116
 51
191.446884
  0
ARC
  8
0
  6
CONTINUOUS
 10
451.542969
 20
505.240723
 40
420.000000
 50
171.480377
 51
188.519623
  0
ARC
  8
0
  6
CONTINUOUS
 10
99.042641
 20
82.141495
 40
8.000000
 50
0.000000
 51
90.000000
  0
ARC
  8
0
  6
CONTINUOUS
 10
99.042641
 20
82.141495
 40
5.000000
 50
0.000000
 51
90.000000
  0
ARC
  8
0
  6
CONTINUOUS
 10
99.042641
 20
82.141495
 40
2.000000
 50
0.000000
 51
90.000000
  0
ARC
  8
0
  6
CONTINUOUS
 10
186.470871
 20
170.641479
 40
2.000000
 50
90.000000
 51
188.213196
  0
ARC
  8
0
  6
CONTINUOUS
 10
186.542664
 20
169.041473
 40
2.000000
 50
180.000000
 51
270.000000
  0
ARC
  8
0
  6
CONTINUOUS
 10
186.542664
 20
161.441467
 40
2.000000
 50
180.000000
 51
270.000000
  0
ARC
  8
0
  6
CONTINUOUS
 10
186.542664
 20
155.441452
 40
2.000000
 50
90.000000
 51
180.000000
  0
ARC
  8
0
  6
CONTINUOUS
 10
186.542664
 20
147.841476
 40
2.000000
 50
90.000000
 51
180.000000
  0
ARC
  8
0
  6
CONTINUOUS
 10
186.542664
 20
153.841476
 40
2.000000
 50
180.000000
 51
270.000000
  0
ARC
  8
0
  6
CONTINUOUS
 10
186.542664
 20
163.041473
 40
2.000000
 50
90.000000
 51
180.000000
  0
ARC
  8
0
  6
CONTINUOUS
 10
186.542664
 20
133.841476
 40
2.000000
 50
180.000000
 51
270.000000
  0
ARC
  8
0
  6
CONTINUOUS
 10
186.542664
 20
135.441452
 40
2.000000
 50
90.000000
 51
180.000000
  0
ARC
  8
0
  6
CONTINUOUS
 10
186.542664
 20
126.241470
 40
2.000000
 50
180.000000
 51
270.000000
  0
ARC
  8
0
  6
CONTINUOUS
 10
186.542664
 20
120.241470
 40
2.000000
 50
90.000000
 51
180.000000
  0
ARC
  8
0
  6
CONTINUOUS
 10
186.542664
 20
127.841476
 40
2.000000
 50
90.000000
 51
180.000000
  0
ARC
  8
0
  6
CONTINUOUS
 10
186.470871
 20
118.641464
 40
2.000000
 50
171.786789
 51
270.000000
  0
ARC
  8
0
  6
CONTINUOUS
 10
186.542664
 20
141.441452
 40
2.000000
 50
180.000000
 51
270.000000
  0
ARC
  8
0
  6
CONTINUOUS
 10
217.042664
 20
88.841484
 40
1.000000
 50
-90.000000
 51
90.000000
  0
ARC
  8
0
  6
CONTINUOUS
 10
217.042664
 20
74.586632
 40
1.000000
 50
-90.000000
 51
0.000000
  0
ARC
  8
0
  6
CONTINUOUS
 10
217.042664
 20
75.841484
 40
1.000000
 50
-90.000000
 51
90.000000
  0
ARC
  8
0
  6
CONTINUOUS
 10
216.498260
 20
69.641472
 40
1.000000
 50
270.000000
 51
350.000000
  0
ARC
  8
0
  6
CONTINUOUS
 10
218.881775
 20
71.641472
 40
1.000000
 50
90.000000
 51
170.000000
  0
ARC
  8
0
  6
CONTINUOUS
 10
217.042664
 20
82.341484
 40
1.000000
 50
-90.000000
 51
90.000000
  0
ARC
  8
0
  6
CONTINUOUS
 10
217.042664
 20
95.641464
 40
1.000000
 50
-90.000000
 51
90.000000
  0
ARC
  8
0
  6
CONTINUOUS
 10
217.042664
 20
108.041458
 40
1.000000
 50
-90.000000
 51
90.000000
  0
ARC
  8
0
  6
CONTINUOUS
 10
217.042664
 20
158.441452
 40
1.000000
 50
-90.000000
 51
90.000000
  0
ARC
  8
0
  6
CONTINUOUS
 10
217.042664
 20
123.241470
 40
1.000000
 50
-90.000000
 51
90.000000
  0
ARC
  8
0
  6
CONTINUOUS
 10
217.042664
 20
115.641464
 40
1.000000
 50
-90.000000
 51
90.000000
  0
ARC
  8
0
  6
CONTINUOUS
 10
217.042664
 20
130.841476
 40
1.000000
 50
-90.000000
 51
90.000000
  0
ARC
  8
0
  6
CONTINUOUS
 10
217.042664
 20
138.441452
 40
1.000000
 50
-90.000000
 51
90.000000
  0
ARC
  8
0
  6
CONTINUOUS
 10
217.042664
 20
150.841476
 40
1.000000
 50
-90.000000
 51
90.000000
  0
ARC
  8
0
  6
CONTINUOUS
 10
217.042664
 20
181.241486
 40
1.000000
 50
-90.000000
 51
90.000000
  0
ARC
  8
0
  6
CONTINUOUS
 10
217.042664
 20
166.041473
 40
1.000000
 50
-90.000000
 51
90.000000
  0
ARC
  8
0
  6
CONTINUOUS
 10
217.042664
 20
173.641479
 40
1.000000
 50
-90.000000
 51
90.000000
  0
ARC
  8
0
  6
CONTINUOUS
 10
217.042664
 20
193.641479
 40
1.000000
 50
-90.000000
 51
90.000000
  0
ARC
  8
0
  6
CONTINUOUS
 10
217.042664
 20
200.441467
 40
1.000000
 50
-90.000000
 51
90.000000
  0
ARC
  8
0
  6
CONTINUOUS
 10
218.881775
 20
217.641479
 40
1.000000
 50
190.000000
 51
270.000000
  0
ARC
  8
0
  6
CONTINUOUS
 10
217.042664
 20
213.441467
 40
1.000000
 50
-90.000000
 51
90.000000
  0
ARC
  8
0
  6
CONTINUOUS
 10
217.042664
 20
214.696320
 40
1.000000
 50
0.000000
 51
90.000000
  0
ARC
  8
0
  6
CONTINUOUS
 10
217.042664
 20
206.941467
 40
1.000000
 50
-90.000000
 51
90.000000
  0
ARC
  8
0
  6
CONTINUOUS
 10
216.498260
 20
219.641479
 40
1.000000
 50
10.000000
 51
90.000000
  0
ARC
  8
0
  6
CONTINUOUS
 10
102.042664
 20
88.841484
 40
1.000000
 50
90.000000
 51
117.527046
  0
ARC
  8
0
  6
CONTINUOUS
 10
100.203552
 20
71.641472
 40
1.000000
 50
10.000000
 51
90.000000
  0
ARC
  8
0
  6
CONTINUOUS
 10
102.587067
 20
69.641472
 40
1.000000
 50
190.000000
 51
270.000000
  0
ARC
  8
0
  6
CONTINUOUS
 10
102.042664
 20
95.641464
 40
1.000000
 50
90.000000
 51
270.000000
  0
ARC
  8
0
  6
CONTINUOUS
 10
185.542664
 20
158.441452
 40
1.000000
 50
90.000000
 51
270.000000
  0
ARC
  8
0
  6
CONTINUOUS
 10
185.542664
 20
123.241470
 40
1.000000
 50
90.000000
 51
270.000000
  0
ARC
  8
0
  6
CONTINUOUS
 10
179.542664
 20
119.641464
 40
5.000000
 50
-8.213196
 51
0.000000
  0
ARC
  8
0
  6
CONTINUOUS
 10
185.542664
 20
115.641464
 40
1.000000
 50
90.000000
 51
270.000000
  0
ARC
  8
0
  6
CONTINUOUS
 10
185.542664
 20
130.841476
 40
1.000000
 50
90.000000
 51
270.000000
  0
ARC
  8
0
  6
CONTINUOUS
 10
185.542664
 20
138.441452
 40
1.000000
 50
90.000000
 51
270.000000
  0
ARC
  8
0
  6
CONTINUOUS
 10
185.542664
 20
150.841476
 40
1.000000
 50
90.000000
 51
270.000000
  0
ARC
  8
0
  6
CONTINUOUS
 10
179.542664
 20
169.641479
 40
5.000000
 50
0.000000
 51
8.213211
  0
ARC
  8
0
  6
CONTINUOUS
 10
185.542664
 20
166.041473
 40
1.000000
 50
90.000000
 51
270.000000
  0
ARC
  8
0
  6
CONTINUOUS
 10
185.542664
 20
173.641479
 40
1.000000
 50
90.000000
 51
270.000000
  0
ARC
  8
0
  6
CONTINUOUS
 10
102.042664
 20
193.641479
 40
1.000000
 50
90.000000
 51
270.000000
  0
ARC
  8
0
  6
CONTINUOUS
 10
102.042664
 20
200.441467
 40
1.000000
 50
90.000000
 51
270.000000
  0
ARC
  8
0
  6
CONTINUOUS
 10
100.203552
 20
217.641479
 40
1.000000
 50
270.000000
 51
350.000000
  0
ARC
  8
0
  6
CONTINUOUS
 10
102.042664
 20
214.696320
 40
1.000000
 50
90.000000
 51
180.000000
  0
ARC
  8
0
  6
CONTINUOUS
 10
102.042664
 20
213.441467
 40
1.000000
 50
90.000000
 51
270.000000
  0
ARC
  8
0
  6
CONTINUOUS
 10
102.042664
 20
206.941467
 40
1.000000
 50
90.000000
 51
270.000000
  0
ARC
  8
0
  6
CONTINUOUS
 10
102.587067
 20
219.641479
 40
1.000000
 50
90.000000
 51
170.000000
  0
ARC
  8
0
  6
CONTINUOUS
 10
102.243874
 20
432.240723
 40
1.000000
 50
191.411255
 51
270.000000
  0
ARC
  8
0
  6
CONTINUOUS
 10
186.327164
 20
427.455383
 40
1.000000
 50
191.411255
 51
270.000000
  0
ARC
  8
0
  6
CONTINUOUS
 10
185.976166
 20
429.194427
 40
1.000000
 50
191.411255
 51
270.000000
  0
ARC
  8
0
  6
CONTINUOUS
 10
186.523148
 20
426.484406
 40
1.000000
 50
191.411255
 51
270.000000
  0
ARC
  8
0
  6
CONTINUOUS
 10
103.515907
 20
435.230438
 40
1.000000
 50
190.000000
 51
270.000000
  0
ARC
  8
0
  6
CONTINUOUS
 10
103.842789
 20
443.273010
 40
1.000000
 50
190.000000
 51
270.000000
  0
ARC
  8
0
  6
CONTINUOUS
 10
104.159065
 20
449.317932
 40
1.000000
 50
190.000000
 51
270.000000
  0
ARC
  8
0
  6
CONTINUOUS
 10
104.400635
 20
458.307709
 40
1.000000
 50
190.000000
 51
270.000000
  0
ARC
  8
0
  6
CONTINUOUS
 10
103.239471
 20
470.663849
 40
1.000000
 50
190.000000
 51
270.000000
  0
ARC
  8
0
  6
CONTINUOUS
 10
100.203857
 20
432.240723
 40
1.000000
 50
10.000000
 51
90.000000
  0
ARC
  8
0
  6
CONTINUOUS
 10
215.695724
 20
431.756042
 40
1.000000
 50
270.000000
 51
350.000000
  0
ARC
  8
0
  6
CONTINUOUS
 10
215.570038
 20
435.230438
 40
1.000000
 50
270.000000
 51
350.000000
  0
ARC
  8
0
  6
CONTINUOUS
 10
215.243149
 20
443.273010
 40
1.000000
 50
270.000000
 51
350.000000
  0
ARC
  8
0
  6
CONTINUOUS
 10
214.926880
 20
449.317932
 40
1.000000
 50
270.000000
 51
350.000000
  0
ARC
  8
0
  6
CONTINUOUS
 10
214.685303
 20
458.307709
 40
1.000000
 50
270.000000
 51
350.000000
  0
ARC
  8
0
  6
CONTINUOUS
 10
215.846466
 20
470.663849
 40
1.000000
 50
270.000000
 51
350.000000
  0
ARC
  8
0
  6
CONTINUOUS
 10
215.876190
 20
427.455383
 40
1.000000
 50
270.000000
 51
348.588745
  0
ARC
  8
0
  6
CONTINUOUS
 10
216.227203
 20
429.194427
 40
1.000000
 50
270.000000
 51
348.588745
  0
ARC
  8
0
  6
CONTINUOUS
 10
215.680206
 20
426.484406
 40
1.000000
 50
270.000000
 51
348.588745
  0
ARC
  8
0
  6
CONTINUOUS
 10
218.882080
 20
432.240723
 40
1.000000
 50
90.000000
 51
170.000000
  0
ARC
  8
0
  6
CONTINUOUS
 10
103.390221
 20
578.725403
 40
1.000000
 50
90.000000
 51
170.000000
  0
ARC
  8
0
  6
CONTINUOUS
 10
103.515907
 20
575.251038
 40
1.000000
 50
90.000000
 51
170.000000
  0
ARC
  8
0
  6
CONTINUOUS
 10
103.842789
 20
567.208435
 40
1.000000
 50
90.000000
 51
170.000000
  0
ARC
  8
0
  6
CONTINUOUS
 10
104.159065
 20
561.163513
 40
1.000000
 50
90.000000
 51
170.000000
  0
ARC
  8
0
  6
CONTINUOUS
 10
104.400635
 20
552.173767
 40
1.000000
 50
90.000000
 51
170.000000
  0
ARC
  8
0
  6
CONTINUOUS
 10
103.239471
 20
539.817627
 40
1.000000
 50
90.000000
 51
170.000000
  0
ARC
  8
0
  6
CONTINUOUS
 10
103.209747
 20
583.026062
 40
1.000000
 50
90.000000
 51
168.588745
  0
ARC
  8
0
  6
CONTINUOUS
 10
102.858742
 20
581.287048
 40
1.000000
 50
90.000000
 51
168.588745
  0
ARC
  8
0
  6
CONTINUOUS
 10
103.405731
 20
583.997070
 40
1.000000
 50
90.000000
 51
168.588745
  0
ARC
  8
0
  6
CONTINUOUS
 10
100.203857
 20
578.240723
 40
1.000000
 50
270.000000
 51
350.000000
  0
ARC
  8
0
  6
CONTINUOUS
 10
215.695724
 20
578.725403
 40
1.000000
 50
10.000000
 51
90.000000
  0
ARC
  8
0
  6
CONTINUOUS
 10
215.570038
 20
575.251038
 40
1.000000
 50
10.000000
 51
90.000000
  0
ARC
  8
0
  6
CONTINUOUS
 10
215.243149
 20
567.208435
 40
1.000000
 50
10.000000
 51
90.000000
  0
ARC
  8
0
  6
CONTINUOUS
 10
214.926880
 20
561.163513
 40
1.000000
 50
10.000000
 51
90.000000
  0
ARC
  8
0
  6
CONTINUOUS
 10
214.685303
 20
552.173767
 40
1.000000
 50
10.000000
 51
90.000000
  0
ARC
  8
0
  6
CONTINUOUS
 10
215.846466
 20
539.817627
 40
1.000000
 50
10.000000
 51
90.000000
  0
ARC
  8
0
  6
CONTINUOUS
 10
215.876190
 20
583.026062
 40
1.000000
 50
11.411255
 51
90.000000
  0
ARC
  8
0
  6
CONTINUOUS
 10
216.227203
 20
581.287048
 40
1.000000
 50
11.411255
 51
90.000000
  0
ARC
  8
0
  6
CONTINUOUS
 10
215.680206
 20
583.997070
 40
1.000000
 50
11.411255
 51
90.000000
  0
ARC
  8
0
  6
CONTINUOUS
 10
218.882080
 20
578.240723
 40
1.000000
 50
190.000000
 51
270.000000
  0
LINE
  8
0
  6
CONTINUOUS
 10
591.076599
 20
174.641464
 11
592.576599
 21
174.641464
  0
LINE
  8
0
  6
CONTINUOUS
 10
591.076599
 20
174.641464
 11
592.576599
 21
174.641464
  0
LINE
  8
0
  6
CONTINUOUS
 10
591.076599
 20
114.641479
 11
592.576599
 21
114.641479
  0
LINE
  8
0
  6
CONTINUOUS
 10
591.076599
 20
114.641479
 11
592.576599
 21
114.641479
  0
LINE
  8
0
  6
CONTINUOUS
 10
592.576599
 20
174.641464
 11
592.576599
 21
174.498459
  0
LINE
  8
0
  6
CONTINUOUS
 10
585.638733
 20
178.141464
 11
585.638733
 21
105.538757
  0
LINE
  8
0
  6
CONTINUOUS
 10
591.076599
 20
104.341492
 11
591.076599
 21
122.221786
  0
LINE
  8
0
  6
CONTINUOUS
 10
169.543076
 20
429.740723
 11
169.543076
 21
431.240723
  0
LINE
  8
0
  6
CONTINUOUS
 10
109.543076
 20
429.740723
 11
109.543076
 21
431.240723
  0
LINE
  8
0
  6
CONTINUOUS
 10
101.665512
 20
429.740723
 11
173.531494
 21
429.740723
  0
LINE
  8
0
  6
CONTINUOUS
 10
176.069214
 20
428.124054
 11
176.135376
 21
427.982025
  0
LINE
  8
0
  6
CONTINUOUS
 10
179.577393
 20
395.900177
 11
179.577393
 21
422.006989
  0
LINE
  8
0
  6
CONTINUOUS
 10
98.865463
 20
426.940704
 11
98.865463
 21
391.950470
  0
LINE
  8
0
  6
CONTINUOUS
 10
168.777451
 20
385.100189
 11
99.217392
 21
385.100189
  0
LINE
  8
0
  6
CONTINUOUS
 10
180.364868
 20
422.939880
 11
96.407822
 21
383.790100
  0
LINE
  8
0
  6
CENTER
 10
139.543076
 20
441.464447
 11
139.543076
 21
380.740723
  0
LINE
  8
0
  6
CONTINUOUS
 10
180.993652
 20
424.667480
 11
178.856323
 21
429.250824
  0
LINE
  8
0
  6
CONTINUOUS
 10
95.342766
 20
134.641495
 11
95.342766
 21
176.841476
  0
LINE
  8
0
  6
CONTINUOUS
 10
101.342766
 20
182.841476
 11
172.742752
 21
182.841476
  0
LINE
  8
0
  6
CONTINUOUS
 10
172.742752
 20
185.641464
 11
101.342766
 21
185.641464
  0
LINE
  8
0
  6
CONTINUOUS
 10
94.680283
 20
384.418915
 11
92.543076
 21
389.002258
  0
LINE
  8
0
  6
CONTINUOUS
 10
178.854370
 20
429.249878
 11
92.543076
 21
389.002258
  0
LINE
  8
0
  6
CENTER
 10
92.045029
 20
406.740723
 11
109.085068
 21
406.740723
  0
LINE
  8
0
  6
CONTINUOUS
 10
95.342766
 20
112.441467
 11
95.342766
 21
112.641556
  0
LINE
  8
0
  6
CONTINUOUS
 10
172.742752
 20
103.641464
 11
101.342766
 21
103.641464
  0
LINE
  8
0
  6
CONTINUOUS
 10
101.342766
 20
106.441467
 11
172.742752
 21
106.441467
  0
LINE
  8
0
  6
CONTINUOUS
 10
92.542763
 20
112.441467
 11
92.542763
 21
176.841476
  0
LINE
  8
0
  6
CONTINUOUS
 10
544.576599
 20
111.141479
 11
544.576599
 21
178.141464
  0
LINE
  8
0
  6
CONTINUOUS
 10
178.742783
 20
112.441467
 11
178.742783
 21
176.841476
  0
LINE
  8
0
  6
CONTINUOUS
 10
181.542770
 20
112.441467
 11
181.542770
 21
176.841476
  0
LINE
  8
0
  6
CONTINUOUS
 10
551.376587
 20
104.341492
 11
591.076599
 21
104.341492
  0
CIRCLE
  8
0
  6
CONTINUOUS
 10
98.342766
 20
123.641495
 40
4.000000
  0
ARC
  8
0
  6
CONTINUOUS
 10
586.938721
 20
105.641479
 40
1.300000
 50
180.000000
 51
270.000000
  0
ARC
  8
0
  6
CONTINUOUS
 10
180.577393
 20
422.006989
 40
1.000000
 50
135.717499
 51
180.000000
  0
ARC
  8
0
  6
CONTINUOUS
 10
179.815430
 20
424.118073
 40
1.300000
 50
-65.000000
 51
25.000000
  0
ARC
  8
0
  6
CONTINUOUS
 10
168.777451
 20
395.900177
 40
10.800000
 50
-90.000000
 51
0.000000
  0
ARC
  8
0
  6
CONTINUOUS
 10
101.665512
 20
426.940704
 40
2.800000
 50
90.000000
 51
180.000000
  0
ARC
  8
0
  6
CONTINUOUS
 10
173.531494
 20
426.940704
 40
2.800000
 50
25.000000
 51
90.000000
  0
ARC
  8
0
  6
CONTINUOUS
 10
172.742752
 20
176.841476
 40
8.800000
 50
0.000000
 51
90.000000
  0
ARC
  8
0
  6
CONTINUOUS
 10
172.742752
 20
176.841476
 40
6.000000
 50
0.000000
 51
90.000000
  0
ARC
  8
0
  6
CONTINUOUS
 10
101.342766
 20
176.841476
 40
8.800000
 50
90.000000
 51
180.000000
  0
ARC
  8
0
  6
CONTINUOUS
 10
101.342766
 20
176.841476
 40
6.000000
 50
90.000000
 51
180.000000
  0
ARC
  8
0
  6
CONTINUOUS
 10
95.858505
 20
384.968323
 40
1.300000
 50
205.000000
 51
295.000000
  0
ARC
  8
0
  6
CONTINUOUS
 10
551.376587
 20
111.141479
 40
6.800000
 50
180.000000
 51
270.000000
  0
ARC
  8
0
  6
CONTINUOUS
 10
172.742752
 20
112.441467
 40
6.000000
 50
-90.000000
 51
0.000000
  0
ARC
  8
0
  6
CONTINUOUS
 10
172.742752
 20
112.441467
 40
8.800000
 50
-90.000000
 51
0.000000
  0
ARC
  8
0
  6
CONTINUOUS
 10
98.342766
 20
123.641495
 40
8.000000
 50
-89.781525
 51
90.000000
  0
ARC
  8
0
  6
CONTINUOUS
 10
98.342590
 20
112.641556
 40
3.000000
 50
90.218491
 51
180.601669
  0
ARC
  8
0
  6
CONTINUOUS
 10
101.342766
 20
112.441467
 40
6.000000
 50
180.000000
 51
270.000000
  0
ARC
  8
0
  6
CONTINUOUS
 10
101.342766
 20
112.441467
 40
8.800000
 50
180.000000
 51
270.000000
  0
ARC
  8
0
  6
CONTINUOUS
 10
98.342766
 20
134.641495
 40
3.000000
 50
180.000000
 51
270.000000
  0
LINE
  8
0
  6
CONTINUOUS
 10
98.042664
 20
90.141495
 11
98.042664
 21
104.283691
  0
LINE
  8
0
  6
CONTINUOUS
 10
97.042656
 20
68.154610
 11
97.042656
 21
104.763634
  0
LINE
  8
0
  6
CONTINUOUS
 10
238.042664
 20
216.641464
 11
238.042664
 21
72.641464
  0
LINE
  8
0
  6
CONTINUOUS
 10
364.042633
 20
204.141556
 11
356.042633
 21
204.141525
  0
LINE
  8
0
  6
CONTINUOUS
 10
364.042633
 20
192.141556
 11
356.042633
 21
192.141525
  0
LINE
  8
0
  6
CONTINUOUS
 10
364.042633
 20
192.141556
 11
364.042633
 21
204.141556
  0
LINE
  8
0
  6
CONTINUOUS
 10
356.042633
 20
192.141525
 11
356.042633
 21
204.141525
  0
LINE
  8
0
  6
CONTINUOUS
 10
330.169647
 20
123.147324
 11
330.169647
 21
122.922707
  0
LINE
  8
0
  6
CONTINUOUS
 10
352.880646
 20
124.147324
 11
357.313660
 21
124.144447
  0
LINE
  8
0
  6
CONTINUOUS
 10
350.542633
 20
124.147324
 11
351.247833
 21
124.147324
  0
LINE
  8
0
  6
CONTINUOUS
 10
352.880646
 20
118.302605
 11
355.921234
 21
118.302605
  0
LINE
  8
0
  6
CONTINUOUS
 10
340.114838
 20
124.147324
 11
337.857452
 21
124.147324
  0
LINE
  8
0
  6
CONTINUOUS
 10
341.896240
 20
124.147324
 11
344.371460
 21
124.147324
  0
LINE
  8
0
  6
CONTINUOUS
 10
344.371460
 20
124.147324
 11
344.801636
 21
122.922707
  0
LINE
  8
0
  6
CONTINUOUS
 10
337.857452
 20
124.147324
 11
337.347260
 21
122.922707
  0
LINE
  8
0
  6
CONTINUOUS
 10
350.542633
 20
113.125847
 11
350.542633
 21
111.641464
  0
LINE
  8
0
  6
CONTINUOUS
 10
353.530060
 20
113.125847
 11
353.530060
 21
111.641464
  0
LINE
  8
0
  6
CONTINUOUS
 10
357.853241
 20
113.125847
 11
357.853241
 21
111.641464
  0
LINE
  8
0
  6
CONTINUOUS
 10
360.042633
 20
113.125847
 11
360.042633
 21
111.641464
  0
LINE
  8
0
  6
CONTINUOUS
 10
357.853241
 20
111.641464
 11
360.042633
 21
111.641464
  0
LINE
  8
0
  6
CONTINUOUS
 10
359.642853
 20
113.125847
 11
360.042633
 21
113.125847
  0
LINE
  8
0
  6
CONTINUOUS
 10
357.853241
 20
113.125847
 11
358.149048
 21
113.125847
  0
LINE
  8
0
  6
CONTINUOUS
 10
353.530060
 20
111.641464
 11
350.542633
 21
111.641464
  0
LINE
  8
0
  6
CONTINUOUS
 10
352.880646
 20
113.125847
 11
353.530060
 21
113.125847
  0
LINE
  8
0
  6
CONTINUOUS
 10
350.542633
 20
113.125847
 11
351.247833
 21
113.125847
  0
LINE
  8
0
  6
CONTINUOUS
 10
355.921234
 20
118.302605
 11
358.149048
 21
113.125847
  0
LINE
  8
0
  6
CONTINUOUS
 10
357.288452
 20
118.431725
 11
359.642853
 21
113.125847
  0
LINE
  8
0
  6
CONTINUOUS
 10
352.880646
 20
124.147324
 11
352.880646
 21
119.786621
  0
LINE
  8
0
  6
CONTINUOUS
 10
350.542633
 20
125.891464
 11
350.542633
 21
124.147324
  0
LINE
  8
0
  6
CONTINUOUS
 10
356.538452
 20
119.786621
 11
352.880646
 21
119.786621
  0
LINE
  8
0
  6
CONTINUOUS
 10
350.542633
 20
125.891464
 11
356.238831
 21
125.891464
  0
LINE
  8
0
  6
CONTINUOUS
 10
339.409851
 20
113.200066
 11
340.114838
 21
113.200066
  0
LINE
  8
0
  6
CONTINUOUS
 10
339.409851
 20
111.641464
 11
342.489838
 21
111.641464
  0
LINE
  8
0
  6
CONTINUOUS
 10
336.292633
 20
125.891464
 11
345.792633
 21
125.891464
  0
LINE
  8
0
  6
CONTINUOUS
 10
336.292633
 20
122.922707
 11
337.347260
 21
122.922707
  0
LINE
  8
0
  6
CONTINUOUS
 10
344.801636
 20
122.922707
 11
345.792633
 21
122.922707
  0
LINE
  8
0
  6
CONTINUOUS
 10
342.489838
 20
113.200066
 11
342.489838
 21
111.641464
  0
LINE
  8
0
  6
CONTINUOUS
 10
339.409851
 20
113.200066
 11
339.409851
 21
111.641464
  0
LINE
  8
0
  6
CONTINUOUS
 10
341.896240
 20
113.200066
 11
342.489838
 21
113.200066
  0
LINE
  8
0
  6
CONTINUOUS
 10
330.169647
 20
112.777382
 11
328.815643
 21
111.641464
  0
LINE
  8
0
  6
CONTINUOUS
 10
330.169647
 20
111.641464
 11
331.542633
 21
111.641464
  0
LINE
  8
0
  6
CONTINUOUS
 10
327.683258
 20
119.916862
 11
327.683258
 21
118.358261
  0
LINE
  8
0
  6
CONTINUOUS
 10
330.169647
 20
118.358261
 11
330.169647
 21
116.280121
  0
LINE
  8
0
  6
CONTINUOUS
 10
331.542633
 20
124.351883
 11
331.542633
 21
122.922707
  0
LINE
  8
0
  6
CONTINUOUS
 10
330.169647
 20
112.777382
 11
330.169647
 21
111.641464
  0
LINE
  8
0
  6
CONTINUOUS
 10
330.169647
 20
116.873886
 11
330.169647
 21
118.061386
  0
LINE
  8
0
  6
CONTINUOUS
 10
327.200836
 20
113.311386
 11
324.728241
 21
113.311386
  0
LINE
  8
0
  6
CONTINUOUS
 10
330.169647
 20
118.358261
 11
327.683258
 21
118.358261
  0
LINE
  8
0
  6
CONTINUOUS
 10
327.683258
 20
119.916862
 11
331.542633
 21
119.916862
  0
LINE
  8
0
  6
CONTINUOUS
 10
323.767456
 20
125.891464
 11
330.155243
 21
125.891464
  0
LINE
  8
0
  6
CONTINUOUS
 10
330.169647
 20
122.922707
 11
331.542633
 21
122.922707
  0
LINE
  8
0
  6
CONTINUOUS
 10
330.155243
 20
125.891464
 11
331.542633
 21
124.351883
  0
LINE
  8
0
  6
CONTINUOUS
 10
330.169647
 20
123.147324
 11
329.270660
 21
123.998886
  0
LINE
  8
0
  6
CONTINUOUS
 10
323.638458
 20
122.668884
 11
323.638458
 21
114.459305
  0
LINE
  8
0
  6
CONTINUOUS
 10
322.042633
 20
123.683006
 11
322.042633
 21
113.490585
  0
LINE
  8
0
  6
CONTINUOUS
 10
322.042633
 20
113.490585
 11
323.875244
 21
111.641464
  0
LINE
  8
0
  6
CONTINUOUS
 10
323.638458
 20
114.459305
 11
324.728241
 21
113.311386
  0
LINE
  8
0
  6
CONTINUOUS
 10
323.767456
 20
125.891464
 11
322.042633
 21
123.683006
  0
LINE
  8
0
  6
CONTINUOUS
 10
324.711060
 20
123.998886
 11
323.638458
 21
122.668884
  0
LINE
  8
0
  6
CONTINUOUS
 10
329.288635
 20
123.998886
 11
324.711060
 21
123.998886
  0
LINE
  8
0
  6
CONTINUOUS
 10
352.880646
 20
118.302605
 11
352.880646
 21
113.125847
  0
LINE
  8
0
  6
CONTINUOUS
 10
351.247833
 20
124.147324
 11
351.247833
 21
113.125847
  0
LINE
  8
0
  6
CONTINUOUS
 10
341.896240
 20
124.147324
 11
341.896240
 21
113.200066
  0
LINE
  8
0
  6
CONTINUOUS
 10
340.114838
 20
124.147324
 11
340.114838
 21
113.200066
  0
LINE
  8
0
  6
CONTINUOUS
 10
345.792633
 20
122.922707
 11
345.792633
 21
125.891464
  0
LINE
  8
0
  6
CONTINUOUS
 10
336.292633
 20
122.922707
 11
336.292633
 21
125.891464
  0
LINE
  8
0
  6
CONTINUOUS
 10
331.542633
 20
119.916862
 11
331.542633
 21
111.641464
  0
LINE
  8
0
  6
CONTINUOUS
 10
328.815643
 20
111.641464
 11
323.875244
 21
111.641464
  0
LINE
  8
0
  6
CONTINUOUS
 10
311.042633
 20
89.641464
 11
371.042633
 21
89.641464
  0
LINE
  8
0
  6
CONTINUOUS
 10
311.042633
 20
93.641464
 11
371.042633
 21
93.641464
  0
LINE
  8
0
  6
CONTINUOUS
 10
277.851440
 20
135.013535
 11
294.184631
 21
208.549088
  0
LINE
  8
0
  6
CONTINUOUS
 10
387.900635
 20
208.549149
 11
404.233856
 21
135.013580
  0
LINE
  8
0
  6
CONTINUOUS
 10
391.805634
 20
209.416473
 11
408.138641
 21
135.880890
  0
LINE
  8
0
  6
CONTINUOUS
 10
273.946655
 20
135.880829
 11
290.279633
 21
209.416367
  0
LINE
  8
0
  6
CONTINUOUS
 10
305.164032
 20
57.262783
 11
302.507050
 21
54.605965
  0
LINE
  8
0
  6
CONTINUOUS
 10
376.921234
 20
57.262783
 11
379.578247
 21
54.605904
  0
LINE
  8
0
  6
CONTINUOUS
 10
376.042633
 20
57.004585
 11
376.042633
 21
54.141464
  0
LINE
  8
0
  6
CONTINUOUS
 10
306.042633
 20
57.004585
 11
306.042633
 21
54.141464
  0
LINE
  8
0
  6
CONTINUOUS
 10
374.800049
 20
58.141464
 11
307.285248
 21
58.141464
  0
LINE
  8
0
  6
CONTINUOUS
 10
265.042664
 20
50.456146
 11
265.042664
 21
33.141464
  0
LINE
  8
0
  6
CONTINUOUS
 10
417.042633
 20
50.456146
 11
417.042633
 21
33.141464
  0
LINE
  8
0
  6
DASHED
 10
273.542664
 20
53.141464
 11
273.542664
 21
33.141464
  0
LINE
  8
0
  6
DASHED
 10
288.542633
 20
53.141464
 11
288.542633
 21
33.141464
  0
LINE
  8
0
  6
DASHED
 10
408.542633
 20
53.141464
 11
408.542633
 21
33.141464
  0
LINE
  8
0
  6
DASHED
 10
393.542633
 20
53.141464
 11
393.542633
 21
33.141464
  0
LINE
  8
0
  6
CENTER
 10
281.042633
 20
63.067944
 11
281.042633
 21
20.058525
  0
LINE
  8
0
  6
CENTER
 10
401.042633
 20
63.067944
 11
401.042633
 21
20.058525
  0
LINE
  8
0
  6
CONTINUOUS
 10
255.258469
 20
239.630798
 11
303.444031
 21
273.798798
  0
LINE
  8
0
  6
CONTINUOUS
 10
378.641235
 20
273.798798
 11
426.827057
 21
239.630798
  0
LINE
  8
0
  6
CONTINUOUS
 10
238.042664
 20
73.641464
 11
246.042664
 21
73.641464
  0
LINE
  8
0
  6
CONTINUOUS
 10
238.042664
 20
215.641464
 11
246.042664
 21
215.641464
  0
LINE
  8
0
  6
CONTINUOUS
 10
251.042664
 20
231.473465
 11
251.042664
 21
33.141464
  0
LINE
  8
0
  6
CONTINUOUS
 10
431.042633
 20
231.473465
 11
431.042633
 21
33.141464
  0
LINE
  8
0
  6
CONTINUOUS
 10
309.228241
 20
275.641449
 11
372.857056
 21
275.641449
  0
LINE
  8
0
  6
CONTINUOUS
 10
251.042664
 20
53.141464
 11
431.042633
 21
53.141464
  0
LINE
  8
0
  6
CONTINUOUS
 10
251.042664
 20
33.141464
 11
431.042633
 21
33.141464
  0
LINE
  8
0
  6
CENTER
 10
261.537659
 20
198.141464
 11
411.873749
 21
198.141464
  0
LINE
  8
0
  6
CENTER
 10
341.042633
 20
293.637268
 11
341.042633
 21
14.237685
  0
LINE
  8
0
  6
CENTER
 10
17.793751
 20
144.641464
 11
273.502655
 21
144.641464
  0
LINE
  8
0
  6
CONTINUOUS
 10
360.121643
 20
425.240967
 11
360.121643
 21
365.240540
  0
LINE
  8
0
  6
CONTINUOUS
 10
292.947388
 20
434.685150
 11
289.042633
 21
439.240692
  0
LINE
  8
0
  6
CONTINUOUS
 10
389.137909
 20
434.685150
 11
393.042633
 21
439.240692
  0
LINE
  8
0
  6
CONTINUOUS
 10
389.137909
 20
575.796326
 11
393.042633
 21
571.240784
  0
LINE
  8
0
  6
CONTINUOUS
 10
292.947388
 20
575.796326
 11
289.042633
 21
571.240784
  0
LINE
  8
0
  6
CONTINUOUS
 10
360.121643
 20
425.240967
 11
364.042633
 21
425.240967
  0
LINE
  8
0
  6
CONTINUOUS
 10
364.042633
 20
365.240967
 11
364.042633
 21
425.240967
  0
LINE
  8
0
  6
CONTINUOUS
 10
321.042969
 20
415.240448
 11
272.174377
 21
415.240540
  0
LINE
  8
0
  6
CONTINUOUS
 10
341.043304
 20
595.240479
 11
272.174774
 21
595.240540
  0
LINE
  8
0
  6
CONTINUOUS
 10
318.542969
 20
432.240540
 11
318.542969
 21
430.240540
  0
LINE
  8
0
  6
CONTINUOUS
 10
363.542969
 20
432.240540
 11
363.542969
 21
430.240540
  0
LINE
  8
0
  6
CONTINUOUS
 10
363.542969
 20
430.240540
 11
318.542969
 21
430.240540
  0
LINE
  8
0
  6
CONTINUOUS
 10
321.042969
 20
430.240540
 11
321.042969
 21
365.240540
  0
LINE
  8
0
  6
CONTINUOUS
 10
361.042969
 20
430.240540
 11
361.042969
 21
425.240967
  0
LINE
  8
0
  6
CONTINUOUS
 10
321.042969
 20
365.240540
 11
364.042633
 21
365.240540
  0
LINE
  8
0
  6
CONTINUOUS
 10
275.592224
 20
566.163818
 11
274.493317
 21
562.317749
  0
LINE
  8
0
  6
CONTINUOUS
 10
402.042755
 20
439.240753
 11
393.042633
 21
439.240692
  0
LINE
  8
0
  6
CONTINUOUS
 10
280.042755
 20
439.240753
 11
289.042633
 21
439.240692
  0
LINE
  8
0
  6
CONTINUOUS
 10
298.262177
 20
432.240753
 11
383.823090
 21
432.240753
  0
LINE
  8
0
  6
CENTER
 10
281.042969
 20
447.042816
 11
281.043152
 21
423.166199
  0
LINE
  8
0
  6
CENTER
 10
294.053375
 20
435.241119
 11
268.475616
 21
435.241119
  0
LINE
  8
0
  6
CENTER
 10
401.042664
 20
447.042816
 11
401.043152
 21
423.166412
  0
LINE
  8
0
  6
CENTER
 10
415.896454
 20
435.241211
 11
387.528412
 21
435.241211
  0
LINE
  8
0
  6
CONTINUOUS
 10
402.042755
 20
571.240784
 11
393.042633
 21
571.240784
  0
LINE
  8
0
  6
CONTINUOUS
 10
282.322876
 20
571.240784
 11
289.042633
 21
571.240784
  0
LINE
  8
0
  6
CONTINUOUS
 10
306.042877
 20
458.240753
 11
306.042877
 21
552.240784
  0
LINE
  8
0
  6
CONTINUOUS
 10
376.042877
 20
458.240753
 11
376.042877
 21
552.240784
  0
LINE
  8
0
  6
CONTINUOUS
 10
427.187073
 20
453.240753
 11
254.899048
 21
453.240753
  0
LINE
  8
0
  6
CONTINUOUS
 10
298.262177
 20
578.240784
 11
383.823090
 21
578.240784
  0
LINE
  8
0
  6
CONTINUOUS
 10
427.187073
 20
557.240784
 11
254.899048
 21
557.240784
  0
LINE
  8
0
  6
CENTER
 10
281.042969
 20
563.438721
 11
281.043152
 21
587.315308
  0
LINE
  8
0
  6
CENTER
 10
294.053375
 20
575.240417
 11
268.475616
 21
575.240417
  0
LINE
  8
0
  6
CENTER
 10
401.042664
 20
563.438721
 11
401.043152
 21
587.315125
  0
LINE
  8
0
  6
CONTINUOUS
 10
249.152573
 20
448.052399
 11
246.841980
 21
439.428833
  0
LINE
  8
0
  6
CONTINUOUS
 10
240.080368
 20
434.240601
 11
238.042770
 21
434.240601
  0
LINE
  8
0
  6
CONTINUOUS
 10
249.152771
 20
562.428711
 11
246.842178
 21
571.052307
  0
LINE
  8
0
  6
CONTINUOUS
 10
238.043182
 20
577.240723
 11
238.042770
 21
433.240723
  0
LINE
  8
0
  6
CONTINUOUS
 10
240.080780
 20
576.240540
 11
238.043182
 21
576.240540
  0
LINE
  8
0
  6
CONTINUOUS
 10
262.720154
 20
588.497925
 11
252.297791
 21
558.247192
  0
LINE
  8
0
  6
CONTINUOUS
 10
251.042969
 20
505.240540
 11
251.899506
 21
554.293152
  0
LINE
  8
0
  6
CONTINUOUS
 10
262.719757
 20
421.983124
 11
251.950775
 21
453.240601
  0
LINE
  8
0
  6
CONTINUOUS
 10
251.042969
 20
505.240540
 11
251.950775
 21
453.240601
  0
LINE
  8
0
  6
CONTINUOUS
 10
419.366150
 20
588.497742
 11
430.135162
 21
557.240295
  0
LINE
  8
0
  6
CONTINUOUS
 10
431.042969
 20
505.240356
 11
430.135162
 21
557.240295
  0
LINE
  8
0
  6
CONTINUOUS
 10
419.365753
 20
421.982880
 11
430.134949
 21
453.240326
  0
LINE
  8
0
  6
CONTINUOUS
 10
431.042969
 20
505.240356
 11
430.134949
 21
453.240326
  0
LINE
  8
0
  6
CENTER
 10
415.896454
 20
575.240295
 11
387.528412
 21
575.240295
  0
LINE
  8
0
  6
CENTER
 10
341.042633
 20
350.851471
 11
341.043182
 21
617.511902
  0
LINE
  8
0
  6
CONTINUOUS
 10
409.911163
 20
415.240265
 11
364.042633
 21
415.240356
  0
LINE
  8
0
  6
CONTINUOUS
 10
409.911774
 20
595.240295
 11
341.043304
 21
595.240295
  0
LINE
  8
0
  6
CENTER
 10
17.793751
 20
505.241119
 11
441.167969
 21
505.240356
  0
LINE
  8
0
  6
CONTINUOUS
 10
590.495422
 20
122.242081
 11
597.546997
 21
121.995834
  0
LINE
  8
0
  6
CONTINUOUS
 10
593.057007
 20
116.640854
 11
598.710449
 21
116.838272
  0
LINE
  8
0
  6
CONTINUOUS
 10
593.057007
 20
114.642075
 11
600.645020
 21
114.377090
  0
LINE
  8
0
  6
CONTINUOUS
 10
590.495422
 20
124.240860
 11
596.182434
 21
124.439438
  0
LINE
  8
0
  6
CONTINUOUS
 10
588.756348
 20
129.842087
 11
595.393372
 21
129.610306
  0
LINE
  8
0
  6
CONTINUOUS
 10
588.756348
 20
131.840866
 11
594.538940
 21
132.042801
  0
LINE
  8
0
  6
CONTINUOUS
 10
587.785400
 20
137.442062
 11
594.098633
 21
137.221603
  0
LINE
  8
0
  6
CONTINUOUS
 10
587.785400
 20
139.440842
 11
593.720886
 21
139.648117
  0
LINE
  8
0
  6
CONTINUOUS
 10
588.756348
 20
157.442062
 11
593.578186
 21
157.273682
  0
LINE
  8
0
  6
CONTINUOUS
 10
587.785400
 20
151.840866
 11
594.098633
 21
152.061325
  0
LINE
  8
0
  6
CONTINUOUS
 10
587.785400
 20
149.842087
 11
593.720886
 21
149.634811
  0
LINE
  8
0
  6
CONTINUOUS
 10
590.495422
 20
165.042068
 11
593.576599
 21
164.934479
  0
LINE
  8
0
  6
CONTINUOUS
 10
590.495422
 20
167.040848
 11
593.576599
 21
167.148453
  0
LINE
  8
0
  6
CONTINUOUS
 10
588.756348
 20
159.440842
 11
593.576599
 21
159.609177
  0
LINE
  8
0
  6
CONTINUOUS
 10
593.057007
 20
172.642075
 11
593.576599
 21
172.623932
  0
LINE
  8
0
  6
CONTINUOUS
 10
593.057007
 20
174.640869
 11
593.576599
 21
174.659012
  0
LINE
  8
0
  6
CONTINUOUS
 10
736.621826
 20
109.040848
 11
732.576599
 21
109.182121
  0
LINE
  8
0
  6
CONTINUOUS
 10
736.621826
 20
107.042068
 11
732.576599
 21
106.900818
  0
LINE
  8
0
  6
CONTINUOUS
 10
596.531433
 20
109.040848
 11
600.576599
 21
109.182121
  0
LINE
  8
0
  6
CONTINUOUS
 10
596.531433
 20
107.042068
 11
600.576599
 21
106.900818
  0
LINE
  8
0
  6
CONTINUOUS
 10
610.618896
 20
87.842087
 11
613.710449
 21
87.734123
  0
LINE
  8
0
  6
CONTINUOUS
 10
610.618896
 20
89.840866
 11
611.876770
 21
89.884789
  0
LINE
  8
0
  6
CONTINUOUS
 10
722.534302
 20
87.842087
 11
719.442688
 21
87.734123
  0
LINE
  8
0
  6
CONTINUOUS
 10
722.534302
 20
89.840866
 11
721.276367
 21
89.884789
  0
LINE
  8
0
  6
CONTINUOUS
 10
742.657837
 20
122.242081
 11
735.606262
 21
121.995834
  0
LINE
  8
0
  6
CONTINUOUS
 10
740.096191
 20
116.640854
 11
734.442810
 21
116.838272
  0
LINE
  8
0
  6
CONTINUOUS
 10
740.096191
 20
114.642075
 11
732.508179
 21
114.377090
  0
LINE
  8
0
  6
CONTINUOUS
 10
742.657837
 20
124.240860
 11
736.970825
 21
124.439438
  0
LINE
  8
0
  6
CONTINUOUS
 10
744.396851
 20
129.842087
 11
737.759827
 21
129.610306
  0
LINE
  8
0
  6
CONTINUOUS
 10
744.396851
 20
131.840866
 11
738.614258
 21
132.042801
  0
LINE
  8
0
  6
CONTINUOUS
 10
745.367859
 20
137.442062
 11
739.054565
 21
137.221603
  0
LINE
  8
0
  6
CONTINUOUS
 10
745.367859
 20
139.440842
 11
739.432373
 21
139.648117
  0
LINE
  8
0
  6
CONTINUOUS
 10
744.396851
 20
157.442062
 11
739.575073
 21
157.273682
  0
LINE
  8
0
  6
CONTINUOUS
 10
745.367859
 20
151.840866
 11
739.054565
 21
152.061325
  0
LINE
  8
0
  6
CONTINUOUS
 10
745.367859
 20
149.842087
 11
739.432373
 21
149.634811
  0
LINE
  8
0
  6
CONTINUOUS
 10
742.657837
 20
165.042068
 11
739.576599
 21
164.934479
  0
LINE
  8
0
  6
CONTINUOUS
 10
742.657837
 20
167.040848
 11
739.576599
 21
167.148453
  0
LINE
  8
0
  6
CONTINUOUS
 10
744.396851
 20
159.440842
 11
739.576599
 21
159.609177
  0
LINE
  8
0
  6
CONTINUOUS
 10
740.096191
 20
172.642075
 11
739.576599
 21
172.623932
  0
LINE
  8
0
  6
CONTINUOUS
 10
740.096191
 20
174.640869
 11
739.576599
 21
174.659012
  0
LINE
  8
0
  6
CONTINUOUS
 10
580.576599
 20
192.141464
 11
526.576599
 21
192.141464
  0
LINE
  8
0
  6
CONTINUOUS
 10
580.576599
 20
204.141464
 11
526.576599
 21
204.141464
  0
LINE
  8
0
  6
CONTINUOUS
 10
593.576599
 20
175.641464
 11
591.576599
 21
175.641464
  0
LINE
  8
0
  6
CONTINUOUS
 10
593.576599
 20
220.641464
 11
591.576599
 21
220.641464
  0
LINE
  8
0
  6
CONTINUOUS
 10
591.576599
 20
220.641464
 11
591.576599
 21
175.641464
  0
LINE
  8
0
  6
CONTINUOUS
 10
591.576599
 20
178.141464
 11
526.576599
 21
178.141464
  0
LINE
  8
0
  6
CONTINUOUS
 10
591.576599
 20
218.141464
 11
526.576599
 21
218.141464
  0
LINE
  8
0
  6
CONTINUOUS
 10
526.576599
 20
178.141464
 11
526.576599
 21
218.141464
  0
LINE
  8
0
  6
CONTINUOUS
 10
701.576599
 20
33.141464
 11
700.076599
 21
34.641464
  0
LINE
  8
0
  6
CONTINUOUS
 10
631.576599
 20
33.141464
 11
633.076599
 21
34.641464
  0
LINE
  8
0
  6
CONTINUOUS
 10
718.576599
 20
58.141464
 11
718.576599
 21
33.141464
  0
LINE
  8
0
  6
CONTINUOUS
 10
718.576599
 20
58.141464
 11
718.576599
 21
255.421570
  0
LINE
  8
0
  6
CONTINUOUS
 10
579.185242
 20
53.484707
 11
611.968018
 21
57.798244
  0
LINE
  8
0
  6
CONTINUOUS
 10
753.968018
 20
53.484707
 11
721.185242
 21
57.798225
  0
LINE
  8
0
  6
CONTINUOUS
 10
727.499634
 20
92.190903
 11
723.653625
 21
91.092026
  0
LINE
  8
0
  6
CONTINUOUS
 10
605.653625
 20
92.190903
 11
609.499634
 21
91.092026
  0
LINE
  8
0
  6
CONTINUOUS
 10
723.653625
 20
248.690918
 11
734.499634
 21
245.592026
  0
LINE
  8
0
  6
CONTINUOUS
 10
598.653625
 20
245.592026
 11
609.499634
 21
248.690918
  0
LINE
  8
0
  6
CONTINUOUS
 10
732.576599
 20
98.921585
 11
732.576599
 21
202.281754
  0
LINE
  8
0
  6
CONTINUOUS
 10
600.576599
 20
98.921562
 11
600.576599
 21
202.281754
  0
LINE
  8
0
  6
CONTINUOUS
 10
739.576599
 20
157.421585
 11
739.576599
 21
238.861359
  0
LINE
  8
0
  6
CONTINUOUS
 10
593.576599
 20
157.421585
 11
593.576599
 21
238.861359
  0
LINE
  8
0
  6
CONTINUOUS
 10
618.506836
 20
274.802246
 11
666.576599
 21
275.641479
  0
LINE
  8
0
  6
CONTINUOUS
 10
714.646423
 20
274.802612
 11
666.576599
 21
275.641479
  0
LINE
  8
0
  6
CONTINUOUS
 10
619.021240
 20
236.641464
 11
714.808411
 21
236.641464
  0
LINE
  8
0
  6
CONTINUOUS
 10
633.076599
 20
34.641464
 11
700.076599
 21
34.641464
  0
LINE
  8
0
  6
CONTINUOUS
 10
614.576599
 20
270.802856
 11
614.576599
 21
33.141464
  0
LINE
  8
0
  6
CONTINUOUS
 10
718.576599
 20
255.421570
 11
718.576599
 21
270.803223
  0
LINE
  8
0
  6
CONTINUOUS
 10
756.576599
 20
50.510345
 11
756.576599
 21
33.141464
  0
LINE
  8
0
  6
CONTINUOUS
 10
576.576599
 20
50.510345
 11
576.576599
 21
33.141483
  0
LINE
  8
0
  6
CONTINUOUS
 10
579.576599
 20
53.141464
 11
609.576599
 21
53.141464
  0
LINE
  8
0
  6
CONTINUOUS
 10
723.576599
 20
53.141464
 11
753.576599
 21
53.141464
  0
LINE
  8
0
  6
CONTINUOUS
 10
701.576599
 20
33.141464
 11
756.576599
 21
33.141464
  0
LINE
  8
0
  6
CONTINUOUS
 10
576.576599
 20
33.141464
 11
631.576599
 21
33.141464
  0
LINE
  8
0
  6
DASHED
 10
589.076599
 20
53.141464
 11
589.076599
 21
33.141464
  0
LINE
  8
0
  6
DASHED
 10
604.076599
 20
53.141464
 11
604.076599
 21
33.141464
  0
LINE
  8
0
  6
DASHED
 10
744.076599
 20
53.141464
 11
744.076599
 21
33.141464
  0
LINE
  8
0
  6
DASHED
 10
729.076599
 20
53.141464
 11
729.076599
 21
33.141464
  0
LINE
  8
0
  6
CENTER
 10
736.576599
 20
68.057648
 11
736.576599
 21
18.028666
  0
LINE
  8
0
  6
CENTER
 10
596.576599
 20
68.057648
 11
596.576599
 21
18.028666
  0
LINE
  8
0
  6
CENTER
 10
510.764984
 20
198.141464
 11
751.049377
 21
198.141464
  0
LINE
  8
0
  6
CENTER
 10
532.971252
 20
144.641464
 11
758.505920
 21
144.641464
  0
LINE
  8
0
  6
CENTER
 10
666.576599
 20
10.591485
 11
666.576599
 21
296.440002
  0
CIRCLE
  8
0
  6
CONTINUOUS
 10
341.042633
 20
198.141464
 40
46.000000
  0
ARC
  8
0
  6
CONTINUOUS
 10
666.576599
 20
144.641464
 40
81.000000
 50
-35.615845
 51
25.679176
  0
ARC
  8
0
  6
CONTINUOUS
 10
666.576599
 20
144.641464
 40
81.000000
 50
201.738464
 51
215.615875
  0
ARC
  8
0
  6
CONTINUOUS
 10
666.576599
 20
144.641464
 40
81.000000
 50
219.929245
 51
230.060730
  0
ARC
  8
0
  6
CONTINUOUS
 10
666.576599
 20
144.641464
 40
81.000000
 50
309.939270
 51
320.070679
  0
ARC
  8
0
  6
CONTINUOUS
 10
341.042633
 20
198.141464
 40
20.000000
 50
17.457600
 51
342.542389
  0
ARC
  8
0
  6
CONTINUOUS
 10
460.724243
 20
144.641464
 40
215.181595
 50
167.017899
 51
192.982101
  0
ARC
  8
0
  6
CONTINUOUS
 10
356.238831
 20
122.087746
 40
2.320524
 50
-82.585266
 51
62.411850
  0
ARC
  8
0
  6
CONTINUOUS
 10
356.238831
 20
122.087746
 40
3.803712
 50
-73.981873
 51
90.003510
  0
ARC
  8
0
  6
CONTINUOUS
 10
327.200836
 20
116.280121
 40
2.968750
 50
-89.999786
 51
0.000109
  0
ARC
  8
0
  6
CONTINUOUS
 10
371.042633
 20
127.641464
 40
38.000000
 50
-90.000000
 51
12.522720
  0
ARC
  8
0
  6
CONTINUOUS
 10
371.042633
 20
127.641464
 40
34.000000
 50
-90.000000
 51
12.522730
  0
ARC
  8
0
  6
CONTINUOUS
 10
311.042633
 20
127.641464
 40
38.000000
 50
167.477402
 51
270.000000
  0
ARC
  8
0
  6
CONTINUOUS
 10
311.042633
 20
127.641464
 40
34.000000
 50
167.477402
 51
270.000000
  0
ARC
  8
0
  6
CONTINUOUS
 10
341.042633
 20
198.141464
 40
48.000000
 50
-192.522598
 51
12.522720
  0
ARC
  8
0
  6
CONTINUOUS
 10
341.042633
 20
198.141464
 40
52.000000
 50
12.522720
 51
167.477402
  0
ARC
  8
0
  6
CONTINUOUS
 10
377.042633
 20
54.141464
 40
1.000000
 50
180.000000
 51
270.000000
  0
ARC
  8
0
  6
CONTINUOUS
 10
305.042633
 20
54.141464
 40
1.000000
 50
-90.000000
 51
0.000000
  0
ARC
  8
0
  6
CONTINUOUS
 10
374.800049
 20
55.141464
 40
3.000000
 50
45.000259
 51
90.000000
  0
ARC
  8
0
  6
CONTINUOUS
 10
307.285248
 20
55.141464
 40
3.000000
 50
90.000000
 51
135.000397
  0
ARC
  8
0
  6
CONTINUOUS
 10
383.113647
 20
58.141464
 40
5.000000
 50
225.000107
 51
270.000000
  0
ARC
  8
0
  6
CONTINUOUS
 10
298.971649
 20
58.141464
 40
5.000000
 50
270.000000
 51
315.000092
  0
ARC
  8
0
  6
CONTINUOUS
 10
246.042664
 20
68.641449
 40
5.000000
 50
0.000000
 51
90.000000
  0
ARC
  8
0
  6
CONTINUOUS
 10
246.042664
 20
220.641464
 40
5.000000
 50
-90.000000
 51
0.000000
  0
ARC
  8
0
  6
CONTINUOUS
 10
261.042664
 20
231.473511
 40
10.000000
 50
125.340500
 51
180.000000
  0
ARC
  8
0
  6
CONTINUOUS
 10
309.228241
 20
265.641449
 40
10.000000
 50
90.000000
 51
125.340302
  0
ARC
  8
0
  6
CONTINUOUS
 10
372.857056
 20
265.641449
 40
10.000000
 50
54.659950
 51
90.000000
  0
ARC
  8
0
  6
CONTINUOUS
 10
421.042633
 20
231.473434
 40
10.000000
 50
0.000000
 51
54.660099
  0
ARC
  8
0
  6
CONTINUOUS
 10
298.262177
 20
439.240692
 40
7.000000
 50
220.601288
 51
270.000000
  0
ARC
  8
0
  6
CONTINUOUS
 10
383.823090
 20
439.240692
 40
7.000000
 50
270.000000
 51
319.398712
  0
ARC
  8
0
  6
CONTINUOUS
 10
383.823090
 20
571.240784
 40
7.000000
 50
40.601295
 51
90.000000
  0
ARC
  8
0
  6
CONTINUOUS
 10
298.262177
 20
571.240784
 40
7.000000
 50
90.000000
 51
139.398712
  0
ARC
  8
0
  6
CONTINUOUS
 10
267.762665
 20
564.240784
 40
7.000000
 50
270.000000
 51
344.054596
  0
ARC
  8
0
  6
CONTINUOUS
 10
282.322876
 20
564.240784
 40
7.000000
 50
90.000000
 51
164.054611
  0
ARC
  8
0
  6
CONTINUOUS
 10
416.042755
 20
446.240753
 40
7.000000
 50
90.000000
 51
180.000000
  0
ARC
  8
0
  6
CONTINUOUS
 10
402.042755
 20
446.240753
 40
7.000000
 50
-90.000000
 51
0.000000
  0
ARC
  8
0
  6
CONTINUOUS
 10
266.042755
 20
446.240753
 40
7.000000
 50
0.000000
 51
90.000000
  0
ARC
  8
0
  6
CONTINUOUS
 10
280.042755
 20
446.240753
 40
7.000000
 50
180.000000
 51
270.000000
  0
ARC
  8
0
  6
CONTINUOUS
 10
281.042755
 20
435.240540
 40
7.500000
 50
-226.078156
 51
32.232941
  0
ARC
  8
0
  6
CONTINUOUS
 10
401.042969
 20
435.241211
 40
7.500000
 50
-212.226791
 51
46.074883
  0
ARC
  8
0
  6
CONTINUOUS
 10
416.042755
 20
564.240784
 40
7.000000
 50
180.000000
 51
270.000000
  0
ARC
  8
0
  6
CONTINUOUS
 10
402.042755
 20
564.240784
 40
7.000000
 50
0.000000
 51
90.000000
  0
ARC
  8
0
  6
CONTINUOUS
 10
254.899048
 20
456.240753
 40
3.000000
 50
181.000366
 51
270.000000
  0
ARC
  8
0
  6
CONTINUOUS
 10
427.187073
 20
456.240753
 40
3.000000
 50
270.000000
 51
358.999847
  0
ARC
  8
0
  6
CONTINUOUS
 10
254.899048
 20
554.240784
 40
3.000000
 50
90.000000
 51
178.999634
  0
ARC
  8
0
  6
CONTINUOUS
 10
427.187073
 20
554.240784
 40
3.000000
 50
1.000152
 51
90.000000
  0
ARC
  8
0
  6
CONTINUOUS
 10
281.042755
 20
575.241028
 40
7.500000
 50
-32.232941
 51
238.076355
  0
ARC
  8
0
  6
CONTINUOUS
 10
272.174377
 20
585.240967
 40
10.000000
 50
90.000000
 51
160.989105
  0
ARC
  8
0
  6
CONTINUOUS
 10
255.914169
 20
446.240601
 40
7.000000
 50
121.109207
 51
165.000336
  0
ARC
  8
0
  6
CONTINUOUS
 10
240.080368
 20
441.240631
 40
7.000000
 50
270.000000
 51
345.000092
  0
ARC
  8
0
  6
CONTINUOUS
 10
255.914368
 20
564.240540
 40
7.000000
 50
194.999695
 51
270.000000
  0
ARC
  8
0
  6
CONTINUOUS
 10
240.080780
 20
569.240540
 40
7.000000
 50
14.999900
 51
90.000000
  0
ARC
  8
0
  6
CONTINUOUS
 10
272.174377
 20
425.240570
 40
10.000000
 50
199.010895
 51
270.000000
  0
ARC
  8
0
  6
CONTINUOUS
 10
409.911774
 20
585.240295
 40
10.000000
 50
19.010900
 51
90.000000
  0
ARC
  8
0
  6
CONTINUOUS
 10
401.042969
 20
575.240295
 40
7.500000
 50
-46.074890
 51
212.226791
  0
ARC
  8
0
  6
CONTINUOUS
 10
409.911346
 20
425.240326
 40
10.000000
 50
270.000000
 51
340.989105
  0
ARC
  8
0
  6
CONTINUOUS
 10
666.576599
 20
144.641464
 40
81.000000
 50
157.497971
 51
158.261536
  0
ARC
  8
0
  6
CONTINUOUS
 10
666.576599
 20
144.641464
 40
72.000000
 50
173.257996
 51
203.556458
  0
ARC
  8
0
  6
CONTINUOUS
 10
588.791260
 20
158.441452
 40
1.000000
 50
92.000000
 51
268.000000
  0
ARC
  8
0
  6
CONTINUOUS
 10
590.530334
 20
123.241470
 40
1.000000
 50
92.000000
 51
268.000000
  0
ARC
  8
0
  6
CONTINUOUS
 10
597.512085
 20
120.996445
 40
1.000000
 50
18.899216
 51
88.000000
  0
ARC
  8
0
  6
CONTINUOUS
 10
598.675537
 20
117.837662
 40
1.000000
 50
-88.000000
 51
21.541519
  0
ARC
  8
0
  6
CONTINUOUS
 10
593.091919
 20
115.641464
 40
1.000000
 50
92.000000
 51
268.000000
  0
ARC
  8
0
  6
CONTINUOUS
 10
594.504028
 20
133.042191
 40
1.000000
 50
-88.000000
 51
9.142731
  0
ARC
  8
0
  6
CONTINUOUS
 10
596.147522
 20
125.438828
 40
1.000000
 50
-88.000000
 51
15.251099
  0
ARC
  8
0
  6
CONTINUOUS
 10
595.358521
 20
128.610916
 40
1.000000
 50
12.685333
 51
88.000000
  0
ARC
  8
0
  6
CONTINUOUS
 10
588.791260
 20
130.841476
 40
1.000000
 50
92.000000
 51
268.000000
  0
ARC
  8
0
  6
CONTINUOUS
 10
594.063782
 20
136.222214
 40
1.000000
 50
6.622787
 51
88.000000
  0
ARC
  8
0
  6
CONTINUOUS
 10
593.685974
 20
140.647507
 40
1.000000
 50
-88.000000
 51
3.136307
  0
ARC
  8
0
  6
CONTINUOUS
 10
587.820312
 20
138.441452
 40
1.000000
 50
92.000000
 51
268.000000
  0
ARC
  8
0
  6
CONTINUOUS
 10
593.685974
 20
148.635422
 40
1.000000
 50
-3.136322
 51
88.000000
  0
ARC
  8
0
  6
CONTINUOUS
 10
594.063782
 20
153.060715
 40
1.000000
 50
272.000000
 51
353.377228
  0
ARC
  8
0
  6
CONTINUOUS
 10
587.820312
 20
150.841476
 40
1.000000
 50
92.000000
 51
268.000000
  0
ARC
  8
0
  6
CONTINUOUS
 10
590.530334
 20
166.041458
 40
1.000000
 50
92.000000
 51
268.000000
  0
ARC
  8
0
  6
CONTINUOUS
 10
593.091919
 20
173.641464
 40
1.000000
 50
92.000000
 51
268.000000
  0
ARC
  8
0
  6
CONTINUOUS
 10
736.586914
 20
108.041458
 40
1.000000
 50
-88.000000
 51
88.000000
  0
ARC
  8
0
  6
CONTINUOUS
 10
596.566345
 20
108.041458
 40
1.000000
 50
92.000000
 51
268.000000
  0
ARC
  8
0
  6
CONTINUOUS
 10
610.653809
 20
88.841476
 40
1.000000
 50
92.000000
 51
268.000000
  0
ARC
  8
0
  6
CONTINUOUS
 10
722.499390
 20
88.841476
 40
1.000000
 50
-88.000000
 51
88.000000
  0
ARC
  8
0
  6
CONTINUOUS
 10
744.361938
 20
158.441452
 40
1.000000
 50
-88.000000
 51
88.000000
  0
ARC
  8
0
  6
CONTINUOUS
 10
742.622925
 20
123.241470
 40
1.000000
 50
-88.000000
 51
88.000000
  0
ARC
  8
0
  6
CONTINUOUS
 10
735.641174
 20
120.996445
 40
1.000000
 50
92.000000
 51
161.100784
  0
ARC
  8
0
  6
CONTINUOUS
 10
734.477661
 20
117.837662
 40
1.000000
 50
158.458481
 51
268.000000
  0
ARC
  8
0
  6
CONTINUOUS
 10
740.061279
 20
115.641464
 40
1.000000
 50
-88.000000
 51
88.000000
  0
ARC
  8
0
  6
CONTINUOUS
 10
738.649170
 20
133.042191
 40
1.000000
 50
170.857269
 51
268.000000
  0
ARC
  8
0
  6
CONTINUOUS
 10
737.005737
 20
125.438828
 40
1.000000
 50
164.748901
 51
268.000000
  0
ARC
  8
0
  6
CONTINUOUS
 10
737.794739
 20
128.610916
 40
1.000000
 50
92.000000
 51
167.314667
  0
ARC
  8
0
  6
CONTINUOUS
 10
744.361938
 20
130.841476
 40
1.000000
 50
-88.000000
 51
88.000000
  0
ARC
  8
0
  6
CONTINUOUS
 10
739.089478
 20
136.222214
 40
1.000000
 50
92.000000
 51
173.377213
  0
ARC
  8
0
  6
CONTINUOUS
 10
739.467285
 20
140.647507
 40
1.000000
 50
176.863693
 51
268.000000
  0
ARC
  8
0
  6
CONTINUOUS
 10
745.332947
 20
138.441452
 40
1.000000
 50
-88.000000
 51
88.000000
  0
ARC
  8
0
  6
CONTINUOUS
 10
739.467285
 20
148.635422
 40
1.000000
 50
92.000000
 51
183.136307
  0
ARC
  8
0
  6
CONTINUOUS
 10
739.089478
 20
153.060715
 40
1.000000
 50
186.622787
 51
268.000000
  0
ARC
  8
0
  6
CONTINUOUS
 10
745.332947
 20
150.841476
 40
1.000000
 50
-88.000000
 51
88.000000
  0
ARC
  8
0
  6
CONTINUOUS
 10
742.622925
 20
166.041458
 40
1.000000
 50
-88.000000
 51
88.000000
  0
ARC
  8
0
  6
CONTINUOUS
 10
740.061279
 20
173.641464
 40
1.000000
 50
-88.000000
 51
88.000000
  0
ARC
  8
0
  6
CONTINUOUS
 10
666.576599
 20
144.641464
 40
72.000000
 50
-23.556458
 51
6.741959
  0
ARC
  8
0
  6
CONTINUOUS
 10
580.576599
 20
198.141464
 40
6.000000
 50
-90.000000
 51
90.000000
  0
ARC
  8
0
  6
CONTINUOUS
 10
666.576599
 20
144.641464
 40
71.000000
 50
173.931793
 51
201.630905
  0
ARC
  8
0
  6
CONTINUOUS
 10
666.576599
 20
144.641464
 40
71.000000
 50
-21.630920
 51
6.068256
  0
ARC
  8
0
  6
CONTINUOUS
 10
607.576599
 20
255.421570
 40
7.000000
 50
-74.054443
 51
0.000000
  0
ARC
  8
0
  6
CONTINUOUS
 10
593.576599
 20
145.297241
 40
7.000000
 50
0.000000
 51
60.000092
  0
ARC
  8
0
  6
CONTINUOUS
 10
607.576599
 20
84.361328
 40
7.000000
 50
0.000000
 51
74.054688
  0
ARC
  8
0
  6
CONTINUOUS
 10
579.576599
 20
50.510365
 40
3.000000
 50
97.496292
 51
180.000000
  0
ARC
  8
0
  6
CONTINUOUS
 10
579.576599
 20
50.141483
 40
3.000000
 50
90.000000
 51
180.000000
  0
ARC
  8
0
  6
CONTINUOUS
 10
609.576599
 20
58.141464
 40
5.000000
 50
-90.000000
 51
0.000000
  0
ARC
  8
0
  6
CONTINUOUS
 10
611.576599
 20
60.772606
 40
3.000000
 50
-82.503876
 51
0.000000
  0
ARC
  8
0
  6
CONTINUOUS
 10
723.576599
 20
58.141483
 40
5.000000
 50
180.000000
 51
270.000000
  0
ARC
  8
0
  6
CONTINUOUS
 10
753.576599
 20
50.510326
 40
3.000000
 50
0.000000
 51
82.504204
  0
ARC
  8
0
  6
CONTINUOUS
 10
753.576599
 20
50.141464
 40
3.000000
 50
0.000000
 51
90.000000
  0
ARC
  8
0
  6
CONTINUOUS
 10
721.576599
 20
60.772606
 40
3.000000
 50
180.000000
 51
262.504395
  0
ARC
  8
0
  6
CONTINUOUS
 10
739.576599
 20
145.297211
 40
7.000000
 50
120.000099
 51
180.000000
  0
ARC
  8
0
  6
CONTINUOUS
 10
725.576599
 20
84.361404
 40
7.000000
 50
105.945801
 51
180.000000
  0
ARC
  8
0
  6
CONTINUOUS
 10
725.576599
 20
255.421631
 40
7.000000
 50
180.000000
 51
254.054901
  0
ARC
  8
0
  6
CONTINUOUS
 10
725.576599
 20
98.921562
 40
7.000000
 50
-74.054504
 51
0.000000
  0
ARC
  8
0
  6
CONTINUOUS
 10
607.576599
 20
98.921623
 40
7.000000
 50
180.000000
 51
254.054901
  0
ARC
  8
0
  6
CONTINUOUS
 10
732.576599
 20
157.421570
 40
7.000000
 50
-59.999878
 51
0.000000
  0
ARC
  8
0
  6
CONTINUOUS
 10
732.576599
 20
238.861328
 40
7.000000
 50
0.000000
 51
74.054764
  0
ARC
  8
0
  6
CONTINUOUS
 10
600.576599
 20
157.421631
 40
7.000000
 50
180.000000
 51
240.000198
  0
ARC
  8
0
  6
CONTINUOUS
 10
600.576599
 20
238.861389
 40
7.000000
 50
105.945801
 51
180.000000
  0
ARC
  8
0
  6
CONTINUOUS
 10
714.576599
 20
270.803192
 40
4.000000
 50
0.000000
 51
89.000359
  0
ARC
  8
0
  6
CONTINUOUS
 10
618.576599
 20
270.802856
 40
4.000000
 50
91.000580
 51
180.000000
  0
LINE
  8
0
  6
CONTINUOUS
 10
592.576599
 20
172.784454
 11
592.576599
 21
167.113525
  0
LINE
  8
0
  6
CONTINUOUS
 10
592.576599
 20
164.969391
 11
592.576599
 21
159.574249
  0
LINE
  8
0
  6
CONTINUOUS
 10
591.076599
 20
167.061142
 11
591.076599
 21
178.141464
  0
LINE
  8
0
  6
CONTINUOUS
 10
592.576599
 20
157.308655
 11
592.576599
 21
152.008179
  0
LINE
  8
0
  6
CONTINUOUS
 10
591.076599
 20
159.521866
 11
591.076599
 21
165.021774
  0
LINE
  8
0
  6
CONTINUOUS
 10
592.576599
 20
149.674774
 11
592.576599
 21
139.608154
  0
LINE
  8
0
  6
CONTINUOUS
 10
591.076599
 20
151.955795
 11
591.076599
 21
157.361038
  0
LINE
  8
0
  6
CONTINUOUS
 10
592.576599
 20
137.274750
 11
592.576599
 21
131.974274
  0
LINE
  8
0
  6
CONTINUOUS
 10
591.076599
 20
139.555771
 11
591.076599
 21
149.727158
  0
LINE
  8
0
  6
CONTINUOUS
 10
591.076599
 20
131.921890
 11
591.076599
 21
137.327133
  0
LINE
  8
0
  6
CONTINUOUS
 10
592.576599
 20
129.708679
 11
592.576599
 21
124.313530
  0
LINE
  8
0
  6
CONTINUOUS
 10
592.576599
 20
122.169403
 11
592.576599
 21
116.498466
  0
LINE
  8
0
  6
CONTINUOUS
 10
591.076599
 20
124.261154
 11
591.076599
 21
129.761063
  0
LINE
  8
0
  6
CONTINUOUS
 10
592.576599
 20
114.784470
 11
592.576599
 21
114.641479
  0
TEXT
  8
0
 10
17.000000
 20
-11.000000
 40
10.000000
 41
1.000000
  1
H2LB-40R-80~240-075W
 50
0.000000
  0
ENDSEC
  0
EOF
