  0
SECTION
  2
HEADER
  9
$CLAYER
  8
1
  9
$LTSCALE
 40
3.0
  0
ENDSEC
  0
SECTION
  2
TABLES
  0
TABLE
  2
LTYPE
 70
     4
  0
LTYPE
  2
CONTINUOUS
  3
solid line
 70
    64
 72
    65
 73
     0
 40
0.0
  0
LTYPE
  2
DASHED
  3
__ __ __ __ __ __ __ __ __ __ __ __ __ __ __
 70
    64
 72
    65
 73
     2
 40
0.75
 49
0.5
 49
-0.25
  0
LTYPE
  2
CENTER
  3
____ _ ____ _ ____ _ ____ _ ____ _ ____ _ ____
 70
    64
 72
    65
 73
     4
 40
2.0
 49
1.25
 49
-0.25
 49
0.25
 49
-0.25
  0
LTYPE
  2
PHANTOM
  3
_____ _ _ _____ _ _ _____ _ _ _____ _ _ ____
 70
    64
 72
    65
 73
     6
 40
2.5
 49
1.25
 49
-0.25
 49
0.25
 49
-0.25
 49
0.25
 49
-0.25
  0
ENDTAB
  0
TABLE
  2
LAYER
 70
     1
  0
LAYER
  2
0
 70
    64
 62
     7
  6
CONTINUOUS
  0
ENDTAB
  0
TABLE
  2
STYLE
 70
     1
  0
STYLE
  2
STANDARD
 70
     0
 40
0.000000
 41
1.000000
 50
0.000000
 71
     0
 42
3.000000
  3
txt
  4
BIGFONT
  0
ENDTAB
  0
ENDSEC
  0
SECTION
  2
BLOCKS
  0
ENDSEC
  0
SECTION
  2
ENTITIES
  0
LINE
  8
0
  6
CONTINUOUS
 10
62.922070
 20
613.375732
 11
72.461258
 21
613.458984
  0
LINE
  8
0
  6
CONTINUOUS
 10
107.439880
 20
619.362488
 11
76.085167
 21
619.362488
  0
LINE
  8
0
  6
CONTINUOUS
 10
108.952667
 20
257.263306
 11
108.952667
 21
217.654312
  0
LINE
  8
0
  6
CONTINUOUS
 10
62.922070
 20
463.375702
 11
72.461258
 21
463.292450
  0
LINE
  8
0
  6
CONTINUOUS
 10
62.921764
 20
252.776459
 11
66.150963
 21
252.804642
  0
LINE
  8
0
  6
CONTINUOUS
 10
62.921764
 20
102.776459
 11
66.150963
 21
102.748276
  0
LINE
  8
0
  6
CONTINUOUS
 10
107.439575
 20
99.789665
 11
69.141953
 21
99.789665
  0
LINE
  8
0
  6
CONTINUOUS
 10
107.439575
 20
258.763245
 11
68.616447
 21
258.763245
  0
LINE
  8
0
  6
CONTINUOUS
 10
107.439880
 20
457.388916
 11
76.085167
 21
457.388916
  0
LINE
  8
0
  6
CONTINUOUS
 10
108.952972
 20
617.862549
 11
108.952972
 21
458.888855
  0
LINE
  8
0
  6
CONTINUOUS
 10
109.952675
 20
117.276489
 11
109.952675
 21
105.776466
  0
LINE
  8
0
  6
CONTINUOUS
 10
115.952644
 20
107.016167
 11
118.952644
 21
108.149529
  0
LINE
  8
0
  6
CONTINUOUS
 10
118.452644
 20
107.960625
 11
118.452644
 21
102.088989
  0
LINE
  8
0
  6
CONTINUOUS
 10
118.252625
 20
107.885071
 11
118.252625
 21
102.088989
  0
LINE
  8
0
  6
CONTINUOUS
 10
118.052650
 20
107.809509
 11
118.052650
 21
102.088989
  0
LINE
  8
0
  6
CONTINUOUS
 10
117.852669
 20
107.733971
 11
117.852669
 21
102.088989
  0
LINE
  8
0
  6
CONTINUOUS
 10
117.652687
 20
107.658409
 11
117.652687
 21
102.088989
  0
LINE
  8
0
  6
CONTINUOUS
 10
117.452644
 20
107.582886
 11
117.452644
 21
102.088989
  0
LINE
  8
0
  6
CONTINUOUS
 10
117.252625
 20
107.507294
 11
117.252625
 21
102.088989
  0
LINE
  8
0
  6
CONTINUOUS
 10
117.052650
 20
107.431763
 11
117.052650
 21
102.088989
  0
LINE
  8
0
  6
CONTINUOUS
 10
116.852669
 20
107.356209
 11
116.852669
 21
102.088989
  0
LINE
  8
0
  6
CONTINUOUS
 10
116.652687
 20
107.280647
 11
116.652687
 21
102.088989
  0
LINE
  8
0
  6
CONTINUOUS
 10
116.452644
 20
107.205070
 11
116.452644
 21
102.088989
  0
LINE
  8
0
  6
CONTINUOUS
 10
115.452644
 20
105.513649
 11
115.452644
 21
99.870232
  0
LINE
  8
0
  6
CONTINUOUS
 10
115.252625
 20
105.597527
 11
115.252625
 21
99.870232
  0
LINE
  8
0
  6
CONTINUOUS
 10
115.052650
 20
105.681389
 11
115.052650
 21
99.870232
  0
LINE
  8
0
  6
CONTINUOUS
 10
114.852669
 20
105.765244
 11
114.852669
 21
99.870232
  0
LINE
  8
0
  6
CONTINUOUS
 10
114.652687
 20
105.849129
 11
114.652687
 21
99.870232
  0
LINE
  8
0
  6
CONTINUOUS
 10
114.452644
 20
105.932983
 11
114.452644
 21
99.870232
  0
LINE
  8
0
  6
CONTINUOUS
 10
114.252625
 20
106.016846
 11
114.252625
 21
99.870232
  0
LINE
  8
0
  6
CONTINUOUS
 10
114.052650
 20
106.100708
 11
114.052650
 21
99.870232
  0
LINE
  8
0
  6
CONTINUOUS
 10
113.852669
 20
106.184624
 11
113.852669
 21
99.870232
  0
LINE
  8
0
  6
CONTINUOUS
 10
113.652687
 20
106.268471
 11
113.652687
 21
99.870232
  0
LINE
  8
0
  6
CONTINUOUS
 10
113.452644
 20
106.352348
 11
113.452644
 21
99.870232
  0
LINE
  8
0
  6
CONTINUOUS
 10
112.952644
 20
106.562012
 11
115.952644
 21
105.303947
  0
LINE
  8
0
  6
CONTINUOUS
 10
112.952644
 20
115.276489
 11
112.952644
 21
106.562012
  0
LINE
  8
0
  6
CONTINUOUS
 10
115.952644
 20
115.276489
 11
115.952644
 21
105.303947
  0
LINE
  8
0
  6
CONTINUOUS
 10
118.952644
 20
115.276489
 11
118.952644
 21
108.149529
  0
LINE
  8
0
  6
CONTINUOUS
 10
110.952644
 20
117.276489
 11
108.952644
 21
117.276489
  0
LINE
  8
0
  6
CONTINUOUS
 10
110.952644
 20
120.276489
 11
108.952644
 21
120.276489
  0
LINE
  8
0
  6
CONTINUOUS
 10
110.952644
 20
123.276489
 11
108.952644
 21
123.276489
  0
LINE
  8
0
  6
CONTINUOUS
 10
228.952667
 20
227.776474
 11
113.952675
 21
227.776474
  0
LINE
  8
0
  6
CONTINUOUS
 10
228.952667
 20
225.776474
 11
113.952675
 21
225.776474
  0
LINE
  8
0
  6
CONTINUOUS
 10
228.952667
 20
234.576462
 11
113.952675
 21
234.576462
  0
LINE
  8
0
  6
CONTINUOUS
 10
228.952667
 20
232.576462
 11
113.952675
 21
232.576462
  0
LINE
  8
0
  6
CONTINUOUS
 10
228.952667
 20
241.076462
 11
113.952675
 21
241.076462
  0
LINE
  8
0
  6
CONTINUOUS
 10
228.952667
 20
239.076462
 11
113.952675
 21
239.076462
  0
LINE
  8
0
  6
CONTINUOUS
 10
228.952667
 20
247.576462
 11
113.952675
 21
247.576462
  0
LINE
  8
0
  6
CONTINUOUS
 10
228.952667
 20
245.576462
 11
113.952675
 21
245.576462
  0
LINE
  8
0
  6
CONTINUOUS
 10
113.952675
 20
248.831314
 11
228.952667
 21
248.831314
  0
LINE
  8
0
  6
CONTINUOUS
 10
114.497078
 20
253.776474
 11
228.408264
 21
253.776474
  0
LINE
  8
0
  6
CONTINUOUS
 10
228.952667
 20
182.976471
 11
197.452667
 21
182.976471
  0
LINE
  8
0
  6
CONTINUOUS
 10
228.952667
 20
184.976471
 11
197.452667
 21
184.976471
  0
LINE
  8
0
  6
CONTINUOUS
 10
228.952667
 20
192.576462
 11
197.452667
 21
192.576462
  0
LINE
  8
0
  6
CONTINUOUS
 10
228.952667
 20
190.576447
 11
197.452667
 21
190.576447
  0
LINE
  8
0
  6
CONTINUOUS
 10
228.952667
 20
200.176468
 11
197.452667
 21
200.176468
  0
LINE
  8
0
  6
CONTINUOUS
 10
228.952667
 20
198.176468
 11
197.452667
 21
198.176468
  0
LINE
  8
0
  6
CONTINUOUS
 10
228.952667
 20
205.776474
 11
197.452667
 21
205.776474
  0
LINE
  8
0
  6
CONTINUOUS
 10
228.952667
 20
149.776459
 11
197.452667
 21
149.776459
  0
LINE
  8
0
  6
CONTINUOUS
 10
228.952667
 20
157.376465
 11
197.452667
 21
157.376465
  0
LINE
  8
0
  6
CONTINUOUS
 10
228.952667
 20
155.376465
 11
197.452667
 21
155.376465
  0
LINE
  8
0
  6
CONTINUOUS
 10
228.952667
 20
164.976471
 11
197.452667
 21
164.976471
  0
LINE
  8
0
  6
CONTINUOUS
 10
228.952667
 20
162.976471
 11
197.452667
 21
162.976471
  0
LINE
  8
0
  6
CONTINUOUS
 10
228.952667
 20
170.576447
 11
197.452667
 21
170.576447
  0
LINE
  8
0
  6
CONTINUOUS
 10
228.952667
 20
172.576447
 11
197.452667
 21
172.576447
  0
LINE
  8
0
  6
CONTINUOUS
 10
228.952667
 20
207.776474
 11
193.452774
 21
207.776474
  0
LINE
  8
0
  6
CONTINUOUS
 10
228.952667
 20
215.376480
 11
191.601135
 21
215.376480
  0
LINE
  8
0
  6
CONTINUOUS
 10
228.952667
 20
213.376480
 11
192.769409
 21
213.376480
  0
LINE
  8
0
  6
CONTINUOUS
 10
228.952667
 20
129.776459
 11
113.952675
 21
129.776459
  0
LINE
  8
0
  6
CONTINUOUS
 10
228.952667
 20
142.176453
 11
192.769409
 21
142.176453
  0
LINE
  8
0
  6
CONTINUOUS
 10
228.952667
 20
140.176453
 11
191.601135
 21
140.176453
  0
LINE
  8
0
  6
CONTINUOUS
 10
228.952667
 20
147.776459
 11
193.452774
 21
147.776459
  0
LINE
  8
0
  6
CONTINUOUS
 10
228.952667
 20
116.476479
 11
118.862137
 21
116.476479
  0
LINE
  8
0
  6
CONTINUOUS
 10
228.952667
 20
122.976479
 11
113.952675
 21
122.976479
  0
LINE
  8
0
  6
CONTINUOUS
 10
228.952667
 20
120.976479
 11
116.566032
 21
120.976479
  0
LINE
  8
0
  6
CONTINUOUS
 10
228.952667
 20
127.776466
 11
113.952675
 21
127.776466
  0
LINE
  8
0
  6
CONTINUOUS
 10
115.952644
 20
106.721626
 11
228.952667
 21
106.721626
  0
LINE
  8
0
  6
CONTINUOUS
 10
228.952667
 20
109.976479
 11
118.952644
 21
109.976479
  0
LINE
  8
0
  6
CONTINUOUS
 10
228.952667
 20
107.976479
 11
118.494583
 21
107.976479
  0
LINE
  8
0
  6
CONTINUOUS
 10
228.952667
 20
114.476479
 11
118.952644
 21
114.476479
  0
LINE
  8
0
  6
CONTINUOUS
 10
114.497078
 20
101.776466
 11
228.408264
 21
101.776466
  0
LINE
  8
0
  6
CONTINUOUS
 10
249.952667
 20
105.776466
 11
230.791779
 21
105.776466
  0
LINE
  8
0
  6
CONTINUOUS
 10
229.393066
 20
102.602821
 11
229.806961
 21
104.950111
  0
LINE
  8
0
  6
CONTINUOUS
 10
229.952667
 20
108.976479
 11
229.952667
 21
105.320435
  0
LINE
  8
0
  6
CONTINUOUS
 10
249.952667
 20
249.776474
 11
230.791779
 21
249.776474
  0
LINE
  8
0
  6
CONTINUOUS
 10
229.952667
 20
246.576462
 11
229.952667
 21
250.232498
  0
LINE
  8
0
  6
CONTINUOUS
 10
229.393066
 20
252.950119
 11
229.806961
 21
250.602829
  0
LINE
  8
0
  6
CONTINUOUS
 10
109.952675
 20
249.776474
 11
109.952675
 21
218.134262
  0
LINE
  8
0
  6
CONTINUOUS
 10
112.113564
 20
105.776466
 11
109.952675
 21
105.776466
  0
LINE
  8
0
  6
CONTINUOUS
 10
113.512260
 20
102.602821
 11
113.098381
 21
104.950111
  0
LINE
  8
0
  6
CONTINUOUS
 10
112.952675
 20
108.976479
 11
112.952675
 21
105.320435
  0
LINE
  8
0
  6
CONTINUOUS
 10
196.452667
 20
153.376465
 11
196.452667
 21
152.776459
  0
LINE
  8
0
  6
CONTINUOUS
 10
196.452667
 20
168.576447
 11
196.452667
 21
166.976471
  0
LINE
  8
0
  6
CONTINUOUS
 10
196.452667
 20
160.976471
 11
196.452667
 21
159.376465
  0
LINE
  8
0
  6
CONTINUOUS
 10
196.452667
 20
180.976471
 11
196.452667
 21
174.576447
  0
LINE
  8
0
  6
CONTINUOUS
 10
196.452667
 20
188.576447
 11
196.452667
 21
186.976471
  0
LINE
  8
0
  6
CONTINUOUS
 10
196.452667
 20
202.776474
 11
196.452667
 21
202.176468
  0
LINE
  8
0
  6
CONTINUOUS
 10
196.452667
 20
196.176468
 11
196.452667
 21
194.576462
  0
LINE
  8
0
  6
CONTINUOUS
 10
112.952675
 20
246.576462
 11
112.952675
 21
250.232498
  0
LINE
  8
0
  6
CONTINUOUS
 10
112.113564
 20
249.776474
 11
109.952675
 21
249.776474
  0
LINE
  8
0
  6
CONTINUOUS
 10
113.512260
 20
252.950119
 11
113.098381
 21
250.602829
  0
LINE
  8
0
  6
CONTINUOUS
 10
108.952667
 20
107.276474
 11
109.952667
 21
107.276474
  0
LINE
  8
0
  6
CONTINUOUS
 10
108.952667
 20
248.276474
 11
109.952667
 21
248.276474
  0
LINE
  8
0
  6
CONTINUOUS
 10
112.952972
 20
510.497040
 11
112.952972
 21
566.254395
  0
LINE
  8
0
  6
CONTINUOUS
 10
113.173645
 20
465.177856
 11
113.098663
 21
465.549347
  0
LINE
  8
0
  6
CONTINUOUS
 10
197.886169
 20
461.329407
 11
228.137207
 21
461.329407
  0
LINE
  8
0
  6
CONTINUOUS
 10
198.237167
 20
459.590363
 11
227.786194
 21
459.590363
  0
LINE
  8
0
  6
CONTINUOUS
 10
197.452927
 20
459.421539
 11
196.452972
 21
464.375702
  0
LINE
  8
0
  6
CONTINUOUS
 10
112.113861
 20
466.375702
 11
109.952972
 21
466.375702
  0
LINE
  8
0
  6
CONTINUOUS
 10
196.452972
 20
464.375702
 11
114.153877
 21
464.375702
  0
LINE
  8
0
  6
CONTINUOUS
 10
114.441109
 20
468.191772
 11
112.952972
 21
476.631378
  0
LINE
  8
0
  6
CONTINUOUS
 10
114.767982
 20
476.234344
 11
112.952972
 21
486.527771
  0
LINE
  8
0
  6
CONTINUOUS
 10
115.084259
 20
482.279266
 11
112.952972
 21
494.366394
  0
LINE
  8
0
  6
CONTINUOUS
 10
115.325829
 20
491.269043
 11
112.952972
 21
504.726166
  0
LINE
  8
0
  6
CONTINUOUS
 10
114.164665
 20
503.625183
 11
112.952972
 21
510.497040
  0
LINE
  8
0
  6
CONTINUOUS
 10
228.590546
 20
464.717377
 11
229.952972
 21
472.444122
  0
LINE
  8
0
  6
CONTINUOUS
 10
228.464844
 20
468.191772
 11
229.952972
 21
476.631378
  0
LINE
  8
0
  6
CONTINUOUS
 10
228.137970
 20
476.234344
 11
229.952972
 21
486.527771
  0
LINE
  8
0
  6
CONTINUOUS
 10
227.821686
 20
482.279266
 11
229.952972
 21
494.366394
  0
LINE
  8
0
  6
CONTINUOUS
 10
227.580124
 20
491.269043
 11
229.952972
 21
504.726166
  0
LINE
  8
0
  6
CONTINUOUS
 10
228.741272
 20
503.625183
 11
229.952972
 21
510.497040
  0
LINE
  8
0
  6
CONTINUOUS
 10
112.952972
 20
510.497040
 11
229.952972
 21
510.497040
  0
LINE
  8
0
  6
CONTINUOUS
 10
227.756470
 20
502.798828
 11
115.149475
 21
502.798828
  0
LINE
  8
0
  6
CONTINUOUS
 10
226.595306
 20
490.442688
 11
116.310638
 21
490.442688
  0
LINE
  8
0
  6
CONTINUOUS
 10
226.836884
 20
481.452911
 11
116.069069
 21
481.452911
  0
LINE
  8
0
  6
CONTINUOUS
 10
227.153152
 20
475.407990
 11
115.752792
 21
475.407990
  0
LINE
  8
0
  6
CONTINUOUS
 10
115.425911
 20
467.365417
 11
227.480042
 21
467.365417
  0
LINE
  8
0
  6
CONTINUOUS
 10
227.605728
 20
463.891022
 11
196.550797
 21
463.891022
  0
LINE
  8
0
  6
CONTINUOUS
 10
227.590210
 20
458.619385
 11
198.433151
 21
458.619385
  0
LINE
  8
0
  6
CONTINUOUS
 10
228.570450
 20
459.421539
 11
229.807281
 21
465.549347
  0
LINE
  8
0
  6
CONTINUOUS
 10
114.768745
 20
615.421997
 11
228.137207
 21
615.421997
  0
LINE
  8
0
  6
CONTINUOUS
 10
114.315407
 20
612.034058
 11
112.952972
 21
604.307312
  0
LINE
  8
0
  6
CONTINUOUS
 10
114.441109
 20
608.559631
 11
112.952972
 21
600.120056
  0
LINE
  8
0
  6
CONTINUOUS
 10
114.767982
 20
600.517090
 11
112.952972
 21
590.223633
  0
LINE
  8
0
  6
CONTINUOUS
 10
115.084259
 20
594.472168
 11
112.952972
 21
582.385010
  0
LINE
  8
0
  6
CONTINUOUS
 10
115.325829
 20
585.482361
 11
112.952972
 21
572.025269
  0
LINE
  8
0
  6
CONTINUOUS
 10
114.164665
 20
573.126221
 11
112.952972
 21
566.254395
  0
LINE
  8
0
  6
CONTINUOUS
 10
114.335503
 20
617.329895
 11
113.098663
 21
611.202087
  0
LINE
  8
0
  6
CONTINUOUS
 10
228.590546
 20
612.034058
 11
229.952972
 21
604.307312
  0
LINE
  8
0
  6
CONTINUOUS
 10
228.464844
 20
608.559631
 11
229.952972
 21
600.120056
  0
LINE
  8
0
  6
CONTINUOUS
 10
228.137970
 20
600.517090
 11
229.952972
 21
590.223633
  0
LINE
  8
0
  6
CONTINUOUS
 10
227.821686
 20
594.472168
 11
229.952972
 21
582.385010
  0
LINE
  8
0
  6
CONTINUOUS
 10
227.580124
 20
585.482361
 11
229.952972
 21
572.025269
  0
LINE
  8
0
  6
CONTINUOUS
 10
228.741272
 20
573.126221
 11
229.952972
 21
566.254395
  0
LINE
  8
0
  6
CONTINUOUS
 10
112.952972
 20
566.254395
 11
229.952972
 21
566.254395
  0
LINE
  8
0
  6
CONTINUOUS
 10
227.756470
 20
573.952576
 11
115.149475
 21
573.952576
  0
LINE
  8
0
  6
CONTINUOUS
 10
226.595306
 20
586.308716
 11
116.310638
 21
586.308716
  0
LINE
  8
0
  6
CONTINUOUS
 10
226.836884
 20
595.298523
 11
116.069069
 21
595.298523
  0
LINE
  8
0
  6
CONTINUOUS
 10
227.153152
 20
601.343445
 11
115.752792
 21
601.343445
  0
LINE
  8
0
  6
CONTINUOUS
 10
227.480042
 20
609.385986
 11
115.425911
 21
609.385986
  0
LINE
  8
0
  6
CONTINUOUS
 10
227.605728
 20
612.860413
 11
115.300217
 21
612.860413
  0
LINE
  8
0
  6
CONTINUOUS
 10
115.119751
 20
617.161072
 11
227.786194
 21
617.161072
  0
LINE
  8
0
  6
CONTINUOUS
 10
227.590210
 20
618.132019
 11
115.315735
 21
618.132019
  0
LINE
  8
0
  6
CONTINUOUS
 10
109.952972
 20
610.375732
 11
109.952972
 21
466.375702
  0
LINE
  8
0
  6
CONTINUOUS
 10
112.113861
 20
610.375732
 11
109.952972
 21
610.375732
  0
LINE
  8
0
  6
CONTINUOUS
 10
249.952972
 20
466.375702
 11
230.792084
 21
466.375702
  0
LINE
  8
0
  6
CONTINUOUS
 10
249.952972
 20
610.375732
 11
230.792084
 21
610.375732
  0
LINE
  8
0
  6
CONTINUOUS
 10
229.952972
 20
510.497040
 11
229.952972
 21
566.254395
  0
LINE
  8
0
  6
CONTINUOUS
 10
228.570450
 20
617.329895
 11
229.807281
 21
611.202087
  0
LINE
  8
0
  6
CONTINUOUS
 10
108.952972
 20
467.875702
 11
109.952972
 21
467.875702
  0
LINE
  8
0
  6
CONTINUOUS
 10
108.952972
 20
608.875732
 11
109.952972
 21
608.875732
  0
LINE
  8
0
  6
CONTINUOUS
 10
108.952972
 20
608.875732
 11
109.952972
 21
608.875732
  0
ARC
  8
0
  6
CONTINUOUS
 10
107.452972
 20
617.862549
 40
1.500000
 50
0.000000
 51
90.500000
  0
ARC
  8
0
  6
CONTINUOUS
 10
76.085167
 20
617.362488
 40
2.000000
 50
90.000000
 51
168.553116
  0
ARC
  8
0
  6
CONTINUOUS
 10
72.452530
 20
614.458923
 40
1.000000
 50
270.500000
 51
349.062744
  0
ARC
  8
0
  6
CONTINUOUS
 10
62.922070
 20
598.375732
 40
15.000000
 50
90.000000
 51
171.480377
  0
ARC
  8
0
  6
CONTINUOUS
 10
107.452972
 20
458.888855
 40
1.500000
 50
-90.500000
 51
0.000000
  0
ARC
  8
0
  6
CONTINUOUS
 10
107.452667
 20
257.263306
 40
1.500000
 50
0.000000
 51
90.500000
  0
ARC
  8
0
  6
CONTINUOUS
 10
107.452667
 20
101.289604
 40
1.500000
 50
-90.500000
 51
0.000000
  0
ARC
  8
0
  6
CONTINUOUS
 10
72.452530
 20
462.292480
 40
1.000000
 50
10.937243
 51
89.500000
  0
ARC
  8
0
  6
CONTINUOUS
 10
76.085167
 20
459.388916
 40
2.000000
 50
191.446884
 51
270.000000
  0
ARC
  8
0
  6
CONTINUOUS
 10
62.922070
 20
478.375702
 40
15.000000
 50
188.519623
 51
270.000000
  0
ARC
  8
0
  6
CONTINUOUS
 10
68.616447
 20
256.763245
 40
2.000000
 50
90.000000
 51
191.331467
  0
ARC
  8
0
  6
CONTINUOUS
 10
66.142235
 20
253.804611
 40
1.000000
 50
-89.500000
 51
10.984692
  0
ARC
  8
0
  6
CONTINUOUS
 10
69.141953
 20
101.789665
 40
2.000000
 50
180.789703
 51
270.000000
  0
ARC
  8
0
  6
CONTINUOUS
 10
66.142235
 20
101.748322
 40
1.000000
 50
0.789699
 51
89.500000
  0
ARC
  8
0
  6
CONTINUOUS
 10
62.921764
 20
117.776459
 40
15.000000
 50
188.519623
 51
270.000000
  0
ARC
  8
0
  6
CONTINUOUS
 10
463.452667
 20
177.776459
 40
420.000000
 50
171.480377
 51
188.519623
  0
ARC
  8
0
  6
CONTINUOUS
 10
62.921764
 20
237.776459
 40
15.000000
 50
90.000000
 51
171.480377
  0
ARC
  8
0
  6
CONTINUOUS
 10
-325.547333
 20
177.776459
 40
400.000000
 50
-10.968414
 51
11.331461
  0
ARC
  8
0
  6
CONTINUOUS
 10
466.168610
 20
538.375732
 40
400.000000
 50
168.553116
 51
191.446884
  0
ARC
  8
0
  6
CONTINUOUS
 10
463.452972
 20
538.375732
 40
420.000000
 50
171.480377
 51
188.519623
  0
ARC
  8
0
  6
CONTINUOUS
 10
110.952644
 20
115.276489
 40
8.000000
 50
0.000000
 51
90.000000
  0
ARC
  8
0
  6
CONTINUOUS
 10
110.952644
 20
115.276489
 40
5.000000
 50
0.000000
 51
90.000000
  0
ARC
  8
0
  6
CONTINUOUS
 10
110.952644
 20
115.276489
 40
2.000000
 50
0.000000
 51
90.000000
  0
ARC
  8
0
  6
CONTINUOUS
 10
198.380875
 20
203.776474
 40
2.000000
 50
90.000000
 51
188.213196
  0
ARC
  8
0
  6
CONTINUOUS
 10
198.452667
 20
202.176468
 40
2.000000
 50
180.000000
 51
270.000000
  0
ARC
  8
0
  6
CONTINUOUS
 10
198.452667
 20
194.576462
 40
2.000000
 50
180.000000
 51
270.000000
  0
ARC
  8
0
  6
CONTINUOUS
 10
198.452667
 20
188.576447
 40
2.000000
 50
90.000000
 51
180.000000
  0
ARC
  8
0
  6
CONTINUOUS
 10
198.452667
 20
180.976471
 40
2.000000
 50
90.000000
 51
180.000000
  0
ARC
  8
0
  6
CONTINUOUS
 10
198.452667
 20
186.976471
 40
2.000000
 50
180.000000
 51
270.000000
  0
ARC
  8
0
  6
CONTINUOUS
 10
198.452667
 20
196.176468
 40
2.000000
 50
90.000000
 51
180.000000
  0
ARC
  8
0
  6
CONTINUOUS
 10
198.452667
 20
166.976471
 40
2.000000
 50
180.000000
 51
270.000000
  0
ARC
  8
0
  6
CONTINUOUS
 10
198.452667
 20
168.576447
 40
2.000000
 50
90.000000
 51
180.000000
  0
ARC
  8
0
  6
CONTINUOUS
 10
198.452667
 20
159.376465
 40
2.000000
 50
180.000000
 51
270.000000
  0
ARC
  8
0
  6
CONTINUOUS
 10
198.452667
 20
153.376465
 40
2.000000
 50
90.000000
 51
180.000000
  0
ARC
  8
0
  6
CONTINUOUS
 10
198.452667
 20
160.976471
 40
2.000000
 50
90.000000
 51
180.000000
  0
ARC
  8
0
  6
CONTINUOUS
 10
198.380875
 20
151.776459
 40
2.000000
 50
171.786789
 51
270.000000
  0
ARC
  8
0
  6
CONTINUOUS
 10
198.452667
 20
174.576447
 40
2.000000
 50
180.000000
 51
270.000000
  0
ARC
  8
0
  6
CONTINUOUS
 10
228.952667
 20
121.976479
 40
1.000000
 50
-90.000000
 51
90.000000
  0
ARC
  8
0
  6
CONTINUOUS
 10
228.952667
 20
107.721626
 40
1.000000
 50
-90.000000
 51
0.000000
  0
ARC
  8
0
  6
CONTINUOUS
 10
228.952667
 20
108.976479
 40
1.000000
 50
-90.000000
 51
90.000000
  0
ARC
  8
0
  6
CONTINUOUS
 10
228.408264
 20
102.776466
 40
1.000000
 50
270.000000
 51
350.000000
  0
ARC
  8
0
  6
CONTINUOUS
 10
230.791779
 20
104.776466
 40
1.000000
 50
90.000000
 51
170.000000
  0
ARC
  8
0
  6
CONTINUOUS
 10
228.952667
 20
115.476479
 40
1.000000
 50
-90.000000
 51
90.000000
  0
ARC
  8
0
  6
CONTINUOUS
 10
228.952667
 20
128.776459
 40
1.000000
 50
-90.000000
 51
90.000000
  0
ARC
  8
0
  6
CONTINUOUS
 10
228.952667
 20
141.176453
 40
1.000000
 50
-90.000000
 51
90.000000
  0
ARC
  8
0
  6
CONTINUOUS
 10
228.952667
 20
191.576447
 40
1.000000
 50
-90.000000
 51
90.000000
  0
ARC
  8
0
  6
CONTINUOUS
 10
228.952667
 20
156.376465
 40
1.000000
 50
-90.000000
 51
90.000000
  0
ARC
  8
0
  6
CONTINUOUS
 10
228.952667
 20
148.776459
 40
1.000000
 50
-90.000000
 51
90.000000
  0
ARC
  8
0
  6
CONTINUOUS
 10
228.952667
 20
163.976471
 40
1.000000
 50
-90.000000
 51
90.000000
  0
ARC
  8
0
  6
CONTINUOUS
 10
228.952667
 20
171.576447
 40
1.000000
 50
-90.000000
 51
90.000000
  0
ARC
  8
0
  6
CONTINUOUS
 10
228.952667
 20
183.976471
 40
1.000000
 50
-90.000000
 51
90.000000
  0
ARC
  8
0
  6
CONTINUOUS
 10
228.952667
 20
214.376480
 40
1.000000
 50
-90.000000
 51
90.000000
  0
ARC
  8
0
  6
CONTINUOUS
 10
228.952667
 20
199.176468
 40
1.000000
 50
-90.000000
 51
90.000000
  0
ARC
  8
0
  6
CONTINUOUS
 10
228.952667
 20
206.776474
 40
1.000000
 50
-90.000000
 51
90.000000
  0
ARC
  8
0
  6
CONTINUOUS
 10
228.952667
 20
226.776474
 40
1.000000
 50
-90.000000
 51
90.000000
  0
ARC
  8
0
  6
CONTINUOUS
 10
228.952667
 20
233.576462
 40
1.000000
 50
-90.000000
 51
90.000000
  0
ARC
  8
0
  6
CONTINUOUS
 10
230.791779
 20
250.776474
 40
1.000000
 50
190.000000
 51
270.000000
  0
ARC
  8
0
  6
CONTINUOUS
 10
228.952667
 20
246.576462
 40
1.000000
 50
-90.000000
 51
90.000000
  0
ARC
  8
0
  6
CONTINUOUS
 10
228.952667
 20
247.831314
 40
1.000000
 50
0.000000
 51
90.000000
  0
ARC
  8
0
  6
CONTINUOUS
 10
228.952667
 20
240.076462
 40
1.000000
 50
-90.000000
 51
90.000000
  0
ARC
  8
0
  6
CONTINUOUS
 10
228.408264
 20
252.776474
 40
1.000000
 50
10.000000
 51
90.000000
  0
ARC
  8
0
  6
CONTINUOUS
 10
113.952675
 20
121.976479
 40
1.000000
 50
90.000000
 51
117.527046
  0
ARC
  8
0
  6
CONTINUOUS
 10
112.113564
 20
104.776466
 40
1.000000
 50
10.000000
 51
90.000000
  0
ARC
  8
0
  6
CONTINUOUS
 10
114.497078
 20
102.776466
 40
1.000000
 50
190.000000
 51
270.000000
  0
ARC
  8
0
  6
CONTINUOUS
 10
113.952675
 20
128.776459
 40
1.000000
 50
90.000000
 51
270.000000
  0
ARC
  8
0
  6
CONTINUOUS
 10
197.452667
 20
191.576447
 40
1.000000
 50
90.000000
 51
270.000000
  0
ARC
  8
0
  6
CONTINUOUS
 10
197.452667
 20
156.376465
 40
1.000000
 50
90.000000
 51
270.000000
  0
ARC
  8
0
  6
CONTINUOUS
 10
191.452667
 20
152.776459
 40
5.000000
 50
-8.213196
 51
0.000000
  0
ARC
  8
0
  6
CONTINUOUS
 10
197.452667
 20
148.776459
 40
1.000000
 50
90.000000
 51
270.000000
  0
ARC
  8
0
  6
CONTINUOUS
 10
197.452667
 20
163.976471
 40
1.000000
 50
90.000000
 51
270.000000
  0
ARC
  8
0
  6
CONTINUOUS
 10
197.452667
 20
171.576447
 40
1.000000
 50
90.000000
 51
270.000000
  0
ARC
  8
0
  6
CONTINUOUS
 10
197.452667
 20
183.976471
 40
1.000000
 50
90.000000
 51
270.000000
  0
ARC
  8
0
  6
CONTINUOUS
 10
191.452667
 20
202.776474
 40
5.000000
 50
0.000000
 51
8.213211
  0
ARC
  8
0
  6
CONTINUOUS
 10
197.452667
 20
199.176468
 40
1.000000
 50
90.000000
 51
270.000000
  0
ARC
  8
0
  6
CONTINUOUS
 10
197.452667
 20
206.776474
 40
1.000000
 50
90.000000
 51
270.000000
  0
ARC
  8
0
  6
CONTINUOUS
 10
113.952675
 20
226.776474
 40
1.000000
 50
90.000000
 51
270.000000
  0
ARC
  8
0
  6
CONTINUOUS
 10
113.952675
 20
233.576462
 40
1.000000
 50
90.000000
 51
270.000000
  0
ARC
  8
0
  6
CONTINUOUS
 10
112.113564
 20
250.776474
 40
1.000000
 50
270.000000
 51
350.000000
  0
ARC
  8
0
  6
CONTINUOUS
 10
113.952675
 20
247.831314
 40
1.000000
 50
90.000000
 51
180.000000
  0
ARC
  8
0
  6
CONTINUOUS
 10
113.952675
 20
246.576462
 40
1.000000
 50
90.000000
 51
270.000000
  0
ARC
  8
0
  6
CONTINUOUS
 10
113.952675
 20
240.076462
 40
1.000000
 50
90.000000
 51
270.000000
  0
ARC
  8
0
  6
CONTINUOUS
 10
114.497078
 20
252.776474
 40
1.000000
 50
90.000000
 51
170.000000
  0
ARC
  8
0
  6
CONTINUOUS
 10
114.153877
 20
465.375702
 40
1.000000
 50
191.411255
 51
270.000000
  0
ARC
  8
0
  6
CONTINUOUS
 10
198.237167
 20
460.590363
 40
1.000000
 50
191.411255
 51
270.000000
  0
ARC
  8
0
  6
CONTINUOUS
 10
197.886169
 20
462.329407
 40
1.000000
 50
191.411255
 51
270.000000
  0
ARC
  8
0
  6
CONTINUOUS
 10
198.433151
 20
459.619385
 40
1.000000
 50
191.411255
 51
270.000000
  0
ARC
  8
0
  6
CONTINUOUS
 10
115.425911
 20
468.365417
 40
1.000000
 50
190.000000
 51
270.000000
  0
ARC
  8
0
  6
CONTINUOUS
 10
115.752792
 20
476.407990
 40
1.000000
 50
190.000000
 51
270.000000
  0
ARC
  8
0
  6
CONTINUOUS
 10
116.069069
 20
482.452911
 40
1.000000
 50
190.000000
 51
270.000000
  0
ARC
  8
0
  6
CONTINUOUS
 10
116.310638
 20
491.442688
 40
1.000000
 50
190.000000
 51
270.000000
  0
ARC
  8
0
  6
CONTINUOUS
 10
115.149475
 20
503.798828
 40
1.000000
 50
190.000000
 51
270.000000
  0
ARC
  8
0
  6
CONTINUOUS
 10
112.113861
 20
465.375702
 40
1.000000
 50
10.000000
 51
90.000000
  0
ARC
  8
0
  6
CONTINUOUS
 10
227.605728
 20
464.891022
 40
1.000000
 50
270.000000
 51
350.000000
  0
ARC
  8
0
  6
CONTINUOUS
 10
227.480042
 20
468.365417
 40
1.000000
 50
270.000000
 51
350.000000
  0
ARC
  8
0
  6
CONTINUOUS
 10
227.153152
 20
476.407990
 40
1.000000
 50
270.000000
 51
350.000000
  0
ARC
  8
0
  6
CONTINUOUS
 10
226.836884
 20
482.452911
 40
1.000000
 50
270.000000
 51
350.000000
  0
ARC
  8
0
  6
CONTINUOUS
 10
226.595306
 20
491.442688
 40
1.000000
 50
270.000000
 51
350.000000
  0
ARC
  8
0
  6
CONTINUOUS
 10
227.756470
 20
503.798828
 40
1.000000
 50
270.000000
 51
350.000000
  0
ARC
  8
0
  6
CONTINUOUS
 10
227.786194
 20
460.590363
 40
1.000000
 50
270.000000
 51
348.588745
  0
ARC
  8
0
  6
CONTINUOUS
 10
228.137207
 20
462.329407
 40
1.000000
 50
270.000000
 51
348.588745
  0
ARC
  8
0
  6
CONTINUOUS
 10
227.590210
 20
459.619385
 40
1.000000
 50
270.000000
 51
348.588745
  0
ARC
  8
0
  6
CONTINUOUS
 10
230.792084
 20
465.375702
 40
1.000000
 50
90.000000
 51
170.000000
  0
ARC
  8
0
  6
CONTINUOUS
 10
115.300217
 20
611.860413
 40
1.000000
 50
90.000000
 51
170.000000
  0
ARC
  8
0
  6
CONTINUOUS
 10
115.425911
 20
608.385986
 40
1.000000
 50
90.000000
 51
170.000000
  0
ARC
  8
0
  6
CONTINUOUS
 10
115.752792
 20
600.343445
 40
1.000000
 50
90.000000
 51
170.000000
  0
ARC
  8
0
  6
CONTINUOUS
 10
116.069069
 20
594.298523
 40
1.000000
 50
90.000000
 51
170.000000
  0
ARC
  8
0
  6
CONTINUOUS
 10
116.310638
 20
585.308716
 40
1.000000
 50
90.000000
 51
170.000000
  0
ARC
  8
0
  6
CONTINUOUS
 10
115.149475
 20
572.952576
 40
1.000000
 50
90.000000
 51
170.000000
  0
ARC
  8
0
  6
CONTINUOUS
 10
115.119751
 20
616.161072
 40
1.000000
 50
90.000000
 51
168.588745
  0
ARC
  8
0
  6
CONTINUOUS
 10
114.768745
 20
614.421997
 40
1.000000
 50
90.000000
 51
168.588745
  0
ARC
  8
0
  6
CONTINUOUS
 10
115.315735
 20
617.132019
 40
1.000000
 50
90.000000
 51
168.588745
  0
ARC
  8
0
  6
CONTINUOUS
 10
112.113861
 20
611.375732
 40
1.000000
 50
270.000000
 51
350.000000
  0
ARC
  8
0
  6
CONTINUOUS
 10
227.605728
 20
611.860413
 40
1.000000
 50
10.000000
 51
90.000000
  0
ARC
  8
0
  6
CONTINUOUS
 10
227.480042
 20
608.385986
 40
1.000000
 50
10.000000
 51
90.000000
  0
ARC
  8
0
  6
CONTINUOUS
 10
227.153152
 20
600.343445
 40
1.000000
 50
10.000000
 51
90.000000
  0
ARC
  8
0
  6
CONTINUOUS
 10
226.836884
 20
594.298523
 40
1.000000
 50
10.000000
 51
90.000000
  0
ARC
  8
0
  6
CONTINUOUS
 10
226.595306
 20
585.308716
 40
1.000000
 50
10.000000
 51
90.000000
  0
ARC
  8
0
  6
CONTINUOUS
 10
227.756470
 20
572.952576
 40
1.000000
 50
10.000000
 51
90.000000
  0
ARC
  8
0
  6
CONTINUOUS
 10
227.786194
 20
616.161072
 40
1.000000
 50
11.411255
 51
90.000000
  0
ARC
  8
0
  6
CONTINUOUS
 10
228.137207
 20
614.421997
 40
1.000000
 50
11.411255
 51
90.000000
  0
ARC
  8
0
  6
CONTINUOUS
 10
227.590210
 20
617.132019
 40
1.000000
 50
11.411255
 51
90.000000
  0
ARC
  8
0
  6
CONTINUOUS
 10
230.792084
 20
611.375732
 40
1.000000
 50
190.000000
 51
270.000000
  0
LINE
  8
0
  6
CONTINUOUS
 10
594.436584
 20
207.776459
 11
595.936584
 21
207.776459
  0
LINE
  8
0
  6
CONTINUOUS
 10
594.436584
 20
207.776459
 11
595.936584
 21
207.776459
  0
LINE
  8
0
  6
CONTINUOUS
 10
594.436584
 20
147.776474
 11
595.936584
 21
147.776474
  0
LINE
  8
0
  6
CONTINUOUS
 10
594.436584
 20
147.776474
 11
595.936584
 21
147.776474
  0
LINE
  8
0
  6
CONTINUOUS
 10
595.936584
 20
207.776459
 11
595.936584
 21
207.633453
  0
LINE
  8
0
  6
CONTINUOUS
 10
588.998718
 20
211.276459
 11
588.998718
 21
138.673752
  0
LINE
  8
0
  6
CONTINUOUS
 10
594.436584
 20
137.476486
 11
594.436584
 21
155.356781
  0
LINE
  8
0
  6
CONTINUOUS
 10
181.453064
 20
462.875702
 11
181.453064
 21
464.375702
  0
LINE
  8
0
  6
CONTINUOUS
 10
121.453072
 20
462.875702
 11
121.453072
 21
464.375702
  0
LINE
  8
0
  6
CONTINUOUS
 10
113.575508
 20
462.875702
 11
185.441483
 21
462.875702
  0
LINE
  8
0
  6
CONTINUOUS
 10
187.979202
 20
461.259033
 11
188.045364
 21
461.117004
  0
LINE
  8
0
  6
CONTINUOUS
 10
191.487381
 20
429.035156
 11
191.487381
 21
455.141968
  0
LINE
  8
0
  6
CONTINUOUS
 10
110.775459
 20
460.075684
 11
110.775459
 21
425.085449
  0
LINE
  8
0
  6
CONTINUOUS
 10
180.687439
 20
418.235168
 11
111.127388
 21
418.235168
  0
LINE
  8
0
  6
CONTINUOUS
 10
192.274857
 20
456.074860
 11
108.317818
 21
416.925079
  0
LINE
  8
0
  6
CENTER
 10
151.453064
 20
474.599426
 11
151.453064
 21
413.875702
  0
LINE
  8
0
  6
CONTINUOUS
 10
192.903641
 20
457.802460
 11
190.766312
 21
462.385803
  0
LINE
  8
0
  6
CONTINUOUS
 10
107.252769
 20
167.776489
 11
107.252769
 21
209.976471
  0
LINE
  8
0
  6
CONTINUOUS
 10
113.252769
 20
215.976471
 11
184.652756
 21
215.976471
  0
LINE
  8
0
  6
CONTINUOUS
 10
184.652756
 20
218.776459
 11
113.252769
 21
218.776459
  0
LINE
  8
0
  6
CONTINUOUS
 10
106.590279
 20
417.553894
 11
104.453072
 21
422.137238
  0
LINE
  8
0
  6
CONTINUOUS
 10
190.764359
 20
462.384857
 11
104.453072
 21
422.137238
  0
LINE
  8
0
  6
CENTER
 10
103.955025
 20
439.875702
 11
120.995064
 21
439.875702
  0
LINE
  8
0
  6
CONTINUOUS
 10
107.252769
 20
145.576462
 11
107.252769
 21
145.776550
  0
LINE
  8
0
  6
CONTINUOUS
 10
184.652756
 20
136.776459
 11
113.252769
 21
136.776459
  0
LINE
  8
0
  6
CONTINUOUS
 10
113.252769
 20
139.576462
 11
184.652756
 21
139.576462
  0
LINE
  8
0
  6
CONTINUOUS
 10
104.452766
 20
145.576462
 11
104.452766
 21
209.976471
  0
LINE
  8
0
  6
CONTINUOUS
 10
547.936584
 20
144.276474
 11
547.936584
 21
211.276459
  0
LINE
  8
0
  6
CONTINUOUS
 10
190.652786
 20
145.576462
 11
190.652786
 21
209.976471
  0
LINE
  8
0
  6
CONTINUOUS
 10
193.452774
 20
145.576462
 11
193.452774
 21
209.976471
  0
LINE
  8
0
  6
CONTINUOUS
 10
554.736572
 20
137.476486
 11
594.436584
 21
137.476486
  0
CIRCLE
  8
0
  6
CONTINUOUS
 10
110.252769
 20
156.776489
 40
4.000000
  0
ARC
  8
0
  6
CONTINUOUS
 10
590.298767
 20
138.776474
 40
1.300000
 50
180.000000
 51
270.000000
  0
ARC
  8
0
  6
CONTINUOUS
 10
192.487381
 20
455.141968
 40
1.000000
 50
135.717499
 51
180.000000
  0
ARC
  8
0
  6
CONTINUOUS
 10
191.725418
 20
457.253052
 40
1.300000
 50
-65.000000
 51
25.000000
  0
ARC
  8
0
  6
CONTINUOUS
 10
180.687439
 20
429.035156
 40
10.800000
 50
-90.000000
 51
0.000000
  0
ARC
  8
0
  6
CONTINUOUS
 10
113.575508
 20
460.075684
 40
2.800000
 50
90.000000
 51
180.000000
  0
ARC
  8
0
  6
CONTINUOUS
 10
185.441483
 20
460.075684
 40
2.800000
 50
25.000000
 51
90.000000
  0
ARC
  8
0
  6
CONTINUOUS
 10
184.652756
 20
209.976471
 40
8.800000
 50
0.000000
 51
90.000000
  0
ARC
  8
0
  6
CONTINUOUS
 10
184.652756
 20
209.976471
 40
6.000000
 50
0.000000
 51
90.000000
  0
ARC
  8
0
  6
CONTINUOUS
 10
113.252769
 20
209.976471
 40
8.800000
 50
90.000000
 51
180.000000
  0
ARC
  8
0
  6
CONTINUOUS
 10
113.252769
 20
209.976471
 40
6.000000
 50
90.000000
 51
180.000000
  0
ARC
  8
0
  6
CONTINUOUS
 10
107.768501
 20
418.103302
 40
1.300000
 50
205.000000
 51
295.000000
  0
ARC
  8
0
  6
CONTINUOUS
 10
554.736572
 20
144.276474
 40
6.800000
 50
180.000000
 51
270.000000
  0
ARC
  8
0
  6
CONTINUOUS
 10
184.652756
 20
145.576462
 40
6.000000
 50
-90.000000
 51
0.000000
  0
ARC
  8
0
  6
CONTINUOUS
 10
184.652756
 20
145.576462
 40
8.800000
 50
-90.000000
 51
0.000000
  0
ARC
  8
0
  6
CONTINUOUS
 10
110.252769
 20
156.776489
 40
8.000000
 50
-89.781525
 51
90.000000
  0
ARC
  8
0
  6
CONTINUOUS
 10
110.252602
 20
145.776550
 40
3.000000
 50
90.218491
 51
180.601669
  0
ARC
  8
0
  6
CONTINUOUS
 10
113.252769
 20
145.576462
 40
6.000000
 50
180.000000
 51
270.000000
  0
ARC
  8
0
  6
CONTINUOUS
 10
113.252769
 20
145.576462
 40
8.800000
 50
180.000000
 51
270.000000
  0
ARC
  8
0
  6
CONTINUOUS
 10
110.252769
 20
167.776489
 40
3.000000
 50
180.000000
 51
270.000000
  0
LINE
  8
0
  6
CONTINUOUS
 10
109.952675
 20
123.276489
 11
109.952675
 21
137.418686
  0
LINE
  8
0
  6
CONTINUOUS
 10
108.952667
 20
101.289604
 11
108.952667
 21
137.898636
  0
LINE
  8
0
  6
CONTINUOUS
 10
593.855408
 20
155.377075
 11
600.906982
 21
155.130829
  0
LINE
  8
0
  6
CONTINUOUS
 10
596.416992
 20
149.775848
 11
602.070435
 21
149.973267
  0
LINE
  8
0
  6
CONTINUOUS
 10
596.416992
 20
147.777069
 11
603.936584
 21
147.514481
  0
LINE
  8
0
  6
CONTINUOUS
 10
593.855408
 20
157.375854
 11
599.542419
 21
157.574432
  0
LINE
  8
0
  6
CONTINUOUS
 10
592.116333
 20
162.977081
 11
598.753357
 21
162.745300
  0
LINE
  8
0
  6
CONTINUOUS
 10
592.116333
 20
164.975861
 11
597.898926
 21
165.177795
  0
LINE
  8
0
  6
CONTINUOUS
 10
591.145386
 20
170.577057
 11
597.458618
 21
170.356598
  0
LINE
  8
0
  6
CONTINUOUS
 10
591.145386
 20
172.575836
 11
597.080872
 21
172.783112
  0
LINE
  8
0
  6
CONTINUOUS
 10
592.116333
 20
190.577057
 11
596.938171
 21
190.408676
  0
LINE
  8
0
  6
CONTINUOUS
 10
591.145386
 20
184.975861
 11
597.458618
 21
185.196320
  0
LINE
  8
0
  6
CONTINUOUS
 10
591.145386
 20
182.977081
 11
597.080872
 21
182.769821
  0
LINE
  8
0
  6
CONTINUOUS
 10
593.855408
 20
198.177063
 11
596.936584
 21
198.069473
  0
LINE
  8
0
  6
CONTINUOUS
 10
593.855408
 20
200.175842
 11
596.936584
 21
200.283447
  0
LINE
  8
0
  6
CONTINUOUS
 10
592.116333
 20
192.575836
 11
596.936584
 21
192.744171
  0
LINE
  8
0
  6
CONTINUOUS
 10
596.416992
 20
205.777069
 11
596.936584
 21
205.758926
  0
LINE
  8
0
  6
CONTINUOUS
 10
596.416992
 20
207.775848
 11
596.936584
 21
207.793991
  0
LINE
  8
0
  6
CONTINUOUS
 10
249.952667
 20
249.776459
 11
249.952667
 21
105.776466
  0
LINE
  8
0
  6
CONTINUOUS
 10
739.981812
 20
142.175842
 11
735.936584
 21
142.317123
  0
LINE
  8
0
  6
CONTINUOUS
 10
739.981812
 20
140.177063
 11
735.936584
 21
140.035812
  0
LINE
  8
0
  6
CONTINUOUS
 10
599.891418
 20
142.175842
 11
603.936584
 21
142.317123
  0
LINE
  8
0
  6
CONTINUOUS
 10
599.891418
 20
140.177063
 11
603.936584
 21
140.035812
  0
LINE
  8
0
  6
CONTINUOUS
 10
613.978882
 20
120.977089
 11
617.070435
 21
120.869125
  0
LINE
  8
0
  6
CONTINUOUS
 10
613.978882
 20
122.975868
 11
615.236755
 21
123.019791
  0
LINE
  8
0
  6
CONTINUOUS
 10
725.894287
 20
120.977089
 11
722.802673
 21
120.869118
  0
LINE
  8
0
  6
CONTINUOUS
 10
725.894287
 20
122.975868
 11
724.636353
 21
123.019791
  0
LINE
  8
0
  6
CONTINUOUS
 10
746.017822
 20
155.377075
 11
738.966248
 21
155.130829
  0
LINE
  8
0
  6
CONTINUOUS
 10
743.456177
 20
149.775848
 11
737.802795
 21
149.973267
  0
LINE
  8
0
  6
CONTINUOUS
 10
743.456177
 20
147.777069
 11
735.936584
 21
147.514481
  0
LINE
  8
0
  6
CONTINUOUS
 10
746.017822
 20
157.375854
 11
740.330811
 21
157.574432
  0
LINE
  8
0
  6
CONTINUOUS
 10
747.756836
 20
162.977081
 11
741.119812
 21
162.745300
  0
LINE
  8
0
  6
CONTINUOUS
 10
747.756836
 20
164.975861
 11
741.974243
 21
165.177795
  0
LINE
  8
0
  6
CONTINUOUS
 10
748.727844
 20
170.577057
 11
742.414551
 21
170.356598
  0
LINE
  8
0
  6
CONTINUOUS
 10
748.727844
 20
172.575836
 11
742.792358
 21
172.783112
  0
LINE
  8
0
  6
CONTINUOUS
 10
747.756836
 20
190.577057
 11
742.934998
 21
190.408676
  0
LINE
  8
0
  6
CONTINUOUS
 10
748.727844
 20
184.975861
 11
742.414551
 21
185.196320
  0
LINE
  8
0
  6
CONTINUOUS
 10
748.727844
 20
182.977081
 11
742.792358
 21
182.769821
  0
LINE
  8
0
  6
CONTINUOUS
 10
746.017822
 20
198.177063
 11
742.936584
 21
198.069473
  0
LINE
  8
0
  6
CONTINUOUS
 10
746.017822
 20
200.175842
 11
742.936584
 21
200.283447
  0
LINE
  8
0
  6
CONTINUOUS
 10
747.756836
 20
192.575836
 11
742.936584
 21
192.744171
  0
LINE
  8
0
  6
CONTINUOUS
 10
743.456177
 20
205.777069
 11
742.936584
 21
205.758926
  0
LINE
  8
0
  6
CONTINUOUS
 10
743.456177
 20
207.775848
 11
742.936584
 21
207.793991
  0
LINE
  8
0
  6
CONTINUOUS
 10
735.936584
 20
146.583466
 11
735.936584
 21
235.416748
  0
LINE
  8
0
  6
CONTINUOUS
 10
583.936584
 20
225.276459
 11
529.936584
 21
225.276459
  0
LINE
  8
0
  6
CONTINUOUS
 10
583.936584
 20
237.276459
 11
529.936584
 21
237.276459
  0
LINE
  8
0
  6
CONTINUOUS
 10
596.936584
 20
208.776459
 11
594.936584
 21
208.776459
  0
LINE
  8
0
  6
CONTINUOUS
 10
596.936584
 20
253.776459
 11
594.936584
 21
253.776459
  0
LINE
  8
0
  6
CONTINUOUS
 10
594.936584
 20
253.776459
 11
594.936584
 21
208.776459
  0
LINE
  8
0
  6
CONTINUOUS
 10
594.936584
 20
211.276459
 11
529.936584
 21
211.276459
  0
LINE
  8
0
  6
CONTINUOUS
 10
594.936584
 20
251.276459
 11
529.936584
 21
251.276459
  0
LINE
  8
0
  6
CONTINUOUS
 10
529.936584
 20
211.276459
 11
529.936584
 21
251.276459
  0
LINE
  8
0
  6
CONTINUOUS
 10
755.936584
 20
225.276459
 11
809.936584
 21
225.276459
  0
LINE
  8
0
  6
CONTINUOUS
 10
755.936584
 20
237.276459
 11
809.936584
 21
237.276459
  0
LINE
  8
0
  6
CONTINUOUS
 10
742.936584
 20
208.776459
 11
744.936584
 21
208.776459
  0
LINE
  8
0
  6
CONTINUOUS
 10
742.936584
 20
253.776459
 11
744.936584
 21
253.776459
  0
LINE
  8
0
  6
CONTINUOUS
 10
744.936584
 20
253.776459
 11
744.936584
 21
208.776459
  0
LINE
  8
0
  6
CONTINUOUS
 10
744.936584
 20
211.276459
 11
809.936584
 21
211.276459
  0
LINE
  8
0
  6
CONTINUOUS
 10
744.936584
 20
251.276459
 11
809.936584
 21
251.276459
  0
LINE
  8
0
  6
CONTINUOUS
 10
809.936584
 20
211.276459
 11
809.936584
 21
251.276459
  0
LINE
  8
0
  6
CONTINUOUS
 10
704.936584
 20
66.276466
 11
703.436584
 21
67.776466
  0
LINE
  8
0
  6
CONTINUOUS
 10
634.936584
 20
66.276466
 11
636.436584
 21
67.776466
  0
LINE
  8
0
  6
CONTINUOUS
 10
721.936584
 20
91.276466
 11
721.936584
 21
66.276466
  0
LINE
  8
0
  6
CONTINUOUS
 10
721.936584
 20
91.276466
 11
721.936584
 21
288.556580
  0
LINE
  8
0
  6
CONTINUOUS
 10
582.545166
 20
86.619705
 11
615.328003
 21
90.933243
  0
LINE
  8
0
  6
CONTINUOUS
 10
757.328003
 20
86.619705
 11
724.545166
 21
90.933228
  0
LINE
  8
0
  6
CONTINUOUS
 10
730.859558
 20
125.325905
 11
727.013611
 21
124.227020
  0
LINE
  8
0
  6
CONTINUOUS
 10
609.013611
 20
125.325905
 11
612.859558
 21
124.227020
  0
LINE
  8
0
  6
CONTINUOUS
 10
727.013611
 20
281.825897
 11
737.859558
 21
278.727020
  0
LINE
  8
0
  6
CONTINUOUS
 10
602.013611
 20
278.727020
 11
612.859558
 21
281.825897
  0
LINE
  8
0
  6
CONTINUOUS
 10
735.936584
 20
132.056580
 11
735.936584
 21
146.676926
  0
LINE
  8
0
  6
CONTINUOUS
 10
603.936584
 20
132.056564
 11
603.936584
 21
235.416748
  0
LINE
  8
0
  6
CONTINUOUS
 10
742.936584
 20
190.556564
 11
742.936584
 21
271.996338
  0
LINE
  8
0
  6
CONTINUOUS
 10
596.936584
 20
190.556564
 11
596.936584
 21
271.996338
  0
LINE
  8
0
  6
CONTINUOUS
 10
621.866760
 20
307.937256
 11
669.936584
 21
308.776489
  0
LINE
  8
0
  6
CONTINUOUS
 10
718.006409
 20
307.937622
 11
669.936584
 21
308.776489
  0
LINE
  8
0
  6
CONTINUOUS
 10
622.381165
 20
269.776459
 11
718.168396
 21
269.776459
  0
LINE
  8
0
  6
CONTINUOUS
 10
636.436584
 20
67.776466
 11
703.436584
 21
67.776466
  0
LINE
  8
0
  6
CONTINUOUS
 10
617.936584
 20
303.937836
 11
617.936584
 21
66.276466
  0
LINE
  8
0
  6
CONTINUOUS
 10
721.936584
 20
288.556580
 11
721.936584
 21
303.938232
  0
LINE
  8
0
  6
CONTINUOUS
 10
759.936584
 20
83.645348
 11
759.936584
 21
66.276466
  0
LINE
  8
0
  6
CONTINUOUS
 10
579.936584
 20
83.645348
 11
579.936584
 21
66.276482
  0
LINE
  8
0
  6
CONTINUOUS
 10
582.936584
 20
86.276466
 11
612.936584
 21
86.276466
  0
LINE
  8
0
  6
CONTINUOUS
 10
726.936584
 20
86.276466
 11
756.936584
 21
86.276466
  0
LINE
  8
0
  6
CONTINUOUS
 10
704.936584
 20
66.276466
 11
759.936584
 21
66.276466
  0
LINE
  8
0
  6
CONTINUOUS
 10
579.936584
 20
66.276466
 11
634.936584
 21
66.276466
  0
LINE
  8
0
  6
DASHED
 10
592.436584
 20
86.276466
 11
592.436584
 21
66.276466
  0
LINE
  8
0
  6
DASHED
 10
607.436584
 20
86.276466
 11
607.436584
 21
66.276466
  0
LINE
  8
0
  6
DASHED
 10
747.436584
 20
86.276466
 11
747.436584
 21
66.276466
  0
LINE
  8
0
  6
DASHED
 10
732.436584
 20
86.276466
 11
732.436584
 21
66.276466
  0
LINE
  8
0
  6
CENTER
 10
739.936584
 20
95.223343
 11
739.936584
 21
51.163666
  0
LINE
  8
0
  6
CENTER
 10
599.936584
 20
94.723343
 11
599.936584
 21
51.163666
  0
LINE
  8
0
  6
CENTER
 10
514.125000
 20
231.276459
 11
827.373413
 21
231.276459
  0
LINE
  8
0
  6
CENTER
 10
536.770020
 20
177.776459
 11
762.659973
 21
177.776459
  0
LINE
  8
0
  6
CENTER
 10
669.936584
 20
43.357723
 11
669.936584
 21
328.400024
  0
LINE
  8
0
  6
CONTINUOUS
 10
375.952637
 20
237.276535
 11
367.952637
 21
237.276520
  0
LINE
  8
0
  6
CONTINUOUS
 10
375.952637
 20
225.276535
 11
367.952637
 21
225.276520
  0
LINE
  8
0
  6
CONTINUOUS
 10
375.952637
 20
225.276535
 11
375.952637
 21
237.276535
  0
LINE
  8
0
  6
CONTINUOUS
 10
367.952637
 20
225.276520
 11
367.952637
 21
237.276520
  0
LINE
  8
0
  6
CONTINUOUS
 10
342.079651
 20
156.282333
 11
342.079651
 21
156.057709
  0
LINE
  8
0
  6
CONTINUOUS
 10
364.790649
 20
157.282333
 11
369.223633
 21
157.279449
  0
LINE
  8
0
  6
CONTINUOUS
 10
362.452637
 20
157.282333
 11
363.157837
 21
157.282333
  0
LINE
  8
0
  6
CONTINUOUS
 10
364.790649
 20
151.437607
 11
367.831238
 21
151.437607
  0
LINE
  8
0
  6
CONTINUOUS
 10
352.024841
 20
157.282333
 11
349.767456
 21
157.282333
  0
LINE
  8
0
  6
CONTINUOUS
 10
353.806244
 20
157.282333
 11
356.281433
 21
157.282333
  0
LINE
  8
0
  6
CONTINUOUS
 10
356.281433
 20
157.282333
 11
356.711639
 21
156.057709
  0
LINE
  8
0
  6
CONTINUOUS
 10
349.767456
 20
157.282333
 11
349.257233
 21
156.057709
  0
LINE
  8
0
  6
CONTINUOUS
 10
362.452637
 20
146.260849
 11
362.452637
 21
144.776459
  0
LINE
  8
0
  6
CONTINUOUS
 10
365.440033
 20
146.260849
 11
365.440033
 21
144.776459
  0
LINE
  8
0
  6
CONTINUOUS
 10
369.763245
 20
146.260849
 11
369.763245
 21
144.776459
  0
LINE
  8
0
  6
CONTINUOUS
 10
371.952637
 20
146.260849
 11
371.952637
 21
144.776459
  0
LINE
  8
0
  6
CONTINUOUS
 10
369.763245
 20
144.776459
 11
371.952637
 21
144.776459
  0
LINE
  8
0
  6
CONTINUOUS
 10
371.552856
 20
146.260849
 11
371.952637
 21
146.260849
  0
LINE
  8
0
  6
CONTINUOUS
 10
369.763245
 20
146.260849
 11
370.059052
 21
146.260849
  0
LINE
  8
0
  6
CONTINUOUS
 10
365.440033
 20
144.776459
 11
362.452637
 21
144.776459
  0
LINE
  8
0
  6
CONTINUOUS
 10
364.790649
 20
146.260849
 11
365.440033
 21
146.260849
  0
LINE
  8
0
  6
CONTINUOUS
 10
362.452637
 20
146.260849
 11
363.157837
 21
146.260849
  0
LINE
  8
0
  6
CONTINUOUS
 10
367.831238
 20
151.437607
 11
370.059052
 21
146.260849
  0
LINE
  8
0
  6
CONTINUOUS
 10
369.198456
 20
151.566727
 11
371.552856
 21
146.260849
  0
LINE
  8
0
  6
CONTINUOUS
 10
364.790649
 20
157.282333
 11
364.790649
 21
152.921631
  0
LINE
  8
0
  6
CONTINUOUS
 10
362.452637
 20
159.026459
 11
362.452637
 21
157.282333
  0
LINE
  8
0
  6
CONTINUOUS
 10
368.448456
 20
152.921631
 11
364.790649
 21
152.921631
  0
LINE
  8
0
  6
CONTINUOUS
 10
362.452637
 20
159.026459
 11
368.148834
 21
159.026459
  0
LINE
  8
0
  6
CONTINUOUS
 10
351.319855
 20
146.335068
 11
352.024841
 21
146.335068
  0
LINE
  8
0
  6
CONTINUOUS
 10
351.319855
 20
144.776459
 11
354.399841
 21
144.776459
  0
LINE
  8
0
  6
CONTINUOUS
 10
348.202637
 20
159.026459
 11
357.702637
 21
159.026459
  0
LINE
  8
0
  6
CONTINUOUS
 10
348.202637
 20
156.057709
 11
349.257233
 21
156.057709
  0
LINE
  8
0
  6
CONTINUOUS
 10
356.711639
 20
156.057709
 11
357.702637
 21
156.057709
  0
LINE
  8
0
  6
CONTINUOUS
 10
354.399841
 20
146.335068
 11
354.399841
 21
144.776459
  0
LINE
  8
0
  6
CONTINUOUS
 10
351.319855
 20
146.335068
 11
351.319855
 21
144.776459
  0
LINE
  8
0
  6
CONTINUOUS
 10
353.806244
 20
146.335068
 11
354.399841
 21
146.335068
  0
LINE
  8
0
  6
CONTINUOUS
 10
342.079651
 20
145.912384
 11
340.725647
 21
144.776459
  0
LINE
  8
0
  6
CONTINUOUS
 10
342.079651
 20
144.776459
 11
343.452637
 21
144.776459
  0
LINE
  8
0
  6
CONTINUOUS
 10
339.593231
 20
153.051865
 11
339.593231
 21
151.493271
  0
LINE
  8
0
  6
CONTINUOUS
 10
342.079651
 20
151.493271
 11
342.079651
 21
149.415131
  0
LINE
  8
0
  6
CONTINUOUS
 10
343.452637
 20
157.486893
 11
343.452637
 21
156.057709
  0
LINE
  8
0
  6
CONTINUOUS
 10
342.079651
 20
145.912384
 11
342.079651
 21
144.776459
  0
LINE
  8
0
  6
CONTINUOUS
 10
342.079651
 20
150.008881
 11
342.079651
 21
151.196381
  0
LINE
  8
0
  6
CONTINUOUS
 10
339.110840
 20
146.446381
 11
336.638245
 21
146.446381
  0
LINE
  8
0
  6
CONTINUOUS
 10
342.079651
 20
151.493271
 11
339.593231
 21
151.493271
  0
LINE
  8
0
  6
CONTINUOUS
 10
339.593231
 20
153.051865
 11
343.452637
 21
153.051865
  0
LINE
  8
0
  6
CONTINUOUS
 10
335.677460
 20
159.026459
 11
342.065247
 21
159.026459
  0
LINE
  8
0
  6
CONTINUOUS
 10
342.079651
 20
156.057709
 11
343.452637
 21
156.057709
  0
LINE
  8
0
  6
CONTINUOUS
 10
342.065247
 20
159.026459
 11
343.452637
 21
157.486893
  0
LINE
  8
0
  6
CONTINUOUS
 10
342.079651
 20
156.282333
 11
341.180634
 21
157.133881
  0
LINE
  8
0
  6
CONTINUOUS
 10
335.548431
 20
155.803879
 11
335.548431
 21
147.594299
  0
LINE
  8
0
  6
CONTINUOUS
 10
333.952637
 20
156.818008
 11
333.952637
 21
146.625580
  0
LINE
  8
0
  6
CONTINUOUS
 10
333.952637
 20
146.625580
 11
335.785248
 21
144.776459
  0
LINE
  8
0
  6
CONTINUOUS
 10
335.548431
 20
147.594299
 11
336.638245
 21
146.446381
  0
LINE
  8
0
  6
CONTINUOUS
 10
335.677460
 20
159.026459
 11
333.952637
 21
156.818008
  0
LINE
  8
0
  6
CONTINUOUS
 10
336.621033
 20
157.133881
 11
335.548431
 21
155.803879
  0
LINE
  8
0
  6
CONTINUOUS
 10
341.198639
 20
157.133881
 11
336.621033
 21
157.133881
  0
LINE
  8
0
  6
CONTINUOUS
 10
364.790649
 20
151.437607
 11
364.790649
 21
146.260849
  0
LINE
  8
0
  6
CONTINUOUS
 10
363.157837
 20
157.282333
 11
363.157837
 21
146.260849
  0
LINE
  8
0
  6
CONTINUOUS
 10
353.806244
 20
157.282333
 11
353.806244
 21
146.335068
  0
LINE
  8
0
  6
CONTINUOUS
 10
352.024841
 20
157.282333
 11
352.024841
 21
146.335068
  0
LINE
  8
0
  6
CONTINUOUS
 10
357.702637
 20
156.057709
 11
357.702637
 21
159.026459
  0
LINE
  8
0
  6
CONTINUOUS
 10
348.202637
 20
156.057709
 11
348.202637
 21
159.026459
  0
LINE
  8
0
  6
CONTINUOUS
 10
343.452637
 20
153.051865
 11
343.452637
 21
144.776459
  0
LINE
  8
0
  6
CONTINUOUS
 10
340.725647
 20
144.776459
 11
335.785248
 21
144.776459
  0
LINE
  8
0
  6
CONTINUOUS
 10
322.952637
 20
122.776466
 11
382.952637
 21
122.776466
  0
LINE
  8
0
  6
CONTINUOUS
 10
322.952637
 20
126.776459
 11
382.952637
 21
126.776459
  0
LINE
  8
0
  6
CONTINUOUS
 10
289.761444
 20
168.148529
 11
306.094635
 21
241.684082
  0
LINE
  8
0
  6
CONTINUOUS
 10
399.810638
 20
241.684143
 11
416.143860
 21
168.148590
  0
LINE
  8
0
  6
CONTINUOUS
 10
403.715637
 20
242.551468
 11
420.048645
 21
169.015884
  0
LINE
  8
0
  6
CONTINUOUS
 10
285.856659
 20
169.015823
 11
302.189636
 21
242.551361
  0
LINE
  8
0
  6
CONTINUOUS
 10
317.074036
 20
90.397781
 11
314.417053
 21
87.740967
  0
LINE
  8
0
  6
CONTINUOUS
 10
388.831238
 20
90.397781
 11
391.488251
 21
87.740906
  0
LINE
  8
0
  6
CONTINUOUS
 10
387.952637
 20
90.139587
 11
387.952637
 21
87.276466
  0
LINE
  8
0
  6
CONTINUOUS
 10
317.952637
 20
90.139587
 11
317.952637
 21
87.276466
  0
LINE
  8
0
  6
CONTINUOUS
 10
386.710052
 20
91.276466
 11
319.195251
 21
91.276466
  0
LINE
  8
0
  6
CONTINUOUS
 10
276.952667
 20
83.591148
 11
276.952667
 21
66.276466
  0
LINE
  8
0
  6
CONTINUOUS
 10
428.952637
 20
83.591148
 11
428.952637
 21
66.276466
  0
LINE
  8
0
  6
DASHED
 10
285.452667
 20
86.276466
 11
285.452667
 21
66.276466
  0
LINE
  8
0
  6
DASHED
 10
300.452637
 20
86.276466
 11
300.452637
 21
66.276466
  0
LINE
  8
0
  6
DASHED
 10
420.452637
 20
86.276466
 11
420.452637
 21
66.276466
  0
LINE
  8
0
  6
DASHED
 10
405.452637
 20
86.276466
 11
405.452637
 21
66.276466
  0
LINE
  8
0
  6
CENTER
 10
292.952667
 20
96.202942
 11
292.952667
 21
53.193523
  0
LINE
  8
0
  6
CENTER
 10
412.952637
 20
96.202942
 11
412.952637
 21
53.193523
  0
LINE
  8
0
  6
CONTINUOUS
 10
267.168457
 20
272.765778
 11
315.354034
 21
306.933807
  0
LINE
  8
0
  6
CONTINUOUS
 10
390.551239
 20
306.933807
 11
438.737030
 21
272.765778
  0
LINE
  8
0
  6
CONTINUOUS
 10
249.952667
 20
106.776466
 11
257.952667
 21
106.776466
  0
LINE
  8
0
  6
CONTINUOUS
 10
249.952667
 20
248.776459
 11
257.952667
 21
248.776459
  0
LINE
  8
0
  6
CONTINUOUS
 10
262.952667
 20
264.608459
 11
262.952667
 21
66.276466
  0
LINE
  8
0
  6
CONTINUOUS
 10
442.952637
 20
264.608459
 11
442.952637
 21
66.276466
  0
LINE
  8
0
  6
CONTINUOUS
 10
321.138245
 20
308.776459
 11
384.767059
 21
308.776459
  0
LINE
  8
0
  6
CONTINUOUS
 10
262.952667
 20
86.276466
 11
442.952637
 21
86.276466
  0
LINE
  8
0
  6
CONTINUOUS
 10
262.952667
 20
66.276466
 11
442.952637
 21
66.276466
  0
LINE
  8
0
  6
CENTER
 10
273.447662
 20
231.276459
 11
425.539978
 21
231.276459
  0
LINE
  8
0
  6
CENTER
 10
352.952637
 20
326.772278
 11
352.952637
 21
47.372684
  0
LINE
  8
0
  6
CENTER
 10
26.680000
 20
177.776459
 11
279.029999
 21
177.776459
  0
LINE
  8
0
  6
CONTINUOUS
 10
372.031647
 20
678.375549
 11
372.031647
 21
618.375549
  0
LINE
  8
0
  6
CONTINUOUS
 10
372.031647
 20
458.376007
 11
372.031647
 21
398.375549
  0
LINE
  8
0
  6
CONTINUOUS
 10
304.857391
 20
467.820160
 11
300.952637
 21
472.375702
  0
LINE
  8
0
  6
CONTINUOUS
 10
401.047882
 20
467.820160
 11
404.952637
 21
472.375702
  0
LINE
  8
0
  6
CONTINUOUS
 10
401.047882
 20
608.931335
 11
404.952637
 21
604.375793
  0
LINE
  8
0
  6
CONTINUOUS
 10
304.857391
 20
608.931335
 11
300.952637
 21
604.375793
  0
LINE
  8
0
  6
CONTINUOUS
 10
372.031647
 20
458.376007
 11
375.952637
 21
458.376007
  0
LINE
  8
0
  6
CONTINUOUS
 10
375.952637
 20
398.376007
 11
375.952637
 21
458.376007
  0
LINE
  8
0
  6
CONTINUOUS
 10
372.031647
 20
618.375549
 11
375.952637
 21
618.375549
  0
LINE
  8
0
  6
CONTINUOUS
 10
375.952637
 20
678.375549
 11
375.952637
 21
618.375549
  0
LINE
  8
0
  6
CONTINUOUS
 10
332.952972
 20
448.375458
 11
284.084381
 21
448.375549
  0
LINE
  8
0
  6
CONTINUOUS
 10
332.952972
 20
628.375427
 11
284.084778
 21
628.375488
  0
LINE
  8
0
  6
CONTINUOUS
 10
330.452972
 20
611.375549
 11
330.452972
 21
613.375549
  0
LINE
  8
0
  6
CONTINUOUS
 10
375.452972
 20
611.375549
 11
375.452972
 21
613.375549
  0
LINE
  8
0
  6
CONTINUOUS
 10
375.452972
 20
613.375549
 11
330.452972
 21
613.375549
  0
LINE
  8
0
  6
CONTINUOUS
 10
332.952972
 20
613.375549
 11
332.952972
 21
678.375549
  0
LINE
  8
0
  6
CONTINUOUS
 10
372.952972
 20
613.375549
 11
372.952972
 21
618.375549
  0
LINE
  8
0
  6
CONTINUOUS
 10
332.952972
 20
678.375549
 11
375.952637
 21
678.375549
  0
LINE
  8
0
  6
CONTINUOUS
 10
330.452972
 20
465.375549
 11
330.452972
 21
463.375549
  0
LINE
  8
0
  6
CONTINUOUS
 10
375.452972
 20
465.375549
 11
375.452972
 21
463.375549
  0
LINE
  8
0
  6
CONTINUOUS
 10
375.452972
 20
463.375549
 11
330.452972
 21
463.375549
  0
LINE
  8
0
  6
CONTINUOUS
 10
332.952972
 20
463.375549
 11
332.952972
 21
398.375549
  0
LINE
  8
0
  6
CONTINUOUS
 10
372.952972
 20
463.375549
 11
372.952972
 21
458.376007
  0
LINE
  8
0
  6
CONTINUOUS
 10
332.952972
 20
398.375549
 11
375.952637
 21
398.375549
  0
LINE
  8
0
  6
CONTINUOUS
 10
287.502197
 20
599.298828
 11
286.403320
 21
595.452698
  0
LINE
  8
0
  6
CONTINUOUS
 10
413.952759
 20
472.375763
 11
404.952637
 21
472.375702
  0
LINE
  8
0
  6
CONTINUOUS
 10
291.952759
 20
472.375763
 11
300.952637
 21
472.375702
  0
LINE
  8
0
  6
CONTINUOUS
 10
310.172180
 20
465.375763
 11
395.733093
 21
465.375763
  0
LINE
  8
0
  6
CENTER
 10
292.952972
 20
480.177826
 11
292.953156
 21
456.301239
  0
LINE
  8
0
  6
CENTER
 10
305.963348
 20
468.376129
 11
280.385620
 21
468.376129
  0
LINE
  8
0
  6
CENTER
 10
412.952667
 20
480.177826
 11
412.953156
 21
456.301422
  0
LINE
  8
0
  6
CENTER
 10
427.806458
 20
468.376221
 11
399.438416
 21
468.376221
  0
LINE
  8
0
  6
CONTINUOUS
 10
413.952759
 20
604.375793
 11
404.952637
 21
604.375793
  0
LINE
  8
0
  6
CONTINUOUS
 10
294.232880
 20
604.375793
 11
300.952637
 21
604.375793
  0
LINE
  8
0
  6
CONTINUOUS
 10
317.952881
 20
491.375763
 11
317.952881
 21
585.375793
  0
LINE
  8
0
  6
CONTINUOUS
 10
387.952850
 20
491.375763
 11
387.952850
 21
585.375793
  0
LINE
  8
0
  6
CONTINUOUS
 10
439.097076
 20
486.375763
 11
266.809052
 21
486.375763
  0
LINE
  8
0
  6
CONTINUOUS
 10
310.172180
 20
611.375793
 11
395.733093
 21
611.375793
  0
LINE
  8
0
  6
CONTINUOUS
 10
439.097076
 20
590.375793
 11
266.809052
 21
590.375793
  0
LINE
  8
0
  6
CENTER
 10
292.952972
 20
596.573730
 11
292.953156
 21
620.450317
  0
LINE
  8
0
  6
CENTER
 10
305.963348
 20
608.375427
 11
280.385620
 21
608.375427
  0
LINE
  8
0
  6
CENTER
 10
412.952667
 20
596.573730
 11
412.953156
 21
620.450134
  0
LINE
  8
0
  6
CONTINUOUS
 10
261.062561
 20
481.187439
 11
258.751953
 21
472.563843
  0
LINE
  8
0
  6
CONTINUOUS
 10
251.990372
 20
467.375610
 11
249.952774
 21
467.375610
  0
LINE
  8
0
  6
CONTINUOUS
 10
261.062775
 20
595.563721
 11
258.752167
 21
604.187317
  0
LINE
  8
0
  6
CONTINUOUS
 10
249.953171
 20
610.375732
 11
249.952774
 21
466.375732
  0
LINE
  8
0
  6
CONTINUOUS
 10
251.990768
 20
609.375488
 11
249.953171
 21
609.375488
  0
LINE
  8
0
  6
CONTINUOUS
 10
274.630157
 20
621.632935
 11
264.207794
 21
591.382141
  0
LINE
  8
0
  6
CONTINUOUS
 10
262.952972
 20
538.375549
 11
263.809509
 21
587.428162
  0
LINE
  8
0
  6
CONTINUOUS
 10
274.629761
 20
455.118164
 11
263.860779
 21
486.375610
  0
LINE
  8
0
  6
CONTINUOUS
 10
262.952972
 20
538.375549
 11
263.860779
 21
486.375610
  0
LINE
  8
0
  6
CONTINUOUS
 10
431.276154
 20
621.632690
 11
442.045166
 21
590.375305
  0
LINE
  8
0
  6
CONTINUOUS
 10
442.952972
 20
538.375366
 11
442.045166
 21
590.375305
  0
LINE
  8
0
  6
CONTINUOUS
 10
431.275757
 20
455.117889
 11
442.044952
 21
486.375336
  0
LINE
  8
0
  6
CONTINUOUS
 10
442.952972
 20
538.375366
 11
442.044952
 21
486.375336
  0
LINE
  8
0
  6
CENTER
 10
427.806458
 20
608.375305
 11
399.438416
 21
608.375305
  0
LINE
  8
0
  6
CENTER
 10
352.952637
 20
383.986481
 11
352.953278
 21
703.453369
  0
LINE
  8
0
  6
CONTINUOUS
 10
421.821167
 20
448.375305
 11
375.952637
 21
448.375366
  0
LINE
  8
0
  6
CONTINUOUS
 10
421.821747
 20
628.375305
 11
375.952637
 21
628.375366
  0
LINE
  8
0
  6
CENTER
 10
26.680000
 20
538.376099
 11
466.436432
 21
538.375305
  0
CIRCLE
  8
0
  6
CONTINUOUS
 10
352.952637
 20
231.276459
 40
46.000000
  0
ARC
  8
0
  6
CONTINUOUS
 10
669.936584
 20
177.776459
 40
81.000000
 50
219.929230
 51
230.060730
  0
ARC
  8
0
  6
CONTINUOUS
 10
669.936584
 20
177.776459
 40
81.000000
 50
201.738464
 51
215.615875
  0
ARC
  8
0
  6
CONTINUOUS
 10
669.936584
 20
177.776459
 40
81.000000
 50
-35.615845
 51
22.502024
  0
ARC
  8
0
  6
CONTINUOUS
 10
669.936584
 20
177.776459
 40
81.000000
 50
309.939270
 51
320.070679
  0
ARC
  8
0
  6
CONTINUOUS
 10
669.936584
 20
177.776459
 40
72.000000
 50
-23.556458
 51
6.741959
  0
ARC
  8
0
  6
CONTINUOUS
 10
669.936584
 20
177.776459
 40
81.000000
 50
157.497971
 51
158.261536
  0
ARC
  8
0
  6
CONTINUOUS
 10
669.936584
 20
177.776459
 40
72.000000
 50
173.257996
 51
203.556458
  0
ARC
  8
0
  6
CONTINUOUS
 10
597.936584
 20
149.707825
 40
2.000000
 50
260.439636
 51
268.000000
  0
ARC
  8
0
  6
CONTINUOUS
 10
592.151245
 20
191.576447
 40
1.000000
 50
92.000000
 51
268.000000
  0
ARC
  8
0
  6
CONTINUOUS
 10
593.890320
 20
156.376465
 40
1.000000
 50
92.000000
 51
268.000000
  0
ARC
  8
0
  6
CONTINUOUS
 10
600.872070
 20
154.131439
 40
1.000000
 50
18.899216
 51
88.000000
  0
ARC
  8
0
  6
CONTINUOUS
 10
602.035522
 20
150.972656
 40
1.000000
 50
-88.000000
 51
21.541519
  0
ARC
  8
0
  6
CONTINUOUS
 10
596.451904
 20
148.776459
 40
1.000000
 50
92.000000
 51
268.000000
  0
ARC
  8
0
  6
CONTINUOUS
 10
597.864014
 20
166.177185
 40
1.000000
 50
-88.000000
 51
9.142731
  0
ARC
  8
0
  6
CONTINUOUS
 10
599.507507
 20
158.573822
 40
1.000000
 50
-88.000000
 51
15.251099
  0
ARC
  8
0
  6
CONTINUOUS
 10
598.718506
 20
161.745911
 40
1.000000
 50
12.685333
 51
88.000000
  0
ARC
  8
0
  6
CONTINUOUS
 10
592.151245
 20
163.976471
 40
1.000000
 50
92.000000
 51
268.000000
  0
ARC
  8
0
  6
CONTINUOUS
 10
597.423767
 20
169.357208
 40
1.000000
 50
6.622787
 51
88.000000
  0
ARC
  8
0
  6
CONTINUOUS
 10
597.045959
 20
173.782501
 40
1.000000
 50
-88.000000
 51
3.136307
  0
ARC
  8
0
  6
CONTINUOUS
 10
591.180298
 20
171.576447
 40
1.000000
 50
92.000000
 51
268.000000
  0
ARC
  8
0
  6
CONTINUOUS
 10
597.045959
 20
181.770416
 40
1.000000
 50
-3.136322
 51
88.000000
  0
ARC
  8
0
  6
CONTINUOUS
 10
597.423767
 20
186.195709
 40
1.000000
 50
272.000000
 51
353.377228
  0
ARC
  8
0
  6
CONTINUOUS
 10
591.180298
 20
183.976471
 40
1.000000
 50
92.000000
 51
268.000000
  0
ARC
  8
0
  6
CONTINUOUS
 10
593.890320
 20
199.176453
 40
1.000000
 50
92.000000
 51
268.000000
  0
ARC
  8
0
  6
CONTINUOUS
 10
596.451904
 20
206.776459
 40
1.000000
 50
92.000000
 51
268.000000
  0
ARC
  8
0
  6
CONTINUOUS
 10
739.946899
 20
141.176453
 40
1.000000
 50
-88.000000
 51
88.000000
  0
ARC
  8
0
  6
CONTINUOUS
 10
599.926331
 20
141.176453
 40
1.000000
 50
92.000000
 51
268.000000
  0
ARC
  8
0
  6
CONTINUOUS
 10
614.013794
 20
121.976479
 40
1.000000
 50
92.000000
 51
268.000000
  0
ARC
  8
0
  6
CONTINUOUS
 10
725.859375
 20
121.976479
 40
1.000000
 50
-88.000000
 51
88.000000
  0
ARC
  8
0
  6
CONTINUOUS
 10
747.721924
 20
191.576447
 40
1.000000
 50
-88.000000
 51
88.000000
  0
ARC
  8
0
  6
CONTINUOUS
 10
745.982910
 20
156.376465
 40
1.000000
 50
-88.000000
 51
88.000000
  0
ARC
  8
0
  6
CONTINUOUS
 10
739.001160
 20
154.131439
 40
1.000000
 50
92.000000
 51
161.100784
  0
ARC
  8
0
  6
CONTINUOUS
 10
737.837646
 20
150.972656
 40
1.000000
 50
158.458481
 51
268.000000
  0
ARC
  8
0
  6
CONTINUOUS
 10
743.421265
 20
148.776459
 40
1.000000
 50
-88.000000
 51
88.000000
  0
ARC
  8
0
  6
CONTINUOUS
 10
742.009155
 20
166.177185
 40
1.000000
 50
170.857269
 51
268.000000
  0
ARC
  8
0
  6
CONTINUOUS
 10
740.365723
 20
158.573822
 40
1.000000
 50
164.748901
 51
268.000000
  0
ARC
  8
0
  6
CONTINUOUS
 10
741.154724
 20
161.745911
 40
1.000000
 50
92.000000
 51
167.314667
  0
ARC
  8
0
  6
CONTINUOUS
 10
747.721924
 20
163.976471
 40
1.000000
 50
-88.000000
 51
88.000000
  0
ARC
  8
0
  6
CONTINUOUS
 10
742.449463
 20
169.357208
 40
1.000000
 50
92.000000
 51
173.377213
  0
ARC
  8
0
  6
CONTINUOUS
 10
742.827271
 20
173.782501
 40
1.000000
 50
176.863693
 51
268.000000
  0
ARC
  8
0
  6
CONTINUOUS
 10
748.692932
 20
171.576447
 40
1.000000
 50
-88.000000
 51
88.000000
  0
ARC
  8
0
  6
CONTINUOUS
 10
742.827271
 20
181.770416
 40
1.000000
 50
92.000000
 51
183.136307
  0
ARC
  8
0
  6
CONTINUOUS
 10
742.449463
 20
186.195709
 40
1.000000
 50
186.622787
 51
268.000000
  0
ARC
  8
0
  6
CONTINUOUS
 10
748.692932
 20
183.976471
 40
1.000000
 50
-88.000000
 51
88.000000
  0
ARC
  8
0
  6
CONTINUOUS
 10
745.982910
 20
199.176453
 40
1.000000
 50
-88.000000
 51
88.000000
  0
ARC
  8
0
  6
CONTINUOUS
 10
743.421265
 20
206.776459
 40
1.000000
 50
-88.000000
 51
88.000000
  0
ARC
  8
0
  6
CONTINUOUS
 10
583.936584
 20
231.276459
 40
6.000000
 50
-90.000000
 51
90.000000
  0
ARC
  8
0
  6
CONTINUOUS
 10
755.936584
 20
231.276459
 40
6.000000
 50
90.000000
 51
270.000000
  0
ARC
  8
0
  6
CONTINUOUS
 10
669.936584
 20
177.776459
 40
71.000000
 50
173.931793
 51
201.630905
  0
ARC
  8
0
  6
CONTINUOUS
 10
669.936584
 20
177.776459
 40
71.000000
 50
-21.630920
 51
6.068256
  0
ARC
  8
0
  6
CONTINUOUS
 10
610.936584
 20
288.556580
 40
7.000000
 50
-74.054443
 51
0.000000
  0
ARC
  8
0
  6
CONTINUOUS
 10
596.936584
 20
178.432251
 40
7.000000
 50
0.000000
 51
60.000092
  0
ARC
  8
0
  6
CONTINUOUS
 10
610.936584
 20
117.496323
 40
7.000000
 50
0.000000
 51
74.054688
  0
ARC
  8
0
  6
CONTINUOUS
 10
582.936584
 20
83.645363
 40
3.000000
 50
97.496292
 51
180.000000
  0
ARC
  8
0
  6
CONTINUOUS
 10
582.936584
 20
83.276482
 40
3.000000
 50
90.000000
 51
180.000000
  0
ARC
  8
0
  6
CONTINUOUS
 10
612.936584
 20
91.276466
 40
5.000000
 50
-90.000000
 51
0.000000
  0
ARC
  8
0
  6
CONTINUOUS
 10
614.936584
 20
93.907600
 40
3.000000
 50
-82.503876
 51
0.000000
  0
ARC
  8
0
  6
CONTINUOUS
 10
726.936584
 20
91.276482
 40
5.000000
 50
180.000000
 51
270.000000
  0
ARC
  8
0
  6
CONTINUOUS
 10
756.936584
 20
83.645325
 40
3.000000
 50
0.000000
 51
82.504204
  0
ARC
  8
0
  6
CONTINUOUS
 10
756.936584
 20
83.276466
 40
3.000000
 50
0.000000
 51
90.000000
  0
ARC
  8
0
  6
CONTINUOUS
 10
724.936584
 20
93.907600
 40
3.000000
 50
180.000000
 51
262.504395
  0
ARC
  8
0
  6
CONTINUOUS
 10
742.936584
 20
178.432205
 40
7.000000
 50
120.000099
 51
180.000000
  0
ARC
  8
0
  6
CONTINUOUS
 10
728.936584
 20
117.496407
 40
7.000000
 50
105.945801
 51
180.000000
  0
ARC
  8
0
  6
CONTINUOUS
 10
728.936584
 20
288.556641
 40
7.000000
 50
180.000000
 51
254.054901
  0
ARC
  8
0
  6
CONTINUOUS
 10
728.936584
 20
132.056564
 40
7.000000
 50
-74.054504
 51
0.000000
  0
ARC
  8
0
  6
CONTINUOUS
 10
610.936584
 20
132.056625
 40
7.000000
 50
180.000000
 51
254.054901
  0
ARC
  8
0
  6
CONTINUOUS
 10
735.936584
 20
190.556564
 40
7.000000
 50
-59.999878
 51
0.000000
  0
ARC
  8
0
  6
CONTINUOUS
 10
735.936584
 20
271.996338
 40
7.000000
 50
0.000000
 51
74.054764
  0
ARC
  8
0
  6
CONTINUOUS
 10
603.936584
 20
190.556625
 40
7.000000
 50
180.000000
 51
240.000198
  0
ARC
  8
0
  6
CONTINUOUS
 10
603.936584
 20
271.996399
 40
7.000000
 50
105.945801
 51
180.000000
  0
ARC
  8
0
  6
CONTINUOUS
 10
717.936584
 20
303.938202
 40
4.000000
 50
0.000000
 51
89.000359
  0
ARC
  8
0
  6
CONTINUOUS
 10
621.936584
 20
303.937866
 40
4.000000
 50
91.000580
 51
180.000000
  0
ARC
  8
0
  6
CONTINUOUS
 10
352.952637
 20
231.276459
 40
20.000000
 50
17.457600
 51
342.542389
  0
ARC
  8
0
  6
CONTINUOUS
 10
472.634247
 20
177.776459
 40
215.181595
 50
167.017899
 51
192.982101
  0
ARC
  8
0
  6
CONTINUOUS
 10
368.148834
 20
155.222748
 40
2.320524
 50
-82.585266
 51
62.411850
  0
ARC
  8
0
  6
CONTINUOUS
 10
368.148834
 20
155.222748
 40
3.803712
 50
-73.981873
 51
90.003510
  0
ARC
  8
0
  6
CONTINUOUS
 10
339.110840
 20
149.415131
 40
2.968750
 50
-89.999786
 51
0.000109
  0
ARC
  8
0
  6
CONTINUOUS
 10
382.952637
 20
160.776459
 40
38.000000
 50
-90.000000
 51
12.522720
  0
ARC
  8
0
  6
CONTINUOUS
 10
382.952637
 20
160.776459
 40
34.000000
 50
-90.000000
 51
12.522730
  0
ARC
  8
0
  6
CONTINUOUS
 10
322.952637
 20
160.776459
 40
38.000000
 50
167.477402
 51
270.000000
  0
ARC
  8
0
  6
CONTINUOUS
 10
322.952637
 20
160.776459
 40
34.000000
 50
167.477402
 51
270.000000
  0
ARC
  8
0
  6
CONTINUOUS
 10
352.952637
 20
231.276459
 40
48.000000
 50
-192.522598
 51
12.522720
  0
ARC
  8
0
  6
CONTINUOUS
 10
352.952637
 20
231.276459
 40
52.000000
 50
12.522720
 51
167.477402
  0
ARC
  8
0
  6
CONTINUOUS
 10
388.952637
 20
87.276466
 40
1.000000
 50
180.000000
 51
270.000000
  0
ARC
  8
0
  6
CONTINUOUS
 10
316.952637
 20
87.276466
 40
1.000000
 50
-90.000000
 51
0.000000
  0
ARC
  8
0
  6
CONTINUOUS
 10
386.710052
 20
88.276466
 40
3.000000
 50
45.000259
 51
90.000000
  0
ARC
  8
0
  6
CONTINUOUS
 10
319.195251
 20
88.276466
 40
3.000000
 50
90.000000
 51
135.000397
  0
ARC
  8
0
  6
CONTINUOUS
 10
395.023651
 20
91.276466
 40
5.000000
 50
225.000107
 51
270.000000
  0
ARC
  8
0
  6
CONTINUOUS
 10
310.881653
 20
91.276466
 40
5.000000
 50
270.000000
 51
315.000092
  0
ARC
  8
0
  6
CONTINUOUS
 10
257.952667
 20
101.776443
 40
5.000000
 50
0.000000
 51
90.000000
  0
ARC
  8
0
  6
CONTINUOUS
 10
257.952667
 20
253.776459
 40
5.000000
 50
-90.000000
 51
0.000000
  0
ARC
  8
0
  6
CONTINUOUS
 10
272.952667
 20
264.608521
 40
10.000000
 50
125.340500
 51
180.000000
  0
ARC
  8
0
  6
CONTINUOUS
 10
321.138245
 20
298.776459
 40
10.000000
 50
90.000000
 51
125.340302
  0
ARC
  8
0
  6
CONTINUOUS
 10
384.767059
 20
298.776459
 40
10.000000
 50
54.659950
 51
90.000000
  0
ARC
  8
0
  6
CONTINUOUS
 10
432.952637
 20
264.608429
 40
10.000000
 50
0.000000
 51
54.660099
  0
ARC
  8
0
  6
CONTINUOUS
 10
310.172180
 20
472.375702
 40
7.000000
 50
220.601288
 51
270.000000
  0
ARC
  8
0
  6
CONTINUOUS
 10
395.733093
 20
472.375702
 40
7.000000
 50
270.000000
 51
319.398712
  0
ARC
  8
0
  6
CONTINUOUS
 10
395.733093
 20
604.375793
 40
7.000000
 50
40.601295
 51
90.000000
  0
ARC
  8
0
  6
CONTINUOUS
 10
310.172180
 20
604.375793
 40
7.000000
 50
90.000000
 51
139.398712
  0
ARC
  8
0
  6
CONTINUOUS
 10
279.672668
 20
597.375793
 40
7.000000
 50
270.000000
 51
344.054596
  0
ARC
  8
0
  6
CONTINUOUS
 10
294.232880
 20
597.375793
 40
7.000000
 50
90.000000
 51
164.054611
  0
ARC
  8
0
  6
CONTINUOUS
 10
427.952759
 20
479.375763
 40
7.000000
 50
90.000000
 51
180.000000
  0
ARC
  8
0
  6
CONTINUOUS
 10
413.952759
 20
479.375763
 40
7.000000
 50
-90.000000
 51
0.000000
  0
ARC
  8
0
  6
CONTINUOUS
 10
277.952759
 20
479.375763
 40
7.000000
 50
0.000000
 51
90.000000
  0
ARC
  8
0
  6
CONTINUOUS
 10
291.952759
 20
479.375763
 40
7.000000
 50
180.000000
 51
270.000000
  0
ARC
  8
0
  6
CONTINUOUS
 10
292.952759
 20
468.375549
 40
7.500000
 50
-226.078156
 51
32.232941
  0
ARC
  8
0
  6
CONTINUOUS
 10
412.952972
 20
468.376221
 40
7.500000
 50
-212.226791
 51
46.074883
  0
ARC
  8
0
  6
CONTINUOUS
 10
427.952759
 20
597.375793
 40
7.000000
 50
180.000000
 51
270.000000
  0
ARC
  8
0
  6
CONTINUOUS
 10
413.952759
 20
597.375793
 40
7.000000
 50
0.000000
 51
90.000000
  0
ARC
  8
0
  6
CONTINUOUS
 10
266.809052
 20
489.375763
 40
3.000000
 50
181.000366
 51
270.000000
  0
ARC
  8
0
  6
CONTINUOUS
 10
439.097076
 20
489.375763
 40
3.000000
 50
270.000000
 51
358.999847
  0
ARC
  8
0
  6
CONTINUOUS
 10
266.809052
 20
587.375793
 40
3.000000
 50
90.000000
 51
178.999634
  0
ARC
  8
0
  6
CONTINUOUS
 10
439.097076
 20
587.375793
 40
3.000000
 50
1.000152
 51
90.000000
  0
ARC
  8
0
  6
CONTINUOUS
 10
292.952759
 20
608.375977
 40
7.500000
 50
-32.232941
 51
238.076355
  0
ARC
  8
0
  6
CONTINUOUS
 10
284.084381
 20
618.375977
 40
10.000000
 50
90.000000
 51
160.989105
  0
ARC
  8
0
  6
CONTINUOUS
 10
267.824158
 20
479.375610
 40
7.000000
 50
121.109207
 51
165.000336
  0
ARC
  8
0
  6
CONTINUOUS
 10
251.990372
 20
474.375641
 40
7.000000
 50
270.000000
 51
345.000092
  0
ARC
  8
0
  6
CONTINUOUS
 10
267.824371
 20
597.375488
 40
7.000000
 50
194.999695
 51
270.000000
  0
ARC
  8
0
  6
CONTINUOUS
 10
251.990768
 20
602.375488
 40
7.000000
 50
14.999900
 51
90.000000
  0
ARC
  8
0
  6
CONTINUOUS
 10
284.084381
 20
458.375580
 40
10.000000
 50
199.010895
 51
270.000000
  0
ARC
  8
0
  6
CONTINUOUS
 10
421.821747
 20
618.375305
 40
10.000000
 50
19.010900
 51
90.000000
  0
ARC
  8
0
  6
CONTINUOUS
 10
412.952972
 20
608.375305
 40
7.500000
 50
-46.074890
 51
212.226791
  0
ARC
  8
0
  6
CONTINUOUS
 10
421.821350
 20
458.375366
 40
10.000000
 50
270.000000
 51
340.989105
  0
LINE
  8
0
  6
CONTINUOUS
 10
595.936584
 20
205.919464
 11
595.936584
 21
200.248520
  0
LINE
  8
0
  6
CONTINUOUS
 10
595.936584
 20
198.104401
 11
595.936584
 21
192.709259
  0
LINE
  8
0
  6
CONTINUOUS
 10
594.436584
 20
200.196136
 11
594.436584
 21
211.276459
  0
LINE
  8
0
  6
CONTINUOUS
 10
594.436584
 20
192.656876
 11
594.436584
 21
198.156769
  0
LINE
  8
0
  6
CONTINUOUS
 10
595.936584
 20
190.443649
 11
595.936584
 21
185.143173
  0
LINE
  8
0
  6
CONTINUOUS
 10
595.936584
 20
182.809769
 11
595.936584
 21
172.743149
  0
LINE
  8
0
  6
CONTINUOUS
 10
594.436584
 20
185.090790
 11
594.436584
 21
190.496033
  0
LINE
  8
0
  6
CONTINUOUS
 10
595.936584
 20
170.409744
 11
595.936584
 21
165.109268
  0
LINE
  8
0
  6
CONTINUOUS
 10
594.436584
 20
172.690765
 11
594.436584
 21
182.862152
  0
LINE
  8
0
  6
CONTINUOUS
 10
595.936584
 20
155.304398
 11
595.936584
 21
149.633453
  0
LINE
  8
0
  6
CONTINUOUS
 10
594.436584
 20
157.396149
 11
594.436584
 21
162.896057
  0
LINE
  8
0
  6
CONTINUOUS
 10
595.936584
 20
147.919464
 11
595.936584
 21
147.776474
  0
LINE
  8
0
  6
CONTINUOUS
 10
595.936584
 20
162.843674
 11
595.936584
 21
157.448532
  0
LINE
  8
0
  6
CONTINUOUS
 10
594.436584
 20
165.056885
 11
594.436584
 21
170.462128
  0
TEXT
  8
0
 10
26.000000
 20
8.000000
 40
10.000000
 41
1.000000
  1
H2LB-40T-80~240-075W
 50
0.000000
  0
ENDSEC
  0
EOF
