  0
SECTION
  2
HEADER
  9
$ACADVER
  1
AC1014
  9
$ACADMAINTVER
 70
     9
  9
$DWGCODEPAGE
  3
ANSI_932
  9
$INSBASE
 10
0.0
 20
0.0
 30
0.0
  9
$EXTMIN
 10
67.4973646385838
 20
100.43439011812
 30
0.0
  9
$EXTMAX
 10
1602.799771025533
 20
882.0146771181198
 30
0.0
  9
$LIMMIN
 10
0.0
 20
0.0
  9
$LIMMAX
 10
297.0
 20
210.0
  9
$ORTHOMODE
 70
     1
  9
$REGENMODE
 70
     1
  9
$FILLMODE
 70
     1
  9
$QTEXTMODE
 70
     0
  9
$MIRRTEXT
 70
     0
  9
$DRAGMODE
 70
     2
  9
$LTSCALE
 40
4.0
  9
$OSMODE
 70
    37
  9
$ATTMODE
 70
     1
  9
$TEXTSIZE
 40
2.0
  9
$TRACEWID
 40
1.0
  9
$TEXTSTYLE
  7
STANDARD
  9
$CLAYER
  8
0
  9
$CELTYPE
  6
BYLAYER
  9
$CECOLOR
 62
   256
  9
$CELTSCALE
 40
1.0
  9
$DELOBJ
 70
     1
  9
$DISPSILH
 70
     0
  9
$DIMSCALE
 40
1.0
  9
$DIMASZ
 40
1.8
  9
$DIMEXO
 40
0.625
  9
$DIMDLI
 40
3.75
  9
$DIMRND
 40
0.0
  9
$DIMDLE
 40
0.0
  9
$DIMEXE
 40
1.25
  9
$DIMTP
 40
0.0
  9
$DIMTM
 40
0.0
  9
$DIMTXT
 40
1.8
  9
$DIMCEN
 40
2.5
  9
$DIMTSZ
 40
0.0
  9
$DIMTOL
 70
     0
  9
$DIMLIM
 70
     0
  9
$DIMTIH
 70
     0
  9
$DIMTOH
 70
     0
  9
$DIMSE1
 70
     0
  9
$DIMSE2
 70
     0
  9
$DIMTAD
 70
     1
  9
$DIMZIN
 70
     8
  9
$DIMBLK
  1

  9
$DIMASO
 70
     1
  9
$DIMSHO
 70
     1
  9
$DIMPOST
  1

  9
$DIMAPOST
  1

  9
$DIMALT
 70
     0
  9
$DIMALTD
 70
     4
  9
$DIMALTF
 40
0.0394
  9
$DIMLFAC
 40
4.0
  9
$DIMTOFL
 70
     1
  9
$DIMTVP
 40
0.0
  9
$DIMTIX
 70
     0
  9
$DIMSOXD
 70
     0
  9
$DIMSAH
 70
     0
  9
$DIMBLK1
  1

  9
$DIMBLK2
  1

  9
$DIMSTYLE
  2
LAYOUT
  9
$DIMCLRD
 70
     0
  9
$DIMCLRE
 70
     0
  9
$DIMCLRT
 70
     0
  9
$DIMTFAC
 40
1.0
  9
$DIMGAP
 40
0.75
  9
$DIMJUST
 70
     0
  9
$DIMSD1
 70
     0
  9
$DIMSD2
 70
     0
  9
$DIMTOLJ
 70
     1
  9
$DIMTZIN
 70
     0
  9
$DIMALTZ
 70
     0
  9
$DIMALTTZ
 70
     0
  9
$DIMFIT
 70
     3
  9
$DIMUPT
 70
     0
  9
$DIMUNIT
 70
     8
  9
$DIMDEC
 70
     2
  9
$DIMTDEC
 70
     2
  9
$DIMALTU
 70
     8
  9
$DIMALTTD
 70
     4
  9
$DIMTXSTY
  7
STANDARD
  9
$DIMAUNIT
 70
     0
  9
$LUNITS
 70
     2
  9
$LUPREC
 70
     3
  9
$SKETCHINC
 40
1.0
  9
$FILLETRAD
 40
10.0
  9
$AUNITS
 70
     0
  9
$AUPREC
 70
     2
  9
$MENU
  1
.
  9
$ELEVATION
 40
0.0
  9
$PELEVATION
 40
0.0
  9
$THICKNESS
 40
0.0
  9
$LIMCHECK
 70
     0
  9
$BLIPMODE
 70
     0
  9
$CHAMFERA
 40
0.0
  9
$CHAMFERB
 40
0.0
  9
$CHAMFERC
 40
20.0
  9
$CHAMFERD
 40
0.0
  9
$SKPOLY
 70
     0
  9
$TDCREATE
 40
2453479.407355856
  9
$TDUPDATE
 40
2454028.470104340
  9
$TDINDWG
 40
0.0422804514
  9
$TDUSRTIMER
 40
0.0422804514
  9
$USRTIMER
 70
     1
  9
$ANGBASE
 50
0.0
  9
$ANGDIR
 70
     0
  9
$PDMODE
 70
     0
  9
$PDSIZE
 40
-10.0
  9
$PLINEWID
 40
0.0
  9
$COORDS
 70
     2
  9
$SPLFRAME
 70
     0
  9
$SPLINETYPE
 70
     6
  9
$SPLINESEGS
 70
     8
  9
$ATTDIA
 70
     0
  9
$ATTREQ
 70
     1
  9
$HANDLING
 70
-16383
  9
$HANDSEED
  5
1DA2
  9
$SURFTAB1
 70
     6
  9
$SURFTAB2
 70
     6
  9
$SURFTYPE
 70
     6
  9
$SURFU
 70
     6
  9
$SURFV
 70
     6
  9
$UCSNAME
  2

  9
$UCSORG
 10
0.0
 20
0.0
 30
0.0
  9
$UCSXDIR
 10
1.0
 20
0.0
 30
0.0
  9
$UCSYDIR
 10
0.0
 20
1.0
 30
0.0
  9
$PUCSNAME
  2

  9
$PUCSORG
 10
0.0
 20
0.0
 30
0.0
  9
$PUCSXDIR
 10
1.0
 20
0.0
 30
0.0
  9
$PUCSYDIR
 10
0.0
 20
1.0
 30
0.0
  9
$USERI1
 70
     0
  9
$USERI2
 70
     0
  9
$USERI3
 70
     0
  9
$USERI4
 70
     0
  9
$USERI5
 70
     0
  9
$USERR1
 40
0.0
  9
$USERR2
 40
0.0
  9
$USERR3
 40
0.0
  9
$USERR4
 40
0.0
  9
$USERR5
 40
0.0
  9
$WORLDVIEW
 70
     1
  9
$SHADEDGE
 70
     3
  9
$SHADEDIF
 70
    70
  9
$TILEMODE
 70
     1
  9
$MAXACTVP
 70
    48
  9
$PINSBASE
 10
0.0
 20
0.0
 30
0.0
  9
$PLIMCHECK
 70
     0
  9
$PEXTMIN
 10
0.0
 20
0.0
 30
0.0
  9
$PEXTMAX
 10
0.0
 20
0.0
 30
0.0
  9
$PLIMMIN
 10
0.0
 20
0.0
  9
$PLIMMAX
 10
12.0
 20
9.0
  9
$UNITMODE
 70
     0
  9
$VISRETAIN
 70
     1
  9
$PLINEGEN
 70
     0
  9
$PSLTSCALE
 70
     1
  9
$TREEDEPTH
 70
  3020
  9
$PICKSTYLE
 70
     1
  9
$CMLSTYLE
  2
STANDARD
  9
$CMLJUST
 70
     0
  9
$CMLSCALE
 40
1.0
  9
$PROXYGRAPHICS
 70
     1
  9
$MEASUREMENT
 70
     0
  0
ENDSEC
  0
SECTION
  2
CLASSES
  0
CLASS
  1
DICTIONARYVAR
  2
AcDbDictionaryVar
  3
AutoCAD 2000
 90
        0
280
     0
281
     0
  0
CLASS
  1
ACDBDICTIONARYWDFLT
  2
AcDbDictionaryWithDefault
  3
AutoCAD 2000
 90
        0
280
     0
281
     0
  0
CLASS
  1
ACDBPLACEHOLDER
  2
AcDbPlaceHolder
  3
AutoCAD 2000
 90
        0
280
     0
281
     0
  0
CLASS
  1
LAYOUT
  2
AcDbLayout
  3
AutoCAD 2000
 90
        0
280
     0
281
     0
  0
CLASS
  1
LONG_TRANSACTION
  2
AcDbLongTransaction
  3
AutoCAD 2000
 90
        0
280
     0
281
     0
  0
CLASS
  1
LWPOLYLINE
  2
AcDbPolyline
  3
AutoCAD 2000
 90
        0
280
     0
281
     1
  0
CLASS
  1
HATCH
  2
AcDbHatch
  3
AutoCAD 2000
 90
        0
280
     0
281
     1
  0
CLASS
  1
XRECORD
  2
AcDbXrecord
  3
AutoCAD 2000
 90
        0
280
     0
281
     0
  0
ENDSEC
  0
SECTION
  2
TABLES
  0
TABLE
  2
VPORT
  5
6E
330
0
100
AcDbSymbolTable
 70
     2
  0
VPORT
  5
1D7C
330
6E
100
AcDbSymbolTableRecord
100
AcDbViewportTableRecord
  2
*ACTIVE
 70
     0
 10
0.0
 20
0.0
 11
1.0
 21
1.0
 12
827.5580174586655
 22
467.9192066638806
 13
0.0
 23
0.0
 14
10.0
 24
10.0
 15
10.0
 25
10.0
 16
0.0
 26
0.0
 36
1.0
 17
0.0
 27
0.0
 37
0.0
 40
994.430533736253
 41
1.566970091027308
 42
50.0
 43
0.0
 44
0.0
 50
0.0
 51
0.0
 71
     0
 72
   100
 73
     1
 74
     3
 75
     0
 76
     0
 77
     0
 78
     0
  0
ENDTAB
  0
TABLE
  2
LTYPE
  5
69
330
0
100
AcDbSymbolTable
 70
     3
  0
LTYPE
  5
6A
330
69
100
AcDbSymbolTableRecord
100
AcDbLinetypeTableRecord
  2
BYBLOCK
 70
     0
  3

 72
    65
 73
     0
 40
0.0
  0
LTYPE
  5
6B
330
69
100
AcDbSymbolTableRecord
100
AcDbLinetypeTableRecord
  2
BYLAYER
 70
     0
  3

 72
    65
 73
     0
 40
0.0
  0
LTYPE
  5
8
330
69
100
AcDbSymbolTableRecord
100
AcDbLinetypeTableRecord
  2
CONTINUOUS
 70
     0
  3
Solid line
 72
    65
 73
     0
 40
0.0
  0
LTYPE
  5
27C
330
69
100
AcDbSymbolTableRecord
100
AcDbLinetypeTableRecord
  2
SEKKEI_A2_
 70
     0
  3
center(A2)  ____ _ ____ _ ____ _ ____ _ ____ _ 
 72
    65
 73
     4
 40
14.28749999999999
 49
9.525
 74
     0
 49
-1.587499999999999
 74
     0
 49
1.587499999999999
 74
     0
 49
-1.587499999999999
 74
     0
  0
LTYPE
  5
2B4
330
69
100
AcDbSymbolTableRecord
100
AcDbLinetypeTableRecord
  2
HIDDEN2
 70
     0
  3
Hidden (.5x) _ _ _ _ _ _ _ _ _ _ _ _ _ _ _ _ _
 72
    65
 73
     2
 40
4.762499999999999
 49
3.174999999999999
 74
     0
 49
-1.587499999999999
 74
     0
  0
ENDTAB
  0
TABLE
  2
LAYER
  5
66
330
0
100
AcDbSymbolTable
 70
     8
  0
LAYER
  5
5E
330
66
100
AcDbSymbolTableRecord
100
AcDbLayerTableRecord
  2
0
 70
     0
 62
     7
  6
CONTINUOUS
  0
LAYER
  5
3E
330
66
100
AcDbSymbolTableRecord
100
AcDbLayerTableRecord
  2
CENTER
 70
     0
 62
     3
  6
SEKKEI_A2_
  0
LAYER
  5
2B5
330
66
100
AcDbSymbolTableRecord
100
AcDbLayerTableRecord
  2
HIDS
 70
     0
 62
     1
  6
HIDDEN2
  0
LAYER
  5
3FA
330
66
100
AcDbSymbolTableRecord
100
AcDbLayerTableRecord
  2
TITLE
 70
     0
 62
     4
  6
CONTINUOUS
  0
ENDTAB
  0
TABLE
  2
STYLE
  5
67
330
0
100
AcDbSymbolTable
 70
     1
  0
STYLE
  5
16
330
67
100
AcDbSymbolTableRecord
100
AcDbTextStyleTableRecord
  2
STANDARD
 70
     0
 40
0.0
 41
1.0
 50
0.0
 71
     0
 42
2.0
  3
simplex.shx
  4
extfont.shx
  0
ENDTAB
  0
TABLE
  2
VIEW
  5
6C
330
0
100
AcDbSymbolTable
 70
     0
  0
ENDTAB
  0
TABLE
  2
UCS
  5
6D
330
0
100
AcDbSymbolTable
 70
     0
  0
ENDTAB
  0
TABLE
  2
APPID
  5
70
330
0
100
AcDbSymbolTable
 70
     1
  0
APPID
  5
71
330
70
100
AcDbSymbolTableRecord
100
AcDbRegAppTableRecord
  2
ACAD
 70
     0
  0
ENDTAB
  0
TABLE
  2
DIMSTYLE
  5
72
330
0
100
AcDbSymbolTable
 70
     2
  0
DIMSTYLE
105
1268
102
{ACAD_REACTORS
330
1C09
330
1C18
330
1CC3
330
1CC4
102
}
330
72
100
AcDbSymbolTableRecord
100
AcDbDimStyleTableRecord
  2
LAYOUT
 70
     0
  3

  4

  5

  6

  7

 40
1.0
 41
1.8
 42
0.625
 43
3.75
 44
1.25
 45
0.0
 46
0.0
 47
0.0
 48
0.0
140
1.8
141
2.5
142
0.0
143
0.0394
144
4.0
145
0.0
146
1.0
147
0.75
 71
     0
 72
     0
 73
     0
 74
     0
 75
     0
 76
     0
 77
     1
 78
     8
170
     0
171
     4
172
     1
173
     0
174
     0
175
     0
176
     0
177
     0
178
     0
270
     8
271
     2
272
     2
273
     8
274
     4
340
16
275
     0
280
     0
281
     0
282
     0
283
     1
284
     0
285
     0
286
     0
287
     3
288
     0
  0
ENDTAB
  0
TABLE
  2
BLOCK_RECORD
  5
1
330
0
100
AcDbSymbolTable
 70
    52
  0
BLOCK_RECORD
  5
2
102
{ACAD_XDICTIONARY
360
1D9E
102
}
330
1
100
AcDbSymbolTableRecord
100
AcDbBlockTableRecord
  2
*MODEL_SPACE
  0
BLOCK_RECORD
  5
1D77
102
{ACAD_XDICTIONARY
360
1DA0
102
}
330
1
100
AcDbSymbolTableRecord
100
AcDbBlockTableRecord
  2
*PAPER_SPACE
  0
ENDTAB
  0
ENDSEC
  0
SECTION
  2
BLOCKS
  0
BLOCK
  5
5D
330
2
100
AcDbEntity
  8
0
100
AcDbBlockBegin
  2
*MODEL_SPACE
 70
     0
 10
0.0
 20
0.0
 30
0.0
  3
*MODEL_SPACE
  1

  0
ENDBLK
  5
5F
330
2
100
AcDbEntity
  8
0
100
AcDbBlockEnd
  0
BLOCK
  5
1D79
330
1D77
100
AcDbEntity
 67
     1
  8
0
100
AcDbBlockBegin
  2
*PAPER_SPACE
 70
     0
 10
0.0
 20
0.0
 30
0.0
  3
*PAPER_SPACE
  1

  0
ENDBLK
  5
1D7A
330
1D77
100
AcDbEntity
 67
     1
  8
0
100
AcDbBlockEnd
  0
ENDSEC
  0
SECTION
  2
ENTITIES
  0
LINE
  5
750
330
2
100
AcDbEntity
  8
0
100
AcDbLine
 10
542.5078326385837
 20
614.1831651181199
 30
0.0
 11
443.3693136385837
 21
614.1831651181199
 31
0.0
  0
LINE
  5
751
330
2
100
AcDbEntity
  8
0
100
AcDbLine
 10
586.9770406385837
 20
636.18316511812
 30
0.0
 11
387.9385886385839
 21
636.18316511812
 31
0.0
  0
LINE
  5
752
330
2
100
AcDbEntity
  8
0
100
AcDbLine
 10
542.5078326385837
 20
788.1831651181201
 30
0.0
 11
443.3693136385837
 21
788.1831651181201
 31
0.0
  0
LINE
  5
753
330
2
100
AcDbEntity
  8
0
100
AcDbLine
 10
591.8905226385838
 20
766.1831651181199
 30
0.0
 11
387.9385886385839
 21
766.1831651181199
 31
0.0
  0
LINE
  5
754
330
2
100
AcDbEntity
  8
0
100
AcDbLine
 10
569.3963826385838
 20
586.18316511812
 30
0.0
 11
492.9385886385839
 21
586.18316511812
 31
0.0
  0
LINE
  5
755
330
2
100
AcDbEntity
  8
0
100
AcDbLine
 10
569.3963826385838
 20
816.1831651181199
 30
0.0
 11
521.4385886385839
 21
816.1831651181199
 31
0.0
  0
LINE
  5
756
330
2
100
AcDbEntity
  8
CENTER
100
AcDbLine
 10
620.205189638584
 20
701.1831651181198
 30
0.0
 11
67.4973646385838
 21
701.1831651181201
 31
0.0
  0
LINE
  5
757
330
2
100
AcDbEntity
  8
0
100
AcDbLine
 10
1137.858608025533
 20
209.9506521181199
 30
0.0
 11
1162.358547025533
 21
209.9506521181199
 31
0.0
  0
ARC
  5
758
330
2
100
AcDbEntity
  8
0
100
AcDbCircle
 10
1151.108547025532
 20
219.3580921181198
 30
0.0
 40
16.25
100
AcDbArc
 50
112.352501
 51
215.374496
  0
ARC
  5
759
330
2
100
AcDbEntity
  8
0
100
AcDbCircle
 10
1177.358547025532
 20
251.9506521181199
 30
0.0
 40
99.0
100
AcDbArc
 50
180.0
 51
0.0
  0
ARC
  5
75A
330
2
100
AcDbEntity
  8
0
100
AcDbCircle
 10
1177.358547025532
 20
321.9506521181199
 30
0.0
 40
99.0
100
AcDbArc
 50
0.0
 51
180.0
  0
LINE
  5
75C
330
2
100
AcDbEntity
  8
0
100
AcDbLine
 10
1219.587307025533
 20
151.95064811812
 30
0.0
 11
1135.129788025532
 21
151.95064811812
 31
0.0
  0
ARC
  5
75D
330
2
100
AcDbEntity
  8
0
100
AcDbCircle
 10
1177.358547025532
 20
318.9506521181199
 30
0.0
 40
56.360001
100
AcDbArc
 50
164.2377929999999
 51
15.76208000000013
  0
ARC
  5
75E
330
2
100
AcDbEntity
  8
0
100
AcDbCircle
 10
1143.358547025533
 20
232.9506521181199
 30
0.0
 40
51.639999
100
AcDbArc
 50
164.2377929999999
 51
270.0
  0
ARC
  5
75F
330
2
100
AcDbEntity
  8
0
100
AcDbCircle
 10
1143.358547025533
 20
232.9506521181199
 30
0.0
 40
47.0
100
AcDbArc
 50
164.2377929999999
 51
270.0
  0
ARC
  5
760
330
2
100
AcDbEntity
  8
0
100
AcDbCircle
 10
1177.358547025532
 20
318.9506521181199
 30
0.0
 40
61.0
100
AcDbArc
 50
15.76210000000036
 51
164.2377929999999
  0
CIRCLE
  5
761
330
2
100
AcDbEntity
  8
0
100
AcDbCircle
 10
1177.358547025532
 20
318.9506521181199
 30
0.0
 40
55.0
  0
LINE
  5
762
330
2
100
AcDbEntity
  8
0
100
AcDbLine
 10
1138.652737025533
 20
424.5682671181198
 30
0.0
 11
1079.247158025533
 21
386.37905811812
 31
0.0
  0
LINE
  5
763
330
2
100
AcDbEntity
  8
0
100
AcDbLine
 10
1282.358547025532
 20
118.95065011812
 30
0.0
 11
1072.358547025533
 21
118.95065011812
 31
0.0
  0
LINE
  5
764
330
2
100
AcDbEntity
  8
CENTER
100
AcDbLine
 10
1264.589793525533
 20
318.9506521181199
 30
0.0
 11
1090.127300525532
 21
318.9506521181199
 31
0.0
  0
LINE
  5
765
330
2
100
AcDbEntity
  8
CENTER
100
AcDbLine
 10
878.1761130255331
 20
304.9506521181199
 30
0.0
 11
724.6136130255331
 21
304.9506521181199
 31
0.0
  0
LINE
  5
766
330
2
100
AcDbEntity
  8
0
100
AcDbLine
 10
754.2548640255331
 20
120.95065011812
 30
0.0
 11
850.254864025533
 21
120.95065011812
 31
0.0
  0
LINE
  5
767
330
2
100
AcDbEntity
  8
0
100
AcDbLine
 10
741.348683025533
 20
381.95065211812
 30
0.0
 11
863.1486630255331
 21
381.95065211812
 31
0.0
  0
LINE
  5
768
330
2
100
AcDbEntity
  8
0
100
AcDbLine
 10
862.3420370255329
 20
425.90203711812
 30
0.0
 11
802.254864025533
 21
426.95065211812
 31
0.0
  0
LINE
  5
769
330
2
100
AcDbEntity
  8
CENTER
100
AcDbLine
 10
673.4261150255331
 20
318.9506521181199
 30
0.0
 11
989.9110380255331
 21
318.9506521181199
 31
0.0
  0
LINE
  5
76A
330
2
100
AcDbEntity
  8
CENTER
100
AcDbLine
 10
711.7548640255331
 20
253.9506521181199
 30
0.0
 11
892.254864025533
 21
253.9506521181199
 31
0.0
  0
LINE
  5
76B
330
2
100
AcDbEntity
  8
0
100
AcDbLine
 10
720.2548640255331
 20
329.8756241181199
 30
0.0
 11
720.2548640255331
 21
197.1490701181199
 31
0.0
  0
LINE
  5
76C
330
2
100
AcDbEntity
  8
0
100
AcDbLine
 10
737.2548640255331
 20
379.95065211812
 30
0.0
 11
737.2548640255331
 21
118.95065011812
 31
0.0
  0
LINE
  5
76D
330
2
100
AcDbEntity
  8
CENTER
100
AcDbLine
 10
802.254864025533
 20
100.7944701181199
 30
0.0
 11
802.254864025533
 21
446.7944631181199
 31
0.0
  0
TEXT
  5
76E
330
2
100
AcDbEntity
  8
TITLE
100
AcDbText
 10
699.2888727116024
 20
618.4610544925144
 30
0.0
 40
12.0
  1
H2LB-50L-300~450-075W
100
AcDbText
  0
LINE
  5
76F
330
2
100
AcDbEntity
  8
0
100
AcDbLine
 10
687.2548650255331
 20
118.95065011812
 30
0.0
 11
752.2548640255331
 21
118.95065011812
 31
0.0
  0
LINE
  5
770
330
2
100
AcDbEntity
  8
0
100
AcDbLine
 10
691.387865025533
 20
143.8748501181199
 30
0.0
 11
733.1218650255331
 21
151.2228691181199
 31
0.0
  0
LINE
  5
771
330
2
100
AcDbEntity
  8
0
100
AcDbLine
 10
692.2548660255331
 20
143.95065011812
 30
0.0
 11
728.2548640255331
 21
143.95065011812
 31
0.0
  0
LINE
  5
772
330
2
100
AcDbEntity
  8
0
100
AcDbLine
 10
687.2548650255331
 20
138.95065011812
 30
0.0
 11
687.2548650255331
 21
118.95065011812
 31
0.0
  0
ARC
  5
773
330
2
100
AcDbEntity
  8
0
100
AcDbCircle
 10
692.2548660255331
 20
138.95065011812
 30
0.0
 40
5.0
100
AcDbArc
 50
90.0
 51
180.0
  0
ARC
  5
774
330
2
100
AcDbEntity
  8
0
100
AcDbCircle
 10
728.2548640255331
 20
152.95064811812
 30
0.0
 40
9.0
100
AcDbArc
 50
270.0
 51
0.0
  0
LINE
  5
775
330
2
100
AcDbEntity
  8
HIDS
100
AcDbLine
 10
721.2548640255331
 20
143.95065011812
 30
0.0
 11
721.2548640255331
 21
118.95065011812
 31
0.0
  0
LINE
  5
776
330
2
100
AcDbEntity
  8
HIDS
100
AcDbLine
 10
703.2548660255331
 20
143.95065011812
 30
0.0
 11
703.2548660255331
 21
118.95065011812
 31
0.0
  0
LINE
  5
777
330
2
100
AcDbEntity
  8
CENTER
100
AcDbLine
 10
712.2548640255331
 20
155.60065011812
 30
0.0
 11
712.2548640255331
 21
107.3006501181199
 31
0.0
  0
ARC
  5
778
330
2
100
AcDbEntity
  8
0
100
AcDbCircle
 10
732.2548640255331
 20
156.14725011812
 30
0.0
 40
5.0
100
AcDbArc
 50
279.9857789999999
 51
0.0
  0
LINE
  5
779
330
2
100
AcDbEntity
  8
0
100
AcDbLine
 10
752.2548640255331
 20
118.95065011812
 30
0.0
 11
754.2548640255331
 21
120.95065011812
 31
0.0
  0
ARC
  5
77A
330
2
100
AcDbEntity
  8
0
100
AcDbCircle
 10
722.2548640255332
 20
170.11202911812
 30
0.0
 40
15.0
100
AcDbArc
 50
359.9985959999999
 51
64.32064800000043
  0
ARC
  5
77B
330
2
100
AcDbEntity
  8
0
100
AcDbCircle
 10
735.2548640255331
 20
197.1490701181199
 30
0.0
 40
15.0
100
AcDbArc
 50
180.0
 51
244.3206020000001
  0
LINE
  5
784
330
2
100
AcDbEntity
  8
0
100
AcDbLine
 10
715.2548640255331
 20
362.4938651181199
 30
0.0
 11
715.2548640255331
 21
271.56027111812
 31
0.0
  0
ARC
  5
785
330
2
100
AcDbEntity
  8
0
100
AcDbCircle
 10
802.254864025533
 20
253.9506521181199
 30
0.0
 40
82.5
100
AcDbArc
 50
176.9468539999998
 51
186.3112489999999
  0
ARC
  5
786
330
2
100
AcDbEntity
  8
0
100
AcDbCircle
 10
705.2548660255332
 20
254.97726311812
 30
0.0
 40
15.0
100
AcDbArc
 50
0.0
 51
33.55733099999988
  0
ARC
  5
787
330
2
100
AcDbEntity
  8
0
100
AcDbCircle
 10
730.2548640255331
 20
271.5604541181198
 30
0.0
 40
15.0
100
AcDbArc
 50
180.0
 51
213.5572969999997
  0
LINE
  5
788
330
2
100
AcDbEntity
  8
0
100
AcDbLine
 10
747.0802420255331
 20
425.98745611812
 30
0.0
 11
802.254864025533
 21
426.95065211812
 31
0.0
  0
LINE
  5
789
330
2
100
AcDbEntity
  8
0
100
AcDbLine
 10
737.2548640255331
 20
415.9888601181199
 30
0.0
 11
737.2548640255331
 21
379.95065211812
 31
0.0
  0
ARC
  5
78A
330
2
100
AcDbEntity
  8
0
100
AcDbCircle
 10
722.2548640255332
 20
391.40743911812
 30
0.0
 40
15.0
100
AcDbArc
 50
285.255188
 51
0.0
  0
ARC
  5
78B
330
2
100
AcDbEntity
  8
0
100
AcDbCircle
 10
730.2548640255331
 20
362.4938651181199
 30
0.0
 40
15.0
100
AcDbArc
 50
105.2552029999997
 51
180.0
  0
ARC
  5
78C
330
2
100
AcDbEntity
  8
0
100
AcDbCircle
 10
747.2548640255332
 20
415.9888601181199
 30
0.0
 40
10.0
100
AcDbArc
 50
91.00058700000005
 51
180.0
  0
LINE
  5
78D
330
2
100
AcDbEntity
  8
0
100
AcDbLine
 10
1072.358547025533
 20
373.7612601181199
 30
0.0
 11
1072.358547025533
 21
118.95065011812
 31
0.0
  0
LINE
  5
78E
330
2
100
AcDbEntity
  8
0
100
AcDbLine
 10
884.2548640255332
 20
324.7100511181199
 30
0.0
 11
884.2548640255332
 21
197.1490701181199
 31
0.0
  0
LINE
  5
78F
330
2
100
AcDbEntity
  8
0
100
AcDbLine
 10
867.2548640255332
 20
379.95065211812
 30
0.0
 11
867.2548640255332
 21
118.95065011812
 31
0.0
  0
LINE
  5
790
330
2
100
AcDbEntity
  8
0
100
AcDbLine
 10
917.254864025533
 20
118.95065011812
 30
0.0
 11
852.254864025533
 21
118.95065011812
 31
0.0
  0
LINE
  5
791
330
2
100
AcDbEntity
  8
0
100
AcDbLine
 10
913.1218680255331
 20
143.8748501181199
 30
0.0
 11
871.3878600255332
 21
151.2228691181199
 31
0.0
  0
LINE
  5
792
330
2
100
AcDbEntity
  8
0
100
AcDbLine
 10
912.2548640255331
 20
143.95065011812
 30
0.0
 11
876.2548640255332
 21
143.95065011812
 31
0.0
  0
LINE
  5
793
330
2
100
AcDbEntity
  8
HIDS
100
AcDbLine
 10
883.2548640255332
 20
143.95065011812
 30
0.0
 11
883.2548640255332
 21
118.95065011812
 31
0.0
  0
LINE
  5
794
330
2
100
AcDbEntity
  8
0
100
AcDbLine
 10
852.254864025533
 20
118.95065011812
 30
0.0
 11
850.254864025533
 21
120.95065011812
 31
0.0
  0
ARC
  5
795
330
2
100
AcDbEntity
  8
0
100
AcDbCircle
 10
876.2548640255332
 20
152.95064811812
 30
0.0
 40
9.0
100
AcDbArc
 50
180.0
 51
270.0
  0
ARC
  5
796
330
2
100
AcDbEntity
  8
0
100
AcDbCircle
 10
872.2548640255331
 20
156.14725011812
 30
0.0
 40
5.0
100
AcDbArc
 50
180.0
 51
260.0145870000002
  0
LINE
  5
797
330
2
100
AcDbEntity
  8
HIDS
100
AcDbLine
 10
901.2548640255332
 20
143.95065011812
 30
0.0
 11
901.2548640255332
 21
118.95065011812
 31
0.0
  0
LINE
  5
798
330
2
100
AcDbEntity
  8
CENTER
100
AcDbLine
 10
892.254864025533
 20
155.60065011812
 30
0.0
 11
892.254864025533
 21
107.3006501181199
 31
0.0
  0
LINE
  5
799
330
2
100
AcDbEntity
  8
0
100
AcDbLine
 10
917.254864025533
 20
139.68703011812
 30
0.0
 11
917.254864025533
 21
118.95065011812
 31
0.0
  0
ARC
  5
79A
330
2
100
AcDbEntity
  8
0
100
AcDbCircle
 10
912.2548640255331
 20
138.95065011812
 30
0.0
 40
5.0
100
AcDbArc
 50
0.0
 51
90.0
  0
ARC
  5
79B
330
2
100
AcDbEntity
  8
0
100
AcDbCircle
 10
869.2548640255331
 20
197.1490701181199
 30
0.0
 40
15.0
100
AcDbArc
 50
295.6793819999994
 51
0.0
  0
ARC
  5
79C
330
2
100
AcDbEntity
  8
0
100
AcDbCircle
 10
882.2548640255332
 20
170.11202911812
 30
0.0
 40
15.0
100
AcDbArc
 50
115.6793979999998
 51
180.0
  0
LINE
  5
79D
330
2
100
AcDbEntity
  8
0
100
AcDbLine
 10
1282.358547025532
 20
143.95065011812
 30
0.0
 11
1072.358547025533
 21
143.95065011812
 31
0.0
  0
LINE
  5
79E
330
2
100
AcDbEntity
  8
0
100
AcDbLine
 10
1090.358547025533
 20
141.0131501181199
 30
0.0
 11
1090.358547025533
 21
118.95065011812
 31
0.0
  0
LINE
  5
79F
330
2
100
AcDbEntity
  8
HIDS
100
AcDbLine
 10
1093.358547025533
 20
143.95065011812
 30
0.0
 11
1093.358547025533
 21
118.95065011812
 31
0.0
  0
LINE
  5
7A0
330
2
100
AcDbEntity
  8
HIDS
100
AcDbLine
 10
1111.358547025533
 20
143.95065011812
 30
0.0
 11
1111.358547025533
 21
118.95065011812
 31
0.0
  0
LINE
  5
7A1
330
2
100
AcDbEntity
  8
CENTER
100
AcDbLine
 10
1102.358547025533
 20
155.6006501181199
 30
0.0
 11
1102.358547025533
 21
107.30065011812
 31
0.0
  0
ARC
  5
7A2
330
2
100
AcDbEntity
  8
0
100
AcDbCircle
 10
1129.358547025532
 20
146.95065011812
 30
0.0
 40
3.0
100
AcDbArc
 50
270.0
 51
0.0
  0
ARC
  5
7A3
330
2
100
AcDbEntity
  8
0
100
AcDbCircle
 10
1123.478726025533
 20
150.9506481181199
 30
0.0
 40
7.0
100
AcDbArc
 50
270.0
 51
327.9948009999994
  0
ARC
  5
7A4
330
2
100
AcDbEntity
  8
0
100
AcDbCircle
 10
1135.129788025532
 20
146.95065011812
 30
0.0
 40
5.0
100
AcDbArc
 50
90.0
 51
147.9945979999998
  0
LINE
  5
7A5
330
2
100
AcDbEntity
  8
0
100
AcDbLine
 10
1129.414761025533
 20
147.2406681181199
 30
0.0
 11
1130.889736025533
 21
149.60065011812
 31
0.0
  0
LINE
  5
7A6
330
2
100
AcDbEntity
  8
0
100
AcDbLine
 10
1132.358547025533
 20
149.9850301181199
 30
0.0
 11
1132.358547025533
 21
146.95065011812
 31
0.0
  0
LINE
  5
7A7
330
2
100
AcDbEntity
  8
0
100
AcDbLine
 10
892.254864025533
 20
346.45065211812
 30
0.0
 11
892.254864025533
 21
291.4506521181199
 31
0.0
  0
LINE
  5
7A8
330
2
100
AcDbEntity
  8
0
100
AcDbLine
 10
967.254879025533
 20
293.9506521181199
 30
0.0
 11
967.254879025533
 21
343.95065211812
 31
0.0
  0
LINE
  5
7A9
330
2
100
AcDbEntity
  8
0
100
AcDbLine
 10
889.2548640255331
 20
362.4938651181199
 30
0.0
 11
889.2548640255331
 21
271.5604541181198
 31
0.0
  0
LINE
  5
7AA
330
2
100
AcDbEntity
  8
0
100
AcDbLine
 10
904.2548640255331
 20
311.9506521181199
 30
0.0
 11
967.254879025533
 21
311.9506521181199
 31
0.0
  0
LINE
  5
7AB
330
2
100
AcDbEntity
  8
0
100
AcDbLine
 10
904.2548640255331
 20
325.95065211812
 30
0.0
 11
967.254879025533
 21
325.95065211812
 31
0.0
  0
LINE
  5
7AC
330
2
100
AcDbEntity
  8
0
100
AcDbLine
 10
892.254864025533
 20
293.9506521181199
 30
0.0
 11
967.254879025533
 21
293.9506521181199
 31
0.0
  0
ARC
  5
7AD
330
2
100
AcDbEntity
  8
0
100
AcDbCircle
 10
899.2548640255332
 20
254.97726311812
 30
0.0
 40
15.0
100
AcDbArc
 50
146.4427029999995
 51
180.0
  0
ARC
  5
7AE
330
2
100
AcDbEntity
  8
0
100
AcDbCircle
 10
802.254864025533
 20
253.9506521181199
 30
0.0
 40
82.5
100
AcDbArc
 50
353.6887519999994
 51
3.053152000000283
  0
ARC
  5
7AF
330
2
100
AcDbEntity
  8
0
100
AcDbCircle
 10
874.254864025533
 20
271.5604541181198
 30
0.0
 40
15.0
100
AcDbArc
 50
326.7492100000003
 51
0.0
  0
LINE
  5
7B0
330
2
100
AcDbEntity
  8
0
100
AcDbLine
 10
889.2548640255331
 20
291.4506521181199
 30
0.0
 11
892.254864025533
 21
291.4506521181199
 31
0.0
  0
ARC
  5
7B1
330
2
100
AcDbEntity
  8
0
100
AcDbCircle
 10
904.2548640255331
 20
318.9506521181199
 30
0.0
 40
7.0
100
AcDbArc
 50
90.0
 51
270.0
  0
LINE
  5
7B2
330
2
100
AcDbEntity
  8
0
100
AcDbLine
 10
892.254864025533
 20
343.95065211812
 30
0.0
 11
967.254879025533
 21
343.95065211812
 31
0.0
  0
LINE
  5
7B3
330
2
100
AcDbEntity
  8
0
100
AcDbLine
 10
867.2548640255332
 20
420.9028611181199
 30
0.0
 11
867.2548640255332
 21
379.95065211812
 31
0.0
  0
ARC
  5
7B4
330
2
100
AcDbEntity
  8
0
100
AcDbCircle
 10
874.254864025533
 20
362.4938651181199
 30
0.0
 40
15.0
100
AcDbArc
 50
0.0
 51
74.74484300000018
  0
ARC
  5
7B5
330
2
100
AcDbEntity
  8
0
100
AcDbCircle
 10
882.2548640255332
 20
391.40743911812
 30
0.0
 40
15.0
100
AcDbArc
 50
180.0
 51
254.5339049999999
  0
LINE
  5
7B6
330
2
100
AcDbEntity
  8
0
100
AcDbLine
 10
889.2548640255331
 20
346.45065211812
 30
0.0
 11
892.254864025533
 21
346.45065211812
 31
0.0
  0
ARC
  5
7B7
330
2
100
AcDbEntity
  8
0
100
AcDbCircle
 10
862.2548640255331
 20
420.9028611181199
 30
0.0
 40
5.0
100
AcDbArc
 50
0.0
 51
89.00039699999977
  0
LINE
  5
7B8
330
2
100
AcDbEntity
  8
0
100
AcDbLine
 10
1078.358547025533
 20
321.9502551181199
 30
0.0
 11
1078.358547025533
 21
251.9510491181199
 31
0.0
  0
LINE
  5
7B9
330
2
100
AcDbEntity
  8
0
100
AcDbLine
 10
1123.117764025533
 20
334.26064911812
 30
0.0
 11
1098.125942025533
 21
245.7179861181199
 31
0.0
  0
LINE
  5
7BA
330
2
100
AcDbEntity
  8
0
100
AcDbLine
 10
1118.652340025533
 20
335.5210561181199
 30
0.0
 11
1093.660336025533
 21
246.9784531181198
 31
0.0
  0
ARC
  5
7BB
330
2
100
AcDbEntity
  8
0
100
AcDbCircle
 10
1087.358547025533
 20
373.7612601181199
 30
0.0
 40
15.0
100
AcDbArc
 50
122.7350999999998
 51
180.0
  0
LINE
  5
7BC
330
2
100
AcDbEntity
  8
0
100
AcDbLine
 10
596.7534076385838
 20
769.0814191181198
 30
0.0
 11
597.9385886385837
 21
701.1831651181201
 31
0.0
  0
ARC
  5
7BD
330
2
100
AcDbEntity
  8
0
100
AcDbCircle
 10
591.8905226385837
 20
761.1831651181198
 30
0.0
 40
5.0
100
AcDbArc
 50
1.000000000000156
 51
90.0
  0
ARC
  5
7BE
330
2
100
AcDbEntity
  8
0
100
AcDbCircle
 10
589.5210166385838
 20
781.1831651181198
 30
0.0
 40
15.0
100
AcDbArc
 50
205.6792890000002
 51
270.0
  0
ARC
  5
7BF
330
2
100
AcDbEntity
  8
0
100
AcDbCircle
 10
562.4840286385838
 20
768.1831651181198
 30
0.0
 40
15.0
100
AcDbArc
 50
25.67929099999982
 51
90.0
  0
ARC
  5
7C0
330
2
100
AcDbEntity
  8
0
100
AcDbCircle
 10
567.9385886385839
 20
791.1831651181196
 30
0.0
 40
9.0
100
AcDbArc
 50
269.5535889999998
 51
243.7633439999999
  0
LINE
  5
7C2
330
2
100
AcDbEntity
  8
0
100
AcDbLine
 10
596.6060386385838
 20
769.8845811181195
 30
0.0
 11
583.5096326385837
 21
806.2638531181201
 31
0.0
  0
ARC
  5
7C3
330
2
100
AcDbEntity
  8
0
100
AcDbCircle
 10
569.3963826385838
 20
801.1831651181198
 30
0.0
 40
15.0
100
AcDbArc
 50
19.79890399999954
 51
90.0
  0
ARC
  5
7C4
330
2
100
AcDbEntity
  8
0
100
AcDbCircle
 10
594.2538046385839
 20
769.0378401181199
 30
0.0
 40
2.5
100
AcDbArc
 50
1.000000000000156
 51
19.7986909999999
  0
ARC
  5
7C6
330
2
100
AcDbEntity
  8
0
100
AcDbCircle
 10
542.5078326385837
 20
773.1831651181198
 30
0.0
 40
15.0
100
AcDbArc
 50
50.19442699999949
 51
90.0
  0
LINE
  5
7C7
330
2
100
AcDbEntity
  8
0
100
AcDbLine
 10
562.4840286385838
 20
783.18316511812
 30
0.0
 11
553.9385886385839
 21
783.18316511812
 31
0.0
  0
LINE
  5
7C8
330
2
100
AcDbEntity
  8
0
100
AcDbLine
 10
552.1106156385839
 20
784.70648011812
 30
0.0
 11
553.9385886385839
 21
783.18316511812
 31
0.0
  0
ARC
  5
7C9
330
2
100
AcDbEntity
  8
0
100
AcDbCircle
 10
569.3963826385836
 20
601.1831651181198
 30
0.0
 40
15.0
100
AcDbArc
 50
270.0
 51
340.2011259999996
  0
ARC
  5
7CA
330
2
100
AcDbEntity
  8
0
100
AcDbCircle
 10
586.9770406385837
 20
646.1831651181198
 30
0.0
 40
10.0
100
AcDbArc
 50
270.0
 51
358.9999999999998
  0
LINE
  5
7CB
330
2
100
AcDbEntity
  8
0
100
AcDbLine
 10
596.7534076385837
 20
633.2846661181199
 30
0.0
 11
597.9385886385837
 21
701.1831651181201
 31
0.0
  0
ARC
  5
7CC
330
2
100
AcDbEntity
  8
0
100
AcDbCircle
 10
562.4840286385838
 20
634.1831651181198
 30
0.0
 40
15.0
100
AcDbArc
 50
270.0
 51
334.3207090000002
  0
ARC
  5
7CD
330
2
100
AcDbEntity
  8
0
100
AcDbCircle
 10
567.9385886385839
 20
611.1831651181198
 30
0.0
 40
9.0
100
AcDbArc
 50
116.2366559999997
 51
90.44641100000024
  0
LINE
  5
7CF
330
2
100
AcDbEntity
  8
0
100
AcDbLine
 10
596.6060076385838
 20
632.4815041181198
 30
0.0
 11
583.5096026385838
 21
596.1023541181199
 31
0.0
  0
ARC
  5
7D0
330
2
100
AcDbEntity
  8
0
100
AcDbCircle
 10
589.5210166385838
 20
621.1831651181198
 30
0.0
 40
15.0
100
AcDbArc
 50
90.0
 51
154.3207109999998
  0
ARC
  5
7D1
330
2
100
AcDbEntity
  8
0
100
AcDbCircle
 10
594.2538046385839
 20
633.3283061181198
 30
0.0
 40
2.5
100
AcDbArc
 50
340.2012179999999
 51
358.9999999999998
  0
ARC
  5
7D2
330
2
100
AcDbEntity
  8
0
100
AcDbCircle
 10
542.5078326385837
 20
629.1831651181198
 30
0.0
 40
15.0
100
AcDbArc
 50
270.0
 51
309.8055730000004
  0
LINE
  5
7D4
330
2
100
AcDbEntity
  8
0
100
AcDbLine
 10
562.4840286385838
 20
619.18316511812
 30
0.0
 11
553.9385886385839
 21
619.18316511812
 31
0.0
  0
LINE
  5
7D5
330
2
100
AcDbEntity
  8
0
100
AcDbLine
 10
552.1106156385839
 20
617.6598491181198
 30
0.0
 11
553.9385886385839
 21
619.18316511812
 31
0.0
  0
LINE
  5
7D6
330
2
100
AcDbEntity
  8
0
100
AcDbLine
 10
1399.358547025532
 20
354.95065211812
 30
0.0
 11
1514.358547025532
 21
354.95065211812
 31
0.0
  0
LINE
  5
7D7
330
2
100
AcDbEntity
  8
0
100
AcDbLine
 10
1399.358547025532
 20
352.95065211812
 30
0.0
 11
1514.358547025532
 21
352.95065211812
 31
0.0
  0
LINE
  5
7D8
330
2
100
AcDbEntity
  8
0
100
AcDbLine
 10
1399.358547025532
 20
361.7506241181199
 30
0.0
 11
1514.358547025532
 21
361.7506241181199
 31
0.0
  0
LINE
  5
7D9
330
2
100
AcDbEntity
  8
0
100
AcDbLine
 10
1399.358547025532
 20
359.7506241181199
 30
0.0
 11
1514.358547025532
 21
359.7506241181199
 31
0.0
  0
LINE
  5
7DA
330
2
100
AcDbEntity
  8
0
100
AcDbLine
 10
1399.358547025532
 20
368.2506241181199
 30
0.0
 11
1514.358547025532
 21
368.2506241181199
 31
0.0
  0
LINE
  5
7DB
330
2
100
AcDbEntity
  8
0
100
AcDbLine
 10
1399.358547025532
 20
366.2506241181199
 30
0.0
 11
1514.358547025532
 21
366.2506241181199
 31
0.0
  0
LINE
  5
7DC
330
2
100
AcDbEntity
  8
0
100
AcDbLine
 10
1399.358547025532
 20
374.75064011812
 30
0.0
 11
1514.358547025532
 21
374.75064011812
 31
0.0
  0
LINE
  5
7DD
330
2
100
AcDbEntity
  8
0
100
AcDbLine
 10
1399.358547025532
 20
372.75064011812
 30
0.0
 11
1514.358547025532
 21
372.75064011812
 31
0.0
  0
LINE
  5
7DE
330
2
100
AcDbEntity
  8
0
100
AcDbLine
 10
1514.358547025532
 20
376.0054921181199
 30
0.0
 11
1399.358547025532
 21
376.0054921181199
 31
0.0
  0
LINE
  5
7DF
330
2
100
AcDbEntity
  8
0
100
AcDbLine
 10
1513.814114025533
 20
380.95065211812
 30
0.0
 11
1399.902920025533
 21
380.95065211812
 31
0.0
  0
LINE
  5
7E0
330
2
100
AcDbEntity
  8
0
100
AcDbLine
 10
1399.358547025532
 20
310.1506641181199
 30
0.0
 11
1514.358547025532
 21
310.1506641181199
 31
0.0
  0
LINE
  5
7E1
330
2
100
AcDbEntity
  8
0
100
AcDbLine
 10
1399.358547025532
 20
312.1506641181199
 30
0.0
 11
1514.358547025532
 21
312.1506641181199
 31
0.0
  0
LINE
  5
7E2
330
2
100
AcDbEntity
  8
0
100
AcDbLine
 10
1399.358547025532
 20
319.75064011812
 30
0.0
 11
1514.358547025532
 21
319.75064011812
 31
0.0
  0
LINE
  5
7E3
330
2
100
AcDbEntity
  8
0
100
AcDbLine
 10
1399.358547025532
 20
317.75064011812
 30
0.0
 11
1514.358547025532
 21
317.75064011812
 31
0.0
  0
LINE
  5
7E4
330
2
100
AcDbEntity
  8
0
100
AcDbLine
 10
1399.358547025532
 20
327.35064611812
 30
0.0
 11
1514.358547025532
 21
327.35064611812
 31
0.0
  0
LINE
  5
7E5
330
2
100
AcDbEntity
  8
0
100
AcDbLine
 10
1399.358547025532
 20
325.35064611812
 30
0.0
 11
1514.358547025532
 21
325.35064611812
 31
0.0
  0
LINE
  5
7E6
330
2
100
AcDbEntity
  8
0
100
AcDbLine
 10
1399.358547025532
 20
332.95065211812
 30
0.0
 11
1514.358547025532
 21
332.95065211812
 31
0.0
  0
LINE
  5
7E7
330
2
100
AcDbEntity
  8
0
100
AcDbLine
 10
1399.358547025532
 20
276.9506521181199
 30
0.0
 11
1514.358547025532
 21
276.9506521181199
 31
0.0
  0
LINE
  5
7E8
330
2
100
AcDbEntity
  8
0
100
AcDbLine
 10
1399.358547025532
 20
284.5506431181199
 30
0.0
 11
1514.358547025532
 21
284.5506431181199
 31
0.0
  0
LINE
  5
7E9
330
2
100
AcDbEntity
  8
0
100
AcDbLine
 10
1399.358547025532
 20
282.5506431181199
 30
0.0
 11
1514.358547025532
 21
282.5506431181199
 31
0.0
  0
LINE
  5
7EA
330
2
100
AcDbEntity
  8
0
100
AcDbLine
 10
1399.358547025532
 20
292.1506641181199
 30
0.0
 11
1514.358547025532
 21
292.1506641181199
 31
0.0
  0
LINE
  5
7EB
330
2
100
AcDbEntity
  8
0
100
AcDbLine
 10
1399.358547025532
 20
290.1506641181199
 30
0.0
 11
1514.358547025532
 21
290.1506641181199
 31
0.0
  0
LINE
  5
7EC
330
2
100
AcDbEntity
  8
0
100
AcDbLine
 10
1399.358547025532
 20
297.75064011812
 30
0.0
 11
1514.358547025532
 21
297.75064011812
 31
0.0
  0
LINE
  5
7ED
330
2
100
AcDbEntity
  8
0
100
AcDbLine
 10
1399.358547025532
 20
299.7506401181199
 30
0.0
 11
1514.358547025532
 21
299.7506401181199
 31
0.0
  0
LINE
  5
7EE
330
2
100
AcDbEntity
  8
0
100
AcDbLine
 10
1399.358547025532
 20
334.95065211812
 30
0.0
 11
1514.358547025532
 21
334.95065211812
 31
0.0
  0
LINE
  5
7EF
330
2
100
AcDbEntity
  8
0
100
AcDbLine
 10
1399.358547025532
 20
342.55064311812
 30
0.0
 11
1514.358547025532
 21
342.55064311812
 31
0.0
  0
LINE
  5
7F0
330
2
100
AcDbEntity
  8
0
100
AcDbLine
 10
1399.358547025532
 20
340.5506431181199
 30
0.0
 11
1514.358547025532
 21
340.5506431181199
 31
0.0
  0
LINE
  5
7F1
330
2
100
AcDbEntity
  8
0
100
AcDbLine
 10
1399.358547025532
 20
256.9506521181199
 30
0.0
 11
1450.358547025533
 21
256.9506521181199
 31
0.0
  0
LINE
  5
7F2
330
2
100
AcDbEntity
  8
0
100
AcDbLine
 10
1399.358547025532
 20
269.35064611812
 30
0.0
 11
1514.358547025532
 21
269.35064611812
 31
0.0
  0
LINE
  5
7F3
330
2
100
AcDbEntity
  8
0
100
AcDbLine
 10
1399.358547025532
 20
267.35064611812
 30
0.0
 11
1514.358547025532
 21
267.35064611812
 31
0.0
  0
LINE
  5
7F4
330
2
100
AcDbEntity
  8
0
100
AcDbLine
 10
1399.358547025532
 20
274.9506521181199
 30
0.0
 11
1514.358547025532
 21
274.9506521181199
 31
0.0
  0
LINE
  5
7F5
330
2
100
AcDbEntity
  8
0
100
AcDbLine
 10
1399.358547025532
 20
243.6506641181199
 30
0.0
 11
1514.358547025532
 21
243.6506641181199
 31
0.0
  0
LINE
  5
7F6
330
2
100
AcDbEntity
  8
0
100
AcDbLine
 10
1399.358547025532
 20
250.1506641181199
 30
0.0
 11
1514.358547025532
 21
250.1506641181199
 31
0.0
  0
LINE
  5
7F7
330
2
100
AcDbEntity
  8
0
100
AcDbLine
 10
1399.358547025532
 20
248.1506641181199
 30
0.0
 11
1514.358547025532
 21
248.1506641181199
 31
0.0
  0
LINE
  5
7F8
330
2
100
AcDbEntity
  8
0
100
AcDbLine
 10
1399.358547025532
 20
254.9506521181199
 30
0.0
 11
1450.358547025533
 21
254.9506521181199
 31
0.0
  0
LINE
  5
7F9
330
2
100
AcDbEntity
  8
0
100
AcDbLine
 10
1514.358547025532
 20
233.8958041181199
 30
0.0
 11
1399.358547025532
 21
233.8958041181199
 31
0.0
  0
LINE
  5
7FA
330
2
100
AcDbEntity
  8
0
100
AcDbLine
 10
1399.358547025532
 20
237.1506641181199
 30
0.0
 11
1514.358547025532
 21
237.1506641181199
 31
0.0
  0
LINE
  5
7FB
330
2
100
AcDbEntity
  8
0
100
AcDbLine
 10
1399.358547025532
 20
235.1506641181199
 30
0.0
 11
1514.358547025532
 21
235.1506641181199
 31
0.0
  0
LINE
  5
7FC
330
2
100
AcDbEntity
  8
0
100
AcDbLine
 10
1399.358547025532
 20
241.6506641181199
 30
0.0
 11
1514.358547025532
 21
241.6506641181199
 31
0.0
  0
LINE
  5
7FD
330
2
100
AcDbEntity
  8
0
100
AcDbLine
 10
1513.814114025533
 20
228.9506441181199
 30
0.0
 11
1399.902920025533
 21
228.9506441181199
 31
0.0
  0
LINE
  5
7FF
330
2
100
AcDbEntity
  8
0
100
AcDbLine
 10
1307.858547025533
 20
171.4507701181199
 30
0.0
 11
1307.858547025533
 21
336.4507741181199
 31
0.0
  0
LINE
  5
800
330
2
100
AcDbEntity
  8
0
100
AcDbLine
 10
1345.358670025533
 20
246.7006521181199
 30
0.0
 11
1345.358670025533
 21
204.2006521181199
 31
0.0
  0
LINE
  5
801
330
2
100
AcDbEntity
  8
0
100
AcDbLine
 10
1319.858670025533
 20
173.71317211812
 30
0.0
 11
1319.858670025533
 21
288.2006521181199
 31
0.0
  0
LINE
  5
802
330
2
100
AcDbEntity
  8
0
100
AcDbLine
 10
1372.894009025533
 20
226.4863121181199
 30
0.0
 11
1348.287014025533
 21
201.87985111812
 31
0.0
  0
LINE
  5
803
330
2
100
AcDbEntity
  8
0
100
AcDbLine
 10
1191.608547025533
 20
234.9506521181199
 30
0.0
 11
1191.608547025533
 21
209.9506521181199
 31
0.0
  0
ARC
  5
804
330
2
100
AcDbEntity
  8
0
100
AcDbCircle
 10
1208.608547025533
 20
224.5858911181199
 30
0.0
 40
11.25
100
AcDbArc
 50
311.8104209999998
 51
59.13299200000029
  0
LINE
  5
805
330
2
100
AcDbEntity
  8
0
100
AcDbLine
 10
1202.858547025533
 20
222.4506521181199
 30
0.0
 11
1210.358547025533
 21
209.9506521181199
 31
0.0
  0
LINE
  5
806
330
2
100
AcDbEntity
  8
0
100
AcDbLine
 10
1199.733547025533
 20
226.2006521181199
 30
0.0
 11
1199.733547025533
 21
209.9506521181199
 31
0.0
  0
LINE
  5
807
330
2
100
AcDbEntity
  8
0
100
AcDbLine
 10
1181.483547025533
 20
226.2006521181199
 30
0.0
 11
1181.483547025533
 21
209.9506521181199
 31
0.0
  0
LINE
  5
808
330
2
100
AcDbEntity
  8
0
100
AcDbLine
 10
1172.733547025533
 20
226.2006521181199
 30
0.0
 11
1172.733547025533
 21
209.9506521181199
 31
0.0
  0
LINE
  5
809
330
2
100
AcDbEntity
  8
0
100
AcDbLine
 10
1162.358547025533
 20
222.4506521181199
 30
0.0
 11
1162.358547025533
 21
209.9506521181199
 31
0.0
  0
ARC
  5
80A
330
2
100
AcDbEntity
  8
0
100
AcDbCircle
 10
1152.358547025533
 20
218.5743701181199
 30
0.0
 40
8.75
100
AcDbArc
 50
135.5460969999996
 51
220.5290069999997
  0
LINE
  5
80B
330
2
100
AcDbEntity
  8
0
100
AcDbLine
 10
1154.233547025532
 20
222.4506521181199
 30
0.0
 11
1154.233547025532
 21
212.4506521181199
 31
0.0
  0
LINE
  5
80C
330
2
100
AcDbEntity
  8
0
100
AcDbLine
 10
1291.358547025533
 20
205.64464511812
 30
0.0
 11
1291.358547025533
 21
302.2566521181199
 31
0.0
  0
ARC
  5
80D
330
2
100
AcDbEntity
  8
0
100
AcDbCircle
 10
1211.358547025533
 20
232.9506521181199
 30
0.0
 40
51.639999
100
AcDbArc
 50
270.0
 51
15.76210000000036
  0
ARC
  5
80E
330
2
100
AcDbEntity
  8
0
100
AcDbCircle
 10
1211.358547025533
 20
232.9506521181199
 30
0.0
 40
47.0
100
AcDbArc
 50
270.0
 51
15.76210000000036
  0
LINE
  5
80F
330
2
100
AcDbEntity
  8
CENTER
100
AcDbLine
 10
1177.358547025532
 20
441.5256641181199
 30
0.0
 11
1177.358547025532
 21
100.43439011812
 31
0.0
  0
ARC
  5
810
330
2
100
AcDbEntity
  8
0
100
AcDbCircle
 10
1284.858547025533
 20
200.64464511812
 30
0.0
 40
2.5
100
AcDbArc
 50
90.0
 51
180.0
  0
ARC
  5
811
330
2
100
AcDbEntity
  8
0
100
AcDbCircle
 10
1297.358486025533
 20
156.45070911812
 30
0.0
 40
15.0
100
AcDbArc
 50
90.0
 51
180.0
  0
LINE
  5
812
330
2
100
AcDbEntity
  8
0
100
AcDbLine
 10
1210.358547025533
 20
209.9506521181199
 30
0.0
 11
1219.858547025532
 21
209.9506521181199
 31
0.0
  0
LINE
  5
813
330
2
100
AcDbEntity
  8
0
100
AcDbLine
 10
1211.358547025533
 20
185.9506521181199
 30
0.0
 11
1143.358547025533
 21
185.9506521181199
 31
0.0
  0
LINE
  5
814
330
2
100
AcDbEntity
  8
0
100
AcDbLine
 10
1211.358547025533
 20
181.3106531181199
 30
0.0
 11
1143.358547025533
 21
181.3106531181199
 31
0.0
  0
LINE
  5
815
330
2
100
AcDbEntity
  8
0
100
AcDbLine
 10
1172.733547025533
 20
209.9506521181199
 30
0.0
 11
1181.483547025533
 21
209.9506521181199
 31
0.0
  0
LINE
  5
816
330
2
100
AcDbEntity
  8
0
100
AcDbLine
 10
1146.657925025533
 20
212.4506521181199
 30
0.0
 11
1154.233547025532
 21
212.4506521181199
 31
0.0
  0
ARC
  5
817
330
2
100
AcDbEntity
  8
0
100
AcDbCircle
 10
1146.657925025533
 20
213.7006521181199
 30
0.0
 40
1.25
100
AcDbArc
 50
220.5301969999998
 51
270.0
  0
LINE
  5
818
330
2
100
AcDbEntity
  8
0
100
AcDbLine
 10
1191.608547025533
 20
209.9506521181199
 30
0.0
 11
1199.733547025533
 21
209.9506521181199
 31
0.0
  0
LINE
  5
819
330
2
100
AcDbEntity
  8
0
100
AcDbLine
 10
1282.358547025532
 20
200.64464511812
 30
0.0
 11
1282.358547025532
 21
118.95065011812
 31
0.0
  0
LINE
  5
81A
330
2
100
AcDbEntity
  8
HIDS
100
AcDbLine
 10
1243.358547025533
 20
143.95065011812
 30
0.0
 11
1243.358547025533
 21
118.95065011812
 31
0.0
  0
ARC
  5
81B
330
2
100
AcDbEntity
  8
0
100
AcDbCircle
 10
1231.238308025533
 20
150.9506481181199
 30
0.0
 40
7.0
100
AcDbArc
 50
212.0052949999997
 51
270.0
  0
ARC
  5
81C
330
2
100
AcDbEntity
  8
0
100
AcDbCircle
 10
1225.358547025533
 20
146.95065011812
 30
0.0
 40
3.0
100
AcDbArc
 50
180.0
 51
270.0
  0
ARC
  5
81D
330
2
100
AcDbEntity
  8
0
100
AcDbCircle
 10
1219.587307025533
 20
146.95065011812
 30
0.0
 40
5.0
100
AcDbArc
 50
32.00519900000051
 51
90.0
  0
LINE
  5
81E
330
2
100
AcDbEntity
  8
0
100
AcDbLine
 10
1223.827297025533
 20
149.60065011812
 30
0.0
 11
1225.302273025533
 21
147.24069111812
 31
0.0
  0
LINE
  5
81F
330
2
100
AcDbEntity
  8
0
100
AcDbLine
 10
1222.358547025533
 20
149.9850301181199
 30
0.0
 11
1222.358547025533
 21
146.95065011812
 31
0.0
  0
LINE
  5
820
330
2
100
AcDbEntity
  8
0
100
AcDbLine
 10
1264.358547025532
 20
118.95065011812
 30
0.0
 11
1264.358547025532
 21
141.0131501181199
 31
0.0
  0
LINE
  5
821
330
2
100
AcDbEntity
  8
HIDS
100
AcDbLine
 10
1261.358547025533
 20
143.95065011812
 30
0.0
 11
1261.358547025533
 21
118.95065011812
 31
0.0
  0
LINE
  5
822
330
2
100
AcDbEntity
  8
CENTER
100
AcDbLine
 10
1252.358547025533
 20
155.6006501181199
 30
0.0
 11
1252.358547025533
 21
107.30065011812
 31
0.0
  0
LINE
  5
823
330
2
100
AcDbEntity
  8
0
100
AcDbLine
 10
1219.858547025532
 20
209.9506521181199
 30
0.0
 11
1216.108547025533
 21
216.2006521181199
 31
0.0
  0
ARC
  5
824
330
2
100
AcDbEntity
  8
0
100
AcDbCircle
 10
1317.858670025533
 20
173.71317211812
 30
0.0
 40
2.0
100
AcDbArc
 50
271.4987029999998
 51
0.0
  0
ARC
  5
825
330
2
100
AcDbEntity
  8
0
100
AcDbCircle
 10
1329.858547025533
 20
188.5412891181199
 30
0.0
 40
10.0
100
AcDbArc
 50
91.50021399999957
 51
180.0
  0
LINE
  5
826
330
2
100
AcDbEntity
  8
0
100
AcDbLine
 10
1297.358547025533
 20
171.4507701181199
 30
0.0
 11
1307.858547025533
 21
171.4507701181199
 31
0.0
  0
LINE
  5
827
330
2
100
AcDbEntity
  8
0
100
AcDbLine
 10
1317.910916025533
 20
171.71388911812
 30
0.0
 11
1307.858547025533
 21
171.45064811812
 31
0.0
  0
ARC
  5
828
330
2
100
AcDbEntity
  8
0
100
AcDbCircle
 10
1288.858547025533
 20
205.64464511812
 30
0.0
 40
2.5
100
AcDbArc
 50
270.0
 51
0.0
  0
LINE
  5
829
330
2
100
AcDbEntity
  8
0
100
AcDbLine
 10
1288.858547025533
 20
203.14464511812
 30
0.0
 11
1284.858547025533
 21
203.14464511812
 31
0.0
  0
LINE
  5
82A
330
2
100
AcDbEntity
  8
0
100
AcDbLine
 10
1329.596707025533
 20
198.53787111812
 30
0.0
 11
1341.219143025533
 21
198.8422531181199
 31
0.0
  0
ARC
  5
82B
330
2
100
AcDbEntity
  8
0
100
AcDbCircle
 10
1341.216336025533
 20
208.9507661181199
 30
0.0
 40
10.0
100
AcDbArc
 50
270.0
 51
314.9994010000003
  0
LINE
  5
82C
330
2
100
AcDbEntity
  8
CENTER
100
AcDbLine
 10
1294.921719025533
 20
407.95065211812
 30
0.0
 11
1276.824124025533
 21
407.95065211812
 31
0.0
  0
LINE
  5
82D
330
2
100
AcDbEntity
  8
0
100
AcDbLine
 10
1284.358364025533
 20
365.9506521181199
 30
0.0
 11
1282.358547025532
 21
364.95065211812
 31
0.0
  0
LINE
  5
82E
330
2
100
AcDbEntity
  8
0
100
AcDbLine
 10
1284.358364025533
 20
386.95065211812
 30
0.0
 11
1272.725125025533
 21
388.7557971181199
 31
0.0
  0
ARC
  5
82F
330
2
100
AcDbEntity
  8
0
100
AcDbCircle
 10
1284.858547025533
 20
307.2566521181199
 30
0.0
 40
2.5
100
AcDbArc
 50
180.0
 51
270.0
  0
ARC
  5
830
330
2
100
AcDbEntity
  8
0
100
AcDbCircle
 10
1285.858547025533
 20
258.4506521181199
 30
0.0
 40
2.5
100
AcDbArc
 50
90.0
 51
180.0
  0
ARC
  5
831
330
2
100
AcDbEntity
  8
0
100
AcDbCircle
 10
1285.858547025533
 20
249.4506521181199
 30
0.0
 40
2.5
100
AcDbArc
 50
180.0
 51
270.0
  0
LINE
  5
832
330
2
100
AcDbEntity
  8
CENTER
100
AcDbLine
 10
1602.799771025533
 20
304.9506521181199
 30
0.0
 11
1253.017300025533
 21
304.9506521181199
 31
0.0
  0
ARC
  5
833
330
2
100
AcDbEntity
  8
0
100
AcDbCircle
 10
1297.358547025533
 20
351.4507741181199
 30
0.0
 40
15.0
100
AcDbArc
 50
180.0
 51
270.0
  0
ARC
  5
834
330
2
100
AcDbEntity
  8
0
100
AcDbCircle
 10
1267.358486025533
 20
373.7614431181199
 30
0.0
 40
15.0
100
AcDbArc
 50
0.0
 51
57.26440000000012
  0
LINE
  5
835
330
2
100
AcDbEntity
  8
CENTER
100
AcDbLine
 10
1339.296047025533
 20
253.9506521181199
 30
0.0
 11
1262.196072025532
 21
253.9506521181199
 31
0.0
  0
ARC
  5
836
330
2
100
AcDbEntity
  8
0
100
AcDbCircle
 10
1177.358547025532
 20
318.9506521181199
 30
0.0
 40
25.0
100
AcDbArc
 50
196.2601929999994
 51
163.7398069999997
  0
LINE
  5
837
330
2
100
AcDbEntity
  8
0
100
AcDbLine
 10
1282.358547025532
 20
307.2566521181199
 30
0.0
 11
1282.358547025532
 21
373.7614431181199
 31
0.0
  0
LINE
  5
838
330
2
100
AcDbEntity
  8
0
100
AcDbLine
 10
1211.815090025533
 20
234.9506521181199
 30
0.0
 11
1191.608547025533
 21
234.9506521181199
 31
0.0
  0
LINE
  5
839
330
2
100
AcDbEntity
  8
0
100
AcDbLine
 10
1168.358547025533
 20
234.9506521181199
 30
0.0
 11
1185.858547025532
 21
234.9506521181199
 31
0.0
  0
LINE
  5
83A
330
2
100
AcDbEntity
  8
0
100
AcDbLine
 10
1147.780911025533
 20
234.9506521181199
 30
0.0
 11
1162.358547025533
 21
234.9506521181199
 31
0.0
  0
LINE
  5
83B
330
2
100
AcDbEntity
  8
0
100
AcDbLine
 10
1154.233547025532
 20
222.4506521181199
 30
0.0
 11
1162.358547025533
 21
222.4506521181199
 31
0.0
  0
LINE
  5
83C
330
2
100
AcDbEntity
  8
0
100
AcDbLine
 10
1149.681790025533
 20
226.2006521181199
 30
0.0
 11
1162.358547025533
 21
226.2006521181199
 31
0.0
  0
ARC
  5
83D
330
2
100
AcDbEntity
  8
0
100
AcDbCircle
 10
1147.780911025533
 20
227.4506521181199
 30
0.0
 40
7.5
100
AcDbArc
 50
90.0
 51
112.3526989999998
  0
ARC
  5
83E
330
2
100
AcDbEntity
  8
0
100
AcDbCircle
 10
1149.681790025533
 20
221.2006521181199
 30
0.0
 40
5.0
100
AcDbArc
 50
90.0
 51
135.5462040000001
  0
LINE
  5
83F
330
2
100
AcDbEntity
  8
0
100
AcDbLine
 10
1162.358547025533
 20
226.2006521181199
 30
0.0
 11
1162.358547025533
 21
234.9506521181199
 31
0.0
  0
LINE
  5
840
330
2
100
AcDbEntity
  8
0
100
AcDbLine
 10
1168.358547025533
 20
234.9506521181199
 30
0.0
 11
1168.358547025533
 21
226.2006521181199
 31
0.0
  0
LINE
  5
841
330
2
100
AcDbEntity
  8
0
100
AcDbLine
 10
1168.358547025533
 20
226.2006521181199
 30
0.0
 11
1172.733547025533
 21
226.2006521181199
 31
0.0
  0
LINE
  5
842
330
2
100
AcDbEntity
  8
0
100
AcDbLine
 10
1181.483547025533
 20
226.2006521181199
 30
0.0
 11
1185.858547025532
 21
226.2006521181199
 31
0.0
  0
LINE
  5
843
330
2
100
AcDbEntity
  8
0
100
AcDbLine
 10
1185.858547025532
 20
234.9506521181199
 30
0.0
 11
1185.858547025532
 21
226.2006521181199
 31
0.0
  0
LINE
  5
844
330
2
100
AcDbEntity
  8
0
100
AcDbLine
 10
1199.733547025533
 20
226.2006521181199
 30
0.0
 11
1208.483547025533
 21
226.2006521181199
 31
0.0
  0
ARC
  5
845
330
2
100
AcDbEntity
  8
0
100
AcDbCircle
 10
1208.483547025533
 20
224.3256521181199
 30
0.0
 40
1.875
100
AcDbArc
 50
270.0
 51
90.0
  0
LINE
  5
846
330
2
100
AcDbEntity
  8
0
100
AcDbLine
 10
1202.858547025533
 20
222.4506521181199
 30
0.0
 11
1208.483547025533
 21
222.4506521181199
 31
0.0
  0
LINE
  5
847
330
2
100
AcDbEntity
  8
0
100
AcDbLine
 10
1148.858547025533
 20
311.9506521181199
 30
0.0
 11
1157.858547025533
 21
311.9506521181199
 31
0.0
  0
LINE
  5
848
330
2
100
AcDbEntity
  8
0
100
AcDbLine
 10
1148.858547025533
 20
325.95065211812
 30
0.0
 11
1157.858547025533
 21
325.95065211812
 31
0.0
  0
LINE
  5
849
330
2
100
AcDbEntity
  8
0
100
AcDbLine
 10
1148.858547025533
 20
325.95065211812
 30
0.0
 11
1148.858547025533
 21
311.9506521181199
 31
0.0
  0
LINE
  5
84A
330
2
100
AcDbEntity
  8
0
100
AcDbLine
 10
1157.858547025533
 20
325.95065211812
 30
0.0
 11
1157.858547025533
 21
311.9506521181199
 31
0.0
  0
LINE
  5
84B
330
2
100
AcDbEntity
  8
0
100
AcDbLine
 10
1276.358547025533
 20
321.9506521181199
 30
0.0
 11
1276.358547025533
 21
251.9506521181199
 31
0.0
  0
LINE
  5
84C
330
2
100
AcDbEntity
  8
0
100
AcDbLine
 10
1256.591274025533
 20
245.71791011812
 30
0.0
 11
1231.599270025533
 21
334.2604661181198
 31
0.0
  0
LINE
  5
84D
330
2
100
AcDbEntity
  8
0
100
AcDbLine
 10
1261.056790025533
 20
246.9782551181199
 30
0.0
 11
1236.064785025533
 21
335.52085811812
 31
0.0
  0
ARC
  5
84E
330
2
100
AcDbEntity
  8
0
100
AcDbCircle
 10
1211.815090025533
 20
229.9506521181199
 30
0.0
 40
5.0
100
AcDbArc
 50
59.13309900000024
 51
90.0
  0
ARC
  5
84F
330
2
100
AcDbEntity
  8
0
100
AcDbCircle
 10
1207.952969025533
 20
411.95065211812
 30
0.0
 40
15.0
100
AcDbArc
 50
57.26449999999969
 51
90.0
  0
LINE
  5
850
330
2
100
AcDbEntity
  8
0
100
AcDbLine
 10
1207.953030025533
 20
426.95065211812
 30
0.0
 11
1146.764065025533
 21
426.95065211812
 31
0.0
  0
ARC
  5
851
330
2
100
AcDbEntity
  8
0
100
AcDbCircle
 10
1146.764035025533
 20
411.95065211812
 30
0.0
 40
15.0
100
AcDbArc
 50
90.0
 51
122.7350999999998
  0
LINE
  5
852
330
2
100
AcDbEntity
  8
0
100
AcDbLine
 10
1275.469876025533
 20
386.37905811812
 30
0.0
 11
1216.064358025533
 21
424.5682671181198
 31
0.0
  0
ARC
  5
853
330
2
100
AcDbEntity
  8
0
100
AcDbCircle
 10
1273.645169025533
 20
394.6848441181199
 30
0.0
 40
6.0
100
AcDbArc
 50
237.2647779999996
 51
261.1795879999996
  0
LINE
  5
854
330
2
100
AcDbEntity
  8
0
100
AcDbLine
 10
1378.358547025533
 20
376.95065211812
 30
0.0
 11
1378.358547025533
 21
232.9506441181199
 31
0.0
  0
LINE
  5
855
330
2
100
AcDbEntity
  8
0
100
AcDbLine
 10
1378.358547025533
 20
376.9506211181198
 30
0.0
 11
1378.358547025533
 21
232.95061411812
 31
0.0
  0
ARC
  5
856
330
2
100
AcDbEntity
  8
0
100
AcDbCircle
 10
1357.358608025533
 20
347.75073111812
 30
0.0
 40
10.0
100
AcDbArc
 50
271.5001980000002
 51
0.0
  0
LINE
  5
857
330
2
100
AcDbEntity
  8
0
100
AcDbLine
 10
1367.358547025533
 20
372.95065211812
 30
0.0
 11
1367.358547025533
 21
297.5756521181199
 31
0.0
  0
LINE
  5
858
330
2
100
AcDbEntity
  8
0
100
AcDbLine
 10
1317.300808025533
 20
316.4046471181198
 30
0.0
 11
1356.224636025533
 21
316.4046471181198
 31
0.0
  0
LINE
  5
859
330
2
100
AcDbEntity
  8
0
100
AcDbLine
 10
1356.224636025533
 20
307.8566431181199
 30
0.0
 11
1317.300808025533
 21
307.8566431181199
 31
0.0
  0
LINE
  5
85A
330
2
100
AcDbEntity
  8
0
100
AcDbLine
 10
1357.620449025533
 20
337.75410311812
 30
0.0
 11
1307.858547025533
 21
336.45065211812
 31
0.0
  0
LINE
  5
85C
330
2
100
AcDbEntity
  8
0
100
AcDbLine
 10
1283.358547025533
 20
249.4506521181199
 30
0.0
 11
1283.358547025533
 21
258.4506521181199
 31
0.0
  0
ARC
  5
85D
330
2
100
AcDbEntity
  8
0
100
AcDbCircle
 10
1288.858547025533
 20
244.4506521181199
 30
0.0
 40
2.5
100
AcDbArc
 50
0.0
 51
90.0
  0
LINE
  5
85E
330
2
100
AcDbEntity
  8
0
100
AcDbLine
 10
1288.858547025533
 20
246.9506521181199
 30
0.0
 11
1285.858547025533
 21
246.9506521181199
 31
0.0
  0
ARC
  5
85F
330
2
100
AcDbEntity
  8
0
100
AcDbCircle
 10
1288.858547025533
 20
263.4506521181199
 30
0.0
 40
2.5
100
AcDbArc
 50
270.0
 51
0.0
  0
LINE
  5
860
330
2
100
AcDbEntity
  8
0
100
AcDbLine
 10
1288.858547025533
 20
260.9506521181199
 30
0.0
 11
1285.858547025533
 21
260.9506521181199
 31
0.0
  0
ARC
  5
861
330
2
100
AcDbEntity
  8
0
100
AcDbCircle
 10
1288.858547025533
 20
302.2566521181199
 30
0.0
 40
2.5
100
AcDbArc
 50
0.0
 51
90.0
  0
LINE
  5
862
330
2
100
AcDbEntity
  8
0
100
AcDbLine
 10
1288.858547025533
 20
304.7566521181199
 30
0.0
 11
1284.858547025533
 21
304.7566521181199
 31
0.0
  0
LINE
  5
863
330
2
100
AcDbEntity
  8
0
100
AcDbLine
 10
1307.858547025533
 20
336.4507741181199
 30
0.0
 11
1297.358608025533
 21
336.4507741181199
 31
0.0
  0
LINE
  5
864
330
2
100
AcDbEntity
  8
0
100
AcDbLine
 10
1315.858547025533
 20
314.78668111812
 30
0.0
 11
1315.858547025533
 21
310.3433221181199
 31
0.0
  0
LINE
  5
865
330
2
100
AcDbEntity
  8
0
100
AcDbLine
 10
1378.358547025533
 20
232.9506441181199
 30
0.0
 11
1397.519436025533
 21
232.9506441181199
 31
0.0
  0
ARC
  5
866
330
2
100
AcDbEntity
  8
0
100
AcDbCircle
 10
1369.358547025533
 20
230.0219331181199
 30
0.0
 40
5.0
100
AcDbArc
 50
314.9990009999996
 51
0.0
  0
ARC
  5
867
330
2
100
AcDbEntity
  8
0
100
AcDbCircle
 10
1377.358547025533
 20
230.9506521181199
 30
0.0
 40
3.0
100
AcDbArc
 50
90.0
 51
180.0
  0
LINE
  5
868
330
2
100
AcDbEntity
  8
0
100
AcDbLine
 10
1374.358547025533
 20
235.4506521181199
 30
0.0
 11
1374.358547025533
 21
230.0219261181198
 31
0.0
  0
LINE
  5
869
330
2
100
AcDbEntity
  8
0
100
AcDbLine
 10
1377.358547025533
 20
233.9506521181199
 30
0.0
 11
1378.358547025533
 21
233.9506521181199
 31
0.0
  0
ARC
  5
86A
330
2
100
AcDbEntity
  8
0
100
AcDbCircle
 10
1399.358547025532
 20
249.1506641181199
 30
0.0
 40
1.0
100
AcDbArc
 50
90.0
 51
270.0
  0
LINE
  5
86B
330
2
100
AcDbEntity
  8
0
100
AcDbLine
 10
1398.358547025533
 20
236.1506641181199
 30
0.0
 11
1398.358547025533
 21
232.4946281181198
 31
0.0
  0
ARC
  5
86C
330
2
100
AcDbEntity
  8
0
100
AcDbCircle
 10
1399.358547025532
 20
234.8958041181199
 30
0.0
 40
1.0
100
AcDbArc
 50
180.0
 51
270.0
  0
ARC
  5
86D
330
2
100
AcDbEntity
  8
0
100
AcDbCircle
 10
1399.902920025533
 20
229.9506441181199
 30
0.0
 40
1.0
100
AcDbArc
 50
190.0000000000002
 51
270.0
  0
ARC
  5
86E
330
2
100
AcDbEntity
  8
0
100
AcDbCircle
 10
1397.519436025533
 20
231.9506441181199
 30
0.0
 40
1.0
100
AcDbArc
 50
10.00000000000021
 51
90.0
  0
LINE
  5
86F
330
2
100
AcDbEntity
  8
0
100
AcDbLine
 10
1398.918118025533
 20
229.7770071181198
 30
0.0
 11
1398.504238025533
 21
232.1243051181198
 31
0.0
  0
ARC
  5
870
330
2
100
AcDbEntity
  8
0
100
AcDbCircle
 10
1399.358547025532
 20
236.1506641181199
 30
0.0
 40
1.0
100
AcDbArc
 50
90.0
 51
270.0
  0
ARC
  5
871
330
2
100
AcDbEntity
  8
0
100
AcDbCircle
 10
1399.358547025532
 20
242.6506641181199
 30
0.0
 40
1.0
100
AcDbArc
 50
90.0
 51
270.0
  0
ARC
  5
872
330
2
100
AcDbEntity
  8
0
100
AcDbCircle
 10
1399.358547025532
 20
255.9506521181199
 30
0.0
 40
1.0
100
AcDbArc
 50
90.0
 51
270.0
  0
ARC
  5
873
330
2
100
AcDbEntity
  8
0
100
AcDbCircle
 10
1399.358547025532
 20
268.35064611812
 30
0.0
 40
1.0
100
AcDbArc
 50
90.0
 51
270.0
  0
ARC
  5
874
330
2
100
AcDbEntity
  8
0
100
AcDbCircle
 10
1399.358547025532
 20
275.9506521181199
 30
0.0
 40
1.0
100
AcDbArc
 50
90.0
 51
270.0
  0
ARC
  5
875
330
2
100
AcDbEntity
  8
0
100
AcDbCircle
 10
1399.358547025532
 20
283.5506431181199
 30
0.0
 40
1.0
100
AcDbArc
 50
90.0
 51
270.0
  0
ARC
  5
876
330
2
100
AcDbEntity
  8
0
100
AcDbCircle
 10
1399.358547025532
 20
291.1506641181199
 30
0.0
 40
1.0
100
AcDbArc
 50
90.0
 51
270.0
  0
ARC
  5
877
330
2
100
AcDbEntity
  8
0
100
AcDbCircle
 10
1399.358547025532
 20
298.75064011812
 30
0.0
 40
1.0
100
AcDbArc
 50
90.0
 51
270.0
  0
ARC
  5
878
330
2
100
AcDbEntity
  8
0
100
AcDbCircle
 10
1399.358547025532
 20
318.7506401181199
 30
0.0
 40
1.0
100
AcDbArc
 50
90.0
 51
270.0
  0
ARC
  5
879
330
2
100
AcDbEntity
  8
0
100
AcDbCircle
 10
1399.358547025532
 20
311.1506641181199
 30
0.0
 40
1.0
100
AcDbArc
 50
90.0
 51
270.0
  0
ARC
  5
87A
330
2
100
AcDbEntity
  8
0
100
AcDbCircle
 10
1399.358547025532
 20
326.3506461181199
 30
0.0
 40
1.0
100
AcDbArc
 50
90.0
 51
270.0
  0
ARC
  5
87B
330
2
100
AcDbEntity
  8
0
100
AcDbCircle
 10
1399.358547025532
 20
333.95065211812
 30
0.0
 40
1.0
100
AcDbArc
 50
90.0
 51
270.0
  0
LINE
  5
87C
330
2
100
AcDbEntity
  8
0
100
AcDbLine
 10
1287.557949025533
 20
423.95065211812
 30
0.0
 11
1287.557949025533
 21
363.9506521181199
 31
0.0
  0
LINE
  5
87D
330
2
100
AcDbEntity
  8
0
100
AcDbLine
 10
1284.360378025533
 20
423.95065211812
 30
0.0
 11
1284.357937025533
 21
363.9506521181199
 31
0.0
  0
LINE
  5
87E
330
2
100
AcDbEntity
  8
0
100
AcDbLine
 10
1289.557949025533
 20
381.6506641181199
 30
0.0
 11
1289.557949025533
 21
366.2506551181199
 31
0.0
  0
ARC
  5
87F
330
2
100
AcDbEntity
  8
0
100
AcDbCircle
 10
1293.357937025533
 20
369.01342711812
 30
0.0
 40
1.5
100
AcDbArc
 50
0.0
 51
90.0
  0
LINE
  5
880
330
2
100
AcDbEntity
  8
0
100
AcDbLine
 10
1294.857937025533
 20
379.64065411812
 30
0.0
 11
1294.857937025533
 21
368.2606491181199
 31
0.0
  0
LINE
  5
881
330
2
100
AcDbEntity
  8
0
100
AcDbLine
 10
1284.358364025533
 20
386.95065211812
 30
0.0
 11
1284.358364025533
 21
365.9506521181199
 31
0.0
  0
LINE
  5
882
330
2
100
AcDbEntity
  8
0
100
AcDbLine
 10
1284.358364025533
 20
386.95065211812
 30
0.0
 11
1284.358364025533
 21
365.9506521181199
 31
0.0
  0
LINE
  5
883
330
2
100
AcDbEntity
  8
0
100
AcDbLine
 10
1293.357937025533
 20
366.7606491181199
 30
0.0
 11
1289.557949025533
 21
366.7606491181199
 31
0.0
  0
LINE
  5
884
330
2
100
AcDbEntity
  8
0
100
AcDbLine
 10
1289.557949025533
 20
366.2506551181199
 30
0.0
 11
1287.557949025533
 21
366.2506551181199
 31
0.0
  0
LINE
  5
885
330
2
100
AcDbEntity
  8
0
100
AcDbLine
 10
1287.557949025533
 20
363.9506521181199
 30
0.0
 11
1284.357937025533
 21
363.9506521181199
 31
0.0
  0
ARC
  5
886
330
2
100
AcDbEntity
  8
0
100
AcDbCircle
 10
1293.357937025533
 20
368.2606491181199
 30
0.0
 40
1.5
100
AcDbArc
 50
270.0
 51
0.0
  0
LINE
  5
887
330
2
100
AcDbEntity
  8
0
100
AcDbLine
 10
1293.357937025533
 20
370.51342711812
 30
0.0
 11
1289.557949025533
 21
370.51342711812
 31
0.0
  0
LINE
  5
888
330
2
100
AcDbEntity
  8
0
100
AcDbLine
 10
1293.357937025533
 20
377.38787711812
 30
0.0
 11
1289.557949025533
 21
377.38787711812
 31
0.0
  0
LINE
  5
889
330
2
100
AcDbEntity
  8
0
100
AcDbLine
 10
1293.357937025533
 20
381.1406541181199
 30
0.0
 11
1289.557949025533
 21
381.1406541181199
 31
0.0
  0
LINE
  5
88A
330
2
100
AcDbEntity
  8
0
100
AcDbLine
 10
1289.557949025533
 20
381.6506641181199
 30
0.0
 11
1287.557949025533
 21
381.6506641181199
 31
0.0
  0
ARC
  5
88B
330
2
100
AcDbEntity
  8
0
100
AcDbCircle
 10
1293.357937025533
 20
379.64065411812
 30
0.0
 40
1.5
100
AcDbArc
 50
0.0
 51
90.0
  0
ARC
  5
88C
330
2
100
AcDbEntity
  8
0
100
AcDbCircle
 10
1293.357937025533
 20
378.8878771181199
 30
0.0
 40
1.5
100
AcDbArc
 50
270.0
 51
0.0
  0
ARC
  5
88D
330
2
100
AcDbEntity
  8
0
100
AcDbCircle
 10
1293.357937025533
 20
372.01342711812
 30
0.0
 40
1.5
100
AcDbArc
 50
270.0
 51
0.0
  0
ARC
  5
88E
330
2
100
AcDbEntity
  8
0
100
AcDbCircle
 10
1293.357937025533
 20
375.88787711812
 30
0.0
 40
1.5
100
AcDbArc
 50
0.0
 51
90.0
  0
LINE
  5
88F
330
2
100
AcDbEntity
  8
HIDS
100
AcDbLine
 10
1287.557949025533
 20
397.95065211812
 30
0.0
 11
1284.357937025533
 21
397.95065211812
 31
0.0
  0
LINE
  5
890
330
2
100
AcDbEntity
  8
0
100
AcDbLine
 10
1287.557949025533
 20
423.95065211812
 30
0.0
 11
1284.360378025533
 21
423.95065211812
 31
0.0
  0
LINE
  5
891
330
2
100
AcDbEntity
  8
HIDS
100
AcDbLine
 10
1287.557949025533
 20
417.95065211812
 30
0.0
 11
1284.357937025533
 21
417.95065211812
 31
0.0
  0
LINE
  5
892
330
2
100
AcDbEntity
  8
0
100
AcDbLine
 10
1378.358547025533
 20
376.95065211812
 30
0.0
 11
1397.519436025533
 21
376.95065211812
 31
0.0
  0
LINE
  5
893
330
2
100
AcDbEntity
  8
0
100
AcDbLine
 10
1398.358547025533
 20
376.9506211181198
 30
0.0
 11
1378.358547025533
 21
376.9506211181198
 31
0.0
  0
LINE
  5
894
330
2
100
AcDbEntity
  8
0
100
AcDbLine
 10
1370.358547025533
 20
375.95065211812
 30
0.0
 11
1378.358547025533
 21
375.95065211812
 31
0.0
  0
ARC
  5
895
330
2
100
AcDbEntity
  8
0
100
AcDbCircle
 10
1370.358547025533
 20
372.9506211181198
 30
0.0
 40
3.0
100
AcDbArc
 50
90.0
 51
180.0
  0
ARC
  5
896
330
2
100
AcDbEntity
  8
0
100
AcDbCircle
 10
1399.358547025532
 20
353.95065211812
 30
0.0
 40
1.0
100
AcDbArc
 50
90.0
 51
270.0
  0
ARC
  5
897
330
2
100
AcDbEntity
  8
0
100
AcDbCircle
 10
1399.358547025532
 20
341.5506431181199
 30
0.0
 40
1.0
100
AcDbArc
 50
90.0
 51
270.0
  0
ARC
  5
898
330
2
100
AcDbEntity
  8
0
100
AcDbCircle
 10
1399.358547025532
 20
360.7506241181199
 30
0.0
 40
1.0
100
AcDbArc
 50
90.0
 51
270.0
  0
ARC
  5
899
330
2
100
AcDbEntity
  8
0
100
AcDbCircle
 10
1399.358547025532
 20
367.2506241181199
 30
0.0
 40
1.0
100
AcDbArc
 50
90.0
 51
270.0
  0
ARC
  5
89A
330
2
100
AcDbEntity
  8
0
100
AcDbCircle
 10
1397.519436025533
 20
377.95065211812
 30
0.0
 40
1.0
100
AcDbArc
 50
270.0
 51
349.9999999999998
  0
ARC
  5
89B
330
2
100
AcDbEntity
  8
0
100
AcDbCircle
 10
1399.358547025532
 20
373.75064011812
 30
0.0
 40
1.0
100
AcDbArc
 50
90.0
 51
270.0
  0
ARC
  5
89C
330
2
100
AcDbEntity
  8
0
100
AcDbCircle
 10
1399.358547025532
 20
375.0054921181199
 30
0.0
 40
1.0
100
AcDbArc
 50
90.0
 51
180.0
  0
ARC
  5
89D
330
2
100
AcDbEntity
  8
0
100
AcDbCircle
 10
1399.902920025533
 20
379.95065211812
 30
0.0
 40
1.0
100
AcDbArc
 50
90.0
 51
169.9999999999997
  0
LINE
  5
89E
330
2
100
AcDbEntity
  8
0
100
AcDbLine
 10
1398.358547025533
 20
373.75064011812
 30
0.0
 11
1398.358547025533
 21
377.40667611812
 31
0.0
  0
LINE
  5
89F
330
2
100
AcDbEntity
  8
0
100
AcDbLine
 10
1398.918118025533
 20
380.12429711812
 30
0.0
 11
1398.504238025533
 21
377.77700711812
 31
0.0
  0
ARC
  5
8A0
330
2
100
AcDbEntity
  8
0
100
AcDbCircle
 10
1565.389444710094
 20
364.9521171181199
 30
0.0
 40
15.0
100
AcDbArc
 50
8.519624254143266
 51
90.0
  0
ARC
  5
8A1
330
2
100
AcDbEntity
  8
0
100
AcDbCircle
 10
1565.389444710094
 20
244.9521171181198
 30
0.0
 40
15.0
100
AcDbArc
 50
270.0
 51
351.4803757458567
  0
LINE
  5
8A2
330
2
100
AcDbEntity
  8
0
100
AcDbLine
 10
1519.358547025533
 20
384.4389696988553
 30
0.0
 11
1519.358547025533
 21
228.4652645373847
 31
0.0
  0
ARC
  5
8A3
330
2
100
AcDbEntity
  8
0
100
AcDbCircle
 10
1953.858547025532
 20
304.9521171181199
 30
0.0
 40
400.0
100
AcDbArc
 50
168.6685391416853
 51
190.9684015155819
  0
LINE
  5
8A6
330
2
100
AcDbEntity
  8
0
100
AcDbLine
 10
1518.358547025533
 20
376.95065211812
 30
0.0
 11
1518.358547025533
 21
232.9506441181199
 31
0.0
  0
LINE
  5
8A7
330
2
100
AcDbEntity
  8
0
100
AcDbLine
 10
1466.358547025532
 20
254.9506521181199
 30
0.0
 11
1514.358547025532
 21
254.9506521181199
 31
0.0
  0
LINE
  5
8A8
330
2
100
AcDbEntity
  8
0
100
AcDbLine
 10
1466.358547025532
 20
256.9506521181199
 30
0.0
 11
1514.358547025532
 21
256.9506521181199
 31
0.0
  0
ARC
  5
8AC
330
2
100
AcDbEntity
  8
0
100
AcDbCircle
 10
1450.358547025533
 20
255.9506521181199
 30
0.0
 40
1.0
100
AcDbArc
 50
270.0
 51
90.0
  0
ARC
  5
8AD
330
2
100
AcDbEntity
  8
0
100
AcDbCircle
 10
1466.358547025532
 20
255.9506521181199
 30
0.0
 40
1.0
100
AcDbArc
 50
90.0
 51
270.0
  0
LINE
  5
8AF
330
2
100
AcDbEntity
  8
0
100
AcDbLine
 10
1520.87163682878
 20
226.9653216527884
 30
0.0
 11
1559.169259072512
 21
226.9653216527884
 31
0.0
  0
ARC
  5
8B0
330
2
100
AcDbEntity
  8
HIDS
100
AcDbCircle
 10
1517.358547025533
 20
242.4506751181199
 30
0.0
 40
8.0
100
AcDbArc
 50
90.0
 51
180.0
  0
ARC
  5
8B1
330
2
100
AcDbEntity
  8
0
100
AcDbCircle
 10
1514.358547025532
 20
249.1506641181199
 30
0.0
 40
1.0
100
AcDbArc
 50
270.0
 51
90.0
  0
ARC
  5
8B2
330
2
100
AcDbEntity
  8
0
100
AcDbCircle
 10
1520.858547025532
 20
228.4652645373847
 30
0.0
 40
1.5
100
AcDbArc
 50
180.0
 51
270.5000000000045
  0
LINE
  5
8B3
330
2
100
AcDbEntity
  8
HIDS
100
AcDbLine
 10
1517.358547025533
 20
244.45066711812
 30
0.0
 11
1519.358547025533
 21
244.45066711812
 31
0.0
  0
LINE
  5
8B4
330
2
100
AcDbEntity
  8
HIDS
100
AcDbLine
 10
1517.358547025533
 20
247.45066711812
 30
0.0
 11
1519.358547025533
 21
247.45066711812
 31
0.0
  0
LINE
  5
8B5
330
2
100
AcDbEntity
  8
0
100
AcDbLine
 10
1519.358547025533
 20
234.4506441181199
 30
0.0
 11
1518.358547025533
 21
234.4506441181199
 31
0.0
  0
LINE
  5
8B6
330
2
100
AcDbEntity
  8
HIDS
100
AcDbLine
 10
1512.358547025533
 20
234.1903521181198
 30
0.0
 11
1509.358547025533
 21
235.3237141181199
 31
0.0
  0
LINE
  5
8B7
330
2
100
AcDbEntity
  8
HIDS
100
AcDbLine
 10
1509.858547025532
 20
235.1348101181199
 30
0.0
 11
1509.858547025532
 21
229.2631751181199
 31
0.0
  0
LINE
  5
8B8
330
2
100
AcDbEntity
  8
HIDS
100
AcDbLine
 10
1510.058560025533
 20
235.0592491181198
 30
0.0
 11
1510.058560025533
 21
229.2631751181199
 31
0.0
  0
LINE
  5
8B9
330
2
100
AcDbEntity
  8
HIDS
100
AcDbLine
 10
1515.358547025533
 20
242.4506751181199
 30
0.0
 11
1515.358547025533
 21
233.7361901181199
 31
0.0
  0
LINE
  5
8BA
330
2
100
AcDbEntity
  8
HIDS
100
AcDbLine
 10
1512.358547025533
 20
242.4506751181199
 30
0.0
 11
1512.358547025533
 21
232.4781331181199
 31
0.0
  0
LINE
  5
8BB
330
2
100
AcDbEntity
  8
0
100
AcDbLine
 10
1515.358547025533
 20
236.1506641181199
 30
0.0
 11
1515.358547025533
 21
232.4946281181198
 31
0.0
  0
LINE
  5
8BC
330
2
100
AcDbEntity
  8
HIDS
100
AcDbLine
 10
1510.258572025533
 20
234.98369511812
 30
0.0
 11
1510.258572025533
 21
229.2631751181199
 31
0.0
  0
LINE
  5
8BD
330
2
100
AcDbEntity
  8
HIDS
100
AcDbLine
 10
1510.458523025533
 20
234.9081491181199
 30
0.0
 11
1510.458523025533
 21
229.2631751181199
 31
0.0
  0
LINE
  5
8BE
330
2
100
AcDbEntity
  8
HIDS
100
AcDbLine
 10
1510.658535025533
 20
234.83259511812
 30
0.0
 11
1510.658535025533
 21
229.2631751181199
 31
0.0
  0
LINE
  5
8BF
330
2
100
AcDbEntity
  8
HIDS
100
AcDbLine
 10
1510.858547025533
 20
234.75707111812
 30
0.0
 11
1510.858547025533
 21
229.2631751181199
 31
0.0
  0
LINE
  5
8C0
330
2
100
AcDbEntity
  8
HIDS
100
AcDbLine
 10
1511.058560025533
 20
234.6814721181199
 30
0.0
 11
1511.058560025533
 21
229.2631751181199
 31
0.0
  0
LINE
  5
8C1
330
2
100
AcDbEntity
  8
HIDS
100
AcDbLine
 10
1511.258572025532
 20
234.6059481181198
 30
0.0
 11
1511.258572025532
 21
229.2631751181199
 31
0.0
  0
LINE
  5
8C2
330
2
100
AcDbEntity
  8
HIDS
100
AcDbLine
 10
1511.458523025533
 20
234.53039411812
 30
0.0
 11
1511.458523025533
 21
229.2631751181199
 31
0.0
  0
LINE
  5
8C3
330
2
100
AcDbEntity
  8
HIDS
100
AcDbLine
 10
1511.658535025533
 20
234.4548331181199
 30
0.0
 11
1511.658535025533
 21
229.2631751181199
 31
0.0
  0
LINE
  5
8C4
330
2
100
AcDbEntity
  8
HIDS
100
AcDbLine
 10
1511.858547025533
 20
234.3792481181198
 30
0.0
 11
1511.858547025533
 21
229.2631751181199
 31
0.0
  0
LINE
  5
8C5
330
2
100
AcDbEntity
  8
HIDS
100
AcDbLine
 10
1512.858547025533
 20
232.6878351181199
 30
0.0
 11
1512.858547025533
 21
228.9506441181199
 31
0.0
  0
LINE
  5
8C6
330
2
100
AcDbEntity
  8
HIDS
100
AcDbLine
 10
1513.058560025533
 20
232.77171211812
 30
0.0
 11
1513.058560025533
 21
228.9506441181199
 31
0.0
  0
LINE
  5
8C7
330
2
100
AcDbEntity
  8
HIDS
100
AcDbLine
 10
1513.258572025533
 20
232.8555741181198
 30
0.0
 11
1513.258572025533
 21
228.9506441181199
 31
0.0
  0
LINE
  5
8C8
330
2
100
AcDbEntity
  8
HIDS
100
AcDbLine
 10
1513.458523025533
 20
232.9394291181199
 30
0.0
 11
1513.458523025533
 21
228.9506441181199
 31
0.0
  0
LINE
  5
8C9
330
2
100
AcDbEntity
  8
HIDS
100
AcDbLine
 10
1513.658535025533
 20
233.0233141181199
 30
0.0
 11
1513.658535025533
 21
228.9506441181199
 31
0.0
  0
LINE
  5
8CA
330
2
100
AcDbEntity
  8
HIDS
100
AcDbLine
 10
1513.858547025533
 20
233.10716911812
 30
0.0
 11
1513.858547025533
 21
228.9506441181199
 31
0.0
  0
LINE
  5
8CB
330
2
100
AcDbEntity
  8
HIDS
100
AcDbLine
 10
1514.058560025533
 20
233.19103111812
 30
0.0
 11
1514.058560025533
 21
228.9809861181199
 31
0.0
  0
LINE
  5
8CC
330
2
100
AcDbEntity
  8
HIDS
100
AcDbLine
 10
1514.258572025533
 20
233.27489411812
 30
0.0
 11
1514.258572025533
 21
229.05483911812
 31
0.0
  0
LINE
  5
8CD
330
2
100
AcDbEntity
  8
HIDS
100
AcDbLine
 10
1514.458523025533
 20
233.35880911812
 30
0.0
 11
1514.458523025533
 21
229.1859731181199
 31
0.0
  0
LINE
  5
8CE
330
2
100
AcDbEntity
  8
HIDS
100
AcDbLine
 10
1514.658535025533
 20
233.4426491181198
 30
0.0
 11
1514.658535025533
 21
229.4149311181199
 31
0.0
  0
LINE
  5
8CF
330
2
100
AcDbEntity
  8
HIDS
100
AcDbLine
 10
1514.858547025533
 20
233.52653411812
 30
0.0
 11
1514.858547025533
 21
230.11514211812
 31
0.0
  0
LINE
  5
8D0
330
2
100
AcDbEntity
  8
HIDS
100
AcDbLine
 10
1515.358547025533
 20
233.7361901181199
 30
0.0
 11
1512.358547025533
 21
232.4781331181199
 31
0.0
  0
ARC
  5
8D1
330
2
100
AcDbEntity
  8
0
100
AcDbCircle
 10
1514.358547025532
 20
234.8958041181199
 30
0.0
 40
1.0
100
AcDbArc
 50
270.0
 51
0.0
  0
ARC
  5
8D2
330
2
100
AcDbEntity
  8
0
100
AcDbCircle
 10
1516.197659025533
 20
231.9506441181199
 30
0.0
 40
1.0
100
AcDbArc
 50
90.0
 51
169.9999999999997
  0
ARC
  5
8D3
330
2
100
AcDbEntity
  8
0
100
AcDbCircle
 10
1513.814114025533
 20
229.9506441181199
 30
0.0
 40
1.0
100
AcDbArc
 50
270.0
 51
349.9999999999998
  0
LINE
  5
8D4
330
2
100
AcDbEntity
  8
0
100
AcDbLine
 10
1516.197659025533
 20
232.9506441181199
 30
0.0
 11
1518.358547025533
 21
232.9506441181199
 31
0.0
  0
LINE
  5
8D5
330
2
100
AcDbEntity
  8
0
100
AcDbLine
 10
1514.798916025533
 20
229.7770071181198
 30
0.0
 11
1515.212795025533
 21
232.1243051181198
 31
0.0
  0
LINE
  5
8D6
330
2
100
AcDbEntity
  8
HIDS
100
AcDbLine
 10
1509.358547025533
 20
242.4506751181199
 30
0.0
 11
1509.358547025533
 21
235.3237141181199
 31
0.0
  0
ARC
  5
8D7
330
2
100
AcDbEntity
  8
HIDS
100
AcDbCircle
 10
1517.358547025533
 20
242.4506751181199
 30
0.0
 40
2.0
100
AcDbArc
 50
90.0
 51
180.0
  0
ARC
  5
8D8
330
2
100
AcDbEntity
  8
HIDS
100
AcDbCircle
 10
1517.358547025533
 20
242.4506751181199
 30
0.0
 40
5.0
100
AcDbArc
 50
90.0
 51
180.0
  0
ARC
  5
8D9
330
2
100
AcDbEntity
  8
0
100
AcDbCircle
 10
1514.358547025532
 20
236.1506641181199
 30
0.0
 40
1.0
100
AcDbArc
 50
270.0
 51
90.0
  0
ARC
  5
8DA
330
2
100
AcDbEntity
  8
0
100
AcDbCircle
 10
1514.358547025532
 20
242.6506641181199
 30
0.0
 40
1.0
100
AcDbArc
 50
270.0
 51
90.0
  0
LINE
  5
8DB
330
2
100
AcDbEntity
  8
HIDS
100
AcDbLine
 10
1517.358547025533
 20
250.45066711812
 30
0.0
 11
1519.358547025533
 21
250.45066711812
 31
0.0
  0
ARC
  5
8DD
330
2
100
AcDbEntity
  8
0
100
AcDbCircle
 10
1514.358547025532
 20
255.9506521181199
 30
0.0
 40
1.0
100
AcDbArc
 50
270.0
 51
90.0
  0
ARC
  5
8DE
330
2
100
AcDbEntity
  8
0
100
AcDbCircle
 10
1514.358547025532
 20
268.35064611812
 30
0.0
 40
1.0
100
AcDbArc
 50
270.0
 51
90.0
  0
ARC
  5
8DF
330
2
100
AcDbEntity
  8
0
100
AcDbCircle
 10
1514.358547025532
 20
275.9506521181199
 30
0.0
 40
1.0
100
AcDbArc
 50
270.0
 51
90.0
  0
LINE
  5
8E0
330
2
100
AcDbEntity
  8
0
100
AcDbLine
 10
1565.389444710094
 20
229.9521171181199
 30
0.0
 11
1562.160247591187
 21
229.923936341793
 31
0.0
  0
ARC
  5
8E1
330
2
100
AcDbEntity
  8
0
100
AcDbCircle
 10
1562.168974126685
 20
228.9239744187288
 30
0.0
 40
1.0
100
AcDbArc
 50
90.49999999999155
 51
179.2103009954089
  0
ARC
  5
8E2
330
2
100
AcDbEntity
  8
0
100
AcDbCircle
 10
1559.169259072512
 20
228.9653216527884
 30
0.0
 40
2.0
100
AcDbArc
 50
270.0
 51
359.2103009954089
  0
ARC
  5
8E3
330
2
100
AcDbEntity
  8
0
100
AcDbCircle
 10
1514.358547025532
 20
283.5506431181199
 30
0.0
 40
1.0
100
AcDbArc
 50
270.0
 51
90.0
  0
ARC
  5
8E4
330
2
100
AcDbEntity
  8
0
100
AcDbCircle
 10
1514.358547025532
 20
291.1506641181199
 30
0.0
 40
1.0
100
AcDbArc
 50
270.0
 51
90.0
  0
ARC
  5
8E5
330
2
100
AcDbEntity
  8
0
100
AcDbCircle
 10
1514.358547025532
 20
298.75064011812
 30
0.0
 40
1.0
100
AcDbArc
 50
270.0
 51
90.0
  0
ARC
  5
8E6
330
2
100
AcDbEntity
  8
0
100
AcDbCircle
 10
1514.358547025532
 20
318.7506401181199
 30
0.0
 40
1.0
100
AcDbArc
 50
270.0
 51
90.0
  0
ARC
  5
8E7
330
2
100
AcDbEntity
  8
0
100
AcDbCircle
 10
1514.358547025532
 20
311.1506641181199
 30
0.0
 40
1.0
100
AcDbArc
 50
270.0
 51
90.0
  0
ARC
  5
8E8
330
2
100
AcDbEntity
  8
0
100
AcDbCircle
 10
1514.358547025532
 20
326.3506461181199
 30
0.0
 40
1.0
100
AcDbArc
 50
270.0
 51
90.0
  0
ARC
  5
8E9
330
2
100
AcDbEntity
  8
0
100
AcDbCircle
 10
1514.358547025532
 20
333.95065211812
 30
0.0
 40
1.0
100
AcDbArc
 50
270.0
 51
90.0
  0
LINE
  5
8EB
330
2
100
AcDbEntity
  8
0
100
AcDbLine
 10
1520.87163682878
 20
385.9389125834514
 30
0.0
 11
1559.694766165193
 21
385.9389125834514
 31
0.0
  0
ARC
  5
8EC
330
2
100
AcDbEntity
  8
0
100
AcDbCircle
 10
1514.358547025532
 20
353.95065211812
 30
0.0
 40
1.0
100
AcDbArc
 50
270.0
 51
90.0
  0
ARC
  5
8ED
330
2
100
AcDbEntity
  8
0
100
AcDbCircle
 10
1514.358547025532
 20
341.5506431181199
 30
0.0
 40
1.0
100
AcDbArc
 50
270.0
 51
90.0
  0
ARC
  5
8EE
330
2
100
AcDbEntity
  8
0
100
AcDbCircle
 10
1514.358547025532
 20
360.7506241181199
 30
0.0
 40
1.0
100
AcDbArc
 50
270.0
 51
90.0
  0
ARC
  5
8EF
330
2
100
AcDbEntity
  8
0
100
AcDbCircle
 10
1514.358547025532
 20
367.2506241181199
 30
0.0
 40
1.0
100
AcDbArc
 50
270.0
 51
90.0
  0
ARC
  5
8F0
330
2
100
AcDbEntity
  8
0
100
AcDbCircle
 10
1520.858547025532
 20
384.4389696988553
 30
0.0
 40
1.5
100
AcDbArc
 50
89.49999999999542
 51
180.0
  0
LINE
  5
8F1
330
2
100
AcDbEntity
  8
0
100
AcDbLine
 10
1519.358547025533
 20
375.45065211812
 30
0.0
 11
1518.358547025533
 21
375.45065211812
 31
0.0
  0
ARC
  5
8F2
330
2
100
AcDbEntity
  8
0
100
AcDbCircle
 10
1516.197659025533
 20
377.95065211812
 30
0.0
 40
1.0
100
AcDbArc
 50
190.0000000000002
 51
270.0
  0
ARC
  5
8F3
330
2
100
AcDbEntity
  8
0
100
AcDbCircle
 10
1514.358547025532
 20
375.0054921181199
 30
0.0
 40
1.0
100
AcDbArc
 50
0.0
 51
90.0
  0
ARC
  5
8F4
330
2
100
AcDbEntity
  8
0
100
AcDbCircle
 10
1514.358547025532
 20
373.75064011812
 30
0.0
 40
1.0
100
AcDbArc
 50
270.0
 51
90.0
  0
ARC
  5
8F5
330
2
100
AcDbEntity
  8
0
100
AcDbCircle
 10
1513.814114025533
 20
379.95065211812
 30
0.0
 40
1.0
100
AcDbArc
 50
10.00000000000021
 51
90.0
  0
LINE
  5
8F6
330
2
100
AcDbEntity
  8
0
100
AcDbLine
 10
1515.358547025533
 20
373.75064011812
 30
0.0
 11
1515.358547025533
 21
377.40667611812
 31
0.0
  0
LINE
  5
8F7
330
2
100
AcDbEntity
  8
0
100
AcDbLine
 10
1516.197659025533
 20
376.95065211812
 30
0.0
 11
1518.358547025533
 21
376.95065211812
 31
0.0
  0
LINE
  5
8F8
330
2
100
AcDbEntity
  8
0
100
AcDbLine
 10
1514.798916025533
 20
380.12429711812
 30
0.0
 11
1515.212795025533
 21
377.77700711812
 31
0.0
  0
ARC
  5
8F9
330
2
100
AcDbEntity
  8
0
100
AcDbCircle
 10
1559.694766165193
 20
383.9389125834514
 30
0.0
 40
2.0
100
AcDbArc
 50
348.6685391416786
 51
90.0
  0
LINE
  5
8FA
330
2
100
AcDbEntity
  8
0
100
AcDbLine
 10
1565.389444710094
 20
379.9521171181199
 30
0.0
 11
1562.160247591187
 21
379.9802978944469
 31
0.0
  0
ARC
  5
8FB
330
2
100
AcDbEntity
  8
0
100
AcDbCircle
 10
1562.168974126686
 20
380.9802598175112
 30
0.0
 40
1.0
100
AcDbArc
 50
169.0153079280614
 51
269.4999999999954
  0
ARC
  5
8FC
330
2
100
AcDbEntity
  8
0
100
AcDbCircle
 10
1164.858547025533
 20
304.9521171181199
 30
0.0
 40
420.0000000000001
100
AcDbArc
 50
351.4803757458567
 51
8.519624254143266
  0
LINE
  5
911
330
2
100
AcDbEntity
  8
0
100
AcDbLine
 10
380.7388196385837
 20
693.4831521181195
 30
0.0
 11
380.7388196385837
 21
708.8831771181198
 31
0.0
  0
ARC
  5
912
330
2
100
AcDbEntity
  8
0
100
AcDbCircle
 10
376.9388326385838
 20
706.1203591181197
 30
0.0
 40
1.5
100
AcDbArc
 50
180.0
 51
270.0
  0
LINE
  5
913
330
2
100
AcDbEntity
  8
0
100
AcDbLine
 10
375.4388326385839
 20
695.4931621181199
 30
0.0
 11
375.4388326385839
 21
706.8731671181199
 31
0.0
  0
LINE
  5
914
330
2
100
AcDbEntity
  8
0
100
AcDbLine
 10
382.7388196385837
 20
685.18316511812
 30
0.0
 11
382.7388196385837
 21
717.18316511812
 31
0.0
  0
LINE
  5
915
330
2
100
AcDbEntity
  8
0
100
AcDbLine
 10
385.9387716385836
 20
685.18316511812
 30
0.0
 11
385.9387716385836
 21
717.18316511812
 31
0.0
  0
LINE
  5
916
330
2
100
AcDbEntity
  8
0
100
AcDbLine
 10
291.9385886385839
 20
773.1831651181201
 30
0.0
 11
291.9385886385839
 21
629.1831651181199
 31
0.0
  0
LINE
  5
918
330
2
100
AcDbEntity
  8
0
100
AcDbLine
 10
302.9385276385837
 20
769.3915391181199
 30
0.0
 11
302.9382826385839
 21
632.97466911812
 31
0.0
  0
LINE
  5
919
330
2
100
AcDbEntity
  8
0
100
AcDbLine
 10
398.8274436385837
 20
689.1831651181199
 30
0.0
 11
398.8274436385837
 21
713.1831651181201
 31
0.0
  0
LINE
  5
91A
330
2
100
AcDbEntity
  8
0
100
AcDbLine
 10
385.9387716385836
 20
715.6831651181199
 30
0.0
 11
385.9387716385836
 21
686.6831651181199
 31
0.0
  0
LINE
  5
91B
330
2
100
AcDbEntity
  8
0
100
AcDbLine
 10
457.9385886385839
 20
759.1831651181201
 30
0.0
 11
457.9385886385839
 21
643.1831651181199
 31
0.0
  0
LINE
  5
91C
330
2
100
AcDbEntity
  8
0
100
AcDbLine
 10
527.9385886385839
 20
759.1831651181201
 30
0.0
 11
527.9385886385839
 21
643.1831651181199
 31
0.0
  0
LINE
  5
91D
330
2
100
AcDbEntity
  8
0
100
AcDbLine
 10
362.4387106385837
 20
783.68316511812
 30
0.0
 11
362.4387106385837
 21
618.68316511812
 31
0.0
  0
LINE
  5
91E
330
2
100
AcDbEntity
  8
CENTER
100
AcDbLine
 10
492.9385886385839
 20
882.0146771181198
 30
0.0
 11
492.9385886385839
 21
562.03661911812
 31
0.0
  0
LINE
  5
91F
330
2
100
AcDbEntity
  8
0
100
AcDbLine
 10
385.9387716385836
 20
715.6831651181199
 30
0.0
 11
396.3274436385838
 21
715.6831651181199
 31
0.0
  0
ARC
  5
920
330
2
100
AcDbEntity
  8
0
100
AcDbCircle
 10
381.9387106385837
 20
770.6831651181198
 30
0.0
 40
5.0
100
AcDbArc
 50
0.0
 51
90.0
  0
ARC
  5
921
330
2
100
AcDbEntity
  8
0
100
AcDbCircle
 10
389.4385886385839
 20
768.6831651181198
 30
0.0
 40
2.5
100
AcDbArc
 50
180.0
 51
270.0
  0
LINE
  5
922
330
2
100
AcDbEntity
  8
0
100
AcDbLine
 10
383.1006366385837
 20
766.1831651181199
 30
0.0
 11
387.9385886385839
 21
766.1831651181199
 31
0.0
  0
LINE
  5
923
330
2
100
AcDbEntity
  8
0
100
AcDbLine
 10
521.4385886385839
 20
796.18316511812
 30
0.0
 11
521.4385886385839
 21
866.1831651181199
 31
0.0
  0
LINE
  5
924
330
2
100
AcDbEntity
  8
0
100
AcDbLine
 10
516.9385886385839
 20
796.18316511812
 30
0.0
 11
516.9385886385839
 21
866.1831651181199
 31
0.0
  0
LINE
  5
925
330
2
100
AcDbEntity
  8
0
100
AcDbLine
 10
467.9385886385839
 20
791.1831651181199
 30
0.0
 11
467.9385886385839
 21
866.1831651181199
 31
0.0
  0
LINE
  5
926
330
2
100
AcDbEntity
  8
0
100
AcDbLine
 10
521.4385886385839
 20
866.1831651181199
 30
0.0
 11
467.9385886385839
 21
866.1831651181199
 31
0.0
  0
LINE
  5
927
330
2
100
AcDbEntity
  8
0
100
AcDbLine
 10
416.4810076385837
 20
816.1831651181199
 30
0.0
 11
467.9385886385839
 21
816.1831651181199
 31
0.0
  0
LINE
  5
928
330
2
100
AcDbEntity
  8
0
100
AcDbLine
 10
465.4385886385839
 20
791.1831651181199
 30
0.0
 11
520.4385886385839
 21
791.1831651181199
 31
0.0
  0
LINE
  5
929
330
2
100
AcDbEntity
  8
0
100
AcDbLine
 10
517.9385886385839
 20
791.1831651181199
 30
0.0
 11
517.9385886385839
 21
796.18316511812
 31
0.0
  0
LINE
  5
92A
330
2
100
AcDbEntity
  8
0
100
AcDbLine
 10
516.9385886385839
 20
796.18316511812
 30
0.0
 11
521.4385886385839
 21
796.18316511812
 31
0.0
  0
LINE
  5
92B
330
2
100
AcDbEntity
  8
0
100
AcDbLine
 10
520.4385886385839
 20
788.1831651181201
 30
0.0
 11
520.4385886385839
 21
791.1831651181199
 31
0.0
  0
LINE
  5
92C
330
2
100
AcDbEntity
  8
0
100
AcDbLine
 10
465.4385886385839
 20
788.1831651181201
 30
0.0
 11
465.4385886385839
 21
791.1831651181199
 31
0.0
  0
ARC
  5
92D
330
2
100
AcDbEntity
  8
0
100
AcDbCircle
 10
393.9866836385837
 20
761.1831651181198
 30
0.0
 40
5.0
100
AcDbArc
 50
90.0
 51
178.9999999999998
  0
ARC
  5
92E
330
2
100
AcDbEntity
  8
0
100
AcDbCircle
 10
396.3561296385837
 20
781.1831651181198
 30
0.0
 40
15.0
100
AcDbArc
 50
270.0
 51
334.3207090000002
  0
ARC
  5
92F
330
2
100
AcDbEntity
  8
0
100
AcDbCircle
 10
423.3931776385837
 20
768.1831651181198
 30
0.0
 40
15.0
100
AcDbArc
 50
90.0
 51
154.3207089999994
  0
ARC
  5
930
330
2
100
AcDbEntity
  8
0
100
AcDbCircle
 10
417.9385886385839
 20
791.1831651181196
 30
0.0
 40
9.0
100
AcDbArc
 50
296.2366489999994
 51
270.4464110000001
  0
ARC
  5
932
330
2
100
AcDbEntity
  8
0
100
AcDbCircle
 10
443.3693136385837
 20
773.1831651181198
 30
0.0
 40
15.0
100
AcDbArc
 50
90.0
 51
129.8055730000004
  0
LINE
  5
933
330
2
100
AcDbEntity
  8
0
100
AcDbLine
 10
433.7665906385837
 20
784.70648011812
 30
0.0
 11
431.9385886385839
 21
783.18316511812
 31
0.0
  0
LINE
  5
934
330
2
100
AcDbEntity
  8
0
100
AcDbLine
 10
423.3931776385837
 20
783.18316511812
 30
0.0
 11
431.9385886385839
 21
783.18316511812
 31
0.0
  0
LINE
  5
935
330
2
100
AcDbEntity
  8
0
100
AcDbLine
 10
388.0825696385837
 20
766.5828841181201
 30
0.0
 11
402.3677876385838
 21
806.2639451181198
 31
0.0
  0
ARC
  5
937
330
2
100
AcDbEntity
  8
0
100
AcDbCircle
 10
416.4810076385837
 20
801.1831651181198
 30
0.0
 40
15.0
100
AcDbArc
 50
90.0
 51
160.2010989999996
  0
LINE
  5
938
330
2
100
AcDbEntity
  8
0
100
AcDbLine
 10
388.9874166385839
 20
761.2704451181198
 30
0.0
 11
388.1917006385837
 21
715.6831651181199
 31
0.0
  0
LINE
  5
939
330
2
100
AcDbEntity
  8
0
100
AcDbLine
 10
314.0723776385838
 20
763.6361681181199
 30
0.0
 11
352.9962056385837
 21
763.6361681181199
 31
0.0
  0
LINE
  5
93A
330
2
100
AcDbEntity
  8
0
100
AcDbLine
 10
314.0723776385838
 20
755.0891711181198
 30
0.0
 11
352.9962056385837
 21
755.0891711181198
 31
0.0
  0
LINE
  5
93B
330
2
100
AcDbEntity
  8
0
100
AcDbLine
 10
291.9402366385838
 20
772.1830431181197
 30
0.0
 11
350.4387106385837
 21
773.71453711812
 31
0.0
  0
ARC
  5
93C
330
2
100
AcDbEntity
  8
0
100
AcDbCircle
 10
352.4387106385838
 20
781.4556261181196
 30
0.0
 40
2.0
100
AcDbArc
 50
91.30022400000044
 51
180.0
  0
LINE
  5
93D
330
2
100
AcDbEntity
  8
0
100
AcDbLine
 10
372.6938376385837
 20
783.68316511812
 30
0.0
 11
362.4387106385837
 21
783.68316511812
 31
0.0
  0
ARC
  5
93E
330
2
100
AcDbEntity
  8
0
100
AcDbCircle
 10
372.6938376385837
 20
778.6831651181196
 30
0.0
 40
5.0
100
AcDbArc
 50
2.999999999999909
 51
90.0
  0
ARC
  5
93F
330
2
100
AcDbEntity
  8
0
100
AcDbCircle
 10
380.2303366385839
 20
778.1831651181196
 30
0.0
 40
2.5
100
AcDbArc
 50
182.9999999999999
 51
270.0
  0
ARC
  5
940
330
2
100
AcDbEntity
  8
0
100
AcDbCircle
 10
383.1006366385837
 20
771.1831651181198
 30
0.0
 40
5.0
100
AcDbArc
 50
182.9999999999999
 51
270.0
  0
LINE
  5
941
330
2
100
AcDbEntity
  8
0
100
AcDbLine
 10
378.1074726385838
 20
770.9213241181201
 30
0.0
 11
377.6870016385837
 21
778.9447611181198
 31
0.0
  0
LINE
  5
942
330
2
100
AcDbEntity
  8
0
100
AcDbLine
 10
381.9387106385837
 20
775.6831651181201
 30
0.0
 11
380.2303366385839
 21
775.6831651181201
 31
0.0
  0
LINE
  5
943
330
2
100
AcDbEntity
  8
0
100
AcDbLine
 10
386.9385886385839
 20
768.6831651181201
 30
0.0
 11
386.9385886385839
 21
770.68316511812
 31
0.0
  0
LINE
  5
944
330
2
100
AcDbEntity
  8
0
100
AcDbLine
 10
362.4402366385838
 20
783.68316511812
 30
0.0
 11
352.3932996385839
 21
783.4551071181199
 31
0.0
  0
LINE
  5
945
330
2
100
AcDbEntity
  8
0
100
AcDbLine
 10
350.4387106385837
 20
781.4556261181196
 30
0.0
 11
350.4387106385837
 21
773.71453711812
 31
0.0
  0
LINE
  5
946
330
2
100
AcDbEntity
  8
0
100
AcDbLine
 10
354.4387106385837
 20
762.1010721181196
 30
0.0
 11
354.4387106385837
 21
756.7690411181197
 31
0.0
  0
LINE
  5
947
330
2
100
AcDbEntity
  8
0
100
AcDbLine
 10
376.9388326385838
 20
708.3731671181198
 30
0.0
 11
380.7388196385837
 21
708.3731671181198
 31
0.0
  0
LINE
  5
948
330
2
100
AcDbEntity
  8
0
100
AcDbLine
 10
380.7388196385837
 20
708.8831771181198
 30
0.0
 11
382.7388196385837
 21
708.8831771181198
 31
0.0
  0
LINE
  5
949
330
2
100
AcDbEntity
  8
HIDS
100
AcDbLine
 10
382.7388196385837
 20
711.18316511812
 30
0.0
 11
385.9387716385836
 21
711.18316511812
 31
0.0
  0
LINE
  5
94A
330
2
100
AcDbEntity
  8
0
100
AcDbLine
 10
382.7388196385837
 20
717.18316511812
 30
0.0
 11
385.9387716385836
 21
717.18316511812
 31
0.0
  0
ARC
  5
94B
330
2
100
AcDbEntity
  8
0
100
AcDbCircle
 10
376.9388326385838
 20
706.8731671181197
 30
0.0
 40
1.5
100
AcDbArc
 50
90.0
 51
180.0
  0
ARC
  5
94E
330
2
100
AcDbEntity
  8
0
100
AcDbCircle
 10
299.9385276385838
 20
769.3915391181197
 30
0.0
 40
3.0
100
AcDbArc
 50
0.0
 51
91.50048799999993
  0
LINE
  5
95F
330
2
100
AcDbEntity
  8
0
100
AcDbLine
 10
385.9387716385836
 20
686.6831651181199
 30
0.0
 11
396.3274436385838
 21
686.6831651181199
 31
0.0
  0
ARC
  5
960
330
2
100
AcDbEntity
  8
0
100
AcDbCircle
 10
398.9001356385839
 20
646.1831651181198
 30
0.0
 40
10.0
100
AcDbArc
 50
181.0000000000001
 51
270.0
  0
ARC
  5
961
330
2
100
AcDbEntity
  8
0
100
AcDbCircle
 10
381.9387106385837
 20
631.6831651181198
 30
0.0
 40
5.0
100
AcDbArc
 50
270.0
 51
0.0
  0
ARC
  5
962
330
2
100
AcDbEntity
  8
0
100
AcDbCircle
 10
389.4385886385839
 20
633.6831651181198
 30
0.0
 40
2.5
100
AcDbArc
 50
90.0
 51
180.0
  0
LINE
  5
963
330
2
100
AcDbEntity
  8
0
100
AcDbLine
 10
383.1006366385837
 20
636.18316511812
 30
0.0
 11
387.9385886385839
 21
636.18316511812
 31
0.0
  0
ARC
  5
964
330
2
100
AcDbEntity
  8
0
100
AcDbCircle
 10
416.4810076385837
 20
601.1831651181198
 30
0.0
 40
15.0
100
AcDbArc
 50
199.7989009999995
 51
270.0
  0
LINE
  5
965
330
2
100
AcDbEntity
  8
0
100
AcDbLine
 10
416.4810076385837
 20
586.18316511812
 30
0.0
 11
492.9385886385839
 21
586.18316511812
 31
0.0
  0
LINE
  5
966
330
2
100
AcDbEntity
  8
0
100
AcDbLine
 10
388.9016616385837
 20
646.0086041181199
 30
0.0
 11
388.1917006385837
 21
686.6831651181199
 31
0.0
  0
ARC
  5
967
330
2
100
AcDbEntity
  8
0
100
AcDbCircle
 10
423.3931776385837
 20
634.1831651181198
 30
0.0
 40
15.0
100
AcDbArc
 50
205.6792890000002
 51
270.0
  0
ARC
  5
968
330
2
100
AcDbEntity
  8
0
100
AcDbCircle
 10
417.9385886385839
 20
611.1831651181198
 30
0.0
 40
9.0
100
AcDbArc
 50
89.55358899999977
 51
63.76335099999952
  0
LINE
  5
969
330
2
100
AcDbEntity
  8
CENTER
100
AcDbLine
 10
403.1870016385837
 20
611.18316511812
 30
0.0
 11
432.6901756385841
 21
611.18316511812
 31
0.0
  0
ARC
  5
96A
330
2
100
AcDbEntity
  8
0
100
AcDbCircle
 10
443.3693136385837
 20
629.1831651181198
 30
0.0
 40
15.0
100
AcDbArc
 50
230.1944269999995
 51
270.0
  0
LINE
  5
96B
330
2
100
AcDbEntity
  8
0
100
AcDbLine
 10
433.7665906385837
 20
617.6598491181198
 30
0.0
 11
431.9385886385839
 21
619.18316511812
 31
0.0
  0
LINE
  5
96C
330
2
100
AcDbEntity
  8
0
100
AcDbLine
 10
423.3931776385837
 20
619.18316511812
 30
0.0
 11
431.9385886385839
 21
619.18316511812
 31
0.0
  0
LINE
  5
96D
330
2
100
AcDbEntity
  8
0
100
AcDbLine
 10
388.0864156385837
 20
635.7727641181197
 30
0.0
 11
402.3677876385838
 21
596.1023541181199
 31
0.0
  0
LINE
  5
96E
330
2
100
AcDbEntity
  8
CENTER
100
AcDbLine
 10
417.9385886385839
 20
596.4315781181197
 30
0.0
 11
417.9385886385839
 21
625.9347521181202
 31
0.0
  0
ARC
  5
96F
330
2
100
AcDbEntity
  8
0
100
AcDbCircle
 10
396.3561296385837
 20
621.1831651181198
 30
0.0
 40
15.0
100
AcDbArc
 50
25.67929099999982
 51
90.0
  0
LINE
  5
970
330
2
100
AcDbEntity
  8
0
100
AcDbLine
 10
314.0723776385838
 20
638.73016211812
 30
0.0
 11
352.9962056385837
 21
638.73016211812
 31
0.0
  0
LINE
  5
971
330
2
100
AcDbEntity
  8
0
100
AcDbLine
 10
314.0723776385838
 20
647.2771591181198
 30
0.0
 11
352.9962056385837
 21
647.2771591181198
 31
0.0
  0
LINE
  5
972
330
2
100
AcDbEntity
  8
0
100
AcDbLine
 10
291.9402366385838
 20
630.1831651181199
 30
0.0
 11
350.4387106385837
 21
628.6517931181198
 31
0.0
  0
LINE
  5
973
330
2
100
AcDbEntity
  8
0
100
AcDbLine
 10
354.4387106385837
 20
640.2652571181199
 30
0.0
 11
354.4387106385837
 21
645.5972881181197
 31
0.0
  0
LINE
  5
974
330
2
100
AcDbEntity
  8
0
100
AcDbLine
 10
376.9388326385838
 20
704.6203591181199
 30
0.0
 11
380.7388196385837
 21
704.6203591181199
 31
0.0
  0
LINE
  5
975
330
2
100
AcDbEntity
  8
0
100
AcDbLine
 10
376.9388326385838
 20
697.7459091181199
 30
0.0
 11
380.7388196385837
 21
697.7459091181199
 31
0.0
  0
LINE
  5
976
330
2
100
AcDbEntity
  8
0
100
AcDbLine
 10
376.9388326385838
 20
693.9931621181198
 30
0.0
 11
380.7388196385837
 21
693.9931621181198
 31
0.0
  0
LINE
  5
977
330
2
100
AcDbEntity
  8
0
100
AcDbLine
 10
380.7388196385837
 20
693.4831521181195
 30
0.0
 11
382.7388196385837
 21
693.4831521181195
 31
0.0
  0
LINE
  5
978
330
2
100
AcDbEntity
  8
HIDS
100
AcDbLine
 10
382.7388196385837
 20
691.1831651181199
 30
0.0
 11
385.9387716385836
 21
691.1831651181199
 31
0.0
  0
ARC
  5
979
330
2
100
AcDbEntity
  8
0
100
AcDbCircle
 10
376.9388326385838
 20
695.4931621181197
 30
0.0
 40
1.5
100
AcDbArc
 50
180.0
 51
270.0
  0
ARC
  5
97A
330
2
100
AcDbEntity
  8
0
100
AcDbCircle
 10
376.9388326385838
 20
696.2459091181196
 30
0.0
 40
1.5
100
AcDbArc
 50
90.0
 51
180.0
  0
ARC
  5
97B
330
2
100
AcDbEntity
  8
0
100
AcDbCircle
 10
376.9388326385838
 20
703.1203591181196
 30
0.0
 40
1.5
100
AcDbArc
 50
90.0
 51
180.0
  0
ARC
  5
97C
330
2
100
AcDbEntity
  8
0
100
AcDbCircle
 10
376.9388326385838
 20
699.2459091181197
 30
0.0
 40
1.5
100
AcDbArc
 50
180.0
 51
270.0
  0
LINE
  5
97D
330
2
100
AcDbEntity
  8
0
100
AcDbLine
 10
382.7388196385837
 20
685.18316511812
 30
0.0
 11
385.9387716385836
 21
685.18316511812
 31
0.0
  0
ARC
  5
97E
330
2
100
AcDbEntity
  8
0
100
AcDbCircle
 10
352.4387106385838
 20
620.9107041181198
 30
0.0
 40
2.0
100
AcDbArc
 50
180.0
 51
268.6997759999996
  0
LINE
  5
97F
330
2
100
AcDbEntity
  8
0
100
AcDbLine
 10
372.6938376385837
 20
618.68316511812
 30
0.0
 11
362.4387106385837
 21
618.68316511812
 31
0.0
  0
LINE
  5
980
330
2
100
AcDbEntity
  8
0
100
AcDbLine
 10
378.1074726385838
 20
631.44494411812
 30
0.0
 11
377.6870016385837
 21
623.42156811812
 31
0.0
  0
ARC
  5
981
330
2
100
AcDbEntity
  8
0
100
AcDbCircle
 10
383.1006366385837
 20
631.1831651181198
 30
0.0
 40
5.0
100
AcDbArc
 50
90.0
 51
177.0
  0
LINE
  5
982
330
2
100
AcDbEntity
  8
0
100
AcDbLine
 10
386.9385886385839
 20
633.6831651181199
 30
0.0
 11
386.9385886385839
 21
631.68316511812
 31
0.0
  0
ARC
  5
983
330
2
100
AcDbEntity
  8
0
100
AcDbCircle
 10
380.2303366385839
 20
624.1831651181197
 30
0.0
 40
2.5
100
AcDbArc
 50
90.0
 51
177.0
  0
ARC
  5
984
330
2
100
AcDbEntity
  8
0
100
AcDbCircle
 10
372.6938376385837
 20
623.6831651181198
 30
0.0
 40
5.0
100
AcDbArc
 50
270.0
 51
357.0
  0
LINE
  5
985
330
2
100
AcDbEntity
  8
0
100
AcDbLine
 10
381.9387106385837
 20
626.6831651181199
 30
0.0
 11
380.2303366385839
 21
626.6831651181199
 31
0.0
  0
LINE
  5
986
330
2
100
AcDbEntity
  8
0
100
AcDbLine
 10
352.3932996385839
 20
618.91119211812
 30
0.0
 11
362.4402366385838
 21
618.68316511812
 31
0.0
  0
LINE
  5
987
330
2
100
AcDbEntity
  8
0
100
AcDbLine
 10
350.4387106385837
 20
620.9107041181199
 30
0.0
 11
350.4387106385837
 21
628.6517931181198
 31
0.0
  0
ARC
  5
98F
330
2
100
AcDbEntity
  8
0
100
AcDbCircle
 10
299.9385276385838
 20
632.9746691181199
 30
0.0
 40
3.0
100
AcDbArc
 50
268.5000610000002
 51
0.0
  0
LINE
  5
9E2
330
2
100
AcDbEntity
  8
CENTER
100
AcDbLine
 10
553.1870016385837
 20
611.18316511812
 30
0.0
 11
582.6901756385841
 21
611.18316511812
 31
0.0
  0
LINE
  5
9E3
330
2
100
AcDbEntity
  8
CENTER
100
AcDbLine
 10
567.9385886385839
 20
596.4315781181197
 30
0.0
 11
567.9385886385839
 21
625.9347521181202
 31
0.0
  0
LINE
  5
9E4
330
2
100
AcDbEntity
  8
CENTER
100
AcDbLine
 10
553.1870016385837
 20
791.1831651181199
 30
0.0
 11
582.6901756385841
 21
791.1831651181199
 31
0.0
  0
LINE
  5
9E5
330
2
100
AcDbEntity
  8
CENTER
100
AcDbLine
 10
567.9385886385839
 20
776.4315781181196
 30
0.0
 11
567.9385886385839
 21
805.93475211812
 31
0.0
  0
LINE
  5
9E6
330
2
100
AcDbEntity
  8
CENTER
100
AcDbLine
 10
403.1870016385837
 20
791.1831651181199
 30
0.0
 11
432.6901756385841
 21
791.1831651181199
 31
0.0
  0
LINE
  5
9E7
330
2
100
AcDbEntity
  8
CENTER
100
AcDbLine
 10
417.9385886385839
 20
776.4315781181196
 30
0.0
 11
417.9385886385839
 21
805.93475211812
 31
0.0
  0
LINE
  5
B9B
330
2
100
AcDbEntity
  8
0
100
AcDbLine
 10
387.9385886385837
 20
143.9506521181199
 30
0.0
 11
597.938588638584
 21
143.95065211812
 31
0.0
  0
LINE
  5
B9C
330
2
100
AcDbEntity
  8
0
100
AcDbLine
 10
462.3441976385837
 20
426.95063711812
 30
0.0
 11
523.533009638584
 21
426.95063711812
 31
0.0
  0
LINE
  5
B9D
330
2
100
AcDbEntity
  8
0
100
AcDbLine
 10
483.9385886385839
 20
234.9506521181199
 30
0.0
 11
501.4385886385839
 21
234.9506521181199
 31
0.0
  0
ARC
  5
B9E
330
2
100
AcDbEntity
  8
HIDS
100
AcDbCircle
 10
492.9385886385839
 20
318.9506521181199
 30
0.0
 40
25.0
100
AcDbArc
 50
16.26018900000088
 51
343.7398069999984
  0
LINE
  5
B9F
330
2
100
AcDbEntity
  8
0
100
AcDbLine
 10
488.3135886385838
 20
209.9506521181199
 30
0.0
 11
497.0635886385839
 21
209.9506521181199
 31
0.0
  0
LINE
  5
BA0
330
2
100
AcDbEntity
  8
0
100
AcDbLine
 10
458.9385886385839
 20
181.3106531181199
 30
0.0
 11
526.938588638584
 21
181.3106531181199
 31
0.0
  0
LINE
  5
BA1
330
2
100
AcDbEntity
  8
0
100
AcDbLine
 10
458.9385886385839
 20
185.9506521181199
 30
0.0
 11
526.938588638584
 21
185.9506521181199
 31
0.0
  0
LINE
  5
BA2
330
2
100
AcDbEntity
  8
CENTER
100
AcDbLine
 10
405.7073416385839
 20
318.9506521181199
 30
0.0
 11
580.1698356385839
 21
318.9506521181199
 31
0.0
  0
LINE
  5
BA3
330
2
100
AcDbEntity
  8
0
100
AcDbLine
 10
387.9385886385837
 20
118.95065211812
 30
0.0
 11
597.938588638584
 21
118.95065211812
 31
0.0
  0
CIRCLE
  5
BA4
330
2
100
AcDbEntity
  8
0
100
AcDbCircle
 10
492.9385886385839
 20
318.9506521181199
 30
0.0
 40
55.0
  0
ARC
  5
BA5
330
2
100
AcDbEntity
  8
0
100
AcDbCircle
 10
492.9385886385839
 20
318.9506521181199
 30
0.0
 40
61.0
100
AcDbArc
 50
15.76219000000181
 51
164.2379000000027
  0
ARC
  5
BA6
330
2
100
AcDbEntity
  8
0
100
AcDbCircle
 10
492.9385886385839
 20
318.9506521181199
 30
0.0
 40
56.360001
100
AcDbArc
 50
164.2379000000027
 51
15.76219000000181
  0
LINE
  5
BA7
330
2
100
AcDbEntity
  8
0
100
AcDbLine
 10
450.7097976385838
 20
151.95065211812
 30
0.0
 11
535.1674086385838
 21
151.95065211812
 31
0.0
  0
LINE
  5
BA8
330
2
100
AcDbEntity
  8
0
100
AcDbLine
 10
394.8272296385839
 20
386.3790431181198
 30
0.0
 11
454.2327776385839
 21
424.5682821181198
 31
0.0
  0
LINE
  5
BA9
330
2
100
AcDbEntity
  8
0
100
AcDbLine
 10
385.9367576385837
 20
423.9506371181198
 30
0.0
 11
385.9391986385838
 21
363.9506521181199
 31
0.0
  0
LINE
  5
BAA
330
2
100
AcDbEntity
  8
0
100
AcDbLine
 10
382.7391866385838
 20
423.9506371181198
 30
0.0
 11
382.7391866385838
 21
363.9506521181199
 31
0.0
  0
LINE
  5
BAB
330
2
100
AcDbEntity
  8
CENTER
100
AcDbLine
 10
69.1991334197694
 20
304.9506521181199
 30
0.0
 11
412.9953206385837
 21
304.9506521181199
 31
0.0
  0
LINE
  5
C10
330
2
100
AcDbEntity
  8
CENTER
100
AcDbLine
 10
417.9385886385839
 20
155.60065211812
 30
0.0
 11
417.9385886385839
 21
107.3006521181199
 31
0.0
  0
LINE
  5
C11
330
2
100
AcDbEntity
  8
0
100
AcDbLine
 10
387.9385886385837
 20
200.64464511812
 30
0.0
 11
387.9385886385837
 21
118.95065211812
 31
0.0
  0
LINE
  5
C12
330
2
100
AcDbEntity
  8
HIDS
100
AcDbLine
 10
408.9385886385839
 20
143.95065211812
 30
0.0
 11
408.9385886385839
 21
118.95065211812
 31
0.0
  0
LINE
  5
C13
330
2
100
AcDbEntity
  8
0
100
AcDbLine
 10
405.9385886385839
 20
118.95065211812
 30
0.0
 11
405.9385886385839
 21
141.01315211812
 31
0.0
  0
LINE
  5
C14
330
2
100
AcDbEntity
  8
HIDS
100
AcDbLine
 10
426.9385886385839
 20
143.95065211812
 30
0.0
 11
426.9385886385839
 21
118.95065211812
 31
0.0
  0
ARC
  5
C15
330
2
100
AcDbEntity
  8
0
100
AcDbCircle
 10
439.0587966385838
 20
150.95065211812
 30
0.0
 40
7.0
100
AcDbArc
 50
270.0
 51
327.9946899999969
  0
LINE
  5
C16
330
2
100
AcDbEntity
  8
0
100
AcDbLine
 10
447.9385886385839
 20
149.9850301181199
 30
0.0
 11
447.9385886385839
 21
146.95065211812
 31
0.0
  0
LINE
  5
C17
330
2
100
AcDbEntity
  8
0
100
AcDbLine
 10
446.4697776385837
 20
149.60065411812
 30
0.0
 11
444.9948016385838
 21
147.24069111812
 31
0.0
  0
ARC
  5
C18
330
2
100
AcDbEntity
  8
0
100
AcDbCircle
 10
450.7097976385838
 20
146.95065211812
 30
0.0
 40
5.0
100
AcDbArc
 50
90.0
 51
147.9947970000026
  0
ARC
  5
C19
330
2
100
AcDbEntity
  8
0
100
AcDbCircle
 10
444.9385886385838
 20
146.95065211812
 30
0.0
 40
3.0
100
AcDbArc
 50
270.0
 51
0.0
  0
LINE
  5
C1A
330
2
100
AcDbEntity
  8
0
100
AcDbLine
 10
314.0725296385838
 20
307.8566581181198
 30
0.0
 11
352.9963576385838
 21
307.8566581181198
 31
0.0
  0
LINE
  5
C1B
330
2
100
AcDbEntity
  8
0
100
AcDbLine
 10
352.9963576385838
 20
316.4046471181198
 30
0.0
 11
314.0725296385838
 21
316.4046471181198
 31
0.0
  0
LINE
  5
C1C
330
2
100
AcDbEntity
  8
0
100
AcDbLine
 10
312.6766866385837
 20
337.75410411812
 30
0.0
 11
362.4385886385838
 21
336.4506521181199
 31
0.0
  0
LINE
  5
C1D
330
2
100
AcDbEntity
  8
CENTER
100
AcDbLine
 10
320.1885886385839
 20
253.9506521181199
 30
0.0
 11
407.5991416385838
 21
253.9506521181199
 31
0.0
  0
LINE
  5
C1E
330
2
100
AcDbEntity
  8
0
100
AcDbLine
 10
340.7004286385838
 20
198.5378711181199
 30
0.0
 11
329.0779926385838
 21
198.8422541181199
 31
0.0
  0
LINE
  5
C1F
330
2
100
AcDbEntity
  8
0
100
AcDbLine
 10
291.9385886385839
 20
376.9506371181199
 30
0.0
 11
291.9385886385839
 21
232.9506521181199
 31
0.0
  0
LINE
  5
C38
330
2
100
AcDbEntity
  8
0
100
AcDbLine
 10
297.4030966385838
 20
226.4863121181199
 30
0.0
 11
322.0101366385838
 21
201.8798511181199
 31
0.0
  0
LINE
  5
C39
330
2
100
AcDbEntity
  8
0
100
AcDbLine
 10
324.9384656385838
 20
246.7006521181199
 30
0.0
 11
324.9384656385838
 21
204.2006521181199
 31
0.0
  0
ARC
  5
C3A
330
2
100
AcDbEntity
  8
0
100
AcDbCircle
 10
329.0808156385839
 20
208.9507741181199
 30
0.0
 40
10.0
100
AcDbArc
 50
225.0005949999977
 51
270.0
  0
ARC
  5
C48
330
2
100
AcDbEntity
  8
0
100
AcDbCircle
 10
300.9385726385839
 20
230.0219341181198
 30
0.0
 40
5.0
100
AcDbArc
 50
180.0
 51
225.0010070000008
  0
LINE
  5
C49
330
2
100
AcDbEntity
  8
0
100
AcDbLine
 10
295.9385886385839
 20
235.4506521181199
 30
0.0
 11
295.9385886385839
 21
230.0219341181198
 31
0.0
  0
LINE
  5
C4A
330
2
100
AcDbEntity
  8
0
100
AcDbLine
 10
292.9385886385839
 20
233.9506521181199
 30
0.0
 11
291.9385886385839
 21
233.9506521181199
 31
0.0
  0
ARC
  5
C4B
330
2
100
AcDbEntity
  8
0
100
AcDbCircle
 10
292.9386036385837
 20
230.9506521181199
 30
0.0
 40
3.0
100
AcDbArc
 50
0.0
 51
90.0
  0
LINE
  5
C75
330
2
100
AcDbEntity
  8
0
100
AcDbLine
 10
302.9385886385839
 20
372.9506371181198
 30
0.0
 11
302.9385886385839
 21
297.5756521181199
 31
0.0
  0
ARC
  5
C7D
330
2
100
AcDbEntity
  8
0
100
AcDbCircle
 10
312.9385276385838
 20
347.75073111812
 30
0.0
 40
10.0
100
AcDbArc
 50
180.0
 51
268.4997859999987
  0
ARC
  5
C87
330
2
100
AcDbEntity
  8
0
100
AcDbCircle
 10
299.9386036385839
 20
372.9506371181198
 30
0.0
 40
3.0
100
AcDbArc
 50
0.0
 51
90.0
  0
LINE
  5
C88
330
2
100
AcDbEntity
  8
0
100
AcDbLine
 10
299.9385886385839
 20
375.9506371181198
 30
0.0
 11
291.9385886385839
 21
375.9506371181198
 31
0.0
  0
LINE
  5
C89
330
2
100
AcDbEntity
  8
0
100
AcDbLine
 10
409.2403766385839
 20
246.9783321181199
 30
0.0
 11
434.2323806385839
 21
335.52085811812
 31
0.0
  0
LINE
  5
C8A
330
2
100
AcDbEntity
  8
0
100
AcDbLine
 10
413.7058916385838
 20
245.71791011812
 30
0.0
 11
438.6978046385839
 21
334.26046711812
 31
0.0
  0
LINE
  5
C8B
330
2
100
AcDbEntity
  8
0
100
AcDbLine
 10
378.9385886385839
 20
205.64464511812
 30
0.0
 11
378.9385886385839
 21
302.2566521181199
 31
0.0
  0
LINE
  5
C8C
330
2
100
AcDbEntity
  8
0
100
AcDbLine
 10
350.4384656385839
 20
173.7131721181199
 30
0.0
 11
350.4384656385839
 21
288.2006521181199
 31
0.0
  0
LINE
  5
C8D
330
2
100
AcDbEntity
  8
0
100
AcDbLine
 10
362.4385886385838
 20
171.4507701181199
 30
0.0
 11
362.4385886385838
 21
336.4507741181198
 31
0.0
  0
ARC
  5
C8E
330
2
100
AcDbEntity
  8
0
100
AcDbCircle
 10
458.9385886385839
 20
232.9506521181199
 30
0.0
 40
47.0
100
AcDbArc
 50
164.2379000000027
 51
270.0
  0
ARC
  5
C8F
330
2
100
AcDbEntity
  8
0
100
AcDbCircle
 10
458.9385886385839
 20
232.9506521181199
 30
0.0
 40
51.639999
100
AcDbArc
 50
164.2379000000027
 51
270.0
  0
LINE
  5
C90
330
2
100
AcDbEntity
  8
0
100
AcDbLine
 10
372.9386186385837
 20
171.4507701181199
 30
0.0
 11
362.4385886385838
 21
171.4507701181199
 31
0.0
  0
ARC
  5
C91
330
2
100
AcDbEntity
  8
0
100
AcDbCircle
 10
352.4384656385839
 20
173.7131721181199
 30
0.0
 40
2.0
100
AcDbArc
 50
180.0
 51
268.5013120000017
  0
LINE
  5
C92
330
2
100
AcDbEntity
  8
0
100
AcDbLine
 10
352.3862356385839
 20
171.7138931181199
 30
0.0
 11
362.4385886385838
 21
171.4506521181199
 31
0.0
  0
ARC
  5
C93
330
2
100
AcDbEntity
  8
0
100
AcDbCircle
 10
340.4385886385839
 20
188.5412891181199
 30
0.0
 40
10.0
100
AcDbArc
 50
0.0
 51
88.49978599999875
  0
ARC
  5
C94
330
2
100
AcDbEntity
  8
0
100
AcDbCircle
 10
372.9386496385838
 20
156.4507131181199
 30
0.0
 40
15.0
100
AcDbArc
 50
0.0
 51
90.0
  0
ARC
  5
C95
330
2
100
AcDbEntity
  8
0
100
AcDbCircle
 10
381.4385886385838
 20
205.64464511812
 30
0.0
 40
2.5
100
AcDbArc
 50
180.0
 51
270.0
  0
LINE
  5
C96
330
2
100
AcDbEntity
  8
0
100
AcDbLine
 10
381.4385886385838
 20
203.14464511812
 30
0.0
 11
385.4385886385837
 21
203.14464511812
 31
0.0
  0
ARC
  5
C97
330
2
100
AcDbEntity
  8
0
100
AcDbCircle
 10
385.4385886385837
 20
200.64464511812
 30
0.0
 40
2.5
100
AcDbArc
 50
0.0
 51
90.0
  0
LINE
  5
C98
330
2
100
AcDbEntity
  8
0
100
AcDbLine
 10
386.9385886385839
 20
249.4506521181199
 30
0.0
 11
386.9385886385839
 21
258.4506521181199
 31
0.0
  0
LINE
  5
C99
330
2
100
AcDbEntity
  8
0
100
AcDbLine
 10
381.4385886385838
 20
246.9506521181199
 30
0.0
 11
384.4385886385838
 21
246.9506521181199
 31
0.0
  0
ARC
  5
C9A
330
2
100
AcDbEntity
  8
0
100
AcDbCircle
 10
381.4385886385838
 20
244.4506521181199
 30
0.0
 40
2.5
100
AcDbArc
 50
90.0
 51
180.0
  0
ARC
  5
C9B
330
2
100
AcDbEntity
  8
0
100
AcDbCircle
 10
384.4385886385838
 20
249.4506521181199
 30
0.0
 40
2.5
100
AcDbArc
 50
270.0
 51
0.0
  0
LINE
  5
C9C
330
2
100
AcDbEntity
  8
0
100
AcDbLine
 10
381.4385886385838
 20
260.9506521181199
 30
0.0
 11
384.4385886385838
 21
260.9506521181199
 31
0.0
  0
ARC
  5
C9D
330
2
100
AcDbEntity
  8
0
100
AcDbCircle
 10
381.4385886385838
 20
263.4506521181199
 30
0.0
 40
2.5
100
AcDbArc
 50
180.0
 51
270.0
  0
ARC
  5
C9E
330
2
100
AcDbEntity
  8
0
100
AcDbCircle
 10
384.4385886385838
 20
258.4506521181199
 30
0.0
 40
2.5
100
AcDbArc
 50
0.0
 51
90.0
  0
LINE
  5
C9F
330
2
100
AcDbEntity
  8
0
100
AcDbLine
 10
469.8135886385839
 20
222.4506521181199
 30
0.0
 11
469.8135886385839
 21
212.4506521181199
 31
0.0
  0
ARC
  5
CA0
330
2
100
AcDbEntity
  8
0
100
AcDbCircle
 10
466.6885886385839
 20
219.35809211812
 30
0.0
 40
16.25
100
AcDbArc
 50
112.3525009999995
 51
215.3744960000036
  0
ARC
  5
CA1
330
2
100
AcDbEntity
  8
0
100
AcDbCircle
 10
467.9385886385839
 20
218.5743701181198
 30
0.0
 40
8.75
100
AcDbArc
 50
135.5460969999956
 51
220.5290070000021
  0
LINE
  5
CA2
330
2
100
AcDbEntity
  8
0
100
AcDbLine
 10
477.9385886385838
 20
222.4506521181199
 30
0.0
 11
477.9385886385838
 21
209.9506521181199
 31
0.0
  0
LINE
  5
CA3
330
2
100
AcDbEntity
  8
0
100
AcDbLine
 10
488.3135886385838
 20
226.2006521181199
 30
0.0
 11
488.3135886385838
 21
209.9506521181199
 31
0.0
  0
LINE
  5
CA4
330
2
100
AcDbEntity
  8
0
100
AcDbLine
 10
453.4385886385838
 20
209.9506521181199
 30
0.0
 11
477.9385886385838
 21
209.9506521181199
 31
0.0
  0
ARC
  5
CA5
330
2
100
AcDbEntity
  8
0
100
AcDbCircle
 10
462.2379966385837
 20
213.7006521181199
 30
0.0
 40
1.25
100
AcDbArc
 50
220.5301969999982
 51
270.0
  0
LINE
  5
CA6
330
2
100
AcDbEntity
  8
0
100
AcDbLine
 10
462.2379966385837
 20
212.4506521181199
 30
0.0
 11
469.8135886385839
 21
212.4506521181199
 31
0.0
  0
LINE
  5
CA7
330
2
100
AcDbEntity
  8
0
100
AcDbLine
 10
463.3609816385838
 20
234.9506521181199
 30
0.0
 11
477.9385886385838
 21
234.9506521181199
 31
0.0
  0
LINE
  5
CA8
330
2
100
AcDbEntity
  8
0
100
AcDbLine
 10
469.8135886385839
 20
222.4506521181199
 30
0.0
 11
477.9385886385838
 21
222.4506521181199
 31
0.0
  0
LINE
  5
CA9
330
2
100
AcDbEntity
  8
0
100
AcDbLine
 10
465.2617996385837
 20
226.2006521181199
 30
0.0
 11
477.9385886385838
 21
226.2006521181199
 31
0.0
  0
ARC
  5
CAA
330
2
100
AcDbEntity
  8
0
100
AcDbCircle
 10
463.3609816385838
 20
227.4506521181199
 30
0.0
 40
7.5
100
AcDbArc
 50
90.0
 51
112.3526989999968
  0
ARC
  5
CAB
330
2
100
AcDbEntity
  8
0
100
AcDbCircle
 10
465.2617996385837
 20
221.2006521181199
 30
0.0
 40
5.0
100
AcDbArc
 50
90.0
 51
135.5462039999984
  0
LINE
  5
CAC
330
2
100
AcDbEntity
  8
0
100
AcDbLine
 10
477.9385886385838
 20
226.2006521181199
 30
0.0
 11
477.9385886385838
 21
234.9506521181199
 31
0.0
  0
LINE
  5
CAD
330
2
100
AcDbEntity
  8
0
100
AcDbLine
 10
483.9385886385839
 20
226.2006521181199
 30
0.0
 11
488.3135886385838
 21
226.2006521181199
 31
0.0
  0
LINE
  5
CAE
330
2
100
AcDbEntity
  8
0
100
AcDbLine
 10
483.9385886385839
 20
234.9506521181199
 30
0.0
 11
483.9385886385839
 21
226.2006521181199
 31
0.0
  0
LINE
  5
CAF
330
2
100
AcDbEntity
  8
0
100
AcDbLine
 10
387.9385886385837
 20
307.2566521181199
 30
0.0
 11
387.9385886385837
 21
373.76145811812
 31
0.0
  0
LINE
  5
CB0
330
2
100
AcDbEntity
  8
0
100
AcDbLine
 10
362.4385886385838
 20
336.4507741181198
 30
0.0
 11
372.9385276385838
 21
336.4507741181198
 31
0.0
  0
LINE
  5
CB1
330
2
100
AcDbEntity
  8
0
100
AcDbLine
 10
354.4385886385838
 20
314.78668111812
 30
0.0
 11
354.4385886385838
 21
310.3433221181199
 31
0.0
  0
ARC
  5
CB2
330
2
100
AcDbEntity
  8
0
100
AcDbCircle
 10
381.4385886385838
 20
302.2566521181199
 30
0.0
 40
2.5
100
AcDbArc
 50
90.0
 51
180.0
  0
ARC
  5
CB3
330
2
100
AcDbEntity
  8
0
100
AcDbCircle
 10
385.4385886385837
 20
307.2566521181199
 30
0.0
 40
2.5
100
AcDbArc
 50
270.0
 51
0.0
  0
LINE
  5
CB4
330
2
100
AcDbEntity
  8
0
100
AcDbLine
 10
381.4385886385838
 20
304.7566521181199
 30
0.0
 11
385.4385886385837
 21
304.7566521181199
 31
0.0
  0
ARC
  5
CB5
330
2
100
AcDbEntity
  8
0
100
AcDbCircle
 10
372.9385886385838
 20
351.4507741181198
 30
0.0
 40
15.0
100
AcDbArc
 50
270.0
 51
0.0
  0
LINE
  5
CB6
330
2
100
AcDbEntity
  8
0
100
AcDbLine
 10
385.9388016385837
 20
386.9506371181199
 30
0.0
 11
397.5719806385837
 21
388.7558131181199
 31
0.0
  0
ARC
  5
CB7
330
2
100
AcDbEntity
  8
0
100
AcDbCircle
 10
402.9386186385838
 20
373.76145811812
 30
0.0
 40
15.0
100
AcDbArc
 50
122.7356029999991
 51
180.0
  0
LINE
  5
CB8
330
2
100
AcDbEntity
  8
0
100
AcDbLine
 10
385.9388016385837
 20
386.9506371181199
 30
0.0
 11
385.9388016385837
 21
365.9506521181199
 31
0.0
  0
LINE
  5
CB9
330
2
100
AcDbEntity
  8
0
100
AcDbLine
 10
385.9388016385837
 20
386.9506371181199
 30
0.0
 11
385.9388016385837
 21
365.9506521181199
 31
0.0
  0
LINE
  5
CBA
330
2
100
AcDbEntity
  8
0
100
AcDbLine
 10
375.4391986385838
 20
379.6406391181199
 30
0.0
 11
375.4391986385838
 21
368.2606501181199
 31
0.0
  0
ARC
  5
CBB
330
2
100
AcDbEntity
  8
0
100
AcDbCircle
 10
376.9391986385838
 20
372.0134421181199
 30
0.0
 40
1.5
100
AcDbArc
 50
180.0
 51
270.0
  0
LINE
  5
CBC
330
2
100
AcDbEntity
  8
0
100
AcDbLine
 10
380.7391866385838
 20
381.6506491181198
 30
0.0
 11
380.7391866385838
 21
366.2506551181199
 31
0.0
  0
LINE
  5
CBD
330
2
100
AcDbEntity
  8
0
100
AcDbLine
 10
380.7391866385838
 20
366.2506551181199
 30
0.0
 11
382.7391866385838
 21
366.2506551181199
 31
0.0
  0
ARC
  5
CBE
330
2
100
AcDbEntity
  8
0
100
AcDbCircle
 10
376.9391986385838
 20
368.2606501181199
 30
0.0
 40
1.5
100
AcDbArc
 50
180.0
 51
270.0
  0
LINE
  5
CBF
330
2
100
AcDbEntity
  8
0
100
AcDbLine
 10
376.9391986385838
 20
366.76065011812
 30
0.0
 11
380.7391866385838
 21
366.76065011812
 31
0.0
  0
LINE
  5
CC0
330
2
100
AcDbEntity
  8
0
100
AcDbLine
 10
376.9391986385838
 20
370.5134421181199
 30
0.0
 11
380.7391866385838
 21
370.5134421181199
 31
0.0
  0
ARC
  5
CC1
330
2
100
AcDbEntity
  8
0
100
AcDbCircle
 10
376.9391986385838
 20
369.01344211812
 30
0.0
 40
1.5
100
AcDbArc
 50
90.0
 51
180.0
  0
LINE
  5
CC2
330
2
100
AcDbEntity
  8
0
100
AcDbLine
 10
382.7391866385838
 20
363.9506521181199
 30
0.0
 11
385.9391986385838
 21
363.9506521181199
 31
0.0
  0
LINE
  5
CC3
330
2
100
AcDbEntity
  8
0
100
AcDbLine
 10
385.9388016385837
 20
365.9506521181199
 30
0.0
 11
387.9385886385837
 21
364.9506521181199
 31
0.0
  0
LINE
  5
CC4
330
2
100
AcDbEntity
  8
0
100
AcDbLine
 10
380.7391866385838
 20
381.6506491181198
 30
0.0
 11
382.7391866385838
 21
381.6506491181198
 31
0.0
  0
ARC
  5
CC5
330
2
100
AcDbEntity
  8
0
100
AcDbCircle
 10
376.9391986385838
 20
375.8878621181199
 30
0.0
 40
1.5
100
AcDbArc
 50
90.0
 51
180.0
  0
ARC
  5
CC6
330
2
100
AcDbEntity
  8
0
100
AcDbCircle
 10
376.9391986385838
 20
378.8878621181199
 30
0.0
 40
1.5
100
AcDbArc
 50
180.0
 51
270.0
  0
ARC
  5
CC7
330
2
100
AcDbEntity
  8
0
100
AcDbCircle
 10
376.9391986385838
 20
379.6406391181199
 30
0.0
 40
1.5
100
AcDbArc
 50
90.0
 51
180.0
  0
LINE
  5
CC8
330
2
100
AcDbEntity
  8
0
100
AcDbLine
 10
376.9391986385838
 20
381.1406391181199
 30
0.0
 11
380.7391866385838
 21
381.1406391181199
 31
0.0
  0
LINE
  5
CC9
330
2
100
AcDbEntity
  8
0
100
AcDbLine
 10
376.9391986385838
 20
377.38786211812
 30
0.0
 11
380.7391866385838
 21
377.38786211812
 31
0.0
  0
LINE
  5
CCA
330
2
100
AcDbEntity
  8
CENTER
100
AcDbLine
 10
375.3753866385839
 20
407.9506371181199
 30
0.0
 11
393.4730116385839
 21
407.9506371181199
 31
0.0
  0
LINE
  5
CCB
330
2
100
AcDbEntity
  8
HIDS
100
AcDbLine
 10
382.7391866385838
 20
397.9506371181199
 30
0.0
 11
385.9391986385838
 21
397.9506371181199
 31
0.0
  0
LINE
  5
CCC
330
2
100
AcDbEntity
  8
HIDS
100
AcDbLine
 10
382.7391866385838
 20
417.9506371181198
 30
0.0
 11
385.9391986385838
 21
417.9506371181198
 31
0.0
  0
ARC
  5
CCD
330
2
100
AcDbEntity
  8
0
100
AcDbCircle
 10
396.6519666385837
 20
394.6848591181199
 30
0.0
 40
6.0
100
AcDbArc
 50
278.8204040000005
 51
302.7352289999998
  0
LINE
  5
CCE
330
2
100
AcDbEntity
  8
0
100
AcDbLine
 10
382.7391866385838
 20
423.9506371181198
 30
0.0
 11
385.9367576385837
 21
423.9506371181198
 31
0.0
  0
ARC
  5
CCF
330
2
100
AcDbEntity
  8
0
100
AcDbCircle
 10
462.3441976385837
 20
411.9506371181199
 30
0.0
 40
15.0
100
AcDbArc
 50
90.0
 51
122.735497
  0
LINE
  5
CD3
330
2
100
AcDbEntity
  8
CENTER
100
AcDbLine
 10
492.9385886385839
 20
441.5256801181199
 30
0.0
 11
492.9385886385839
 21
100.79447211812
 31
0.0
  0
LINE
  5
CD4
330
2
100
AcDbEntity
  8
0
100
AcDbLine
 10
531.6443986385836
 20
424.5682821181198
 30
0.0
 11
591.0499776385839
 21
386.3790431181198
 31
0.0
  0
LINE
  5
CDD
330
2
100
AcDbEntity
  8
CENTER
100
AcDbLine
 10
567.9385886385839
 20
155.60065211812
 30
0.0
 11
567.9385886385839
 21
107.3006521181199
 31
0.0
  0
LINE
  5
CDE
330
2
100
AcDbEntity
  8
0
100
AcDbLine
 10
597.938588638584
 20
373.7612451181199
 30
0.0
 11
597.938588638584
 21
118.95065211812
 31
0.0
  0
LINE
  5
CDF
330
2
100
AcDbEntity
  8
HIDS
100
AcDbLine
 10
558.9385886385839
 20
143.95065211812
 30
0.0
 11
558.9385886385839
 21
118.95065211812
 31
0.0
  0
ARC
  5
CE0
330
2
100
AcDbEntity
  8
0
100
AcDbCircle
 10
546.818409638584
 20
150.95065211812
 30
0.0
 40
7.0
100
AcDbArc
 50
212.0052029999973
 51
270.0
  0
LINE
  5
CE1
330
2
100
AcDbEntity
  8
0
100
AcDbLine
 10
537.9385886385839
 20
149.9850301181199
 30
0.0
 11
537.9385886385839
 21
146.95065211812
 31
0.0
  0
LINE
  5
CE2
330
2
100
AcDbEntity
  8
0
100
AcDbLine
 10
540.8823746385837
 20
147.2406721181199
 30
0.0
 11
539.4073996385836
 21
149.60065411812
 31
0.0
  0
ARC
  5
CE3
330
2
100
AcDbEntity
  8
0
100
AcDbCircle
 10
535.1674086385838
 20
146.95065211812
 30
0.0
 40
5.0
100
AcDbArc
 50
32.00542100000058
 51
90.0
  0
ARC
  5
CE4
330
2
100
AcDbEntity
  8
0
100
AcDbCircle
 10
540.938588638584
 20
146.95065211812
 30
0.0
 40
3.0
100
AcDbArc
 50
180.0
 51
270.0
  0
LINE
  5
CE5
330
2
100
AcDbEntity
  8
HIDS
100
AcDbLine
 10
576.938588638584
 20
143.95065211812
 30
0.0
 11
576.938588638584
 21
118.95065211812
 31
0.0
  0
LINE
  5
CE6
330
2
100
AcDbEntity
  8
0
100
AcDbLine
 10
579.9385886385839
 20
141.01315211812
 30
0.0
 11
579.9385886385839
 21
118.95065211812
 31
0.0
  0
LINE
  5
CEB
330
2
100
AcDbEntity
  8
0
100
AcDbLine
 10
551.6447956385836
 20
335.5210561181199
 30
0.0
 11
576.6367996385837
 21
246.9784381181199
 31
0.0
  0
LINE
  5
CEC
330
2
100
AcDbEntity
  8
0
100
AcDbLine
 10
547.1793716385836
 20
334.26065011812
 30
0.0
 11
572.1711936385839
 21
245.71798611812
 31
0.0
  0
ARC
  5
CED
330
2
100
AcDbEntity
  8
0
100
AcDbCircle
 10
526.938588638584
 20
232.9506521181199
 30
0.0
 40
47.0
100
AcDbArc
 50
270.0
 51
15.76219000000181
  0
ARC
  5
CEE
330
2
100
AcDbEntity
  8
0
100
AcDbCircle
 10
526.938588638584
 20
232.9506521181199
 30
0.0
 40
51.639999
100
AcDbArc
 50
270.0
 51
15.76219000000181
  0
LINE
  5
CEF
330
2
100
AcDbEntity
  8
0
100
AcDbLine
 10
497.0635886385839
 20
226.2006521181199
 30
0.0
 11
497.0635886385839
 21
209.9506521181199
 31
0.0
  0
LINE
  5
CF0
330
2
100
AcDbEntity
  8
0
100
AcDbLine
 10
515.3135886385839
 20
226.2006521181199
 30
0.0
 11
515.3135886385839
 21
209.9506521181199
 31
0.0
  0
LINE
  5
CF1
330
2
100
AcDbEntity
  8
0
100
AcDbLine
 10
518.4385886385839
 20
222.4506521181199
 30
0.0
 11
525.9385886385839
 21
209.9506521181199
 31
0.0
  0
LINE
  5
CF2
330
2
100
AcDbEntity
  8
0
100
AcDbLine
 10
507.1885886385837
 20
234.9506521181199
 30
0.0
 11
507.1885886385837
 21
209.9506521181199
 31
0.0
  0
ARC
  5
CF3
330
2
100
AcDbEntity
  8
0
100
AcDbCircle
 10
524.1885886385839
 20
224.5858911181199
 30
0.0
 40
11.25
100
AcDbArc
 50
311.8104210000039
 51
59.13299199999959
  0
LINE
  5
CF4
330
2
100
AcDbEntity
  8
0
100
AcDbLine
 10
525.9385886385839
 20
209.9506521181199
 30
0.0
 11
535.438588638584
 21
209.9506521181199
 31
0.0
  0
LINE
  5
CF5
330
2
100
AcDbEntity
  8
0
100
AcDbLine
 10
507.1885886385837
 20
209.9506521181199
 30
0.0
 11
515.3135886385839
 21
209.9506521181199
 31
0.0
  0
LINE
  5
CF6
330
2
100
AcDbEntity
  8
0
100
AcDbLine
 10
535.438588638584
 20
209.9506521181199
 30
0.0
 11
531.6885886385839
 21
216.2006521181199
 31
0.0
  0
LINE
  5
CF7
330
2
100
AcDbEntity
  8
0
100
AcDbLine
 10
527.3951926385836
 20
234.9506521181199
 30
0.0
 11
507.1885886385837
 21
234.9506521181199
 31
0.0
  0
LINE
  5
CF8
330
2
100
AcDbEntity
  8
0
100
AcDbLine
 10
497.0635886385839
 20
226.2006521181199
 30
0.0
 11
501.4385886385839
 21
226.2006521181199
 31
0.0
  0
LINE
  5
CF9
330
2
100
AcDbEntity
  8
0
100
AcDbLine
 10
501.4385886385839
 20
234.9506521181199
 30
0.0
 11
501.4385886385839
 21
226.2006521181199
 31
0.0
  0
LINE
  5
CFA
330
2
100
AcDbEntity
  8
0
100
AcDbLine
 10
515.3135886385839
 20
226.2006521181199
 30
0.0
 11
524.0635886385839
 21
226.2006521181199
 31
0.0
  0
LINE
  5
CFB
330
2
100
AcDbEntity
  8
0
100
AcDbLine
 10
518.4385886385839
 20
222.4506521181199
 30
0.0
 11
524.0635886385839
 21
222.4506521181199
 31
0.0
  0
ARC
  5
CFC
330
2
100
AcDbEntity
  8
0
100
AcDbCircle
 10
524.0635886385839
 20
224.3256521181199
 30
0.0
 40
1.875
100
AcDbArc
 50
270.0
 51
90.0
  0
ARC
  5
CFD
330
2
100
AcDbEntity
  8
0
100
AcDbCircle
 10
527.3951926385836
 20
229.9506521181199
 30
0.0
 40
5.0
100
AcDbArc
 50
59.13309899999911
 51
90.0
  0
LINE
  5
CFE
330
2
100
AcDbEntity
  8
HIDS
100
AcDbLine
 10
521.4385886385839
 20
311.9508501181198
 30
0.0
 11
521.4385886385839
 21
325.9508661181198
 31
0.0
  0
LINE
  5
CFF
330
2
100
AcDbEntity
  8
HIDS
100
AcDbLine
 10
512.4385886385839
 20
311.9506521181199
 30
0.0
 11
512.4385886385839
 21
325.9506521181199
 31
0.0
  0
LINE
  5
D00
330
2
100
AcDbEntity
  8
HIDS
100
AcDbLine
 10
521.4385886385839
 20
311.9508501181198
 30
0.0
 11
512.4385886385839
 21
311.9506521181199
 31
0.0
  0
LINE
  5
D01
330
2
100
AcDbEntity
  8
HIDS
100
AcDbLine
 10
521.4385886385839
 20
325.9508661181198
 30
0.0
 11
512.4385886385839
 21
325.9506521181199
 31
0.0
  0
ARC
  5
D02
330
2
100
AcDbEntity
  8
0
100
AcDbCircle
 10
582.9385886385839
 20
373.7612451181199
 30
0.0
 40
15.0
100
AcDbArc
 50
0.0
 51
57.26491899999907
  0
ARC
  5
D39
330
2
100
AcDbEntity
  8
0
100
AcDbCircle
 10
523.5331926385838
 20
411.9506371181199
 30
0.0
 40
15.0
100
AcDbArc
 50
57.26489999999966
 51
90.0
  0
LINE
  5
EED
330
2
100
AcDbEntity
  8
0
100
AcDbLine
 10
269.5758416385838
 20
780.9394521181201
 30
0.0
 11
157.3013506385839
 21
780.9394521181201
 31
0.0
  0
LINE
  5
EEE
330
2
100
AcDbEntity
  8
0
100
AcDbLine
 10
157.1053666385839
 20
779.9685041181202
 30
0.0
 11
269.7718096385838
 21
779.9685041181202
 31
0.0
  0
LINE
  5
EEF
330
2
100
AcDbEntity
  8
0
100
AcDbLine
 10
269.591343638584
 20
775.6678451181199
 30
0.0
 11
157.285832638584
 21
775.6678451181199
 31
0.0
  0
LINE
  5
EF0
330
2
100
AcDbEntity
  8
0
100
AcDbLine
 10
269.4656576385839
 20
772.1934491181201
 30
0.0
 11
157.411534638584
 21
772.1934491181201
 31
0.0
  0
LINE
  5
EF1
330
2
100
AcDbEntity
  8
0
100
AcDbLine
 10
269.1387836385838
 20
764.15087711812
 30
0.0
 11
157.7384086385839
 21
764.15087711812
 31
0.0
  0
LINE
  5
EF2
330
2
100
AcDbEntity
  8
0
100
AcDbLine
 10
268.8224996385838
 20
758.1059561181201
 30
0.0
 11
158.0546846385839
 21
758.1059561181201
 31
0.0
  0
LINE
  5
EF3
330
2
100
AcDbEntity
  8
0
100
AcDbLine
 10
268.5809376385839
 20
749.1161791181199
 30
0.0
 11
158.2962546385838
 21
749.1161791181199
 31
0.0
  0
LINE
  5
EF4
330
2
100
AcDbEntity
  8
0
100
AcDbLine
 10
269.7420856385838
 20
736.7600391181203
 30
0.0
 11
157.1350986385839
 21
736.7600391181203
 31
0.0
  0
LINE
  5
EF5
330
2
100
AcDbEntity
  8
0
100
AcDbLine
 10
154.938595638584
 20
729.06182711812
 30
0.0
 11
271.9385886385839
 21
729.06182711812
 31
0.0
  0
LINE
  5
EF6
330
2
100
AcDbEntity
  8
0
100
AcDbLine
 10
156.7543616385839
 20
778.2294601181202
 30
0.0
 11
270.1228226385838
 21
778.2294601181202
 31
0.0
  0
LINE
  5
EF7
330
2
100
AcDbEntity
  8
0
100
AcDbLine
 10
269.1387836385838
 20
638.2154531181201
 30
0.0
 11
157.7384086385839
 21
638.2154531181201
 31
0.0
  0
LINE
  5
EF8
330
2
100
AcDbEntity
  8
0
100
AcDbLine
 10
268.8224996385838
 20
644.26037411812
 30
0.0
 11
158.0546846385839
 21
644.26037411812
 31
0.0
  0
LINE
  5
EF9
330
2
100
AcDbEntity
  8
0
100
AcDbLine
 10
268.5809376385839
 20
653.25015111812
 30
0.0
 11
158.2962546385838
 21
653.25015111812
 31
0.0
  0
LINE
  5
EFA
330
2
100
AcDbEntity
  8
0
100
AcDbLine
 10
269.7420856385838
 20
665.60629111812
 30
0.0
 11
157.1350986385839
 21
665.60629111812
 31
0.0
  0
LINE
  5
EFB
330
2
100
AcDbEntity
  8
0
100
AcDbLine
 10
154.938595638584
 20
673.30450311812
 30
0.0
 11
271.9385886385839
 21
673.30450311812
 31
0.0
  0
LINE
  5
EFC
330
2
100
AcDbEntity
  8
0
100
AcDbLine
 10
222.6730706385842
 20
581.0426431181197
 30
0.0
 11
153.1130116385843
 21
581.0426431181197
 31
0.0
  0
LINE
  5
EFD
330
2
100
AcDbEntity
  8
0
100
AcDbLine
 10
157.411534638584
 20
630.1728811181201
 30
0.0
 11
269.4656576385839
 21
630.1728811181201
 31
0.0
  0
LINE
  5
EFE
330
2
100
AcDbEntity
  8
0
100
AcDbLine
 10
155.5611316385841
 20
625.6831651181199
 30
0.0
 11
227.4270986385852
 21
625.6831651181199
 31
0.0
  0
LINE
  5
EFF
330
2
100
AcDbEntity
  8
0
100
AcDbLine
 10
234.2604726385841
 20
618.8823381181199
 30
0.0
 11
150.3034416385853
 21
579.7325671181201
 31
0.0
  0
LINE
  5
F00
330
2
100
AcDbEntity
  8
0
100
AcDbLine
 10
232.749974638584
 20
625.1923201181202
 30
0.0
 11
146.4386956385842
 21
584.9447091181199
 31
0.0
  0
LINE
  5
F01
330
2
100
AcDbEntity
  8
0
100
AcDbLine
 10
238.4385886385839
 20
627.1831651181202
 30
0.0
 11
156.1395006385839
 21
627.1831651181202
 31
0.0
  0
LINE
  5
F02
330
2
100
AcDbEntity
  8
0
100
AcDbLine
 10
156.482999638584
 20
380.9506521181198
 30
0.0
 11
270.394185638584
 21
380.9506521181198
 31
0.0
  0
LINE
  5
F03
330
2
100
AcDbEntity
  8
0
100
AcDbLine
 10
155.9385966385839
 20
376.0054921181198
 30
0.0
 11
270.9385886385839
 21
376.0054921181198
 31
0.0
  0
LINE
  5
F04
330
2
100
AcDbEntity
  8
0
100
AcDbLine
 10
270.9385886385839
 20
372.7506401181198
 30
0.0
 11
155.9385966385839
 21
372.7506401181198
 31
0.0
  0
LINE
  5
F05
330
2
100
AcDbEntity
  8
0
100
AcDbLine
 10
270.9385886385839
 20
374.7506401181198
 30
0.0
 11
155.9385966385839
 21
374.7506401181198
 31
0.0
  0
LINE
  5
F06
330
2
100
AcDbEntity
  8
0
100
AcDbLine
 10
270.9385886385839
 20
366.2506401181199
 30
0.0
 11
155.9385966385839
 21
366.2506401181199
 31
0.0
  0
LINE
  5
F07
330
2
100
AcDbEntity
  8
0
100
AcDbLine
 10
270.9385886385839
 20
368.2506401181199
 30
0.0
 11
155.9385966385839
 21
368.2506401181199
 31
0.0
  0
LINE
  5
F08
330
2
100
AcDbEntity
  8
0
100
AcDbLine
 10
270.9385886385839
 20
359.7506401181199
 30
0.0
 11
155.9385966385839
 21
359.7506401181199
 31
0.0
  0
LINE
  5
F09
330
2
100
AcDbEntity
  8
0
100
AcDbLine
 10
270.9385886385839
 20
361.7506401181198
 30
0.0
 11
155.9385966385839
 21
361.7506401181198
 31
0.0
  0
LINE
  5
F0A
330
2
100
AcDbEntity
  8
0
100
AcDbLine
 10
270.9385886385839
 20
352.9506521181198
 30
0.0
 11
155.9385966385839
 21
352.9506521181198
 31
0.0
  0
LINE
  5
F0B
330
2
100
AcDbEntity
  8
0
100
AcDbLine
 10
270.9385886385839
 20
354.9506521181198
 30
0.0
 11
155.9385966385839
 21
354.9506521181198
 31
0.0
  0
LINE
  5
F0C
330
2
100
AcDbEntity
  8
0
100
AcDbLine
 10
155.2388976385839
 20
343.1506486181199
 30
0.0
 11
226.638891638584
 21
343.1506486181199
 31
0.0
  0
LINE
  5
F0D
330
2
100
AcDbEntity
  8
0
100
AcDbLine
 10
226.638891638584
 20
345.95065161812
 30
0.0
 11
155.2388976385839
 21
345.95065161812
 31
0.0
  0
LINE
  5
F0E
330
2
100
AcDbEntity
  8
0
100
AcDbLine
 10
226.638891638584
 20
263.9506446181201
 30
0.0
 11
155.2388976385839
 21
263.9506446181201
 31
0.0
  0
LINE
  5
F0F
330
2
100
AcDbEntity
  8
0
100
AcDbLine
 10
155.2388976385839
 20
266.7506476181199
 30
0.0
 11
226.638891638584
 21
266.7506476181199
 31
0.0
  0
LINE
  5
F10
330
2
100
AcDbEntity
  8
0
100
AcDbLine
 10
156.482999638584
 20
228.9506541181199
 30
0.0
 11
270.394185638584
 21
228.9506541181199
 31
0.0
  0
LINE
  5
F11
330
2
100
AcDbEntity
  8
0
100
AcDbLine
 10
270.9385886385839
 20
241.6506681181198
 30
0.0
 11
160.938573638584
 21
241.6506681181198
 31
0.0
  0
LINE
  5
F12
330
2
100
AcDbEntity
  8
0
100
AcDbLine
 10
270.9385886385839
 20
235.1506661181198
 30
0.0
 11
160.480512638584
 21
235.1506661181198
 31
0.0
  0
LINE
  5
F13
330
2
100
AcDbEntity
  8
0
100
AcDbLine
 10
270.9385886385839
 20
237.1506661181198
 30
0.0
 11
160.938573638584
 21
237.1506661181198
 31
0.0
  0
LINE
  5
F14
330
2
100
AcDbEntity
  8
0
100
AcDbLine
 10
157.9385736385841
 20
233.8958141181199
 30
0.0
 11
270.9385886385839
 21
233.8958141181199
 31
0.0
  0
LINE
  5
F15
330
2
100
AcDbEntity
  8
0
100
AcDbLine
 10
270.9385886385839
 20
254.9506561181199
 30
0.0
 11
155.9385966385839
 21
254.9506561181199
 31
0.0
  0
LINE
  5
F16
330
2
100
AcDbEntity
  8
0
100
AcDbLine
 10
270.9385886385839
 20
248.1506681181198
 30
0.0
 11
158.551961638584
 21
248.1506681181198
 31
0.0
  0
LINE
  5
F17
330
2
100
AcDbEntity
  8
0
100
AcDbLine
 10
270.9385886385839
 20
250.1506681181198
 30
0.0
 11
155.9385966385839
 21
250.1506681181198
 31
0.0
  0
LINE
  5
F18
330
2
100
AcDbEntity
  8
0
100
AcDbLine
 10
270.9385886385839
 20
243.6506681181198
 30
0.0
 11
160.848058638584
 21
243.6506681181198
 31
0.0
  0
LINE
  5
F19
330
2
100
AcDbEntity
  8
0
100
AcDbLine
 10
270.9385886385839
 20
256.9506561181199
 30
0.0
 11
155.9385966385839
 21
256.9506561181199
 31
0.0
  0
ARC
  5
F1C
330
2
100
AcDbEntity
  8
0
100
AcDbCircle
 10
152.2387296385836
 20
272.9507356181197
 30
0.0
 40
3.0
100
AcDbArc
 50
90.21849099999606
 51
180.601662
  0
LINE
  5
F1D
330
2
100
AcDbEntity
  8
0
100
AcDbLine
 10
146.438894638584
 20
272.7506476181199
 30
0.0
 11
146.438894638584
 21
337.1506566181199
 31
0.0
  0
ARC
  5
F1E
330
2
100
AcDbEntity
  8
0
100
AcDbCircle
 10
505.4380335132459
 20
304.9506521181198
 30
0.0
 40
420.0000000000001
100
AcDbArc
 50
171.480375745857
 51
188.5196242541429
  0
ARC
  5
F1F
330
2
100
AcDbEntity
  8
0
100
AcDbCircle
 10
-283.5619664867542
 20
304.9506521181198
 30
0.0
 40
400.0
100
AcDbArc
 50
349.031598484418
 51
11.33146085831466
  0
LINE
  5
F20
330
2
100
AcDbEntity
  8
0
100
AcDbLine
 10
154.9385736385841
 20
242.4506751181198
 30
0.0
 11
154.9385736385841
 21
233.7361981181198
 31
0.0
  0
LINE
  5
F21
330
2
100
AcDbEntity
  8
0
100
AcDbLine
 10
160.938573638584
 20
242.4506751181198
 30
0.0
 11
160.938573638584
 21
235.3237161181199
 31
0.0
  0
LINE
  5
F22
330
2
100
AcDbEntity
  8
0
100
AcDbLine
 10
151.9385966385839
 20
244.4506751181198
 30
0.0
 11
151.9385966385839
 21
232.9506541181199
 31
0.0
  0
LINE
  5
F23
330
2
100
AcDbEntity
  8
0
100
AcDbLine
 10
150.9380335132459
 20
265.0732412998776
 30
0.0
 11
150.9380335132459
 21
228.4637995373847
 31
0.0
  0
LINE
  5
F24
330
2
100
AcDbEntity
  8
0
100
AcDbLine
 10
157.9385736385841
 20
242.4506751181198
 30
0.0
 11
157.9385736385841
 21
232.4781371181198
 31
0.0
  0
ARC
  5
F25
330
2
100
AcDbEntity
  8
0
100
AcDbCircle
 10
104.9071358286851
 20
244.9506521181198
 30
0.0
 40
15.0
100
AcDbArc
 50
188.5196242541429
 51
270.0
  0
LINE
  5
F26
330
2
100
AcDbEntity
  8
0
100
AcDbLine
 10
149.4249437099983
 20
226.9638566527884
 30
0.0
 11
111.1273214662664
 21
226.9638566527884
 31
0.0
  0
ARC
  5
F27
330
2
100
AcDbEntity
  8
0
100
AcDbCircle
 10
111.1273214662664
 20
228.9638566527884
 30
0.0
 40
2.0
100
AcDbArc
 50
180.7896990045909
 51
270.0
  0
LINE
  5
F28
330
2
100
AcDbEntity
  8
0
100
AcDbLine
 10
104.9071358286851
 20
229.9506521181198
 30
0.0
 11
108.1363329475911
 21
229.9224713417928
 31
0.0
  0
ARC
  5
F29
330
2
100
AcDbEntity
  8
0
100
AcDbCircle
 10
108.1276064120929
 20
228.9225094187287
 30
0.0
 40
1.0
100
AcDbArc
 50
0.789699004591009
 51
89.50000000000843
  0
LINE
  5
F2A
330
2
100
AcDbEntity
  8
0
100
AcDbLine
 10
154.0994856385841
 20
232.9506541181199
 30
0.0
 11
151.9385966385839
 21
232.9506541181199
 31
0.0
  0
LINE
  5
F2B
330
2
100
AcDbEntity
  8
0
100
AcDbLine
 10
150.9385926385839
 20
234.4506621181199
 30
0.0
 11
151.9385926385839
 21
234.4506621181199
 31
0.0
  0
LINE
  5
F2C
330
2
100
AcDbEntity
  8
0
100
AcDbLine
 10
157.9385736385841
 20
234.1903561181199
 30
0.0
 11
160.938573638584
 21
235.3237161181199
 31
0.0
  0
LINE
  5
F2D
330
2
100
AcDbEntity
  8
0
100
AcDbLine
 10
157.2385536385841
 20
232.7717161181199
 30
0.0
 11
157.2385536385841
 21
227.0444181181198
 31
0.0
  0
LINE
  5
F2E
330
2
100
AcDbEntity
  8
0
100
AcDbLine
 10
157.4385736385841
 20
232.6878371181198
 30
0.0
 11
157.4385736385841
 21
227.0444181181198
 31
0.0
  0
ARC
  5
F2F
330
2
100
AcDbEntity
  8
0
100
AcDbCircle
 10
149.4380335132459
 20
228.4637995373847
 30
0.0
 40
1.5
100
AcDbArc
 50
269.4999999999954
 51
0.0
  0
LINE
  5
F30
330
2
100
AcDbEntity
  8
0
100
AcDbLine
 10
155.498182638584
 20
229.7770091181199
 30
0.0
 11
155.0843026385839
 21
232.1243011181199
 31
0.0
  0
ARC
  5
F31
330
2
100
AcDbEntity
  8
0
100
AcDbCircle
 10
156.482999638584
 20
229.9506541181199
 30
0.0
 40
1.0
100
AcDbArc
 50
189.9999999999986
 51
270.0
  0
LINE
  5
F32
330
2
100
AcDbEntity
  8
0
100
AcDbLine
 10
155.4385736385841
 20
233.5265361181199
 30
0.0
 11
155.4385736385841
 21
227.0444181181198
 31
0.0
  0
LINE
  5
F33
330
2
100
AcDbEntity
  8
0
100
AcDbLine
 10
155.6386166385841
 20
233.4426571181198
 30
0.0
 11
155.6386166385841
 21
227.0444181181198
 31
0.0
  0
LINE
  5
F34
330
2
100
AcDbEntity
  8
0
100
AcDbLine
 10
155.838590638584
 20
233.3588171181198
 30
0.0
 11
155.838590638584
 21
227.0444181181198
 31
0.0
  0
LINE
  5
F35
330
2
100
AcDbEntity
  8
0
100
AcDbLine
 10
156.0385726385838
 20
233.2748981181199
 30
0.0
 11
156.0385726385838
 21
227.0444181181198
 31
0.0
  0
LINE
  5
F36
330
2
100
AcDbEntity
  8
0
100
AcDbLine
 10
156.2385536385841
 20
233.1910371181198
 30
0.0
 11
156.2385536385841
 21
227.0444181181198
 31
0.0
  0
LINE
  5
F37
330
2
100
AcDbEntity
  8
0
100
AcDbLine
 10
156.4385736385841
 20
233.1071771181199
 30
0.0
 11
156.4385736385841
 21
227.0444181181198
 31
0.0
  0
LINE
  5
F38
330
2
100
AcDbEntity
  8
0
100
AcDbLine
 10
156.6386166385841
 20
233.0233171181199
 30
0.0
 11
156.6386166385841
 21
227.0444181181198
 31
0.0
  0
LINE
  5
F39
330
2
100
AcDbEntity
  8
0
100
AcDbLine
 10
156.838590638584
 20
232.9394371181198
 30
0.0
 11
156.838590638584
 21
227.0444181181198
 31
0.0
  0
LINE
  5
F3A
330
2
100
AcDbEntity
  8
0
100
AcDbLine
 10
157.0385726385838
 20
232.8555771181198
 30
0.0
 11
157.0385726385838
 21
227.0444181181198
 31
0.0
  0
LINE
  5
F3B
330
2
100
AcDbEntity
  8
0
100
AcDbLine
 10
154.9385736385841
 20
233.7361981181198
 30
0.0
 11
157.9385736385841
 21
232.4781371181198
 31
0.0
  0
ARC
  5
F3C
330
2
100
AcDbEntity
  8
0
100
AcDbCircle
 10
154.0994856385841
 20
231.9506541181199
 30
0.0
 40
1.0
100
AcDbArc
 50
9.999999999998609
 51
90.0
  0
LINE
  5
F3D
330
2
100
AcDbEntity
  8
0
100
AcDbLine
 10
154.9385966385839
 20
236.1506661181198
 30
0.0
 11
154.9385966385839
 21
232.4946281181198
 31
0.0
  0
LINE
  5
F3E
330
2
100
AcDbEntity
  8
0
100
AcDbLine
 10
158.838590638584
 20
234.5303971181198
 30
0.0
 11
158.838590638584
 21
229.2631771181198
 31
0.0
  0
LINE
  5
F3F
330
2
100
AcDbEntity
  8
0
100
AcDbLine
 10
159.0385726385838
 20
234.6059561181199
 30
0.0
 11
159.0385726385838
 21
229.2631771181198
 31
0.0
  0
LINE
  5
F40
330
2
100
AcDbEntity
  8
0
100
AcDbLine
 10
159.238553638584
 20
234.6814781181199
 30
0.0
 11
159.238553638584
 21
229.2631771181198
 31
0.0
  0
LINE
  5
F41
330
2
100
AcDbEntity
  8
0
100
AcDbLine
 10
159.4385736385841
 20
234.7570771181199
 30
0.0
 11
159.4385736385841
 21
229.2631771181198
 31
0.0
  0
LINE
  5
F42
330
2
100
AcDbEntity
  8
0
100
AcDbLine
 10
159.6386166385841
 20
234.8325971181199
 30
0.0
 11
159.6386166385841
 21
229.2631771181198
 31
0.0
  0
LINE
  5
F43
330
2
100
AcDbEntity
  8
0
100
AcDbLine
 10
159.838590638584
 20
234.9081571181199
 30
0.0
 11
159.838590638584
 21
229.2631771181198
 31
0.0
  0
LINE
  5
F44
330
2
100
AcDbEntity
  8
0
100
AcDbLine
 10
160.0385726385838
 20
234.9836971181199
 30
0.0
 11
160.0385726385838
 21
229.2631771181198
 31
0.0
  0
LINE
  5
F45
330
2
100
AcDbEntity
  8
0
100
AcDbLine
 10
160.2385536385841
 20
235.0592571181199
 30
0.0
 11
160.2385536385841
 21
229.2631771181198
 31
0.0
  0
LINE
  5
F46
330
2
100
AcDbEntity
  8
0
100
AcDbLine
 10
160.4385736385841
 20
235.1348161181198
 30
0.0
 11
160.4385736385841
 21
229.2631771181198
 31
0.0
  0
LINE
  5
F47
330
2
100
AcDbEntity
  8
0
100
AcDbLine
 10
158.4385736385841
 20
234.3792561181198
 30
0.0
 11
158.4385736385841
 21
229.2631771181198
 31
0.0
  0
LINE
  5
F48
330
2
100
AcDbEntity
  8
0
100
AcDbLine
 10
158.6386166385841
 20
234.4548371181198
 30
0.0
 11
158.6386166385841
 21
229.2631771181198
 31
0.0
  0
ARC
  5
F49
330
2
100
AcDbEntity
  8
0
100
AcDbCircle
 10
155.9385966385839
 20
255.9506561181199
 30
0.0
 40
1.0
100
AcDbArc
 50
90.0
 51
270.0
  0
LINE
  5
F4A
330
2
100
AcDbEntity
  8
0
100
AcDbLine
 10
151.9385966385839
 20
264.5929510492712
 30
0.0
 11
151.9385966385839
 21
250.4506751181198
 31
0.0
  0
ARC
  5
F4B
330
2
100
AcDbEntity
  8
0
100
AcDbCircle
 10
152.938573638584
 20
242.4506751181198
 30
0.0
 40
5.0
100
AcDbArc
 50
0.0
 51
90.0
  0
ARC
  5
F4C
330
2
100
AcDbEntity
  8
0
100
AcDbCircle
 10
155.9385966385839
 20
249.1506681181198
 30
0.0
 40
1.0
100
AcDbArc
 50
90.0
 51
117.527015999993
  0
LINE
  5
F4D
330
2
100
AcDbEntity
  8
0
100
AcDbLine
 10
152.938573638584
 20
250.4506751181198
 30
0.0
 11
150.9385736385841
 21
250.4506751181198
 31
0.0
  0
LINE
  5
F4E
330
2
100
AcDbEntity
  8
0
100
AcDbLine
 10
152.938573638584
 20
247.4506751181198
 30
0.0
 11
150.9385736385841
 21
247.4506751181198
 31
0.0
  0
ARC
  5
F4F
330
2
100
AcDbEntity
  8
0
100
AcDbCircle
 10
152.938573638584
 20
242.4506751181198
 30
0.0
 40
2.0
100
AcDbArc
 50
0.0
 51
90.0
  0
LINE
  5
F50
330
2
100
AcDbEntity
  8
0
100
AcDbLine
 10
152.938573638584
 20
244.4506751181198
 30
0.0
 11
150.9385736385841
 21
244.4506751181198
 31
0.0
  0
ARC
  5
F51
330
2
100
AcDbEntity
  8
0
100
AcDbCircle
 10
152.938573638584
 20
242.4506751181198
 30
0.0
 40
8.0
100
AcDbArc
 50
0.0
 51
90.0
  0
ARC
  5
F52
330
2
100
AcDbEntity
  8
0
100
AcDbCircle
 10
155.2388976385836
 20
272.7506476181197
 30
0.0
 40
8.8
100
AcDbArc
 50
180.0
 51
270.0
  0
LINE
  5
F53
330
2
100
AcDbEntity
  8
0
100
AcDbLine
 10
149.2388976385839
 20
272.7506476181199
 30
0.0
 11
149.2388976385839
 21
272.9507356181199
 31
0.0
  0
ARC
  5
F54
330
2
100
AcDbEntity
  8
0
100
AcDbCircle
 10
155.2388976385836
 20
272.7506476181197
 30
0.0
 40
6.0
100
AcDbArc
 50
180.0
 51
270.0
  0
LINE
  5
F55
330
2
100
AcDbEntity
  8
0
100
AcDbLine
 10
150.9380335132459
 20
384.4375046988551
 30
0.0
 11
150.9380335132459
 21
344.8280629363616
 31
0.0
  0
LINE
  5
F56
330
2
100
AcDbEntity
  8
0
100
AcDbLine
 10
151.9385966385839
 20
376.9506521181198
 30
0.0
 11
151.9385966385839
 21
345.308353186968
 31
0.0
  0
LINE
  5
F57
330
2
100
AcDbEntity
  8
0
100
AcDbLine
 10
149.2388976385839
 20
294.9506596181199
 30
0.0
 11
149.2388976385839
 21
337.1506566181199
 31
0.0
  0
ARC
  5
F58
330
2
100
AcDbEntity
  8
0
100
AcDbCircle
 10
152.2388976385836
 20
294.9506596181197
 30
0.0
 40
3.0
100
AcDbArc
 50
180.0
 51
270.0
  0
CIRCLE
  5
F59
330
2
100
AcDbEntity
  8
0
100
AcDbCircle
 10
152.2388976385836
 20
283.9506596181197
 30
0.0
 40
4.0
  0
ARC
  5
F5A
330
2
100
AcDbEntity
  8
0
100
AcDbCircle
 10
152.2388976385836
 20
283.9506596181197
 30
0.0
 40
8.0
100
AcDbArc
 50
270.2184880000026
 51
90.0
  0
ARC
  5
F5B
330
2
100
AcDbEntity
  8
0
100
AcDbCircle
 10
155.2388976385839
 20
337.1506566181196
 30
0.0
 40
8.8
100
AcDbArc
 50
90.0
 51
180.0
  0
ARC
  5
F5C
330
2
100
AcDbEntity
  8
0
100
AcDbCircle
 10
155.2388976385839
 20
337.1506566181196
 30
0.0
 40
6.0
100
AcDbArc
 50
90.0
 51
180.0
  0
LINE
  5
F5D
330
2
100
AcDbEntity
  8
0
100
AcDbLine
 10
149.4249437099983
 20
385.9374475834514
 30
0.0
 11
110.6018143735859
 21
385.9374475834514
 31
0.0
  0
ARC
  5
F5E
330
2
100
AcDbEntity
  8
0
100
AcDbCircle
 10
104.9071358286851
 20
364.9506521181198
 30
0.0
 40
15.0
100
AcDbArc
 50
90.0
 51
171.480375745857
  0
LINE
  5
F5F
330
2
100
AcDbEntity
  8
0
100
AcDbLine
 10
104.9071358286851
 20
379.9506521181198
 30
0.0
 11
108.1363329475911
 21
379.9788328944468
 31
0.0
  0
ARC
  5
F60
330
2
100
AcDbEntity
  8
0
100
AcDbCircle
 10
108.1276064120925
 20
380.9787948175111
 30
0.0
 40
1.0
100
AcDbArc
 50
270.5000000000046
 51
10.98469207193821
  0
ARC
  5
F61
330
2
100
AcDbEntity
  8
0
100
AcDbCircle
 10
110.6018143735855
 20
383.9374475834514
 30
0.0
 40
2.0
100
AcDbArc
 50
90.0
 51
191.331460858321
  0
ARC
  5
F62
330
2
100
AcDbEntity
  8
0
100
AcDbCircle
 10
155.9385966385839
 20
367.2506401181199
 30
0.0
 40
1.0
100
AcDbArc
 50
90.0
 51
270.0
  0
ARC
  5
F63
330
2
100
AcDbEntity
  8
0
100
AcDbCircle
 10
155.9385966385839
 20
360.7506401181197
 30
0.0
 40
1.0
100
AcDbArc
 50
90.0
 51
270.0
  0
ARC
  5
F64
330
2
100
AcDbEntity
  8
0
100
AcDbCircle
 10
155.9385966385839
 20
353.9506521181198
 30
0.0
 40
1.0
100
AcDbArc
 50
90.0
 51
270.0
  0
ARC
  5
F65
330
2
100
AcDbEntity
  8
0
100
AcDbCircle
 10
149.4380335132459
 20
384.4375046988551
 30
0.0
 40
1.5
100
AcDbArc
 50
0.0
 51
90.5000000000046
  0
ARC
  5
F66
330
2
100
AcDbEntity
  8
0
100
AcDbCircle
 10
154.0994856385841
 20
377.9506521181198
 30
0.0
 40
1.0
100
AcDbArc
 50
270.0
 51
350.0000000000013
  0
LINE
  5
F67
330
2
100
AcDbEntity
  8
0
100
AcDbLine
 10
154.0994856385841
 20
376.9506521181198
 30
0.0
 11
151.9385966385839
 21
376.9506521181198
 31
0.0
  0
LINE
  5
F68
330
2
100
AcDbEntity
  8
0
100
AcDbLine
 10
154.9385966385839
 20
373.7506401181198
 30
0.0
 11
154.9385966385839
 21
377.4066761181197
 31
0.0
  0
ARC
  5
F69
330
2
100
AcDbEntity
  8
0
100
AcDbCircle
 10
155.9385966385839
 20
373.7506401181198
 30
0.0
 40
1.0
100
AcDbArc
 50
90.0
 51
270.0
  0
ARC
  5
F6A
330
2
100
AcDbEntity
  8
0
100
AcDbCircle
 10
155.9385966385839
 20
375.0054921181198
 30
0.0
 40
1.0
100
AcDbArc
 50
90.0
 51
180.0
  0
LINE
  5
F6B
330
2
100
AcDbEntity
  8
0
100
AcDbLine
 10
150.9385926385839
 20
375.4506681181199
 30
0.0
 11
151.9385926385839
 21
375.4506681181199
 31
0.0
  0
ARC
  5
F6C
330
2
100
AcDbEntity
  8
0
100
AcDbCircle
 10
156.482999638584
 20
379.9506521181198
 30
0.0
 40
1.0
100
AcDbArc
 50
90.0
 51
170.0000000000013
  0
LINE
  5
F6D
330
2
100
AcDbEntity
  8
0
100
AcDbLine
 10
155.498182638584
 20
380.1242971181197
 30
0.0
 11
155.0843026385839
 21
377.7770071181197
 31
0.0
  0
ARC
  5
F6E
330
2
100
AcDbEntity
  8
0
100
AcDbCircle
 10
508.1542389663791
 20
701.1831651181203
 30
0.0
 40
400.0000000000018
100
AcDbArc
 50
168.5531233357823
 51
191.4468766642176
  0
ARC
  5
F6F
330
2
100
AcDbEntity
  8
0
100
AcDbCircle
 10
104.9077059540236
 20
641.1831651181203
 30
0.0
 40
15.0
100
AcDbArc
 50
188.5196242541429
 51
270.0
  0
LINE
  5
F70
330
2
100
AcDbEntity
  8
0
100
AcDbLine
 10
151.9385926385839
 20
773.1831651181201
 30
0.0
 11
151.9385926385839
 21
629.1831651181202
 31
0.0
  0
LINE
  5
F71
330
2
100
AcDbEntity
  8
0
100
AcDbLine
 10
150.9386036385842
 20
780.6700176988555
 30
0.0
 11
150.9386036385842
 21
621.6963125373851
 31
0.0
  0
LINE
  5
F72
330
2
100
AcDbEntity
  8
0
100
AcDbLine
 10
156.4267246385838
 20
630.9992361181201
 30
0.0
 11
154.938595638584
 21
639.4388411181199
 31
0.0
  0
LINE
  5
F73
330
2
100
AcDbEntity
  8
0
100
AcDbLine
 10
152.761082638585
 20
622.8831621181201
 30
0.0
 11
152.7610826385853
 21
587.8929191181199
 31
0.0
  0
ARC
  5
F74
330
2
100
AcDbEntity
  8
0
100
AcDbCircle
 10
149.7541246385835
 20
580.9107671181201
 30
0.0
 40
1.3
100
AcDbArc
 50
204.9999999999993
 51
295.000000000008
  0
LINE
  5
F75
330
2
100
AcDbEntity
  8
0
100
AcDbLine
 10
148.5759026385853
 20
580.3613651181198
 30
0.0
 11
146.4386956385842
 21
584.9447091181199
 31
0.0
  0
LINE
  5
F76
330
2
100
AcDbEntity
  8
0
100
AcDbLine
 10
149.4255138353366
 20
620.1963696527887
 30
0.0
 11
118.0708041192694
 21
620.1963696527887
 31
0.0
  0
ARC
  5
F77
330
2
100
AcDbEntity
  8
0
100
AcDbCircle
 10
118.0708041192694
 20
622.1963696527888
 30
0.0
 40
2.0
100
AcDbArc
 50
191.446876664224
 51
270.0
  0
LINE
  5
F78
330
2
100
AcDbEntity
  8
0
100
AcDbLine
 10
104.9077059540236
 20
626.1831651181203
 30
0.0
 11
114.4468935857312
 21
626.0999178888274
 31
0.0
  0
ARC
  5
F79
330
2
100
AcDbEntity
  8
0
100
AcDbCircle
 10
114.4381670502329
 20
625.0999559657631
 30
0.0
 40
1.0
100
AcDbArc
 50
10.93724298597944
 51
89.49999999999539
  0
LINE
  5
F7A
330
2
100
AcDbEntity
  8
CENTER
100
AcDbLine
 10
145.9406486385851
 20
602.68316511812
 30
0.0
 11
162.9806876385841
 21
602.68316511812
 31
0.0
  0
LINE
  5
F7B
330
2
100
AcDbEntity
  8
0
100
AcDbLine
 10
163.438695638584
 20
625.6831651181199
 30
0.0
 11
163.438695638584
 21
627.18316511812
 31
0.0
  0
ARC
  5
F7C
330
2
100
AcDbEntity
  8
0
100
AcDbCircle
 10
155.5611316385836
 20
622.8831621181201
 30
0.0
 40
2.799999999999998
100
AcDbArc
 50
90.0
 51
180.0
  0
ARC
  5
F7D
330
2
100
AcDbEntity
  8
0
100
AcDbCircle
 10
149.4386036385842
 20
621.6963125373849
 30
0.0
 40
1.5
100
AcDbArc
 50
269.4999999999954
 51
0.0
  0
ARC
  5
F7E
330
2
100
AcDbEntity
  8
0
100
AcDbCircle
 10
157.411534638584
 20
631.1728811181199
 30
0.0
 40
1.0
100
AcDbArc
 50
189.9999999999986
 51
270.0
  0
ARC
  5
F7F
330
2
100
AcDbEntity
  8
0
100
AcDbCircle
 10
154.099484638584
 20
628.18316511812
 30
0.0
 40
1.0
100
AcDbArc
 50
9.999999999998609
 51
90.0
  0
LINE
  5
F80
330
2
100
AcDbEntity
  8
0
100
AcDbLine
 10
154.099484638584
 20
629.1831651181202
 30
0.0
 11
151.9385926385839
 21
629.1831651181202
 31
0.0
  0
ARC
  5
F81
330
2
100
AcDbEntity
  8
0
100
AcDbCircle
 10
156.1395006385839
 20
628.18316511812
 30
0.0
 40
1.0
100
AcDbArc
 50
191.4112549999965
 51
270.0
  0
LINE
  5
F82
330
2
100
AcDbEntity
  8
0
100
AcDbLine
 10
155.1592686385838
 20
627.98532011812
 30
0.0
 11
155.0842866385839
 21
628.3568101181201
 31
0.0
  0
LINE
  5
F83
330
2
100
AcDbEntity
  8
0
100
AcDbLine
 10
150.9385926385839
 20
630.6831651181202
 30
0.0
 11
151.9385926385839
 21
630.6831651181202
 31
0.0
  0
LINE
  5
F84
330
2
100
AcDbEntity
  8
0
100
AcDbLine
 10
154.938595638584
 20
673.30450311812
 30
0.0
 11
154.938595638584
 21
729.06182711812
 31
0.0
  0
ARC
  5
F85
330
2
100
AcDbEntity
  8
0
100
AcDbCircle
 10
505.438603638584
 20
701.1831651181203
 30
0.0
 40
420.0000000000001
100
AcDbArc
 50
171.480375745857
 51
188.5196242541429
  0
LINE
  5
F86
330
2
100
AcDbEntity
  8
0
100
AcDbLine
 10
157.3114446385839
 20
654.0765061181201
 30
0.0
 11
154.938595638584
 21
667.53362911812
 31
0.0
  0
LINE
  5
F87
330
2
100
AcDbEntity
  8
0
100
AcDbLine
 10
157.0698826385839
 20
645.0867291181201
 30
0.0
 11
154.938595638584
 21
657.17385711812
 31
0.0
  0
ARC
  5
F88
330
2
100
AcDbEntity
  8
0
100
AcDbCircle
 10
158.2962546385838
 20
654.2501511181201
 30
0.0
 40
1.0
100
AcDbArc
 50
189.9999999999986
 51
270.0
  0
LINE
  5
F89
330
2
100
AcDbEntity
  8
0
100
AcDbLine
 10
156.7535986385839
 20
639.0418081181202
 30
0.0
 11
154.938595638584
 21
649.3352341181199
 31
0.0
  0
ARC
  5
F8A
330
2
100
AcDbEntity
  8
0
100
AcDbCircle
 10
157.7384086385839
 20
639.21545311812
 30
0.0
 40
1.0
100
AcDbArc
 50
189.9999999999986
 51
270.0
  0
ARC
  5
F8B
330
2
100
AcDbEntity
  8
0
100
AcDbCircle
 10
158.0546846385839
 20
645.2603741181199
 30
0.0
 40
1.0
100
AcDbArc
 50
189.9999999999986
 51
270.0
  0
ARC
  5
F8C
330
2
100
AcDbEntity
  8
0
100
AcDbCircle
 10
157.1350986385839
 20
666.6062911181199
 30
0.0
 40
1.0
100
AcDbArc
 50
189.9999999999986
 51
270.0
  0
LINE
  5
F8D
330
2
100
AcDbEntity
  8
0
100
AcDbLine
 10
156.150288638584
 20
666.4326461181201
 30
0.0
 11
154.938595638584
 21
673.30450311812
 31
0.0
  0
LINE
  5
F8E
330
2
100
AcDbEntity
  8
0
100
AcDbLine
 10
157.0698826385839
 20
757.2796011181202
 30
0.0
 11
154.938595638584
 21
745.19247311812
 31
0.0
  0
LINE
  5
F8F
330
2
100
AcDbEntity
  8
0
100
AcDbLine
 10
156.150288638584
 20
735.9336841181201
 30
0.0
 11
154.938595638584
 21
729.06182711812
 31
0.0
  0
ARC
  5
F90
330
2
100
AcDbEntity
  8
0
100
AcDbCircle
 10
158.2962546385838
 20
748.1161791181199
 30
0.0
 40
1.0
100
AcDbArc
 50
90.0
 51
170.0000000000013
  0
ARC
  5
F91
330
2
100
AcDbEntity
  8
0
100
AcDbCircle
 10
157.1350986385839
 20
735.7600391181202
 30
0.0
 40
1.0
100
AcDbArc
 50
90.0
 51
170.0000000000013
  0
LINE
  5
F92
330
2
100
AcDbEntity
  8
0
100
AcDbLine
 10
157.3114446385839
 20
748.2898241181202
 30
0.0
 11
154.938595638584
 21
734.8327011181201
 31
0.0
  0
LINE
  5
F93
330
2
100
AcDbEntity
  8
0
100
AcDbLine
 10
149.4255138353366
 20
782.169960583452
 30
0.0
 11
118.0708041192694
 21
782.169960583452
 31
0.0
  0
ARC
  5
F94
330
2
100
AcDbEntity
  8
0
100
AcDbCircle
 10
104.9077059540236
 20
761.1831651181204
 30
0.0
 40
15.0
100
AcDbArc
 50
90.0
 51
171.480375745857
  0
LINE
  5
F95
330
2
100
AcDbEntity
  8
0
100
AcDbLine
 10
104.9077059540236
 20
776.1831651181204
 30
0.0
 11
114.4468935857312
 21
776.2664123474132
 31
0.0
  0
ARC
  5
F96
330
2
100
AcDbEntity
  8
0
100
AcDbCircle
 10
118.0708041192694
 20
780.1699605834518
 30
0.0
 40
2.0
100
AcDbArc
 50
90.0
 51
168.553123335776
  0
ARC
  5
F97
330
2
100
AcDbEntity
  8
0
100
AcDbCircle
 10
114.4381670502329
 20
777.2663742704772
 30
0.0
 40
1.0
100
AcDbArc
 50
270.5000000000046
 51
349.0627570140205
  0
LINE
  5
F98
330
2
100
AcDbEntity
  8
0
100
AcDbLine
 10
156.301030638584
 20
774.8414901181201
 30
0.0
 11
154.938595638584
 21
767.1147451181199
 31
0.0
  0
LINE
  5
F99
330
2
100
AcDbEntity
  8
0
100
AcDbLine
 10
156.4267246385838
 20
771.36709411812
 30
0.0
 11
154.938595638584
 21
762.9274891181199
 31
0.0
  0
LINE
  5
F9A
330
2
100
AcDbEntity
  8
0
100
AcDbLine
 10
156.7535986385839
 20
763.3245221181201
 30
0.0
 11
154.938595638584
 21
753.03109611812
 31
0.0
  0
ARC
  5
F9B
330
2
100
AcDbEntity
  8
0
100
AcDbCircle
 10
158.0546846385839
 20
757.1059561181201
 30
0.0
 40
1.0
100
AcDbArc
 50
90.0
 51
170.0000000000013
  0
ARC
  5
F9C
330
2
100
AcDbEntity
  8
0
100
AcDbCircle
 10
157.7384086385839
 20
763.15087711812
 30
0.0
 40
1.0
100
AcDbArc
 50
90.0
 51
170.0000000000013
  0
ARC
  5
F9D
330
2
100
AcDbEntity
  8
0
100
AcDbCircle
 10
154.099484638584
 20
774.1831651181201
 30
0.0
 40
1.0
100
AcDbArc
 50
270.0
 51
350.0000000000013
  0
ARC
  5
F9E
330
2
100
AcDbEntity
  8
0
100
AcDbCircle
 10
157.411534638584
 20
771.1934491181201
 30
0.0
 40
1.0
100
AcDbArc
 50
90.0
 51
170.0000000000013
  0
LINE
  5
F9F
330
2
100
AcDbEntity
  8
0
100
AcDbLine
 10
154.099484638584
 20
773.1831651181201
 30
0.0
 11
151.9385926385839
 21
773.1831651181201
 31
0.0
  0
LINE
  5
FA0
330
2
100
AcDbEntity
  8
0
100
AcDbLine
 10
150.9385926385839
 20
771.6831651181199
 30
0.0
 11
151.9385926385839
 21
771.6831651181199
 31
0.0
  0
LINE
  5
FA1
330
2
100
AcDbEntity
  8
0
100
AcDbLine
 10
150.9385926385839
 20
771.6831651181199
 30
0.0
 11
151.9385926385839
 21
771.6831651181199
 31
0.0
  0
ARC
  5
FA2
330
2
100
AcDbEntity
  8
0
100
AcDbCircle
 10
157.3013506385839
 20
779.9394521181201
 30
0.0
 40
1.0
100
AcDbArc
 50
90.0
 51
168.5887449999971
  0
ARC
  5
FA3
330
2
100
AcDbEntity
  8
0
100
AcDbCircle
 10
157.1053666385839
 20
778.96850411812
 30
0.0
 40
1.0
100
AcDbArc
 50
90.0
 51
168.5887449999971
  0
ARC
  5
FA4
330
2
100
AcDbEntity
  8
0
100
AcDbCircle
 10
157.285832638584
 20
774.66784511812
 30
0.0
 40
1.0
100
AcDbArc
 50
90.0
 51
170.0000000000013
  0
ARC
  5
FA5
330
2
100
AcDbEntity
  8
0
100
AcDbCircle
 10
156.7543616385839
 20
777.2294601181203
 30
0.0
 40
1.0
100
AcDbArc
 50
90.0
 51
168.5887449999971
  0
ARC
  5
FA6
330
2
100
AcDbEntity
  8
0
100
AcDbCircle
 10
149.4386036385842
 20
780.6700176988555
 30
0.0
 40
1.5
100
AcDbArc
 50
0.0
 51
90.5000000000046
  0
LINE
  5
FA7
330
2
100
AcDbEntity
  8
0
100
AcDbLine
 10
156.321118638584
 20
780.13732811812
 30
0.0
 11
155.0842866385839
 21
774.0095201181201
 31
0.0
  0
ARC
  5
FB0
330
2
100
AcDbEntity
  8
0
100
AcDbCircle
 10
687.054864025533
 20
271.4506521181196
 30
0.0
 40
6.799999999999998
100
AcDbArc
 50
180.0
 51
270.0
  0
LINE
  5
FB2
330
2
100
AcDbEntity
  8
0
100
AcDbLine
 10
232.6389066385841
 20
272.7506476181199
 30
0.0
 11
232.6389066385841
 21
337.1506566181199
 31
0.0
  0
LINE
  5
FB3
330
2
100
AcDbEntity
  8
0
100
AcDbLine
 10
235.438894638584
 20
272.7506476181199
 30
0.0
 11
235.438894638584
 21
337.1506566181199
 31
0.0
  0
LINE
  5
FB5
330
2
100
AcDbEntity
  8
0
100
AcDbLine
 10
270.9385886385839
 20
267.3506501181199
 30
0.0
 11
233.5872746878976
 21
267.3506501181199
 31
0.0
  0
LINE
  5
FB6
330
2
100
AcDbEntity
  8
0
100
AcDbLine
 10
270.9385886385839
 20
269.3506501181199
 30
0.0
 11
234.7555422408945
 21
269.3506501181199
 31
0.0
  0
ARC
  5
FB7
330
2
100
AcDbEntity
  8
0
100
AcDbCircle
 10
226.6388916385835
 20
272.7506476181196
 30
0.0
 40
8.8
100
AcDbArc
 50
270.0
 51
0.0
  0
ARC
  5
FB8
330
2
100
AcDbEntity
  8
0
100
AcDbCircle
 10
226.6388916385835
 20
272.7506476181196
 30
0.0
 40
6.0
100
AcDbArc
 50
270.0
 51
0.0
  0
ARC
  5
FB9
330
2
100
AcDbEntity
  8
0
100
AcDbCircle
 10
270.9385886385839
 20
236.1506661181198
 30
0.0
 40
1.0
100
AcDbArc
 50
270.0
 51
90.0
  0
LINE
  5
FBA
330
2
100
AcDbEntity
  8
0
100
AcDbLine
 10
291.9385886385839
 20
232.9506541181199
 30
0.0
 11
272.777700638584
 21
232.9506541181199
 31
0.0
  0
ARC
  5
FBB
330
2
100
AcDbEntity
  8
0
100
AcDbCircle
 10
270.9385886385839
 20
234.8958141181199
 30
0.0
 40
1.0
100
AcDbArc
 50
270.0
 51
0.0
  0
LINE
  5
FBC
330
2
100
AcDbEntity
  8
0
100
AcDbLine
 10
271.3789886385839
 20
229.7770091181199
 30
0.0
 11
271.7928826385839
 21
232.1243011181199
 31
0.0
  0
ARC
  5
FBD
330
2
100
AcDbEntity
  8
0
100
AcDbCircle
 10
270.394185638584
 20
229.9506541181199
 30
0.0
 40
1.0
100
AcDbArc
 50
270.0
 51
350.0000000000013
  0
ARC
  5
FBE
330
2
100
AcDbEntity
  8
0
100
AcDbCircle
 10
272.777700638584
 20
231.9506541181199
 30
0.0
 40
1.0
100
AcDbArc
 50
90.0
 51
170.0000000000013
  0
LINE
  5
FBF
330
2
100
AcDbEntity
  8
0
100
AcDbLine
 10
271.9385886385839
 20
236.1506661181198
 30
0.0
 11
271.9385886385839
 21
232.4946281181198
 31
0.0
  0
ARC
  5
FC0
330
2
100
AcDbEntity
  8
0
100
AcDbCircle
 10
270.9385886385839
 20
255.9506561181199
 30
0.0
 40
1.0
100
AcDbArc
 50
270.0
 51
90.0
  0
ARC
  5
FC1
330
2
100
AcDbEntity
  8
0
100
AcDbCircle
 10
270.9385886385839
 20
249.1506681181198
 30
0.0
 40
1.0
100
AcDbArc
 50
270.0
 51
90.0
  0
ARC
  5
FC2
330
2
100
AcDbEntity
  8
0
100
AcDbCircle
 10
270.9385886385839
 20
242.6506681181198
 30
0.0
 40
1.0
100
AcDbArc
 50
270.0
 51
90.0
  0
ARC
  5
FC3
330
2
100
AcDbEntity
  8
0
100
AcDbCircle
 10
270.9385886385839
 20
268.3506501181199
 30
0.0
 40
1.0
100
AcDbArc
 50
270.0
 51
90.0
  0
LINE
  5
FC4
330
2
100
AcDbEntity
  8
0
100
AcDbLine
 10
270.9385886385839
 20
342.5506581181198
 30
0.0
 11
233.5872715792602
 21
342.5506581181197
 31
0.0
  0
LINE
  5
FC5
330
2
100
AcDbEntity
  8
0
100
AcDbLine
 10
270.9385886385839
 20
340.5506581181198
 30
0.0
 11
234.7555405653265
 21
340.5506581181197
 31
0.0
  0
LINE
  5
FC6
330
2
100
AcDbEntity
  8
0
100
AcDbLine
 10
270.9385886385839
 20
334.9506521181198
 30
0.0
 11
235.438894638584
 21
334.9506521181198
 31
0.0
  0
LINE
  5
FC7
330
2
100
AcDbEntity
  8
0
100
AcDbLine
 10
270.9385886385839
 20
332.9506521181198
 30
0.0
 11
239.4386046385839
 21
332.9506521181198
 31
0.0
  0
LINE
  5
FC8
330
2
100
AcDbEntity
  8
0
100
AcDbLine
 10
270.9385886385839
 20
325.3506461181199
 30
0.0
 11
239.4386046385839
 21
325.3506461181199
 31
0.0
  0
LINE
  5
FC9
330
2
100
AcDbEntity
  8
0
100
AcDbLine
 10
270.9385886385839
 20
327.3506461181199
 30
0.0
 11
239.4386046385839
 21
327.3506461181199
 31
0.0
  0
LINE
  5
FCA
330
2
100
AcDbEntity
  8
0
100
AcDbLine
 10
270.9385886385839
 20
317.7506401181199
 30
0.0
 11
239.4386046385839
 21
317.7506401181199
 31
0.0
  0
LINE
  5
FCB
330
2
100
AcDbEntity
  8
0
100
AcDbLine
 10
270.9385886385839
 20
319.7506401181199
 30
0.0
 11
239.4386046385839
 21
319.7506401181199
 31
0.0
  0
LINE
  5
FCC
330
2
100
AcDbEntity
  8
0
100
AcDbLine
 10
270.9385886385839
 20
312.1506641181198
 30
0.0
 11
239.4386046385839
 21
312.1506641181198
 31
0.0
  0
LINE
  5
FCD
330
2
100
AcDbEntity
  8
0
100
AcDbLine
 10
270.9385886385839
 20
310.1506641181198
 30
0.0
 11
239.4386046385839
 21
310.1506641181198
 31
0.0
  0
LINE
  5
FCE
330
2
100
AcDbEntity
  8
0
100
AcDbLine
 10
270.9385886385839
 20
274.9506521181199
 30
0.0
 11
235.438894638584
 21
274.9506521181199
 31
0.0
  0
LINE
  5
FCF
330
2
100
AcDbEntity
  8
0
100
AcDbLine
 10
270.9385886385839
 20
299.7506401181199
 30
0.0
 11
239.4386046385839
 21
299.7506401181199
 31
0.0
  0
LINE
  5
FD0
330
2
100
AcDbEntity
  8
0
100
AcDbLine
 10
270.9385886385839
 20
297.7506401181199
 30
0.0
 11
239.4386046385839
 21
297.7506401181199
 31
0.0
  0
LINE
  5
FD1
330
2
100
AcDbEntity
  8
0
100
AcDbLine
 10
270.9385886385839
 20
290.1506641181199
 30
0.0
 11
239.4386046385839
 21
290.1506641181199
 31
0.0
  0
LINE
  5
FD2
330
2
100
AcDbEntity
  8
0
100
AcDbLine
 10
270.9385886385839
 20
292.1506641181198
 30
0.0
 11
239.4386046385839
 21
292.1506641181198
 31
0.0
  0
LINE
  5
FD3
330
2
100
AcDbEntity
  8
0
100
AcDbLine
 10
270.9385886385839
 20
282.5506581181199
 30
0.0
 11
239.4386046385839
 21
282.5506581181199
 31
0.0
  0
LINE
  5
FD4
330
2
100
AcDbEntity
  8
0
100
AcDbLine
 10
270.9385886385839
 20
284.5506581181199
 30
0.0
 11
239.4386046385839
 21
284.5506581181199
 31
0.0
  0
LINE
  5
FD5
330
2
100
AcDbEntity
  8
0
100
AcDbLine
 10
270.9385886385839
 20
276.9506521181199
 30
0.0
 11
239.4386046385839
 21
276.9506521181199
 31
0.0
  0
ARC
  5
FD6
330
2
100
AcDbEntity
  8
0
100
AcDbCircle
 10
240.4386046385839
 20
314.1506641181198
 30
0.0
 40
2.0
100
AcDbArc
 50
180.0
 51
270.0
  0
ARC
  5
FD7
330
2
100
AcDbEntity
  8
0
100
AcDbCircle
 10
240.4386046385839
 20
294.1506641181199
 30
0.0
 40
2.0
100
AcDbArc
 50
180.0
 51
270.0
  0
ARC
  5
FD8
330
2
100
AcDbEntity
  8
0
100
AcDbCircle
 10
239.4386046385839
 20
291.1506641181199
 30
0.0
 40
1.0
100
AcDbArc
 50
90.0
 51
270.0
  0
ARC
  5
FD9
330
2
100
AcDbEntity
  8
0
100
AcDbCircle
 10
233.4386046385839
 20
279.9506521181199
 30
0.0
 40
5.0
100
AcDbArc
 50
293.5818043878708
 51
351.7867890000001
  0
ARC
  5
FDA
330
2
100
AcDbEntity
  8
0
100
AcDbCircle
 10
240.3667966385839
 20
278.9506521181199
 30
0.0
 40
2.0
100
AcDbArc
 50
171.7867890000001
 51
270.0
  0
ARC
  5
FDB
330
2
100
AcDbEntity
  8
0
100
AcDbCircle
 10
239.4386046385839
 20
275.9506521181199
 30
0.0
 40
1.0
100
AcDbArc
 50
90.0
 51
270.0
  0
LINE
  5
FDC
330
2
100
AcDbEntity
  8
0
100
AcDbLine
 10
238.4386046385839
 20
288.1506641181199
 30
0.0
 11
238.4386046385839
 21
286.5506581181199
 31
0.0
  0
LINE
  5
FDD
330
2
100
AcDbEntity
  8
0
100
AcDbLine
 10
238.4386046385839
 20
280.5506581181199
 30
0.0
 11
238.4386046385839
 21
279.9506521181199
 31
0.0
  0
ARC
  5
FDE
330
2
100
AcDbEntity
  8
0
100
AcDbCircle
 10
239.4386046385839
 20
283.5506581181199
 30
0.0
 40
1.0
100
AcDbArc
 50
90.0
 51
270.0
  0
ARC
  5
FDF
330
2
100
AcDbEntity
  8
0
100
AcDbCircle
 10
240.4386046385839
 20
280.5506581181199
 30
0.0
 40
2.0
100
AcDbArc
 50
90.0
 51
180.0
  0
ARC
  5
FE0
330
2
100
AcDbEntity
  8
0
100
AcDbCircle
 10
240.4386046385839
 20
286.5506581181199
 30
0.0
 40
2.0
100
AcDbArc
 50
180.0
 51
270.0
  0
ARC
  5
FE1
330
2
100
AcDbEntity
  8
0
100
AcDbCircle
 10
233.4386046385839
 20
279.9506521181199
 30
0.0
 40
5.0
100
AcDbArc
 50
351.7867890000001
 51
0.0
  0
ARC
  5
FE2
330
2
100
AcDbEntity
  8
0
100
AcDbCircle
 10
240.4386046385839
 20
288.1506641181199
 30
0.0
 40
2.0
100
AcDbArc
 50
90.0
 51
180.0
  0
ARC
  5
FE3
330
2
100
AcDbEntity
  8
0
100
AcDbCircle
 10
239.4386046385839
 20
311.1506641181198
 30
0.0
 40
1.0
100
AcDbArc
 50
90.0
 51
270.0
  0
LINE
  5
FE4
330
2
100
AcDbEntity
  8
0
100
AcDbLine
 10
238.4386046385839
 20
308.1506641181199
 30
0.0
 11
238.4386046385839
 21
301.7506401181199
 31
0.0
  0
LINE
  5
FE5
330
2
100
AcDbEntity
  8
0
100
AcDbLine
 10
238.4386046385839
 20
295.7506401181199
 30
0.0
 11
238.4386046385839
 21
294.1506641181199
 31
0.0
  0
ARC
  5
FE6
330
2
100
AcDbEntity
  8
0
100
AcDbCircle
 10
239.4386046385839
 20
298.7506401181199
 30
0.0
 40
1.0
100
AcDbArc
 50
90.0
 51
270.0
  0
ARC
  5
FE7
330
2
100
AcDbEntity
  8
0
100
AcDbCircle
 10
240.4386046385839
 20
295.7506401181199
 30
0.0
 40
2.0
100
AcDbArc
 50
90.0
 51
180.0
  0
ARC
  5
FE8
330
2
100
AcDbEntity
  8
0
100
AcDbCircle
 10
240.4386046385839
 20
301.7506401181199
 30
0.0
 40
2.0
100
AcDbArc
 50
180.0
 51
270.0
  0
ARC
  5
FE9
330
2
100
AcDbEntity
  8
0
100
AcDbCircle
 10
240.4386046385839
 20
308.1506641181199
 30
0.0
 40
2.0
100
AcDbArc
 50
90.0
 51
180.0
  0
ARC
  5
FEA
330
2
100
AcDbEntity
  8
0
100
AcDbCircle
 10
233.4386046385839
 20
329.9506521181198
 30
0.0
 40
5.0
100
AcDbArc
 50
8.213210999999825
 51
66.41819561212909
  0
ARC
  5
FEB
330
2
100
AcDbEntity
  8
0
100
AcDbCircle
 10
240.3667966385839
 20
330.9506521181198
 30
0.0
 40
2.0
100
AcDbArc
 50
90.0
 51
188.2131959999971
  0
LINE
  5
FEC
330
2
100
AcDbEntity
  8
0
100
AcDbLine
 10
238.4386046385839
 20
329.9506521181198
 30
0.0
 11
238.4386046385839
 21
329.3506461181199
 31
0.0
  0
ARC
  5
FED
330
2
100
AcDbEntity
  8
0
100
AcDbCircle
 10
233.4386046385839
 20
329.9506521181198
 30
0.0
 40
5.0
100
AcDbArc
 50
0.0
 51
8.213210999999825
  0
LINE
  5
FEE
330
2
100
AcDbEntity
  8
0
100
AcDbLine
 10
238.4386046385839
 20
315.7506401181199
 30
0.0
 11
238.4386046385839
 21
314.1506641181198
 31
0.0
  0
ARC
  5
FEF
330
2
100
AcDbEntity
  8
0
100
AcDbCircle
 10
239.4386046385839
 20
326.3506461181199
 30
0.0
 40
1.0
100
AcDbArc
 50
90.0
 51
270.0
  0
ARC
  5
FF0
330
2
100
AcDbEntity
  8
0
100
AcDbCircle
 10
240.4386046385839
 20
323.3506461181199
 30
0.0
 40
2.0
100
AcDbArc
 50
90.0
 51
180.0
  0
ARC
  5
FF1
330
2
100
AcDbEntity
  8
0
100
AcDbCircle
 10
239.4386046385839
 20
318.7506401181199
 30
0.0
 40
1.0
100
AcDbArc
 50
90.0
 51
270.0
  0
ARC
  5
FF2
330
2
100
AcDbEntity
  8
0
100
AcDbCircle
 10
240.4386046385839
 20
315.7506401181199
 30
0.0
 40
2.0
100
AcDbArc
 50
90.0
 51
180.0
  0
ARC
  5
FF3
330
2
100
AcDbEntity
  8
0
100
AcDbCircle
 10
240.4386046385839
 20
321.7506401181199
 30
0.0
 40
2.0
100
AcDbArc
 50
180.0
 51
270.0
  0
LINE
  5
FF4
330
2
100
AcDbEntity
  8
0
100
AcDbLine
 10
238.4386046385839
 20
323.3506461181199
 30
0.0
 11
238.4386046385839
 21
321.7506401181199
 31
0.0
  0
ARC
  5
FF5
330
2
100
AcDbEntity
  8
0
100
AcDbCircle
 10
240.4386046385839
 20
329.3506461181199
 30
0.0
 40
2.0
100
AcDbArc
 50
180.0
 51
270.0
  0
ARC
  5
FF6
330
2
100
AcDbEntity
  8
0
100
AcDbCircle
 10
226.6388916385837
 20
337.1506566181195
 30
0.0
 40
6.0
100
AcDbArc
 50
0.0
 51
90.0
  0
ARC
  5
FF7
330
2
100
AcDbEntity
  8
0
100
AcDbCircle
 10
226.6388916385837
 20
337.1506566181195
 30
0.0
 40
8.8
100
AcDbArc
 50
0.0
 51
90.0
  0
ARC
  5
FF8
330
2
100
AcDbEntity
  8
0
100
AcDbCircle
 10
239.4386046385839
 20
333.9506521181198
 30
0.0
 40
1.0
100
AcDbArc
 50
90.0
 51
270.0
  0
ARC
  5
FF9
330
2
100
AcDbEntity
  8
0
100
AcDbCircle
 10
270.9385886385839
 20
291.1506641181199
 30
0.0
 40
1.0
100
AcDbArc
 50
270.0
 51
90.0
  0
ARC
  5
FFA
330
2
100
AcDbEntity
  8
0
100
AcDbCircle
 10
270.9385886385839
 20
275.9506521181199
 30
0.0
 40
1.0
100
AcDbArc
 50
270.0
 51
90.0
  0
ARC
  5
FFB
330
2
100
AcDbEntity
  8
0
100
AcDbCircle
 10
270.9385886385839
 20
283.5506581181199
 30
0.0
 40
1.0
100
AcDbArc
 50
270.0
 51
90.0
  0
ARC
  5
FFC
330
2
100
AcDbEntity
  8
0
100
AcDbCircle
 10
270.9385886385839
 20
311.1506641181198
 30
0.0
 40
1.0
100
AcDbArc
 50
270.0
 51
90.0
  0
ARC
  5
FFD
330
2
100
AcDbEntity
  8
0
100
AcDbCircle
 10
270.9385886385839
 20
298.7506401181199
 30
0.0
 40
1.0
100
AcDbArc
 50
270.0
 51
90.0
  0
ARC
  5
FFE
330
2
100
AcDbEntity
  8
0
100
AcDbCircle
 10
270.9385886385839
 20
326.3506461181199
 30
0.0
 40
1.0
100
AcDbArc
 50
270.0
 51
90.0
  0
ARC
  5
FFF
330
2
100
AcDbEntity
  8
0
100
AcDbCircle
 10
270.9385886385839
 20
318.7506401181199
 30
0.0
 40
1.0
100
AcDbArc
 50
270.0
 51
90.0
  0
ARC
  5
1000
330
2
100
AcDbEntity
  8
0
100
AcDbCircle
 10
270.9385886385839
 20
333.9506521181198
 30
0.0
 40
1.0
100
AcDbArc
 50
270.0
 51
90.0
  0
ARC
  5
1001
330
2
100
AcDbEntity
  8
0
100
AcDbCircle
 10
270.9385886385839
 20
341.5506581181198
 30
0.0
 40
1.0
100
AcDbArc
 50
270.0
 51
90.0
  0
ARC
  5
1002
330
2
100
AcDbEntity
  8
0
100
AcDbCircle
 10
270.9385886385839
 20
367.2506401181199
 30
0.0
 40
1.0
100
AcDbArc
 50
270.0
 51
90.0
  0
ARC
  5
1003
330
2
100
AcDbEntity
  8
0
100
AcDbCircle
 10
270.9385886385839
 20
360.7506401181197
 30
0.0
 40
1.0
100
AcDbArc
 50
270.0
 51
90.0
  0
ARC
  5
1004
330
2
100
AcDbEntity
  8
0
100
AcDbCircle
 10
270.9385886385839
 20
353.9506521181198
 30
0.0
 40
1.0
100
AcDbArc
 50
270.0
 51
90.0
  0
LINE
  5
1005
330
2
100
AcDbEntity
  8
0
100
AcDbLine
 10
291.9385886385839
 20
376.9506521181198
 30
0.0
 11
272.777700638584
 21
376.9506521181198
 31
0.0
  0
ARC
  5
1006
330
2
100
AcDbEntity
  8
0
100
AcDbCircle
 10
272.777700638584
 20
377.9506521181198
 30
0.0
 40
1.0
100
AcDbArc
 50
189.9999999999986
 51
270.0
  0
LINE
  5
1007
330
2
100
AcDbEntity
  8
0
100
AcDbLine
 10
271.9385886385839
 20
373.7506401181198
 30
0.0
 11
271.9385886385839
 21
377.4066761181197
 31
0.0
  0
ARC
  5
1008
330
2
100
AcDbEntity
  8
0
100
AcDbCircle
 10
270.9385886385839
 20
375.0054921181198
 30
0.0
 40
1.0
100
AcDbArc
 50
0.0
 51
90.0
  0
ARC
  5
1009
330
2
100
AcDbEntity
  8
0
100
AcDbCircle
 10
270.9385886385839
 20
373.7506401181198
 30
0.0
 40
1.0
100
AcDbArc
 50
270.0
 51
90.0
  0
ARC
  5
100A
330
2
100
AcDbEntity
  8
0
100
AcDbCircle
 10
270.394185638584
 20
379.9506521181198
 30
0.0
 40
1.0
100
AcDbArc
 50
9.999999999998609
 51
90.0
  0
LINE
  5
100B
330
2
100
AcDbEntity
  8
0
100
AcDbLine
 10
271.3789886385839
 20
380.1242971181197
 30
0.0
 11
271.7928826385839
 21
377.7770071181197
 31
0.0
  0
LINE
  5
1021
330
2
100
AcDbEntity
  8
0
100
AcDbLine
 10
687.0548640255333
 20
264.6506641181201
 30
0.0
 11
716.9411567223098
 21
264.6506641181201
 31
0.0
  0
LINE
  5
1024
330
2
100
AcDbEntity
  8
0
100
AcDbLine
 10
270.4504596385838
 20
630.9992361181201
 30
0.0
 11
271.9385886385839
 21
639.4388411181199
 31
0.0
  0
LINE
  5
1026
330
2
100
AcDbEntity
  8
CENTER
100
AcDbLine
 10
193.438695638584
 20
637.4068891181199
 30
0.0
 11
193.4386956385842
 21
576.6831651181199
 31
0.0
  0
LINE
  5
1028
330
2
100
AcDbEntity
  8
0
100
AcDbLine
 10
269.5758416385838
 20
621.4268481181201
 30
0.0
 11
240.4187826385839
 21
621.4268481181201
 31
0.0
  0
LINE
  5
1029
330
2
100
AcDbEntity
  8
0
100
AcDbLine
 10
269.591343638584
 20
626.6984851181201
 30
0.0
 11
238.5364276385839
 21
626.6984851181201
 31
0.0
  0
LINE
  5
102A
330
2
100
AcDbEntity
  8
0
100
AcDbLine
 10
240.2227986385837
 20
622.39782611812
 30
0.0
 11
269.7718096385838
 21
622.39782611812
 31
0.0
  0
LINE
  5
102B
330
2
100
AcDbEntity
  8
0
100
AcDbLine
 10
239.871785638584
 20
624.1368701181199
 30
0.0
 11
270.1228226385838
 21
624.1368701181199
 31
0.0
  0
LINE
  5
102C
330
2
100
AcDbEntity
  8
0
100
AcDbLine
 10
233.4729966385852
 20
591.84264311812
 30
0.0
 11
233.472996638585
 21
617.94943511812
 31
0.0
  0
ARC
  5
102D
330
2
100
AcDbEntity
  8
0
100
AcDbCircle
 10
222.6730706385838
 20
591.84264311812
 30
0.0
 40
10.8
100
AcDbArc
 50
270.0
 51
0.0
  0
ARC
  5
102E
330
2
100
AcDbEntity
  8
0
100
AcDbCircle
 10
227.4270986385847
 20
622.8831621181201
 30
0.0
 40
2.799999999999998
100
AcDbArc
 50
24.99999999999935
 51
90.0
  0
LINE
  5
102F
330
2
100
AcDbEntity
  8
0
100
AcDbLine
 10
229.9648186385841
 20
624.06649611812
 30
0.0
 11
230.030980638585
 21
623.9244671181198
 31
0.0
  0
LINE
  5
1030
330
2
100
AcDbEntity
  8
0
100
AcDbLine
 10
223.438695638584
 20
625.6831651181199
 30
0.0
 11
223.438695638584
 21
627.18316511812
 31
0.0
  0
LINE
  5
1031
330
2
100
AcDbEntity
  8
0
100
AcDbLine
 10
234.8892566385841
 20
620.6099381181201
 30
0.0
 11
232.751927638584
 21
625.1932821181197
 31
0.0
  0
LINE
  5
1032
330
2
100
AcDbEntity
  8
0
100
AcDbLine
 10
239.4385426385838
 20
622.22900211812
 30
0.0
 11
238.4385886385839
 21
627.1831651181202
 31
0.0
  0
ARC
  5
1033
330
2
100
AcDbEntity
  8
0
100
AcDbCircle
 10
234.4729966385837
 20
617.94943511812
 30
0.0
 40
1.0
100
AcDbArc
 50
135.7174989999921
 51
180.0
  0
ARC
  5
1034
330
2
100
AcDbEntity
  8
0
100
AcDbCircle
 10
233.7110336385833
 20
620.06053411812
 30
0.0
 40
1.3
100
AcDbArc
 50
295.000000000008
 51
24.99999999999935
  0
ARC
  5
1035
330
2
100
AcDbEntity
  8
0
100
AcDbCircle
 10
240.4187826385839
 20
622.4268481181201
 30
0.0
 40
1.0
100
AcDbArc
 50
191.4112549999965
 51
270.0
  0
ARC
  5
1036
330
2
100
AcDbEntity
  8
0
100
AcDbCircle
 10
240.2227986385837
 20
623.3978261181199
 30
0.0
 40
1.0
100
AcDbArc
 50
191.4112549999965
 51
270.0
  0
ARC
  5
1037
330
2
100
AcDbEntity
  8
0
100
AcDbCircle
 10
239.871785638584
 20
625.1368701181199
 30
0.0
 40
1.0
100
AcDbArc
 50
191.4112549999965
 51
270.0
  0
LINE
  5
1038
330
2
100
AcDbEntity
  8
0
100
AcDbLine
 10
291.9385886385839
 20
629.1831651181202
 30
0.0
 11
272.7776996385837
 21
629.1831651181202
 31
0.0
  0
LINE
  5
1039
330
2
100
AcDbEntity
  8
0
100
AcDbLine
 10
270.5560656385837
 20
622.22900211812
 30
0.0
 11
271.7928976385838
 21
628.3568101181201
 31
0.0
  0
ARC
  5
103A
330
2
100
AcDbEntity
  8
0
100
AcDbCircle
 10
269.5758416385838
 20
622.4268481181201
 30
0.0
 40
1.0
100
AcDbArc
 50
270.0
 51
348.5887379999994
  0
ARC
  5
103B
330
2
100
AcDbEntity
  8
0
100
AcDbCircle
 10
269.7718096385838
 20
623.3978261181199
 30
0.0
 40
1.0
100
AcDbArc
 50
270.0
 51
348.5887379999994
  0
ARC
  5
103C
330
2
100
AcDbEntity
  8
0
100
AcDbCircle
 10
272.7776996385837
 20
628.18316511812
 30
0.0
 40
1.0
100
AcDbArc
 50
90.0
 51
170.0000000000013
  0
ARC
  5
103D
330
2
100
AcDbEntity
  8
0
100
AcDbCircle
 10
270.1228226385838
 20
625.1368701181199
 30
0.0
 40
1.0
100
AcDbArc
 50
270.0
 51
348.5887379999994
  0
ARC
  5
103E
330
2
100
AcDbEntity
  8
0
100
AcDbCircle
 10
269.4656576385839
 20
631.1728811181199
 30
0.0
 40
1.0
100
AcDbArc
 50
270.0
 51
350.0000000000013
  0
ARC
  5
103F
330
2
100
AcDbEntity
  8
0
100
AcDbCircle
 10
269.591343638584
 20
627.6984851181201
 30
0.0
 40
1.0
100
AcDbArc
 50
270.0
 51
350.0000000000013
  0
LINE
  5
1040
330
2
100
AcDbEntity
  8
0
100
AcDbLine
 10
270.5761616385839
 20
627.5248401181201
 30
0.0
 11
271.9385886385839
 21
635.25158511812
 31
0.0
  0
LINE
  5
1041
330
2
100
AcDbEntity
  8
0
100
AcDbLine
 10
271.9385886385839
 20
673.30450311812
 30
0.0
 11
271.9385886385839
 21
729.06182711812
 31
0.0
  0
LINE
  5
1042
330
2
100
AcDbEntity
  8
0
100
AcDbLine
 10
269.565739638584
 20
654.0765061181201
 30
0.0
 11
271.9385886385839
 21
667.53362911812
 31
0.0
  0
LINE
  5
1043
330
2
100
AcDbEntity
  8
0
100
AcDbLine
 10
269.807301638584
 20
645.0867291181201
 30
0.0
 11
271.9385886385839
 21
657.17385711812
 31
0.0
  0
LINE
  5
1044
330
2
100
AcDbEntity
  8
0
100
AcDbLine
 10
270.1235856385837
 20
639.0418081181202
 30
0.0
 11
271.9385886385839
 21
649.3352341181199
 31
0.0
  0
ARC
  5
1045
330
2
100
AcDbEntity
  8
0
100
AcDbCircle
 10
269.1387836385838
 20
639.21545311812
 30
0.0
 40
1.0
100
AcDbArc
 50
270.0
 51
350.0000000000013
  0
ARC
  5
1046
330
2
100
AcDbEntity
  8
0
100
AcDbCircle
 10
268.8224996385838
 20
645.2603741181199
 30
0.0
 40
1.0
100
AcDbArc
 50
270.0
 51
350.0000000000013
  0
ARC
  5
1047
330
2
100
AcDbEntity
  8
0
100
AcDbCircle
 10
268.5809376385839
 20
654.2501511181201
 30
0.0
 40
1.0
100
AcDbArc
 50
270.0
 51
350.0000000000013
  0
ARC
  5
1048
330
2
100
AcDbEntity
  8
0
100
AcDbCircle
 10
269.7420856385838
 20
666.6062911181199
 30
0.0
 40
1.0
100
AcDbArc
 50
270.0
 51
350.0000000000013
  0
LINE
  5
1049
330
2
100
AcDbEntity
  8
0
100
AcDbLine
 10
270.7269036385839
 20
666.4326461181201
 30
0.0
 11
271.9385886385839
 21
673.30450311812
 31
0.0
  0
LINE
  5
104A
330
2
100
AcDbEntity
  8
0
100
AcDbLine
 10
269.807301638584
 20
757.2796011181202
 30
0.0
 11
271.9385886385839
 21
745.19247311812
 31
0.0
  0
LINE
  5
104B
330
2
100
AcDbEntity
  8
0
100
AcDbLine
 10
270.7269036385839
 20
735.9336841181201
 30
0.0
 11
271.9385886385839
 21
729.06182711812
 31
0.0
  0
ARC
  5
104C
330
2
100
AcDbEntity
  8
0
100
AcDbCircle
 10
268.5809376385839
 20
748.1161791181199
 30
0.0
 40
1.0
100
AcDbArc
 50
9.999999999998609
 51
90.0
  0
ARC
  5
104D
330
2
100
AcDbEntity
  8
0
100
AcDbCircle
 10
269.7420856385838
 20
735.7600391181202
 30
0.0
 40
1.0
100
AcDbArc
 50
9.999999999998609
 51
90.0
  0
LINE
  5
104E
330
2
100
AcDbEntity
  8
0
100
AcDbLine
 10
269.565739638584
 20
748.2898241181202
 30
0.0
 11
271.9385886385839
 21
734.8327011181201
 31
0.0
  0
LINE
  5
104F
330
2
100
AcDbEntity
  8
0
100
AcDbLine
 10
270.5761616385839
 20
774.8414901181201
 30
0.0
 11
271.9385886385839
 21
767.1147451181199
 31
0.0
  0
LINE
  5
1050
330
2
100
AcDbEntity
  8
0
100
AcDbLine
 10
270.4504596385838
 20
771.36709411812
 30
0.0
 11
271.9385886385839
 21
762.9274891181199
 31
0.0
  0
LINE
  5
1051
330
2
100
AcDbEntity
  8
0
100
AcDbLine
 10
270.1235856385837
 20
763.3245221181201
 30
0.0
 11
271.9385886385839
 21
753.03109611812
 31
0.0
  0
ARC
  5
1052
330
2
100
AcDbEntity
  8
0
100
AcDbCircle
 10
268.8224996385838
 20
757.1059561181201
 30
0.0
 40
1.0
100
AcDbArc
 50
9.999999999998609
 51
90.0
  0
ARC
  5
1053
330
2
100
AcDbEntity
  8
0
100
AcDbCircle
 10
269.1387836385838
 20
763.15087711812
 30
0.0
 40
1.0
100
AcDbArc
 50
9.999999999998609
 51
90.0
  0
LINE
  5
1054
330
2
100
AcDbEntity
  8
0
100
AcDbLine
 10
291.9385886385839
 20
773.1831651181201
 30
0.0
 11
272.7776996385837
 21
773.1831651181201
 31
0.0
  0
ARC
  5
1055
330
2
100
AcDbEntity
  8
0
100
AcDbCircle
 10
272.7776996385837
 20
774.1831651181201
 30
0.0
 40
1.0
100
AcDbArc
 50
189.9999999999986
 51
270.0
  0
ARC
  5
1056
330
2
100
AcDbEntity
  8
0
100
AcDbCircle
 10
269.4656576385839
 20
771.1934491181201
 30
0.0
 40
1.0
100
AcDbArc
 50
9.999999999998609
 51
90.0
  0
ARC
  5
1057
330
2
100
AcDbEntity
  8
0
100
AcDbCircle
 10
269.5758416385838
 20
779.9394521181201
 30
0.0
 40
1.0
100
AcDbArc
 50
11.4112549999965
 51
90.0
  0
ARC
  5
1058
330
2
100
AcDbEntity
  8
0
100
AcDbCircle
 10
270.1228226385838
 20
777.2294601181203
 30
0.0
 40
1.0
100
AcDbArc
 50
11.4112549999965
 51
90.0
  0
ARC
  5
1059
330
2
100
AcDbEntity
  8
0
100
AcDbCircle
 10
269.7718096385838
 20
778.96850411812
 30
0.0
 40
1.0
100
AcDbArc
 50
11.4112549999965
 51
90.0
  0
ARC
  5
105A
330
2
100
AcDbEntity
  8
0
100
AcDbCircle
 10
269.591343638584
 20
774.66784511812
 30
0.0
 40
1.0
100
AcDbArc
 50
9.999999999998609
 51
90.0
  0
LINE
  5
105B
330
2
100
AcDbEntity
  8
0
100
AcDbLine
 10
270.5560656385837
 20
780.13732811812
 30
0.0
 11
271.7928976385838
 21
774.0095201181201
 31
0.0
  0
ARC
  5
106C
330
2
100
AcDbEntity
  8
0
100
AcDbCircle
 10
687.0548640255333
 20
338.4506521181195
 30
0.0
 40
6.799999999999998
100
AcDbArc
 50
90.0
 51
180.0
  0
LINE
  5
106F
330
2
100
AcDbEntity
  8
0
100
AcDbLine
 10
680.2548640255331
 20
271.4506521181199
 30
0.0
 11
680.2548640255331
 21
338.4506521181199
 31
0.0
  0
LINE
  5
1075
330
2
100
AcDbEntity
  8
0
100
AcDbLine
 10
687.0420890559328
 20
345.2506401181201
 30
0.0
 11
715.2548640255332
 21
345.2506401181201
 31
0.0
  0
LINE
  5
1098
330
2
100
AcDbEntity
  8
HIDS
100
AcDbLine
 10
1518.858378025534
 20
345.9506521181199
 30
0.0
 11
1439.858378025534
 21
345.9506521181199
 31
0.0
  0
LINE
  5
1099
330
2
100
AcDbEntity
  8
HIDS
100
AcDbLine
 10
1439.858378025534
 20
263.9506521181199
 30
0.0
 11
1518.858378025534
 21
263.9506521181199
 31
0.0
  0
LINE
  5
109A
330
2
100
AcDbEntity
  8
HIDS
100
AcDbLine
 10
1434.858440025532
 20
340.9506521181199
 30
0.0
 11
1434.858440025532
 21
268.9506521181199
 31
0.0
  0
ARC
  5
109B
330
2
100
AcDbEntity
  8
HIDS
100
AcDbCircle
 10
1439.858378025534
 20
268.95065211812
 30
0.0
 40
5.0
100
AcDbArc
 50
180.0
 51
270.0
  0
ARC
  5
109C
330
2
100
AcDbEntity
  8
HIDS
100
AcDbCircle
 10
1439.858378025534
 20
340.95065211812
 30
0.0
 40
5.0
100
AcDbArc
 50
90.0
 51
180.0
  0
LINE
  5
109D
330
2
100
AcDbEntity
  8
HIDS
100
AcDbLine
 10
1523.858378025534
 20
340.9506521181199
 30
0.0
 11
1523.858378025534
 21
268.9506521181199
 31
0.0
  0
ARC
  5
109E
330
2
100
AcDbEntity
  8
HIDS
100
AcDbCircle
 10
1518.858378025534
 20
268.95065211812
 30
0.0
 40
5.0
100
AcDbArc
 50
270.0
 51
0.0
  0
ARC
  5
109F
330
2
100
AcDbEntity
  8
HIDS
100
AcDbCircle
 10
1518.858378025534
 20
340.95065211812
 30
0.0
 40
5.0
100
AcDbArc
 50
0.0
 51
90.0
  0
ARC
  5
10A0
330
2
100
AcDbEntity
  8
HIDS
100
AcDbCircle
 10
1518.858378025534
 20
340.95065211812
 30
0.0
 40
5.0
100
AcDbArc
 50
0.0
 51
90.0
  0
TEXT
  5
1D27
330
2
100
AcDbEntity
  8
TITLE
100
AcDbText
 10
699.2888727116024
 20
645.6114135855973
 30
0.0
 40
12.0
  1
H2LB-50L-300~450-075
100
AcDbText
  0
ENDSEC
  0
SECTION
  2
OBJECTS
  0
DICTIONARY
  5
7
330
0
100
AcDbDictionary
  3
ACAD_GROUP
350
75
  3
ACAD_LAYOUT
350
61
  3
ACAD_MLINESTYLE
350
76
  3
ACAD_PLOTSETTINGS
350
77
  3
ACAD_PLOTSTYLENAME
350
6
  3
ACADDIM
350
480
  3
ACDBHEADERROUNDTRIPXREC
350
1D7D
  3
ACDBVARIABLEDICTIONARY
350
102
  3
DWGPROPS
350
3D2
  0
DICTIONARY
  5
1D9E
330
2
100
AcDbDictionary
280
     1
  3
ACAD_LAYOUTSELFREF
360
1D9F
  0
DICTIONARY
  5
1DA0
330
1D77
100
AcDbDictionary
280
     1
  3
ACAD_LAYOUTSELFREF
360
1DA1
  0
DICTIONARY
  5
75
102
{ACAD_REACTORS
330
7
102
}
330
7
100
AcDbDictionary
  0
DICTIONARY
  5
61
102
{ACAD_REACTORS
330
7
102
}
330
7
100
AcDbDictionary
  0
DICTIONARY
  5
76
102
{ACAD_REACTORS
330
7
102
}
330
7
100
AcDbDictionary
  3
STANDARD
350
78
  0
DICTIONARY
  5
77
102
{ACAD_REACTORS
330
7
102
}
330
7
100
AcDbDictionary
  0
ACDBDICTIONARYWDFLT
  5
6
102
{ACAD_REACTORS
330
7
102
}
330
7
100
AcDbDictionary
281
     1
  3
Normal
350
5
100
AcDbDictionaryWithDefault
340
5
  0
XRECORD
  5
480
102
{ACAD_REACTORS
330
7
102
}
330
7
100
AcDbXrecord
 90
   990106
  3

 60
     0
 61
     0
 62
     1
 63
     3
 64
     1
 65
     0
 66
     0
 67
     3
 68
     1
 69
     0
 70
     0
 71
     0
 72
     0
 40
0.0
170
     2
340
0
  0
DICTIONARY
  5
1D7D
102
{ACAD_REACTORS
330
7
102
}
330
7
100
AcDbDictionary
  3
CEPSNTYPE
350
1D87
  3
DIMSTYLEDATA
350
1D8B
  3
FINGERPRINTGUID
350
1D88
  3
HYPERLINKBASE
350
1D80
  3
INSUNITS
350
1D86
  3
LAYOUTDICT
350
1D82
  3
LWETCUNION
350
1D85
  3
PLOTSETDICT
350
1D83
  3
PLOTSTYLNAMDICT
350
1D84
  3
PSVPSCALE
350
1D8A
  3
PUCSBASE
350
1D8E
  3
PUCSORGBACK
350
1D94
  3
PUCSORGBOTTOM
350
1D90
  3
PUCSORGFRONT
350
1D93
  3
PUCSORGLEFT
350
1D91
  3
PUCSORGRIGHT
350
1D92
  3
PUCSORGTOP
350
1D8F
  3
PUCSORTHOREF
350
1D8C
  3
PUCSORTHOVIEW
350
1D8D
  3
STYLESHEET
350
1D81
  3
TSTACKALIGN
350
1D7E
  3
TSTACKSIZE
350
1D7F
  3
UCSBASE
350
1D97
  3
UCSORGBACK
350
1D9D
  3
UCSORGBOTTOM
350
1D99
  3
UCSORGFRONT
350
1D9C
  3
UCSORGLEFT
350
1D9A
  3
UCSORGRIGHT
350
1D9B
  3
UCSORGTOP
350
1D98
  3
UCSORTHOREF
350
1D95
  3
UCSORTHOVIEW
350
1D96
  3
VERSIONGUID
350
1D89
  0
DICTIONARY
  5
102
102
{ACAD_REACTORS
330
7
102
}
330
7
100
AcDbDictionary
  3
DIMASSOC
350
103
  0
XRECORD
  5
3D2
102
{ACAD_REACTORS
330
7
102
}
330
7
100
AcDbXrecord
  1
DWGPROPS COOKIE
  2

  3

  4

  6

  7

  8

  9

300
=
301
=
302
=
303
=
304
=
305
=
306
=
307
=
308
=
309
=
 40
0.5353330671296296
 41
2452052.431989363
 42
2453406.550756377
  1

 90
        0
  0
XRECORD
  5
1D9F
102
{ACAD_REACTORS
330
1D9E
102
}
330
1D9E
100
AcDbXrecord
340
2
  0
XRECORD
  5
1DA1
102
{ACAD_REACTORS
330
1DA0
102
}
330
1DA0
100
AcDbXrecord
340
1D77
  0
MLINESTYLE
  5
78
102
{ACAD_REACTORS
330
76
102
}
330
76
100
AcDbMlineStyle
  2
STANDARD
 70
     0
  3

 62
     0
 51
90.0
 52
90.0
 71
     2
 49
0.5
 62
   256
  6
BYLAYER
 49
-0.5
 62
   256
  6
BYLAYER
  0
ACDBPLACEHOLDER
  5
5
102
{ACAD_REACTORS
330
6
102
}
330
6
100
AcDbPlaceHolder
280
     0
  0
XRECORD
  5
1D87
102
{ACAD_REACTORS
330
1D7D
102
}
330
1D7D
100
AcDbXrecord
 90
        0
  0
XRECORD
  5
1D8B
102
{ACAD_REACTORS
330
1D7D
102
}
330
1D7D
100
AcDbXrecord
1000
DSTYLE
1002
{
1070
   179
 70
     2
1070
   277
 70
     6
1002
}
  0
XRECORD
  5
1D88
102
{ACAD_REACTORS
330
1D7D
102
}
330
1D7D
100
AcDbXrecord
  1
{6385560B-F4B1-4644-A7C2-A3E32AC3D232}
  0
XRECORD
  5
1D80
102
{ACAD_REACTORS
330
1D7D
102
}
330
1D7D
100
AcDbXrecord
  1

  0
XRECORD
  5
1D86
102
{ACAD_REACTORS
330
1D7D
102
}
330
1D7D
100
AcDbXrecord
 90
        0
  0
XRECORD
  5
1D82
102
{ACAD_REACTORS
330
1D7D
102
}
330
1D7D
100
AcDbXrecord
340
61
  0
XRECORD
  5
1D85
102
{ACAD_REACTORS
330
1D7D
102
}
330
1D7D
100
AcDbXrecord
 90
    10781
  0
XRECORD
  5
1D83
102
{ACAD_REACTORS
330
1D7D
102
}
330
1D7D
100
AcDbXrecord
340
77
  0
XRECORD
  5
1D84
102
{ACAD_REACTORS
330
1D7D
102
}
330
1D7D
100
AcDbXrecord
340
6
  0
XRECORD
  5
1D8A
102
{ACAD_REACTORS
330
1D7D
102
}
330
1D7D
100
AcDbXrecord
 40
0.0
  0
XRECORD
  5
1D8E
102
{ACAD_REACTORS
330
1D7D
102
}
330
1D7D
100
AcDbXrecord
340
0
  0
XRECORD
  5
1D94
102
{ACAD_REACTORS
330
1D7D
102
}
330
1D7D
100
AcDbXrecord
 10
0.0
 20
0.0
 30
0.0
  0
XRECORD
  5
1D90
102
{ACAD_REACTORS
330
1D7D
102
}
330
1D7D
100
AcDbXrecord
 10
0.0
 20
0.0
 30
0.0
  0
XRECORD
  5
1D93
102
{ACAD_REACTORS
330
1D7D
102
}
330
1D7D
100
AcDbXrecord
 10
0.0
 20
0.0
 30
0.0
  0
XRECORD
  5
1D91
102
{ACAD_REACTORS
330
1D7D
102
}
330
1D7D
100
AcDbXrecord
 10
0.0
 20
0.0
 30
0.0
  0
XRECORD
  5
1D92
102
{ACAD_REACTORS
330
1D7D
102
}
330
1D7D
100
AcDbXrecord
 10
0.0
 20
0.0
 30
0.0
  0
XRECORD
  5
1D8F
102
{ACAD_REACTORS
330
1D7D
102
}
330
1D7D
100
AcDbXrecord
 10
0.0
 20
0.0
 30
0.0
  0
XRECORD
  5
1D8C
102
{ACAD_REACTORS
330
1D7D
102
}
330
1D7D
100
AcDbXrecord
340
0
  0
XRECORD
  5
1D8D
102
{ACAD_REACTORS
330
1D7D
102
}
330
1D7D
100
AcDbXrecord
 70
     0
  0
XRECORD
  5
1D81
102
{ACAD_REACTORS
330
1D7D
102
}
330
1D7D
100
AcDbXrecord
  1
Sekkei.ctb
  0
XRECORD
  5
1D7E
102
{ACAD_REACTORS
330
1D7D
102
}
330
1D7D
100
AcDbXrecord
 90
        1
  0
XRECORD
  5
1D7F
102
{ACAD_REACTORS
330
1D7D
102
}
330
1D7D
100
AcDbXrecord
 90
       70
  0
XRECORD
  5
1D97
102
{ACAD_REACTORS
330
1D7D
102
}
330
1D7D
100
AcDbXrecord
340
0
  0
XRECORD
  5
1D9D
102
{ACAD_REACTORS
330
1D7D
102
}
330
1D7D
100
AcDbXrecord
 10
0.0
 20
0.0
 30
0.0
  0
XRECORD
  5
1D99
102
{ACAD_REACTORS
330
1D7D
102
}
330
1D7D
100
AcDbXrecord
 10
0.0
 20
0.0
 30
0.0
  0
XRECORD
  5
1D9C
102
{ACAD_REACTORS
330
1D7D
102
}
330
1D7D
100
AcDbXrecord
 10
0.0
 20
0.0
 30
0.0
  0
XRECORD
  5
1D9A
102
{ACAD_REACTORS
330
1D7D
102
}
330
1D7D
100
AcDbXrecord
 10
0.0
 20
0.0
 30
0.0
  0
XRECORD
  5
1D9B
102
{ACAD_REACTORS
330
1D7D
102
}
330
1D7D
100
AcDbXrecord
 10
0.0
 20
0.0
 30
0.0
  0
XRECORD
  5
1D98
102
{ACAD_REACTORS
330
1D7D
102
}
330
1D7D
100
AcDbXrecord
 10
0.0
 20
0.0
 30
0.0
  0
XRECORD
  5
1D95
102
{ACAD_REACTORS
330
1D7D
102
}
330
1D7D
100
AcDbXrecord
340
0
  0
XRECORD
  5
1D96
102
{ACAD_REACTORS
330
1D7D
102
}
330
1D7D
100
AcDbXrecord
 70
     0
  0
XRECORD
  5
1D89
102
{ACAD_REACTORS
330
1D7D
102
}
330
1D7D
100
AcDbXrecord
  1
{A5CFC78B-F34F-45CA-BF00-69EE850623B9}
  0
DICTIONARYVAR
  5
103
102
{ACAD_REACTORS
330
102
102
}
330
102
100
DictionaryVariables
280
     0
  1
1
  0
ENDSEC
  0
EOF
