  0
SECTION
  2
HEADER
  9
$ACADVER
  1
AC1014
  9
$ACADMAINTVER
 70
     9
  9
$DWGCODEPAGE
  3
ANSI_932
  9
$INSBASE
 10
0.0
 20
0.0
 30
0.0
  9
$EXTMIN
 10
40.48475341369112
 20
73.51092929915797
 30
0.0
  9
$EXTMAX
 10
1014.349050122723
 20
858.9133204131661
 30
0.0
  9
$LIMMIN
 10
0.0
 20
0.0
  9
$LIMMAX
 10
297.0
 20
210.0
  9
$ORTHOMODE
 70
     0
  9
$REGENMODE
 70
     1
  9
$FILLMODE
 70
     1
  9
$QTEXTMODE
 70
     0
  9
$MIRRTEXT
 70
     0
  9
$DRAGMODE
 70
     2
  9
$LTSCALE
 40
4.0
  9
$OSMODE
 70
    37
  9
$ATTMODE
 70
     1
  9
$TEXTSIZE
 40
2.0
  9
$TRACEWID
 40
1.0
  9
$TEXTSTYLE
  7
STANDARD
  9
$CLAYER
  8
0
  9
$CELTYPE
  6
BYLAYER
  9
$CECOLOR
 62
   256
  9
$CELTSCALE
 40
1.0
  9
$DELOBJ
 70
     1
  9
$DISPSILH
 70
     0
  9
$DIMSCALE
 40
4.0
  9
$DIMASZ
 40
1.8
  9
$DIMEXO
 40
0.625
  9
$DIMDLI
 40
3.75
  9
$DIMRND
 40
0.0
  9
$DIMDLE
 40
0.0
  9
$DIMEXE
 40
1.25
  9
$DIMTP
 40
0.0
  9
$DIMTM
 40
0.0
  9
$DIMTXT
 40
1.8
  9
$DIMCEN
 40
2.5
  9
$DIMTSZ
 40
0.0
  9
$DIMTOL
 70
     0
  9
$DIMLIM
 70
     0
  9
$DIMTIH
 70
     0
  9
$DIMTOH
 70
     0
  9
$DIMSE1
 70
     0
  9
$DIMSE2
 70
     0
  9
$DIMTAD
 70
     1
  9
$DIMZIN
 70
     8
  9
$DIMBLK
  1

  9
$DIMASO
 70
     1
  9
$DIMSHO
 70
     1
  9
$DIMPOST
  1

  9
$DIMAPOST
  1

  9
$DIMALT
 70
     0
  9
$DIMALTD
 70
     4
  9
$DIMALTF
 40
0.0394
  9
$DIMLFAC
 40
1.0
  9
$DIMTOFL
 70
     1
  9
$DIMTVP
 40
0.0
  9
$DIMTIX
 70
     0
  9
$DIMSOXD
 70
     0
  9
$DIMSAH
 70
     0
  9
$DIMBLK1
  1

  9
$DIMBLK2
  1

  9
$DIMSTYLE
  2
STANDARD
  9
$DIMCLRD
 70
     0
  9
$DIMCLRE
 70
     0
  9
$DIMCLRT
 70
     0
  9
$DIMTFAC
 40
1.0
  9
$DIMGAP
 40
0.75
  9
$DIMJUST
 70
     0
  9
$DIMSD1
 70
     0
  9
$DIMSD2
 70
     0
  9
$DIMTOLJ
 70
     1
  9
$DIMTZIN
 70
     0
  9
$DIMALTZ
 70
     0
  9
$DIMALTTZ
 70
     0
  9
$DIMFIT
 70
     3
  9
$DIMUPT
 70
     0
  9
$DIMUNIT
 70
     8
  9
$DIMDEC
 70
     2
  9
$DIMTDEC
 70
     2
  9
$DIMALTU
 70
     8
  9
$DIMALTTD
 70
     4
  9
$DIMTXSTY
  7
STANDARD
  9
$DIMAUNIT
 70
     0
  9
$LUNITS
 70
     2
  9
$LUPREC
 70
     3
  9
$SKETCHINC
 40
1.0
  9
$FILLETRAD
 40
10.0
  9
$AUNITS
 70
     0
  9
$AUPREC
 70
     2
  9
$MENU
  1
.
  9
$ELEVATION
 40
0.0
  9
$PELEVATION
 40
0.0
  9
$THICKNESS
 40
0.0
  9
$LIMCHECK
 70
     0
  9
$BLIPMODE
 70
     0
  9
$CHAMFERA
 40
0.0
  9
$CHAMFERB
 40
0.0
  9
$CHAMFERC
 40
20.0
  9
$CHAMFERD
 40
0.0
  9
$SKPOLY
 70
     0
  9
$TDCREATE
 40
2453479.411862338
  9
$TDUPDATE
 40
2454028.472054930
  9
$TDINDWG
 40
0.0380112616
  9
$TDUSRTIMER
 40
0.0380112616
  9
$USRTIMER
 70
     1
  9
$ANGBASE
 50
0.0
  9
$ANGDIR
 70
     0
  9
$PDMODE
 70
     0
  9
$PDSIZE
 40
-10.0
  9
$PLINEWID
 40
0.0
  9
$COORDS
 70
     2
  9
$SPLFRAME
 70
     0
  9
$SPLINETYPE
 70
     6
  9
$SPLINESEGS
 70
     8
  9
$ATTDIA
 70
     0
  9
$ATTREQ
 70
     1
  9
$HANDLING
 70
-16383
  9
$HANDSEED
  5
1A23
  9
$SURFTAB1
 70
     6
  9
$SURFTAB2
 70
     6
  9
$SURFTYPE
 70
     6
  9
$SURFU
 70
     6
  9
$SURFV
 70
     6
  9
$UCSNAME
  2

  9
$UCSORG
 10
0.0
 20
0.0
 30
0.0
  9
$UCSXDIR
 10
1.0
 20
0.0
 30
0.0
  9
$UCSYDIR
 10
0.0
 20
1.0
 30
0.0
  9
$PUCSNAME
  2

  9
$PUCSORG
 10
0.0
 20
0.0
 30
0.0
  9
$PUCSXDIR
 10
1.0
 20
0.0
 30
0.0
  9
$PUCSYDIR
 10
0.0
 20
1.0
 30
0.0
  9
$USERI1
 70
     0
  9
$USERI2
 70
     0
  9
$USERI3
 70
     0
  9
$USERI4
 70
     0
  9
$USERI5
 70
     0
  9
$USERR1
 40
0.0
  9
$USERR2
 40
0.0
  9
$USERR3
 40
0.0
  9
$USERR4
 40
0.0
  9
$USERR5
 40
0.0
  9
$WORLDVIEW
 70
     1
  9
$SHADEDGE
 70
     3
  9
$SHADEDIF
 70
    70
  9
$TILEMODE
 70
     1
  9
$MAXACTVP
 70
    48
  9
$PINSBASE
 10
0.0
 20
0.0
 30
0.0
  9
$PLIMCHECK
 70
     0
  9
$PEXTMIN
 10
0.0
 20
0.0
 30
0.0
  9
$PEXTMAX
 10
0.0
 20
0.0
 30
0.0
  9
$PLIMMIN
 10
0.0
 20
0.0
  9
$PLIMMAX
 10
12.0
 20
9.0
  9
$UNITMODE
 70
     0
  9
$VISRETAIN
 70
     1
  9
$PLINEGEN
 70
     0
  9
$PSLTSCALE
 70
     1
  9
$TREEDEPTH
 70
  3020
  9
$PICKSTYLE
 70
     1
  9
$CMLSTYLE
  2
STANDARD
  9
$CMLJUST
 70
     0
  9
$CMLSCALE
 40
1.0
  9
$PROXYGRAPHICS
 70
     1
  9
$MEASUREMENT
 70
     0
  0
ENDSEC
  0
SECTION
  2
CLASSES
  0
CLASS
  1
DICTIONARYVAR
  2
AcDbDictionaryVar
  3
AutoCAD 2000
 90
        0
280
     0
281
     0
  0
CLASS
  1
ACDBDICTIONARYWDFLT
  2
AcDbDictionaryWithDefault
  3
AutoCAD 2000
 90
        0
280
     0
281
     0
  0
CLASS
  1
ACDBPLACEHOLDER
  2
AcDbPlaceHolder
  3
AutoCAD 2000
 90
        0
280
     0
281
     0
  0
CLASS
  1
LAYOUT
  2
AcDbLayout
  3
AutoCAD 2000
 90
        0
280
     0
281
     0
  0
CLASS
  1
LONG_TRANSACTION
  2
AcDbLongTransaction
  3
AutoCAD 2000
 90
        0
280
     0
281
     0
  0
CLASS
  1
LWPOLYLINE
  2
AcDbPolyline
  3
AutoCAD 2000
 90
        0
280
     0
281
     1
  0
CLASS
  1
HATCH
  2
AcDbHatch
  3
AutoCAD 2000
 90
        0
280
     0
281
     1
  0
CLASS
  1
XRECORD
  2
AcDbXrecord
  3
AutoCAD 2000
 90
        0
280
     0
281
     0
  0
ENDSEC
  0
SECTION
  2
TABLES
  0
TABLE
  2
VPORT
  5
6E
330
0
100
AcDbSymbolTable
 70
     2
  0
VPORT
  5
19FD
330
6E
100
AcDbSymbolTableRecord
100
AcDbViewportTableRecord
  2
*ACTIVE
 70
     0
 10
0.0
 20
0.0
 11
1.0
 21
1.0
 12
519.0308374425801
 22
442.7399760860149
 13
0.0
 23
0.0
 14
10.0
 24
10.0
 15
10.0
 25
10.0
 16
0.0
 26
0.0
 36
1.0
 17
0.0
 27
0.0
 37
0.0
 40
838.9381814951367
 41
1.566970091027308
 42
50.0
 43
0.0
 44
0.0
 50
0.0
 51
0.0
 71
     0
 72
   100
 73
     1
 74
     3
 75
     0
 76
     0
 77
     0
 78
     0
  0
ENDTAB
  0
TABLE
  2
LTYPE
  5
69
330
0
100
AcDbSymbolTable
 70
     3
  0
LTYPE
  5
6A
330
69
100
AcDbSymbolTableRecord
100
AcDbLinetypeTableRecord
  2
BYBLOCK
 70
     0
  3

 72
    65
 73
     0
 40
0.0
  0
LTYPE
  5
6B
330
69
100
AcDbSymbolTableRecord
100
AcDbLinetypeTableRecord
  2
BYLAYER
 70
     0
  3

 72
    65
 73
     0
 40
0.0
  0
LTYPE
  5
8
330
69
100
AcDbSymbolTableRecord
100
AcDbLinetypeTableRecord
  2
CONTINUOUS
 70
     0
  3
Solid line
 72
    65
 73
     0
 40
0.0
  0
LTYPE
  5
27C
330
69
100
AcDbSymbolTableRecord
100
AcDbLinetypeTableRecord
  2
SEKKEI_A2_
 70
     0
  3
center(A2)  ____ _ ____ _ ____ _ ____ _ ____ _ 
 72
    65
 73
     4
 40
14.28749999999999
 49
9.525
 74
     0
 49
-1.587499999999999
 74
     0
 49
1.587499999999999
 74
     0
 49
-1.587499999999999
 74
     0
  0
LTYPE
  5
2B4
330
69
100
AcDbSymbolTableRecord
100
AcDbLinetypeTableRecord
  2
HIDDEN2
 70
     0
  3
Hidden (.5x) _ _ _ _ _ _ _ _ _ _ _ _ _ _ _ _ _
 72
    65
 73
     2
 40
4.762499999999999
 49
3.174999999999999
 74
     0
 49
-1.587499999999999
 74
     0
  0
ENDTAB
  0
TABLE
  2
LAYER
  5
66
330
0
100
AcDbSymbolTable
 70
     8
  0
LAYER
  5
5E
330
66
100
AcDbSymbolTableRecord
100
AcDbLayerTableRecord
  2
0
 70
     0
 62
     7
  6
CONTINUOUS
  0
LAYER
  5
3E
330
66
100
AcDbSymbolTableRecord
100
AcDbLayerTableRecord
  2
CENTER
 70
     0
 62
     3
  6
SEKKEI_A2_
  0
LAYER
  5
2B5
330
66
100
AcDbSymbolTableRecord
100
AcDbLayerTableRecord
  2
HIDS
 70
     0
 62
     1
  6
HIDDEN2
  0
LAYER
  5
3FA
330
66
100
AcDbSymbolTableRecord
100
AcDbLayerTableRecord
  2
TITLE
 70
     0
 62
     4
  6
CONTINUOUS
  0
ENDTAB
  0
TABLE
  2
STYLE
  5
67
330
0
100
AcDbSymbolTable
 70
     1
  0
STYLE
  5
16
330
67
100
AcDbSymbolTableRecord
100
AcDbTextStyleTableRecord
  2
STANDARD
 70
     0
 40
0.0
 41
1.0
 50
0.0
 71
     0
 42
2.0
  3
simplex.shx
  4
extfont.shx
  0
ENDTAB
  0
TABLE
  2
VIEW
  5
6C
330
0
100
AcDbSymbolTable
 70
     0
  0
ENDTAB
  0
TABLE
  2
UCS
  5
6D
330
0
100
AcDbSymbolTable
 70
     0
  0
ENDTAB
  0
TABLE
  2
APPID
  5
70
330
0
100
AcDbSymbolTable
 70
     1
  0
APPID
  5
71
330
70
100
AcDbSymbolTableRecord
100
AcDbRegAppTableRecord
  2
ACAD
 70
     0
  0
ENDTAB
  0
TABLE
  2
DIMSTYLE
  5
72
330
0
100
AcDbSymbolTable
 70
     1
  0
DIMSTYLE
105
73
330
72
100
AcDbSymbolTableRecord
100
AcDbDimStyleTableRecord
  2
STANDARD
 70
     0
  3

  4

  5

  6

  7

 40
4.0
 41
1.8
 42
0.625
 43
3.75
 44
1.25
 45
0.0
 46
0.0
 47
0.0
 48
0.0
140
1.8
141
2.5
142
0.0
143
0.0394
144
1.0
145
0.0
146
1.0
147
0.75
 71
     0
 72
     0
 73
     0
 74
     0
 75
     0
 76
     0
 77
     1
 78
     8
170
     0
171
     4
172
     1
173
     0
174
     0
175
     0
176
     0
177
     0
178
     0
270
     8
271
     2
272
     2
273
     8
274
     4
340
16
275
     0
280
     0
281
     0
282
     0
283
     1
284
     0
285
     0
286
     0
287
     3
288
     0
  0
ENDTAB
  0
TABLE
  2
BLOCK_RECORD
  5
1
330
0
100
AcDbSymbolTable
 70
    51
  0
BLOCK_RECORD
  5
2
102
{ACAD_XDICTIONARY
360
1A1F
102
}
330
1
100
AcDbSymbolTableRecord
100
AcDbBlockTableRecord
  2
*MODEL_SPACE
  0
BLOCK_RECORD
  5
19F8
102
{ACAD_XDICTIONARY
360
1A21
102
}
330
1
100
AcDbSymbolTableRecord
100
AcDbBlockTableRecord
  2
*PAPER_SPACE
  0
ENDTAB
  0
ENDSEC
  0
SECTION
  2
BLOCKS
  0
BLOCK
  5
5D
330
2
100
AcDbEntity
  8
0
100
AcDbBlockBegin
  2
*MODEL_SPACE
 70
     0
 10
0.0
 20
0.0
 30
0.0
  3
*MODEL_SPACE
  1

  0
ENDBLK
  5
5F
330
2
100
AcDbEntity
  8
0
100
AcDbBlockEnd
  0
BLOCK
  5
19FA
330
19F8
100
AcDbEntity
 67
     1
  8
0
100
AcDbBlockBegin
  2
*PAPER_SPACE
 70
     0
 10
0.0
 20
0.0
 30
0.0
  3
*PAPER_SPACE
  1

  0
ENDBLK
  5
19FB
330
19F8
100
AcDbEntity
 67
     1
  8
0
100
AcDbBlockEnd
  0
ENDSEC
  0
SECTION
  2
ENTITIES
  0
LINE
  5
76A
330
2
100
AcDbEntity
  8
0
100
AcDbLine
 10
497.2242086325056
 20
182.6671092991579
 30
0.0
 11
506.7242086325056
 21
182.6671092991579
 31
0.0
  0
ARC
  5
76B
330
2
100
AcDbEntity
  8
0
100
AcDbCircle
 10
495.4742086325056
 20
197.3023482991578
 30
0.0
 40
11.25
100
AcDbArc
 50
311.8104209999998
 51
59.13299199999959
  0
LINE
  5
76C
330
2
100
AcDbEntity
  8
0
100
AcDbLine
 10
506.7242086325056
 20
182.6671092991579
 30
0.0
 11
502.9742086325057
 21
188.9171092991579
 31
0.0
  0
LINE
  5
76E
330
2
100
AcDbEntity
  8
0
100
AcDbLine
 10
421.9954176325056
 20
124.6671092991579
 30
0.0
 11
506.4530286325056
 21
124.6671092991579
 31
0.0
  0
ARC
  5
76F
330
2
100
AcDbEntity
  8
0
100
AcDbCircle
 10
464.2242086325056
 20
291.6671092991579
 30
0.0
 40
56.360001
100
AcDbArc
 50
164.2378999999996
 51
15.7621899999999
  0
ARC
  5
770
330
2
100
AcDbEntity
  8
0
100
AcDbCircle
 10
498.2242086325056
 20
205.6671092991578
 30
0.0
 40
51.639999
100
AcDbArc
 50
270.0
 51
15.7621899999999
  0
ARC
  5
771
330
2
100
AcDbEntity
  8
0
100
AcDbCircle
 10
498.2242086325056
 20
205.6671092991578
 30
0.0
 40
47.0
100
AcDbArc
 50
270.0
 51
15.7621899999999
  0
ARC
  5
772
330
2
100
AcDbEntity
  8
0
100
AcDbCircle
 10
464.2242086325056
 20
291.6671092991579
 30
0.0
 40
61.0
100
AcDbArc
 50
15.7621899999999
 51
164.2378999999996
  0
CIRCLE
  5
773
330
2
100
AcDbEntity
  8
0
100
AcDbCircle
 10
464.2242086325056
 20
291.6671092991579
 30
0.0
 40
55.0
  0
LINE
  5
774
330
2
100
AcDbEntity
  8
0
100
AcDbLine
 10
502.9300186325054
 20
397.2847392991578
 30
0.0
 11
562.3355976325057
 21
359.0955002991579
 31
0.0
  0
LINE
  5
775
330
2
100
AcDbEntity
  8
0
100
AcDbLine
 10
359.2242086325055
 20
91.66710929915797
 30
0.0
 11
569.2242086325056
 21
91.66710929915797
 31
0.0
  0
LINE
  5
776
330
2
100
AcDbEntity
  8
CENTER
100
AcDbLine
 10
389.0474215093709
 20
291.6671092991579
 30
0.0
 11
539.4009957556404
 21
291.6671092991579
 31
0.0
  0
LINE
  5
777
330
2
100
AcDbEntity
  8
0
100
AcDbLine
 10
513.7934526325055
 20
627.8570154131662
 30
0.0
 11
414.6549636325055
 21
627.8570154131662
 31
0.0
  0
LINE
  5
778
330
2
100
AcDbEntity
  8
0
100
AcDbLine
 10
558.2626606325056
 20
649.8569844131662
 30
0.0
 11
359.2242086325055
 21
649.8569844131662
 31
0.0
  0
LINE
  5
779
330
2
100
AcDbEntity
  8
0
100
AcDbLine
 10
513.7934526325055
 20
801.8569844131659
 30
0.0
 11
414.6549636325055
 21
801.8569844131659
 31
0.0
  0
LINE
  5
77A
330
2
100
AcDbEntity
  8
0
100
AcDbLine
 10
563.1761426325055
 20
779.8569844131661
 30
0.0
 11
359.2242086325055
 21
779.8569844131661
 31
0.0
  0
LINE
  5
77B
330
2
100
AcDbEntity
  8
0
100
AcDbLine
 10
540.6820026325056
 20
599.8570154131662
 30
0.0
 11
492.7242086325057
 21
599.8570154131662
 31
0.0
  0
LINE
  5
77C
330
2
100
AcDbEntity
  8
0
100
AcDbLine
 10
540.6820026325056
 20
829.8569844131661
 30
0.0
 11
464.2242086325056
 21
829.8569844131661
 31
0.0
  0
LINE
  5
77D
330
2
100
AcDbEntity
  8
CENTER
100
AcDbLine
 10
591.4908096325055
 20
714.8569844131661
 30
0.0
 11
40.48475341369112
 21
714.8569844131661
 31
0.0
  0
TEXT
  5
7B5
330
2
100
AcDbEntity
  8
TITLE
100
AcDbText
 10
746.5995112705544
 20
631.4392166186175
 30
0.0
 40
12.0
  1
H2LB-50R-300~450-075W
100
AcDbText
  0
LINE
  5
824
330
2
100
AcDbEntity
  8
0
100
AcDbLine
 10
333.7242086325056
 20
144.1672272991579
 30
0.0
 11
333.7242086325056
 21
309.1672312991578
 31
0.0
  0
LINE
  5
825
330
2
100
AcDbEntity
  8
0
100
AcDbLine
 10
296.2240856325055
 20
219.4171092991579
 30
0.0
 11
296.2240856325055
 21
176.9171092991579
 31
0.0
  0
LINE
  5
826
330
2
100
AcDbEntity
  8
0
100
AcDbLine
 10
321.7240856325056
 20
146.4296292991579
 30
0.0
 11
321.7240856325056
 21
260.9171092991579
 31
0.0
  0
LINE
  5
827
330
2
100
AcDbEntity
  8
0
100
AcDbLine
 10
268.6887166325055
 20
199.2027692991579
 30
0.0
 11
293.2957566325055
 21
174.5963082991579
 31
0.0
  0
LINE
  5
828
330
2
100
AcDbEntity
  8
0
100
AcDbLine
 10
478.4742086325054
 20
207.6671092991578
 30
0.0
 11
478.4742086325054
 21
182.6671092991579
 31
0.0
  0
LINE
  5
829
330
2
100
AcDbEntity
  8
0
100
AcDbLine
 10
489.7242086325056
 20
195.1671092991578
 30
0.0
 11
497.2242086325056
 21
182.6671092991579
 31
0.0
  0
LINE
  5
82A
330
2
100
AcDbEntity
  8
0
100
AcDbLine
 10
486.5992086325056
 20
198.9171092991578
 30
0.0
 11
486.5992086325056
 21
182.6671092991579
 31
0.0
  0
LINE
  5
82B
330
2
100
AcDbEntity
  8
0
100
AcDbLine
 10
468.3492086325056
 20
198.9171092991578
 30
0.0
 11
468.3492086325056
 21
182.6671092991579
 31
0.0
  0
LINE
  5
82C
330
2
100
AcDbEntity
  8
0
100
AcDbLine
 10
459.5992086325056
 20
198.9171092991578
 30
0.0
 11
459.5992086325056
 21
182.6671092991579
 31
0.0
  0
LINE
  5
82D
330
2
100
AcDbEntity
  8
0
100
AcDbLine
 10
449.2242086325056
 20
195.1671092991578
 30
0.0
 11
449.2242086325056
 21
182.6671092991579
 31
0.0
  0
ARC
  5
82E
330
2
100
AcDbEntity
  8
0
100
AcDbCircle
 10
439.2242086325055
 20
191.2908272991578
 30
0.0
 40
8.75
100
AcDbArc
 50
135.5460969999996
 51
220.5290069999997
  0
ARC
  5
82F
330
2
100
AcDbEntity
  8
0
100
AcDbCircle
 10
437.9742086325056
 20
192.0745492991579
 30
0.0
 40
16.25
100
AcDbArc
 50
112.352501
 51
215.374496
  0
LINE
  5
830
330
2
100
AcDbEntity
  8
0
100
AcDbLine
 10
441.0992086325056
 20
195.1671092991578
 30
0.0
 11
441.0992086325056
 21
185.1671092991579
 31
0.0
  0
LINE
  5
831
330
2
100
AcDbEntity
  8
0
100
AcDbLine
 10
350.2242086325056
 20
178.3611022991579
 30
0.0
 11
350.2242086325056
 21
274.9731092991579
 31
0.0
  0
ARC
  5
832
330
2
100
AcDbEntity
  8
0
100
AcDbCircle
 10
430.2242086325056
 20
205.6671092991578
 30
0.0
 40
51.639999
100
AcDbArc
 50
164.2378999999996
 51
270.0
  0
ARC
  5
833
330
2
100
AcDbEntity
  8
0
100
AcDbCircle
 10
430.2242086325056
 20
205.6671092991578
 30
0.0
 40
47.0
100
AcDbArc
 50
164.2378999999996
 51
270.0
  0
LINE
  5
834
330
2
100
AcDbEntity
  8
CENTER
100
AcDbLine
 10
464.2242086325056
 20
414.2421372991578
 30
0.0
 11
464.2242086325056
 21
73.51092929915802
 31
0.0
  0
ARC
  5
835
330
2
100
AcDbEntity
  8
0
100
AcDbCircle
 10
356.7242086325055
 20
173.3611022991579
 30
0.0
 40
2.5
100
AcDbArc
 50
0.0
 51
90.0
  0
ARC
  5
836
330
2
100
AcDbEntity
  8
0
100
AcDbCircle
 10
344.2242696325055
 20
129.1671702991579
 30
0.0
 40
15.0
100
AcDbArc
 50
0.0
 51
90.0
  0
ARC
  5
837
330
2
100
AcDbEntity
  8
0
100
AcDbCircle
 10
311.7242086325056
 20
161.2577462991579
 30
0.0
 40
10.0
100
AcDbArc
 50
0.0
 51
88.4997859999996
  0
LINE
  5
838
330
2
100
AcDbEntity
  8
0
100
AcDbLine
 10
311.9860486325055
 20
171.2543282991579
 30
0.0
 11
300.3636126325055
 21
171.5587112991579
 31
0.0
  0
ARC
  5
839
330
2
100
AcDbEntity
  8
0
100
AcDbCircle
 10
300.3664356325056
 20
181.6672312991579
 30
0.0
 40
10.0
100
AcDbArc
 50
225.000595
 51
270.0
  0
LINE
  5
83A
330
2
100
AcDbEntity
  8
0
100
AcDbLine
 10
344.2242386325055
 20
144.1672272991579
 30
0.0
 11
333.7242086325056
 21
144.1672272991579
 31
0.0
  0
LINE
  5
83B
330
2
100
AcDbEntity
  8
0
100
AcDbLine
 10
323.6718556325056
 20
144.4303502991579
 30
0.0
 11
333.7242086325056
 21
144.1671092991579
 31
0.0
  0
ARC
  5
83C
330
2
100
AcDbEntity
  8
0
100
AcDbCircle
 10
323.7240856325056
 20
146.4296292991579
 30
0.0
 40
2.0
100
AcDbArc
 50
180.0
 51
268.501312
  0
ARC
  5
83D
330
2
100
AcDbEntity
  8
0
100
AcDbCircle
 10
352.7242086325055
 20
178.3611022991579
 30
0.0
 40
2.5
100
AcDbArc
 50
180.0
 51
270.0
  0
LINE
  5
83E
330
2
100
AcDbEntity
  8
0
100
AcDbLine
 10
352.7242086325055
 20
175.8611022991579
 30
0.0
 11
356.7242086325055
 21
175.8611022991579
 31
0.0
  0
LINE
  5
83F
330
2
100
AcDbEntity
  8
0
100
AcDbLine
 10
424.7242086325056
 20
182.6671092991579
 30
0.0
 11
449.2242086325056
 21
182.6671092991579
 31
0.0
  0
LINE
  5
840
330
2
100
AcDbEntity
  8
0
100
AcDbLine
 10
430.2242086325056
 20
158.6671092991579
 30
0.0
 11
498.2242086325056
 21
158.6671092991579
 31
0.0
  0
LINE
  5
841
330
2
100
AcDbEntity
  8
0
100
AcDbLine
 10
430.2242086325056
 20
154.0271102991579
 30
0.0
 11
498.2242086325056
 21
154.0271102991579
 31
0.0
  0
LINE
  5
842
330
2
100
AcDbEntity
  8
0
100
AcDbLine
 10
359.2242086325055
 20
173.3611022991579
 30
0.0
 11
359.2242086325055
 21
91.66710929915797
 31
0.0
  0
LINE
  5
843
330
2
100
AcDbEntity
  8
0
100
AcDbLine
 10
377.2242086325056
 20
91.66710929915797
 30
0.0
 11
377.2242086325056
 21
113.7296092991579
 31
0.0
  0
LINE
  5
844
330
2
100
AcDbEntity
  8
HIDS
100
AcDbLine
 10
380.2242086325056
 20
116.6671092991579
 30
0.0
 11
380.2242086325056
 21
91.66710929915797
 31
0.0
  0
LINE
  5
845
330
2
100
AcDbEntity
  8
CENTER
100
AcDbLine
 10
389.2242086325056
 20
128.3171092991579
 30
0.0
 11
389.2242086325056
 21
80.01710929915796
 31
0.0
  0
LINE
  5
846
330
2
100
AcDbEntity
  8
HIDS
100
AcDbLine
 10
398.2242086325056
 20
116.6671092991579
 30
0.0
 11
398.2242086325056
 21
91.66710929915797
 31
0.0
  0
ARC
  5
847
330
2
100
AcDbEntity
  8
0
100
AcDbCircle
 10
410.3444166325056
 20
123.6671092991579
 30
0.0
 40
7.0
100
AcDbArc
 50
270.0
 51
327.99469
  0
ARC
  5
848
330
2
100
AcDbEntity
  8
0
100
AcDbCircle
 10
416.2242086325056
 20
119.6671092991579
 30
0.0
 40
3.0
100
AcDbArc
 50
270.0
 51
0.0
  0
ARC
  5
849
330
2
100
AcDbEntity
  8
0
100
AcDbCircle
 10
421.9954176325056
 20
119.6671092991579
 30
0.0
 40
5.0
100
AcDbArc
 50
90.0
 51
147.9947970000001
  0
LINE
  5
84A
330
2
100
AcDbEntity
  8
0
100
AcDbLine
 10
417.7553976325054
 20
122.3171112991579
 30
0.0
 11
416.2804216325055
 21
119.9571482991579
 31
0.0
  0
LINE
  5
84B
330
2
100
AcDbEntity
  8
0
100
AcDbLine
 10
419.2242086325056
 20
122.7014872991579
 30
0.0
 11
419.2242086325056
 21
119.6671092991579
 31
0.0
  0
LINE
  5
84C
330
2
100
AcDbEntity
  8
0
100
AcDbLine
 10
459.5992086325056
 20
182.6671092991579
 30
0.0
 11
468.3492086325056
 21
182.6671092991579
 31
0.0
  0
LINE
  5
84D
330
2
100
AcDbEntity
  8
0
100
AcDbLine
 10
433.5236166325055
 20
185.1671092991579
 30
0.0
 11
441.0992086325056
 21
185.1671092991579
 31
0.0
  0
ARC
  5
84E
330
2
100
AcDbEntity
  8
0
100
AcDbCircle
 10
433.5236166325055
 20
186.4171092991579
 30
0.0
 40
1.25
100
AcDbArc
 50
220.5301969999998
 51
270.0
  0
LINE
  5
84F
330
2
100
AcDbEntity
  8
0
100
AcDbLine
 10
478.4742086325054
 20
182.6671092991579
 30
0.0
 11
486.5992086325056
 21
182.6671092991579
 31
0.0
  0
LINE
  5
850
330
2
100
AcDbEntity
  8
CENTER
100
AcDbLine
 10
346.6610066325056
 20
380.6670942991579
 30
0.0
 11
364.7586316325056
 21
380.6670942991579
 31
0.0
  0
LINE
  5
851
330
2
100
AcDbEntity
  8
0
100
AcDbLine
 10
357.2244216325054
 20
338.6671092991579
 30
0.0
 11
359.2242086325055
 21
337.6671092991578
 31
0.0
  0
LINE
  5
852
330
2
100
AcDbEntity
  8
0
100
AcDbLine
 10
357.2244216325054
 20
359.6670942991579
 30
0.0
 11
368.8576006325055
 21
361.4722702991579
 31
0.0
  0
ARC
  5
853
330
2
100
AcDbEntity
  8
0
100
AcDbCircle
 10
356.7242086325055
 20
279.9731092991578
 30
0.0
 40
2.5
100
AcDbArc
 50
270.0
 51
0.0
  0
ARC
  5
854
330
2
100
AcDbEntity
  8
0
100
AcDbCircle
 10
355.7242086325056
 20
231.1671092991579
 30
0.0
 40
2.5
100
AcDbArc
 50
0.0
 51
90.0
  0
ARC
  5
855
330
2
100
AcDbEntity
  8
0
100
AcDbCircle
 10
355.7242086325056
 20
222.1671092991579
 30
0.0
 40
2.5
100
AcDbArc
 50
270.0
 51
0.0
  0
LINE
  5
856
330
2
100
AcDbEntity
  8
CENTER
100
AcDbLine
 10
40.48475341369112
 20
277.6671092991579
 30
0.0
 11
384.2809406325055
 21
277.6671092991579
 31
0.0
  0
ARC
  5
857
330
2
100
AcDbEntity
  8
0
100
AcDbCircle
 10
344.2242086325056
 20
324.1672312991578
 30
0.0
 40
15.0
100
AcDbArc
 50
270.0
 51
0.0
  0
ARC
  5
858
330
2
100
AcDbEntity
  8
0
100
AcDbCircle
 10
374.2242386325055
 20
346.4779152991579
 30
0.0
 40
15.0
100
AcDbArc
 50
122.7356029999998
 51
180.0
  0
LINE
  5
859
330
2
100
AcDbEntity
  8
CENTER
100
AcDbLine
 10
291.4742086325056
 20
226.6671092991579
 30
0.0
 11
378.8847616325056
 21
226.6671092991579
 31
0.0
  0
LINE
  5
85B
330
2
100
AcDbEntity
  8
0
100
AcDbLine
 10
263.2242086325056
 20
349.6670942991579
 30
0.0
 11
263.2242086325056
 21
205.6671092991578
 31
0.0
  0
ARC
  5
85C
330
2
100
AcDbEntity
  8
0
100
AcDbCircle
 10
284.2241476325056
 20
320.4671882991579
 30
0.0
 40
10.0
100
AcDbArc
 50
180.0
 51
268.4997859999995
  0
LINE
  5
85D
330
2
100
AcDbEntity
  8
0
100
AcDbLine
 10
274.2242086325056
 20
345.6670942991578
 30
0.0
 11
274.2242086325056
 21
270.2921092991579
 31
0.0
  0
LINE
  5
85E
330
2
100
AcDbEntity
  8
0
100
AcDbLine
 10
283.9623066325055
 20
310.4705612991579
 30
0.0
 11
333.7242086325056
 21
309.1671092991579
 31
0.0
  0
ARC
  5
86B
330
2
100
AcDbEntity
  8
0
100
AcDbCircle
 10
264.2242236325055
 20
203.6671092991579
 30
0.0
 40
3.0
100
AcDbArc
 50
0.0
 51
90.0
  0
LINE
  5
86C
330
2
100
AcDbEntity
  8
0
100
AcDbLine
 10
264.2242086325056
 20
206.6671092991578
 30
0.0
 11
263.2242086325056
 21
206.6671092991578
 31
0.0
  0
LINE
  5
86D
330
2
100
AcDbEntity
  8
0
100
AcDbLine
 10
267.2242086325056
 20
208.1671092991578
 30
0.0
 11
267.2242086325056
 21
202.7383912991578
 31
0.0
  0
ARC
  5
86E
330
2
100
AcDbEntity
  8
0
100
AcDbCircle
 10
272.2241926325056
 20
202.7383912991578
 30
0.0
 40
5.0
100
AcDbArc
 50
180.0
 51
225.0010070000001
  0
ARC
  5
877
330
2
100
AcDbEntity
  8
0
100
AcDbCircle
 10
352.7242086325055
 20
217.1671092991579
 30
0.0
 40
2.5
100
AcDbArc
 50
90.0
 51
180.0
  0
LINE
  5
878
330
2
100
AcDbEntity
  8
0
100
AcDbLine
 10
352.7242086325055
 20
219.6671092991579
 30
0.0
 11
355.7242086325056
 21
219.6671092991579
 31
0.0
  0
ARC
  5
879
330
2
100
AcDbEntity
  8
0
100
AcDbCircle
 10
352.7242086325055
 20
236.1671092991578
 30
0.0
 40
2.5
100
AcDbArc
 50
180.0
 51
270.0
  0
LINE
  5
87A
330
2
100
AcDbEntity
  8
0
100
AcDbLine
 10
352.7242086325055
 20
233.6671092991579
 30
0.0
 11
355.7242086325056
 21
233.6671092991579
 31
0.0
  0
LINE
  5
87B
330
2
100
AcDbEntity
  8
0
100
AcDbLine
 10
324.2819776325055
 20
289.1211042991578
 30
0.0
 11
285.3581496325056
 21
289.1211042991578
 31
0.0
  0
LINE
  5
87C
330
2
100
AcDbEntity
  8
0
100
AcDbLine
 10
285.3581496325056
 20
280.5731152991578
 30
0.0
 11
324.2819776325055
 21
280.5731152991578
 31
0.0
  0
LINE
  5
87D
330
2
100
AcDbEntity
  8
0
100
AcDbLine
 10
325.7242086325055
 20
287.5031382991579
 30
0.0
 11
325.7242086325055
 21
283.0597792991579
 31
0.0
  0
ARC
  5
87E
330
2
100
AcDbEntity
  8
0
100
AcDbCircle
 10
352.7242086325055
 20
274.9731092991579
 30
0.0
 40
2.5
100
AcDbArc
 50
90.0
 51
180.0
  0
LINE
  5
87F
330
2
100
AcDbEntity
  8
0
100
AcDbLine
 10
352.7242086325055
 20
277.4731092991578
 30
0.0
 11
356.7242086325055
 21
277.4731092991578
 31
0.0
  0
LINE
  5
880
330
2
100
AcDbEntity
  8
0
100
AcDbLine
 10
333.7242086325056
 20
309.1672312991578
 30
0.0
 11
344.2241476325055
 21
309.1672312991578
 31
0.0
  0
LINE
  5
88B
330
2
100
AcDbEntity
  8
0
100
AcDbLine
 10
271.2242086325056
 20
348.6670942991579
 30
0.0
 11
263.2242086325056
 21
348.6670942991579
 31
0.0
  0
ARC
  5
88C
330
2
100
AcDbEntity
  8
0
100
AcDbCircle
 10
271.2242236325056
 20
345.6670942991578
 30
0.0
 40
3.0
100
AcDbArc
 50
0.0
 51
90.0
  0
LINE
  5
88D
330
2
100
AcDbEntity
  8
0
100
AcDbLine
 10
354.0248066325055
 20
396.6670942991578
 30
0.0
 11
354.0248066325055
 21
336.6671092991579
 31
0.0
  0
LINE
  5
88E
330
2
100
AcDbEntity
  8
0
100
AcDbLine
 10
357.2223776325055
 20
396.6670942991578
 30
0.0
 11
357.2248186325056
 21
336.6671092991579
 31
0.0
  0
LINE
  5
88F
330
2
100
AcDbEntity
  8
0
100
AcDbLine
 10
352.0248066325055
 20
354.3671062991579
 30
0.0
 11
352.0248066325055
 21
338.9671122991579
 31
0.0
  0
ARC
  5
890
330
2
100
AcDbEntity
  8
0
100
AcDbCircle
 10
348.2248186325056
 20
341.7298992991579
 30
0.0
 40
1.5
100
AcDbArc
 50
90.0
 51
180.0
  0
ARC
  5
891
330
2
100
AcDbEntity
  8
0
100
AcDbCircle
 10
348.2248186325056
 20
344.729899299158
 30
0.0
 40
1.5
100
AcDbArc
 50
180.0
 51
270.0
  0
LINE
  5
892
330
2
100
AcDbEntity
  8
0
100
AcDbLine
 10
346.7248186325056
 20
352.3570962991578
 30
0.0
 11
346.7248186325056
 21
340.9771072991579
 31
0.0
  0
LINE
  5
893
330
2
100
AcDbEntity
  8
0
100
AcDbLine
 10
357.2244216325054
 20
359.6670942991579
 30
0.0
 11
357.2244216325054
 21
338.6671092991579
 31
0.0
  0
LINE
  5
894
330
2
100
AcDbEntity
  8
0
100
AcDbLine
 10
357.2244216325054
 20
359.6670942991579
 30
0.0
 11
357.2244216325054
 21
338.6671092991579
 31
0.0
  0
LINE
  5
895
330
2
100
AcDbEntity
  8
0
100
AcDbLine
 10
348.2248186325056
 20
343.2298992991579
 30
0.0
 11
352.0248066325055
 21
343.2298992991579
 31
0.0
  0
LINE
  5
896
330
2
100
AcDbEntity
  8
0
100
AcDbLine
 10
348.2248186325056
 20
339.4771072991579
 30
0.0
 11
352.0248066325055
 21
339.4771072991579
 31
0.0
  0
ARC
  5
897
330
2
100
AcDbEntity
  8
0
100
AcDbCircle
 10
348.2248186325056
 20
340.9771072991579
 30
0.0
 40
1.5
100
AcDbArc
 50
180.0
 51
270.0
  0
LINE
  5
898
330
2
100
AcDbEntity
  8
0
100
AcDbLine
 10
352.0248066325055
 20
338.9671122991579
 30
0.0
 11
354.0248066325055
 21
338.9671122991579
 31
0.0
  0
LINE
  5
899
330
2
100
AcDbEntity
  8
0
100
AcDbLine
 10
354.0248066325055
 20
336.6671092991579
 30
0.0
 11
357.2248186325056
 21
336.6671092991579
 31
0.0
  0
LINE
  5
89A
330
2
100
AcDbEntity
  8
0
100
AcDbLine
 10
348.2248186325056
 20
350.1043192991579
 30
0.0
 11
352.0248066325055
 21
350.1043192991579
 31
0.0
  0
LINE
  5
89B
330
2
100
AcDbEntity
  8
0
100
AcDbLine
 10
348.2248186325056
 20
353.8570962991578
 30
0.0
 11
352.0248066325055
 21
353.8570962991578
 31
0.0
  0
ARC
  5
89C
330
2
100
AcDbEntity
  8
0
100
AcDbCircle
 10
348.2248186325056
 20
352.3570962991578
 30
0.0
 40
1.5
100
AcDbArc
 50
90.0
 51
180.0
  0
ARC
  5
89D
330
2
100
AcDbEntity
  8
0
100
AcDbCircle
 10
348.2248186325056
 20
351.6043192991579
 30
0.0
 40
1.5
100
AcDbArc
 50
180.0
 51
270.0
  0
ARC
  5
89E
330
2
100
AcDbEntity
  8
0
100
AcDbCircle
 10
348.2248186325056
 20
348.6043192991579
 30
0.0
 40
1.5
100
AcDbArc
 50
90.0
 51
180.0
  0
LINE
  5
89F
330
2
100
AcDbEntity
  8
0
100
AcDbLine
 10
352.0248066325055
 20
354.3671062991579
 30
0.0
 11
354.0248066325055
 21
354.3671062991579
 31
0.0
  0
LINE
  5
8A0
330
2
100
AcDbEntity
  8
HIDS
100
AcDbLine
 10
354.0248066325055
 20
370.6670942991579
 30
0.0
 11
357.2248186325056
 21
370.6670942991579
 31
0.0
  0
LINE
  5
8A1
330
2
100
AcDbEntity
  8
0
100
AcDbLine
 10
354.0248066325055
 20
396.6670942991578
 30
0.0
 11
357.2223776325055
 21
396.6670942991578
 31
0.0
  0
LINE
  5
8A2
330
2
100
AcDbEntity
  8
HIDS
100
AcDbLine
 10
354.0248066325055
 20
390.6670942991578
 30
0.0
 11
357.2248186325056
 21
390.6670942991578
 31
0.0
  0
ARC
  5
8A3
330
2
100
AcDbEntity
  8
0
100
AcDbCircle
 10
464.2242086325056
 20
291.6671092991579
 30
0.0
 40
25.0
100
AcDbArc
 50
16.26018900000009
 51
343.7398069999997
  0
LINE
  5
8A4
330
2
100
AcDbEntity
  8
0
100
AcDbLine
 10
359.2242086325055
 20
279.9731092991578
 30
0.0
 11
359.2242086325055
 21
346.4779152991579
 31
0.0
  0
LINE
  5
8A5
330
2
100
AcDbEntity
  8
0
100
AcDbLine
 10
384.9915116325054
 20
218.4343672991579
 30
0.0
 11
409.9834246325055
 21
306.9769242991579
 31
0.0
  0
LINE
  5
8A6
330
2
100
AcDbEntity
  8
0
100
AcDbLine
 10
380.5259966325056
 20
219.6947892991579
 30
0.0
 11
405.5180006325056
 21
308.2373152991579
 31
0.0
  0
LINE
  5
8A7
330
2
100
AcDbEntity
  8
0
100
AcDbLine
 10
358.2242086325056
 20
222.1671092991579
 30
0.0
 11
358.2242086325056
 21
231.1671092991579
 31
0.0
  0
LINE
  5
8A8
330
2
100
AcDbEntity
  8
0
100
AcDbLine
 10
455.2242086325056
 20
207.6671092991578
 30
0.0
 11
472.7242086325056
 21
207.6671092991578
 31
0.0
  0
LINE
  5
8A9
330
2
100
AcDbEntity
  8
0
100
AcDbLine
 10
449.2242086325056
 20
198.9171092991578
 30
0.0
 11
449.2242086325056
 21
207.6671092991578
 31
0.0
  0
ARC
  5
8AA
330
2
100
AcDbEntity
  8
0
100
AcDbCircle
 10
434.6466016325056
 20
200.1671092991578
 30
0.0
 40
7.5
100
AcDbArc
 50
90.0
 51
112.3526989999998
  0
LINE
  5
8AB
330
2
100
AcDbEntity
  8
0
100
AcDbLine
 10
436.5474196325054
 20
198.9171092991578
 30
0.0
 11
449.2242086325056
 21
198.9171092991578
 31
0.0
  0
ARC
  5
8AC
330
2
100
AcDbEntity
  8
0
100
AcDbCircle
 10
436.5474196325054
 20
193.9171092991578
 30
0.0
 40
5.0
100
AcDbArc
 50
90.0
 51
135.5462039999995
  0
LINE
  5
8AD
330
2
100
AcDbEntity
  8
0
100
AcDbLine
 10
441.0992086325056
 20
195.1671092991578
 30
0.0
 11
449.2242086325056
 21
195.1671092991578
 31
0.0
  0
LINE
  5
8AE
330
2
100
AcDbEntity
  8
0
100
AcDbLine
 10
434.6466016325056
 20
207.6671092991578
 30
0.0
 11
449.2242086325056
 21
207.6671092991578
 31
0.0
  0
LINE
  5
8AF
330
2
100
AcDbEntity
  8
0
100
AcDbLine
 10
455.2242086325056
 20
207.6671092991578
 30
0.0
 11
455.2242086325056
 21
198.9171092991578
 31
0.0
  0
LINE
  5
8B0
330
2
100
AcDbEntity
  8
0
100
AcDbLine
 10
455.2242086325056
 20
198.9171092991578
 30
0.0
 11
459.5992086325056
 21
198.9171092991578
 31
0.0
  0
LINE
  5
8B1
330
2
100
AcDbEntity
  8
0
100
AcDbLine
 10
498.6808126325054
 20
207.6671092991578
 30
0.0
 11
478.4742086325054
 21
207.6671092991578
 31
0.0
  0
LINE
  5
8B2
330
2
100
AcDbEntity
  8
0
100
AcDbLine
 10
472.7242086325056
 20
207.6671092991578
 30
0.0
 11
472.7242086325056
 21
198.9171092991578
 31
0.0
  0
LINE
  5
8B3
330
2
100
AcDbEntity
  8
0
100
AcDbLine
 10
468.3492086325056
 20
198.9171092991578
 30
0.0
 11
472.7242086325056
 21
198.9171092991578
 31
0.0
  0
ARC
  5
8B4
330
2
100
AcDbEntity
  8
0
100
AcDbCircle
 10
498.6808126325054
 20
202.6671092991579
 30
0.0
 40
5.0
100
AcDbArc
 50
59.13309900000024
 51
90.0
  0
LINE
  5
8B5
330
2
100
AcDbEntity
  8
0
100
AcDbLine
 10
489.7242086325056
 20
195.1671092991578
 30
0.0
 11
495.3492086325057
 21
195.1671092991578
 31
0.0
  0
LINE
  5
8B6
330
2
100
AcDbEntity
  8
0
100
AcDbLine
 10
486.5992086325056
 20
198.9171092991578
 30
0.0
 11
495.3492086325057
 21
198.9171092991578
 31
0.0
  0
ARC
  5
8B7
330
2
100
AcDbEntity
  8
0
100
AcDbCircle
 10
495.3492086325057
 20
197.0421092991578
 30
0.0
 40
1.875
100
AcDbArc
 50
270.0
 51
90.0
  0
LINE
  5
8B8
330
2
100
AcDbEntity
  8
0
100
AcDbLine
 10
492.7242086325057
 20
298.6673232991579
 30
0.0
 11
483.7242086325057
 21
298.6671092991579
 31
0.0
  0
LINE
  5
8B9
330
2
100
AcDbEntity
  8
0
100
AcDbLine
 10
492.7242086325057
 20
284.6673072991578
 30
0.0
 11
483.7242086325057
 21
284.6671092991579
 31
0.0
  0
LINE
  5
8BA
330
2
100
AcDbEntity
  8
0
100
AcDbLine
 10
483.7242086325057
 20
284.6671092991579
 30
0.0
 11
483.7242086325057
 21
298.6671092991579
 31
0.0
  0
LINE
  5
8BB
330
2
100
AcDbEntity
  8
0
100
AcDbLine
 10
492.7242086325057
 20
284.6673072991578
 30
0.0
 11
492.7242086325057
 21
298.6673232991579
 31
0.0
  0
ARC
  5
8BC
330
2
100
AcDbEntity
  8
0
100
AcDbCircle
 10
433.6298176325055
 20
384.6670942991579
 30
0.0
 40
15.0
100
AcDbArc
 50
90.0
 51
122.7354969999997
  0
LINE
  5
8BD
330
2
100
AcDbEntity
  8
0
100
AcDbLine
 10
366.1128496325056
 20
359.0955002991579
 30
0.0
 11
425.5183976325056
 21
397.2847392991578
 31
0.0
  0
ARC
  5
8BE
330
2
100
AcDbEntity
  8
0
100
AcDbCircle
 10
367.9375866325055
 20
367.4013162991578
 30
0.0
 40
6.0
100
AcDbArc
 50
278.8204039999996
 51
302.7352289999999
  0
LINE
  5
8BF
330
2
100
AcDbEntity
  8
0
100
AcDbLine
 10
433.6298176325055
 20
399.6670942991579
 30
0.0
 11
494.8186296325056
 21
399.6670942991579
 31
0.0
  0
ARC
  5
8C0
330
2
100
AcDbEntity
  8
0
100
AcDbCircle
 10
494.8188126325056
 20
384.6670942991579
 30
0.0
 40
15.0
100
AcDbArc
 50
57.26490000000016
 51
90.0
  0
LINE
  5
918
330
2
100
AcDbEntity
  8
0
100
AcDbLine
 10
352.0244396325056
 20
722.5569974131659
 30
0.0
 11
352.0244396325056
 21
707.1569724131661
 31
0.0
  0
LINE
  5
919
330
2
100
AcDbEntity
  8
0
100
AcDbLine
 10
346.7244216325055
 20
720.5469874131658
 30
0.0
 11
346.7244216325055
 21
709.1669824131661
 31
0.0
  0
LINE
  5
91A
330
2
100
AcDbEntity
  8
0
100
AcDbLine
 10
354.0244396325055
 20
730.8569844131659
 30
0.0
 11
354.0244396325055
 21
698.8569844131661
 31
0.0
  0
LINE
  5
91B
330
2
100
AcDbEntity
  8
0
100
AcDbLine
 10
357.2244216325054
 20
730.8569844131659
 30
0.0
 11
357.2244216325054
 21
698.8569844131661
 31
0.0
  0
LINE
  5
91C
330
2
100
AcDbEntity
  8
0
100
AcDbLine
 10
263.2242086325056
 20
786.8569844131662
 30
0.0
 11
263.2242086325056
 21
642.8569844131661
 31
0.0
  0
LINE
  5
91E
330
2
100
AcDbEntity
  8
0
100
AcDbLine
 10
274.2241476325056
 20
783.065358413166
 30
0.0
 11
274.2239026325055
 21
646.6484884131659
 31
0.0
  0
LINE
  5
91F
330
2
100
AcDbEntity
  8
0
100
AcDbLine
 10
370.1130936325056
 20
702.8569844131661
 30
0.0
 11
370.1130936325056
 21
726.8569844131659
 31
0.0
  0
LINE
  5
920
330
2
100
AcDbEntity
  8
0
100
AcDbLine
 10
357.2244216325054
 20
729.3569844131662
 30
0.0
 11
357.2244216325054
 21
700.3569844131662
 31
0.0
  0
LINE
  5
921
330
2
100
AcDbEntity
  8
0
100
AcDbLine
 10
429.2242086325056
 20
772.8569844131661
 30
0.0
 11
429.2242086325056
 21
656.8569844131661
 31
0.0
  0
LINE
  5
922
330
2
100
AcDbEntity
  8
0
100
AcDbLine
 10
499.2242086325056
 20
772.8569844131661
 30
0.0
 11
499.2242086325056
 21
656.8569844131661
 31
0.0
  0
LINE
  5
923
330
2
100
AcDbEntity
  8
0
100
AcDbLine
 10
333.7242996325056
 20
797.3569844131661
 30
0.0
 11
333.7242996325056
 21
632.3570154131662
 31
0.0
  0
LINE
  5
924
330
2
100
AcDbEntity
  8
CENTER
100
AcDbLine
 10
464.2242086325056
 20
858.9133204131661
 30
0.0
 11
464.2242086325056
 21
530.3885094131659
 31
0.0
  0
LINE
  5
925
330
2
100
AcDbEntity
  8
0
100
AcDbLine
 10
357.2244216325054
 20
700.3569844131662
 30
0.0
 11
367.6130936325056
 21
700.3569844131662
 31
0.0
  0
ARC
  5
926
330
2
100
AcDbEntity
  8
0
100
AcDbCircle
 10
353.2242996325056
 20
645.3569844131662
 30
0.0
 40
5.0
100
AcDbArc
 50
270.0
 51
0.0
  0
ARC
  5
927
330
2
100
AcDbEntity
  8
0
100
AcDbCircle
 10
360.7242086325056
 20
647.3569844131661
 30
0.0
 40
2.5
100
AcDbArc
 50
90.0
 51
180.0
  0
LINE
  5
928
330
2
100
AcDbEntity
  8
0
100
AcDbLine
 10
354.3862566325055
 20
649.8569844131662
 30
0.0
 11
359.2242086325055
 21
649.8569844131662
 31
0.0
  0
LINE
  5
929
330
2
100
AcDbEntity
  8
0
100
AcDbLine
 10
263.2258406325056
 20
643.8569844131661
 30
0.0
 11
321.7243146325056
 21
642.3256734131662
 31
0.0
  0
ARC
  5
938
330
2
100
AcDbEntity
  8
0
100
AcDbCircle
 10
271.2241476325055
 20
646.6484884131659
 30
0.0
 40
3.0
100
AcDbArc
 50
268.5000609999994
 51
0.0
  0
LINE
  5
93F
330
2
100
AcDbEntity
  8
0
100
AcDbLine
 10
285.3579816325055
 20
652.403981413166
 30
0.0
 11
324.2818096325056
 21
652.403981413166
 31
0.0
  0
LINE
  5
940
330
2
100
AcDbEntity
  8
0
100
AcDbLine
 10
343.9794576325055
 20
632.3570154131662
 30
0.0
 11
333.7242996325056
 21
632.3570154131662
 31
0.0
  0
LINE
  5
941
330
2
100
AcDbEntity
  8
0
100
AcDbLine
 10
321.7243146325056
 20
634.5845234131661
 30
0.0
 11
321.7243146325056
 21
642.3256734131662
 31
0.0
  0
LINE
  5
942
330
2
100
AcDbEntity
  8
0
100
AcDbLine
 10
323.6789196325055
 20
632.5850424131661
 30
0.0
 11
333.7258566325055
 21
632.3570154131662
 31
0.0
  0
ARC
  5
943
330
2
100
AcDbEntity
  8
0
100
AcDbCircle
 10
323.7243146325056
 20
634.5845234131661
 30
0.0
 40
2.0
100
AcDbArc
 50
180.0
 51
268.6997679999999
  0
ARC
  5
944
330
2
100
AcDbEntity
  8
0
100
AcDbCircle
 10
351.5159566325056
 20
637.8569844131662
 30
0.0
 40
2.5
100
AcDbArc
 50
90.0
 51
177.0
  0
LINE
  5
945
330
2
100
AcDbEntity
  8
0
100
AcDbLine
 10
349.3931226325056
 20
645.1188254131661
 30
0.0
 11
348.9726216325055
 21
637.0953884131658
 31
0.0
  0
ARC
  5
946
330
2
100
AcDbEntity
  8
0
100
AcDbCircle
 10
343.9794576325055
 20
637.3569844131662
 30
0.0
 40
5.0
100
AcDbArc
 50
270.0
 51
357.0
  0
ARC
  5
947
330
2
100
AcDbEntity
  8
0
100
AcDbCircle
 10
354.3862566325055
 20
644.8569844131661
 30
0.0
 40
5.0
100
AcDbArc
 50
90.0
 51
177.0
  0
LINE
  5
948
330
2
100
AcDbEntity
  8
0
100
AcDbLine
 10
353.2242996325056
 20
640.3569844131661
 30
0.0
 11
351.5159566325056
 21
640.3569844131661
 31
0.0
  0
LINE
  5
949
330
2
100
AcDbEntity
  8
0
100
AcDbLine
 10
285.3579816325055
 20
660.950978413166
 30
0.0
 11
324.2818096325056
 21
660.950978413166
 31
0.0
  0
LINE
  5
94A
330
2
100
AcDbEntity
  8
0
100
AcDbLine
 10
325.7243146325056
 20
653.9390774131661
 30
0.0
 11
325.7243146325056
 21
659.2711084131661
 31
0.0
  0
LINE
  5
94B
330
2
100
AcDbEntity
  8
0
100
AcDbLine
 10
354.0244396325055
 20
698.8569844131661
 30
0.0
 11
357.2244216325054
 21
698.8569844131661
 31
0.0
  0
LINE
  5
94C
330
2
100
AcDbEntity
  8
0
100
AcDbLine
 10
348.2244216325055
 20
711.419790413166
 30
0.0
 11
352.0244396325056
 21
711.419790413166
 31
0.0
  0
LINE
  5
94D
330
2
100
AcDbEntity
  8
0
100
AcDbLine
 10
348.2244216325055
 20
707.6669824131658
 30
0.0
 11
352.0244396325056
 21
707.6669824131658
 31
0.0
  0
ARC
  5
94E
330
2
100
AcDbEntity
  8
0
100
AcDbCircle
 10
348.2244216325055
 20
709.9197904131661
 30
0.0
 40
1.5
100
AcDbArc
 50
90.0
 51
180.0
  0
ARC
  5
94F
330
2
100
AcDbEntity
  8
0
100
AcDbCircle
 10
348.2244216325055
 20
709.1669824131661
 30
0.0
 40
1.5
100
AcDbArc
 50
180.0
 51
270.0
  0
ARC
  5
950
330
2
100
AcDbEntity
  8
0
100
AcDbCircle
 10
348.2244216325055
 20
712.919790413166
 30
0.0
 40
1.5
100
AcDbArc
 50
180.0
 51
270.0
  0
LINE
  5
951
330
2
100
AcDbEntity
  8
0
100
AcDbLine
 10
352.0244396325056
 20
707.1569724131661
 30
0.0
 11
354.0244396325055
 21
707.1569724131661
 31
0.0
  0
LINE
  5
952
330
2
100
AcDbEntity
  8
HIDS
100
AcDbLine
 10
354.0244396325055
 20
704.8569844131661
 30
0.0
 11
357.2244216325054
 21
704.8569844131661
 31
0.0
  0
LINE
  5
953
330
2
100
AcDbEntity
  8
0
100
AcDbLine
 10
492.7242086325057
 20
619.8570154131662
 30
0.0
 11
492.7242086325057
 21
549.8570154131661
 31
0.0
  0
LINE
  5
954
330
2
100
AcDbEntity
  8
0
100
AcDbLine
 10
488.2242086325054
 20
619.8570154131662
 30
0.0
 11
488.2242086325054
 21
549.8570154131661
 31
0.0
  0
LINE
  5
955
330
2
100
AcDbEntity
  8
0
100
AcDbLine
 10
439.2242086325055
 20
624.8570154131662
 30
0.0
 11
439.2242086325055
 21
549.8570154131661
 31
0.0
  0
LINE
  5
956
330
2
100
AcDbEntity
  8
0
100
AcDbLine
 10
492.7242086325057
 20
549.8570154131661
 30
0.0
 11
439.2242086325055
 21
549.8570154131661
 31
0.0
  0
LINE
  5
957
330
2
100
AcDbEntity
  8
0
100
AcDbLine
 10
387.7665966325055
 20
599.8570154131662
 30
0.0
 11
439.2242086325055
 21
599.8570154131662
 31
0.0
  0
ARC
  5
958
330
2
100
AcDbEntity
  8
0
100
AcDbCircle
 10
370.1857556325055
 20
659.8569844131661
 30
0.0
 40
10.0
100
AcDbArc
 50
181.0000000000001
 51
270.0
  0
ARC
  5
959
330
2
100
AcDbEntity
  8
0
100
AcDbCircle
 10
394.6787976325056
 20
647.8569844131659
 30
0.0
 40
15.0
100
AcDbArc
 50
205.6792909999997
 51
270.0
  0
ARC
  5
95A
330
2
100
AcDbEntity
  8
0
100
AcDbCircle
 10
389.2242086325056
 20
624.8570154131662
 30
0.0
 40
9.0
100
AcDbArc
 50
89.5535889999998
 51
63.76334800000042
  0
LINE
  5
95C
330
2
100
AcDbEntity
  8
0
100
AcDbLine
 10
359.3720046325054
 20
649.4465844131659
 30
0.0
 11
373.6534076325056
 21
609.7762044131659
 31
0.0
  0
ARC
  5
95E
330
2
100
AcDbEntity
  8
0
100
AcDbCircle
 10
387.7665966325055
 20
614.8570154131659
 30
0.0
 40
15.0
100
AcDbArc
 50
199.7989040000003
 51
270.0
  0
ARC
  5
95F
330
2
100
AcDbEntity
  8
0
100
AcDbCircle
 10
367.6417806325056
 20
634.8570154131659
 30
0.0
 40
15.0
100
AcDbArc
 50
25.6792889999995
 51
90.0
  0
LINE
  5
960
330
2
100
AcDbEntity
  8
0
100
AcDbLine
 10
358.2242086325056
 20
647.3569844131661
 30
0.0
 11
358.2242086325056
 21
645.3569844131662
 31
0.0
  0
ARC
  5
961
330
2
100
AcDbEntity
  8
0
100
AcDbCircle
 10
414.6549636325055
 20
642.8569844131661
 30
0.0
 40
15.0
100
AcDbArc
 50
230.1944270000001
 51
270.0
  0
LINE
  5
962
330
2
100
AcDbEntity
  8
0
100
AcDbLine
 10
405.0521806325056
 20
631.333669413166
 30
0.0
 11
403.2242086325056
 21
632.8570154131662
 31
0.0
  0
LINE
  5
963
330
2
100
AcDbEntity
  8
0
100
AcDbLine
 10
394.6787976325056
 20
632.8570154131662
 30
0.0
 11
403.2242086325056
 21
632.8570154131662
 31
0.0
  0
LINE
  5
964
330
2
100
AcDbEntity
  8
0
100
AcDbLine
 10
360.1872816325056
 20
659.6824854131662
 30
0.0
 11
359.4773206325056
 21
700.3569844131662
 31
0.0
  0
LINE
  5
965
330
2
100
AcDbEntity
  8
0
100
AcDbLine
 10
436.7242086325056
 20
624.8570154131662
 30
0.0
 11
491.7242086325057
 21
624.8570154131662
 31
0.0
  0
LINE
  5
966
330
2
100
AcDbEntity
  8
0
100
AcDbLine
 10
436.7242086325056
 20
627.8570154131662
 30
0.0
 11
436.7242086325056
 21
624.8570154131662
 31
0.0
  0
LINE
  5
967
330
2
100
AcDbEntity
  8
0
100
AcDbLine
 10
489.2242086325054
 20
624.8570154131662
 30
0.0
 11
489.2242086325054
 21
619.8570154131662
 31
0.0
  0
LINE
  5
968
330
2
100
AcDbEntity
  8
0
100
AcDbLine
 10
488.2242086325054
 20
619.8570154131662
 30
0.0
 11
492.7242086325057
 21
619.8570154131662
 31
0.0
  0
LINE
  5
969
330
2
100
AcDbEntity
  8
0
100
AcDbLine
 10
491.7242086325057
 20
627.8570154131662
 30
0.0
 11
491.7242086325057
 21
624.8570154131662
 31
0.0
  0
LINE
  5
96A
330
2
100
AcDbEntity
  8
0
100
AcDbLine
 10
357.2244216325054
 20
729.3569844131662
 30
0.0
 11
367.6130936325056
 21
729.3569844131662
 31
0.0
  0
ARC
  5
96B
330
2
100
AcDbEntity
  8
0
100
AcDbCircle
 10
353.2242996325056
 20
784.3569844131661
 30
0.0
 40
5.0
100
AcDbArc
 50
0.0
 51
90.0
  0
ARC
  5
96C
330
2
100
AcDbEntity
  8
0
100
AcDbCircle
 10
360.7242086325056
 20
782.3569844131662
 30
0.0
 40
2.5
100
AcDbArc
 50
180.0
 51
270.0
  0
LINE
  5
96D
330
2
100
AcDbEntity
  8
0
100
AcDbLine
 10
354.3862566325055
 20
779.8569844131661
 30
0.0
 11
359.2242086325055
 21
779.8569844131661
 31
0.0
  0
LINE
  5
96E
330
2
100
AcDbEntity
  8
0
100
AcDbLine
 10
263.2258406325056
 20
785.856862413166
 30
0.0
 11
321.7243146325056
 21
787.388356413166
 31
0.0
  0
ARC
  5
981
330
2
100
AcDbEntity
  8
0
100
AcDbCircle
 10
271.2241476325055
 20
783.065358413166
 30
0.0
 40
3.0
100
AcDbArc
 50
0.0
 51
91.50050399999978
  0
LINE
  5
982
330
2
100
AcDbEntity
  8
0
100
AcDbLine
 10
325.7243146325056
 20
775.7748924131658
 30
0.0
 11
325.7243146325056
 21
770.4428614131662
 31
0.0
  0
LINE
  5
983
330
2
100
AcDbEntity
  8
0
100
AcDbLine
 10
285.3579816325055
 20
768.7629904131661
 30
0.0
 11
324.2818096325056
 21
768.7629904131661
 31
0.0
  0
LINE
  5
984
330
2
100
AcDbEntity
  8
0
100
AcDbLine
 10
348.2244216325055
 20
718.2942404131663
 30
0.0
 11
352.0244396325056
 21
718.2942404131663
 31
0.0
  0
LINE
  5
985
330
2
100
AcDbEntity
  8
0
100
AcDbLine
 10
348.2244216325055
 20
722.0469874131659
 30
0.0
 11
352.0244396325056
 21
722.0469874131659
 31
0.0
  0
ARC
  5
986
330
2
100
AcDbEntity
  8
0
100
AcDbCircle
 10
348.2244216325055
 20
720.5469874131658
 30
0.0
 40
1.5
100
AcDbArc
 50
90.0
 51
180.0
  0
ARC
  5
987
330
2
100
AcDbEntity
  8
0
100
AcDbCircle
 10
348.2244216325055
 20
719.794240413166
 30
0.0
 40
1.5
100
AcDbArc
 50
180.0
 51
270.0
  0
ARC
  5
988
330
2
100
AcDbEntity
  8
0
100
AcDbCircle
 10
348.2244216325055
 20
716.7942404131661
 30
0.0
 40
1.5
100
AcDbArc
 50
90.0
 51
180.0
  0
LINE
  5
989
330
2
100
AcDbEntity
  8
0
100
AcDbLine
 10
352.0244396325056
 20
722.5569974131659
 30
0.0
 11
354.0244396325055
 21
722.5569974131659
 31
0.0
  0
LINE
  5
98A
330
2
100
AcDbEntity
  8
HIDS
100
AcDbLine
 10
354.0244396325055
 20
724.8569844131662
 30
0.0
 11
357.2244216325054
 21
724.8569844131662
 31
0.0
  0
LINE
  5
98B
330
2
100
AcDbEntity
  8
0
100
AcDbLine
 10
354.0244396325055
 20
730.8569844131659
 30
0.0
 11
357.2244216325054
 21
730.8569844131659
 31
0.0
  0
LINE
  5
98C
330
2
100
AcDbEntity
  8
0
100
AcDbLine
 10
285.3579816325055
 20
777.309987413166
 30
0.0
 11
324.2818096325056
 21
777.309987413166
 31
0.0
  0
LINE
  5
98D
330
2
100
AcDbEntity
  8
0
100
AcDbLine
 10
343.9794576325055
 20
797.3569844131661
 30
0.0
 11
333.7242996325056
 21
797.3569844131661
 31
0.0
  0
LINE
  5
98E
330
2
100
AcDbEntity
  8
0
100
AcDbLine
 10
321.7243146325056
 20
795.1295064131659
 30
0.0
 11
321.7243146325056
 21
787.388356413166
 31
0.0
  0
LINE
  5
98F
330
2
100
AcDbEntity
  8
0
100
AcDbLine
 10
333.7258566325055
 20
797.3569844131661
 30
0.0
 11
323.6789356325055
 21
797.128957413166
 31
0.0
  0
ARC
  5
990
330
2
100
AcDbEntity
  8
0
100
AcDbCircle
 10
323.7243146325056
 20
795.1295064131659
 30
0.0
 40
2.0
100
AcDbArc
 50
91.30023200000007
 51
180.0
  0
ARC
  5
991
330
2
100
AcDbEntity
  8
0
100
AcDbCircle
 10
351.5159566325056
 20
791.8569844131662
 30
0.0
 40
2.5
100
AcDbArc
 50
182.9999999999999
 51
270.0
  0
LINE
  5
992
330
2
100
AcDbEntity
  8
0
100
AcDbLine
 10
349.3931226325056
 20
784.595205413166
 30
0.0
 11
348.9726216325055
 21
792.6185814131661
 31
0.0
  0
ARC
  5
993
330
2
100
AcDbEntity
  8
0
100
AcDbCircle
 10
354.3862566325055
 20
784.8569844131661
 30
0.0
 40
5.0
100
AcDbArc
 50
182.9999999999999
 51
270.0
  0
LINE
  5
994
330
2
100
AcDbEntity
  8
0
100
AcDbLine
 10
353.2242996325056
 20
789.3569844131659
 30
0.0
 11
351.5159566325056
 21
789.3569844131659
 31
0.0
  0
ARC
  5
995
330
2
100
AcDbEntity
  8
0
100
AcDbCircle
 10
343.9794576325055
 20
792.3569844131661
 30
0.0
 40
5.0
100
AcDbArc
 50
2.999999999999903
 51
90.0
  0
LINE
  5
996
330
2
100
AcDbEntity
  8
0
100
AcDbLine
 10
387.7665966325055
 20
829.8569844131661
 30
0.0
 11
464.2242086325056
 21
829.8569844131661
 31
0.0
  0
LINE
  5
997
330
2
100
AcDbEntity
  8
0
100
AcDbLine
 10
360.2730366325055
 20
774.944265413166
 30
0.0
 11
359.4773206325056
 21
729.3569844131662
 31
0.0
  0
ARC
  5
998
330
2
100
AcDbEntity
  8
0
100
AcDbCircle
 10
394.6787976325056
 20
781.8569844131661
 30
0.0
 40
15.0
100
AcDbArc
 50
90.0
 51
154.3207090000002
  0
ARC
  5
999
330
2
100
AcDbEntity
  8
0
100
AcDbCircle
 10
389.2242086325056
 20
804.8569844131661
 30
0.0
 40
9.0
100
AcDbArc
 50
296.236656
 51
270.4464110000001
  0
LINE
  5
99B
330
2
100
AcDbEntity
  8
0
100
AcDbLine
 10
359.3681596325056
 20
780.256704413166
 30
0.0
 11
373.6534076325056
 21
819.9377954131659
 31
0.0
  0
ARC
  5
99D
330
2
100
AcDbEntity
  8
0
100
AcDbCircle
 10
367.6417806325056
 20
794.8569844131662
 30
0.0
 40
15.0
100
AcDbArc
 50
270.0
 51
334.3207109999997
  0
ARC
  5
99E
330
2
100
AcDbEntity
  8
0
100
AcDbCircle
 10
365.2722736325056
 20
774.8569844131662
 30
0.0
 40
5.0
100
AcDbArc
 50
90.0
 51
178.9999999999998
  0
LINE
  5
99F
330
2
100
AcDbEntity
  8
0
100
AcDbLine
 10
358.2242086325056
 20
782.3569844131662
 30
0.0
 11
358.2242086325056
 21
784.3569844131661
 31
0.0
  0
ARC
  5
9A0
330
2
100
AcDbEntity
  8
0
100
AcDbCircle
 10
387.7665966325055
 20
814.8569844131662
 30
0.0
 40
15.0
100
AcDbArc
 50
90.0
 51
160.2010959999996
  0
ARC
  5
9A1
330
2
100
AcDbEntity
  8
0
100
AcDbCircle
 10
414.6549636325055
 20
786.8569844131662
 30
0.0
 40
15.0
100
AcDbArc
 50
90.0
 51
129.8055729999998
  0
LINE
  5
9A2
330
2
100
AcDbEntity
  8
0
100
AcDbLine
 10
405.0521806325056
 20
798.3803004131659
 30
0.0
 11
403.2242086325056
 21
796.8569844131661
 31
0.0
  0
LINE
  5
9A3
330
2
100
AcDbEntity
  8
0
100
AcDbLine
 10
394.6787976325056
 20
796.8569844131661
 30
0.0
 11
403.2242086325056
 21
796.8569844131661
 31
0.0
  0
LINE
  5
9A4
330
2
100
AcDbEntity
  8
CENTER
100
AcDbLine
 10
821.3015221686468
 20
277.6671092991579
 30
0.0
 11
975.3255102649353
 21
277.6671092991579
 31
0.0
  0
LINE
  5
9A5
330
2
100
AcDbEntity
  8
0
100
AcDbLine
 10
783.313516216791
 20
91.66710929915797
 30
0.0
 11
848.313516216791
 21
91.66710929915797
 31
0.0
  0
LINE
  5
9A6
330
2
100
AcDbEntity
  8
0
100
AcDbLine
 10
837.4073272167912
 20
354.6670942991578
 30
0.0
 11
959.2073152167913
 21
354.6670942991578
 31
0.0
  0
ARC
  5
9A7
330
2
100
AcDbEntity
  8
0
100
AcDbCircle
 10
843.3135162167911
 20
388.7053022991578
 30
0.0
 40
10.0
100
AcDbArc
 50
91.00058700000005
 51
180.0
  0
LINE
  5
9A8
330
2
100
AcDbEntity
  8
CENTER
100
AcDbLine
 10
714.719766216791
 20
291.6671092991579
 30
0.0
 11
1008.258524216791
 21
291.6671092991579
 31
0.0
  0
LINE
  5
9A9
330
2
100
AcDbEntity
  8
CENTER
100
AcDbLine
 10
810.9702552167913
 20
226.6671092991579
 30
0.0
 11
989.442056216791
 21
226.6671092991579
 31
0.0
  0
LINE
  5
9AA
330
2
100
AcDbEntity
  8
0
100
AcDbLine
 10
569.2242086325056
 20
346.4777022991579
 30
0.0
 11
569.2242086325056
 21
91.66710929915797
 31
0.0
  0
LINE
  5
9AB
330
2
100
AcDbEntity
  8
0
100
AcDbLine
 10
816.3135162167911
 20
302.5920822991579
 30
0.0
 11
816.3135162167911
 21
169.8655272991579
 31
0.0
  0
LINE
  5
9AC
330
2
100
AcDbEntity
  8
0
100
AcDbLine
 10
833.3135162167911
 20
352.6670942991579
 30
0.0
 11
833.3135162167911
 21
91.66710929915797
 31
0.0
  0
LINE
  5
9AD
330
2
100
AcDbEntity
  8
0
100
AcDbLine
 10
359.2242086325055
 20
116.6671092991579
 30
0.0
 11
569.2242086325056
 21
116.6671092991579
 31
0.0
  0
LINE
  5
9AE
330
2
100
AcDbEntity
  8
HIDS
100
AcDbLine
 10
530.2242086325057
 20
116.6671092991579
 30
0.0
 11
530.2242086325057
 21
91.66710929915797
 31
0.0
  0
LINE
  5
9AF
330
2
100
AcDbEntity
  8
CENTER
100
AcDbLine
 10
539.2242086325056
 20
128.3171092991579
 30
0.0
 11
539.2242086325056
 21
80.01710929915796
 31
0.0
  0
ARC
  5
9B0
330
2
100
AcDbEntity
  8
0
100
AcDbCircle
 10
512.2242086325058
 20
119.6671092991579
 30
0.0
 40
3.0
100
AcDbArc
 50
180.0
 51
270.0
  0
ARC
  5
9B1
330
2
100
AcDbEntity
  8
0
100
AcDbCircle
 10
518.1040296325058
 20
123.6671092991579
 30
0.0
 40
7.0
100
AcDbArc
 50
212.0052029999998
 51
270.0
  0
ARC
  5
9B2
330
2
100
AcDbEntity
  8
0
100
AcDbCircle
 10
506.4530286325056
 20
119.6671092991579
 30
0.0
 40
5.0
100
AcDbArc
 50
32.00542099999972
 51
90.0
  0
LINE
  5
9B3
330
2
100
AcDbEntity
  8
0
100
AcDbLine
 10
512.1679946325055
 20
119.9571292991579
 30
0.0
 11
510.6930196325054
 21
122.3171112991579
 31
0.0
  0
LINE
  5
9B4
330
2
100
AcDbEntity
  8
0
100
AcDbLine
 10
509.2242086325057
 20
122.7014872991579
 30
0.0
 11
509.2242086325057
 21
119.6671092991579
 31
0.0
  0
LINE
  5
9B5
330
2
100
AcDbEntity
  8
0
100
AcDbLine
 10
551.2242086325056
 20
113.7296092991579
 30
0.0
 11
551.2242086325056
 21
91.66710929915797
 31
0.0
  0
LINE
  5
9B6
330
2
100
AcDbEntity
  8
HIDS
100
AcDbLine
 10
548.2242086325056
 20
116.6671092991579
 30
0.0
 11
548.2242086325056
 21
91.66710929915797
 31
0.0
  0
LINE
  5
9B7
330
2
100
AcDbEntity
  8
0
100
AcDbLine
 10
787.4465732167911
 20
116.5913092991579
 30
0.0
 11
829.1805212167911
 21
123.9393302991579
 31
0.0
  0
LINE
  5
9B8
330
2
100
AcDbEntity
  8
0
100
AcDbLine
 10
788.3135162167911
 20
116.6671092991579
 30
0.0
 11
824.3135162167911
 21
116.6671092991579
 31
0.0
  0
LINE
  5
9B9
330
2
100
AcDbEntity
  8
HIDS
100
AcDbLine
 10
799.313516216791
 20
116.6671092991579
 30
0.0
 11
799.313516216791
 21
91.66710929915797
 31
0.0
  0
LINE
  5
9BA
330
2
100
AcDbEntity
  8
0
100
AcDbLine
 10
783.313516216791
 20
111.6671092991579
 30
0.0
 11
783.313516216791
 21
91.66710929915797
 31
0.0
  0
ARC
  5
9BB
330
2
100
AcDbEntity
  8
0
100
AcDbCircle
 10
788.3135162167911
 20
111.6671092991579
 30
0.0
 40
5.0
100
AcDbArc
 50
90.0
 51
180.0
  0
LINE
  5
9BC
330
2
100
AcDbEntity
  8
HIDS
100
AcDbLine
 10
817.3135162167911
 20
116.6671092991579
 30
0.0
 11
817.3135162167911
 21
91.66710929915797
 31
0.0
  0
LINE
  5
9BD
330
2
100
AcDbEntity
  8
CENTER
100
AcDbLine
 10
808.3135162167911
 20
128.3171092991579
 30
0.0
 11
808.3135162167911
 21
80.01710929915796
 31
0.0
  0
ARC
  5
9BE
330
2
100
AcDbEntity
  8
0
100
AcDbCircle
 10
824.3135162167911
 20
125.6671092991579
 30
0.0
 40
9.0
100
AcDbArc
 50
270.0
 51
0.0
  0
ARC
  5
9BF
330
2
100
AcDbEntity
  8
0
100
AcDbCircle
 10
828.313516216791
 20
128.8637072991579
 30
0.0
 40
5.0
100
AcDbArc
 50
279.9857789999999
 51
0.0
  0
ARC
  5
9C0
330
2
100
AcDbEntity
  8
0
100
AcDbCircle
 10
831.313516216791
 20
169.8655272991579
 30
0.0
 40
15.0
100
AcDbArc
 50
180.0
 51
244.3206019999994
  0
ARC
  5
9C1
330
2
100
AcDbEntity
  8
0
100
AcDbCircle
 10
818.3135162167911
 20
142.8284902991579
 30
0.0
 40
15.0
100
AcDbArc
 50
359.9985959999999
 51
64.3206479999997
  0
LINE
  5
9C2
330
2
100
AcDbEntity
  8
0
100
AcDbLine
 10
518.4649916325054
 20
306.9771072991579
 30
0.0
 11
543.4568136325055
 21
218.4344432991579
 31
0.0
  0
LINE
  5
9C3
330
2
100
AcDbEntity
  8
0
100
AcDbLine
 10
522.9304156325054
 20
308.237513299158
 30
0.0
 11
547.9224196325055
 21
219.6948952991578
 31
0.0
  0
ARC
  5
9C4
330
2
100
AcDbEntity
  8
0
100
AcDbCircle
 10
554.2242086325057
 20
346.4777022991579
 30
0.0
 40
15.0
100
AcDbArc
 50
0.0
 51
57.26491900000045
  0
LINE
  5
9C5
330
2
100
AcDbEntity
  8
0
100
AcDbLine
 10
808.3135162167911
 20
319.1671092991579
 30
0.0
 11
808.3135162167911
 21
264.1671092991579
 31
0.0
  0
LINE
  5
9C6
330
2
100
AcDbEntity
  8
0
100
AcDbLine
 10
733.313516216791
 20
266.6671092991579
 30
0.0
 11
733.313516216791
 21
316.6671092991578
 31
0.0
  0
LINE
  5
9C7
330
2
100
AcDbEntity
  8
0
100
AcDbLine
 10
811.313516216791
 20
335.210322299158
 30
0.0
 11
811.313516216791
 21
244.2767282991579
 31
0.0
  0
LINE
  5
9C8
330
2
100
AcDbEntity
  8
0
100
AcDbLine
 10
796.313516216791
 20
284.6671092991579
 30
0.0
 11
733.313516216791
 21
284.6671092991579
 31
0.0
  0
LINE
  5
9C9
330
2
100
AcDbEntity
  8
0
100
AcDbLine
 10
796.313516216791
 20
298.6671092991579
 30
0.0
 11
733.313516216791
 21
298.6671092991579
 31
0.0
  0
LINE
  5
9CA
330
2
100
AcDbEntity
  8
0
100
AcDbLine
 10
808.3135162167911
 20
266.6671092991579
 30
0.0
 11
733.313516216791
 21
266.6671092991579
 31
0.0
  0
ARC
  5
9D1
330
2
100
AcDbEntity
  8
0
100
AcDbCircle
 10
898.313516216791
 20
226.6671092991579
 30
0.0
 40
82.5
100
AcDbArc
 50
176.9468539999998
 51
186.3112489999999
  0
ARC
  5
9D2
330
2
100
AcDbEntity
  8
0
100
AcDbCircle
 10
826.3135162167911
 20
244.2769112991579
 30
0.0
 40
15.0
100
AcDbArc
 50
180.0
 51
213.5572970000004
  0
ARC
  5
9D3
330
2
100
AcDbEntity
  8
0
100
AcDbCircle
 10
801.3135162167911
 20
227.6937202991579
 30
0.0
 40
15.0
100
AcDbArc
 50
0.0
 51
33.55733099999988
  0
ARC
  5
9D4
330
2
100
AcDbEntity
  8
0
100
AcDbCircle
 10
796.313516216791
 20
291.6671092991579
 30
0.0
 40
7.0
100
AcDbArc
 50
270.0
 51
90.0
  0
LINE
  5
9D5
330
2
100
AcDbEntity
  8
0
100
AcDbLine
 10
811.313516216791
 20
264.1671092991579
 30
0.0
 11
808.3135162167911
 21
264.1671092991579
 31
0.0
  0
LINE
  5
9D6
330
2
100
AcDbEntity
  8
0
100
AcDbLine
 10
808.3135162167911
 20
316.6671092991578
 30
0.0
 11
733.313516216791
 21
316.6671092991578
 31
0.0
  0
LINE
  5
9D7
330
2
100
AcDbEntity
  8
0
100
AcDbLine
 10
833.3135162167911
 20
388.7053022991578
 30
0.0
 11
833.3135162167911
 21
352.6670942991579
 31
0.0
  0
ARC
  5
9DA
330
2
100
AcDbEntity
  8
0
100
AcDbCircle
 10
826.3135162167911
 20
335.210322299158
 30
0.0
 40
15.0
100
AcDbArc
 50
105.2552029999997
 51
180.0
  0
LINE
  5
9DB
330
2
100
AcDbEntity
  8
0
100
AcDbLine
 10
811.313516216791
 20
319.1671092991579
 30
0.0
 11
808.3135162167911
 21
319.1671092991579
 31
0.0
  0
ARC
  5
9DC
330
2
100
AcDbEntity
  8
0
100
AcDbCircle
 10
818.3135162167911
 20
364.1238812991579
 30
0.0
 40
15.0
100
AcDbArc
 50
285.255188
 51
0.0
  0
LINE
  5
9DD
330
2
100
AcDbEntity
  8
0
100
AcDbLine
 10
980.313516216791
 20
297.4265092991579
 30
0.0
 11
980.313516216791
 21
169.8655272991579
 31
0.0
  0
LINE
  5
9DE
330
2
100
AcDbEntity
  8
0
100
AcDbLine
 10
963.313516216791
 20
352.6670942991579
 30
0.0
 11
963.313516216791
 21
91.66710929915797
 31
0.0
  0
LINE
  5
9DF
330
2
100
AcDbEntity
  8
CENTER
100
AcDbLine
 10
898.313516216791
 20
73.51092929915797
 30
0.0
 11
898.313516216791
 21
419.5109352991579
 31
0.0
  0
LINE
  5
9E0
330
2
100
AcDbEntity
  8
0
100
AcDbLine
 10
1013.31351621679
 20
91.66710929915797
 30
0.0
 11
948.313516216791
 21
91.66710929915797
 31
0.0
  0
LINE
  5
9E1
330
2
100
AcDbEntity
  8
0
100
AcDbLine
 10
1009.180521216791
 20
116.5913092991579
 30
0.0
 11
967.4465122167914
 21
123.9393302991579
 31
0.0
  0
LINE
  5
9E2
330
2
100
AcDbEntity
  8
0
100
AcDbLine
 10
1008.313516216791
 20
116.6671092991579
 30
0.0
 11
972.313516216791
 21
116.6671092991579
 31
0.0
  0
LINE
  5
9E3
330
2
100
AcDbEntity
  8
0
100
AcDbLine
 10
850.3135162167911
 20
93.66710929915797
 30
0.0
 11
946.313516216791
 21
93.66710929915797
 31
0.0
  0
LINE
  5
9E4
330
2
100
AcDbEntity
  8
0
100
AcDbLine
 10
848.313516216791
 20
91.66710929915797
 30
0.0
 11
850.3135162167911
 21
93.66710929915797
 31
0.0
  0
LINE
  5
9E5
330
2
100
AcDbEntity
  8
0
100
AcDbLine
 10
948.313516216791
 20
91.66710929915797
 30
0.0
 11
946.313516216791
 21
93.66710929915797
 31
0.0
  0
LINE
  5
9E6
330
2
100
AcDbEntity
  8
HIDS
100
AcDbLine
 10
979.313516216791
 20
116.6671092991579
 30
0.0
 11
979.313516216791
 21
91.66710929915797
 31
0.0
  0
ARC
  5
9E7
330
2
100
AcDbEntity
  8
0
100
AcDbCircle
 10
972.313516216791
 20
125.6671092991579
 30
0.0
 40
9.0
100
AcDbArc
 50
180.0
 51
270.0
  0
ARC
  5
9E8
330
2
100
AcDbEntity
  8
0
100
AcDbCircle
 10
968.3135162167911
 20
128.8637072991579
 30
0.0
 40
5.0
100
AcDbArc
 50
180.0
 51
260.0145870000002
  0
ARC
  5
9E9
330
2
100
AcDbEntity
  8
0
100
AcDbCircle
 10
965.313516216791
 20
169.8655272991579
 30
0.0
 40
15.0
100
AcDbArc
 50
295.6793820000002
 51
0.0
  0
ARC
  5
9EA
330
2
100
AcDbEntity
  8
0
100
AcDbCircle
 10
978.3135162167909
 20
142.8284902991579
 30
0.0
 40
15.0
100
AcDbArc
 50
115.6793979999998
 51
180.0
  0
LINE
  5
9EB
330
2
100
AcDbEntity
  8
HIDS
100
AcDbLine
 10
997.313516216791
 20
116.6671092991579
 30
0.0
 11
997.313516216791
 21
91.66710929915797
 31
0.0
  0
LINE
  5
9EC
330
2
100
AcDbEntity
  8
CENTER
100
AcDbLine
 10
988.313516216791
 20
128.3171092991579
 30
0.0
 11
988.313516216791
 21
80.01710929915796
 31
0.0
  0
LINE
  5
9ED
330
2
100
AcDbEntity
  8
0
100
AcDbLine
 10
1013.31351621679
 20
112.4034892991579
 30
0.0
 11
1013.31351621679
 21
91.66710929915797
 31
0.0
  0
ARC
  5
9EE
330
2
100
AcDbEntity
  8
0
100
AcDbCircle
 10
1008.313516216791
 20
111.6671092991579
 30
0.0
 40
5.0
100
AcDbArc
 50
0.0
 51
90.0
  0
ARC
  5
9EF
330
2
100
AcDbEntity
  8
0
100
AcDbCircle
 10
970.313516216791
 20
244.2769112991579
 30
0.0
 40
15.0
100
AcDbArc
 50
326.7492100000003
 51
0.0
  0
ARC
  5
9F0
330
2
100
AcDbEntity
  8
0
100
AcDbCircle
 10
970.313516216791
 20
335.210322299158
 30
0.0
 40
15.0
100
AcDbArc
 50
0.0
 51
74.74484300000018
  0
ARC
  5
9F1
330
2
100
AcDbEntity
  8
0
100
AcDbCircle
 10
898.313516216791
 20
226.6671092991579
 30
0.0
 40
82.5
100
AcDbArc
 50
353.6887519999994
 51
3.053152000000283
  0
ARC
  5
9F2
330
2
100
AcDbEntity
  8
0
100
AcDbCircle
 10
995.3135162167908
 20
227.6937202991579
 30
0.0
 40
15.0
100
AcDbArc
 50
146.4427029999995
 51
180.0
  0
LINE
  5
9F3
330
2
100
AcDbEntity
  8
0
100
AcDbLine
 10
958.4007362167913
 20
398.6184792991579
 30
0.0
 11
898.313516216791
 21
399.6670942991579
 31
0.0
  0
LINE
  5
9F4
330
2
100
AcDbEntity
  8
0
100
AcDbLine
 10
843.138895216791
 20
398.7038982991578
 30
0.0
 11
898.313516216791
 21
399.6670942991579
 31
0.0
  0
LINE
  5
9F5
330
2
100
AcDbEntity
  8
0
100
AcDbLine
 10
963.313516216791
 20
393.619303299158
 30
0.0
 11
963.313516216791
 21
352.6670942991579
 31
0.0
  0
ARC
  5
9F6
330
2
100
AcDbEntity
  8
0
100
AcDbCircle
 10
978.3135162167909
 20
364.1238812991579
 30
0.0
 40
15.0
100
AcDbArc
 50
180.0
 51
254.5339049999999
  0
ARC
  5
9F7
330
2
100
AcDbEntity
  8
0
100
AcDbCircle
 10
958.3135162167911
 20
393.619303299158
 30
0.0
 40
5.0
100
AcDbArc
 50
0.0
 51
89.00039700000059
  0
LINE
  5
9F8
330
2
100
AcDbEntity
  8
0
100
AcDbLine
 10
985.3135162167909
 20
335.210322299158
 30
0.0
 11
985.3135162167909
 21
244.2769112991579
 31
0.0
  0
LINE
  5
9F9
330
2
100
AcDbEntity
  8
0
100
AcDbLine
 10
568.0390276325056
 20
646.9584864131659
 30
0.0
 11
569.2242086325056
 21
714.8569844131661
 31
0.0
  0
ARC
  5
9FA
330
2
100
AcDbEntity
  8
0
100
AcDbCircle
 10
558.2626606325056
 20
659.8569844131661
 30
0.0
 40
10.0
100
AcDbArc
 50
270.0
 51
358.9999999999998
  0
ARC
  5
9FB
330
2
100
AcDbEntity
  8
0
100
AcDbCircle
 10
533.7696486325054
 20
647.8569844131659
 30
0.0
 40
15.0
100
AcDbArc
 50
270.0
 51
334.3207109999997
  0
ARC
  5
9FC
330
2
100
AcDbEntity
  8
0
100
AcDbCircle
 10
539.2242086325056
 20
624.8570154131662
 30
0.0
 40
9.0
100
AcDbArc
 50
116.2366489999997
 51
90.44639600000021
  0
ARC
  5
9FE
330
2
100
AcDbEntity
  8
0
100
AcDbCircle
 10
540.6820026325056
 20
614.8570154131659
 30
0.0
 40
15.0
100
AcDbArc
 50
270.0
 51
340.2011299999997
  0
ARC
  5
A00
330
2
100
AcDbEntity
  8
0
100
AcDbCircle
 10
513.7934526325055
 20
642.8569844131661
 30
0.0
 40
15.0
100
AcDbArc
 50
270.0
 51
309.8055729999998
  0
LINE
  5
A01
330
2
100
AcDbEntity
  8
0
100
AcDbLine
 10
533.7696486325054
 20
632.8570154131662
 30
0.0
 11
525.2242086325057
 21
632.8570154131662
 31
0.0
  0
LINE
  5
A02
330
2
100
AcDbEntity
  8
0
100
AcDbLine
 10
523.3962356325056
 20
631.333669413166
 30
0.0
 11
525.2242086325057
 21
632.8570154131662
 31
0.0
  0
LINE
  5
A03
330
2
100
AcDbEntity
  8
0
100
AcDbLine
 10
567.8916276325057
 20
646.155324413166
 30
0.0
 11
554.7952226325054
 21
609.7762044131659
 31
0.0
  0
ARC
  5
A04
330
2
100
AcDbEntity
  8
0
100
AcDbCircle
 10
560.8066366325056
 20
634.8570154131659
 30
0.0
 40
15.0
100
AcDbArc
 50
90.0
 51
154.3207090000002
  0
ARC
  5
A05
330
2
100
AcDbEntity
  8
0
100
AcDbCircle
 10
565.5394246325055
 20
647.002126413166
 30
0.0
 40
2.5
100
AcDbArc
 50
340.2012019999998
 51
358.9999999999998
  0
LINE
  5
A06
330
2
100
AcDbEntity
  8
0
100
AcDbLine
 10
568.0390276325056
 20
782.7553004131659
 30
0.0
 11
569.2242086325056
 21
714.8569844131661
 31
0.0
  0
ARC
  5
A07
330
2
100
AcDbEntity
  8
0
100
AcDbCircle
 10
533.7696486325054
 20
781.8569844131661
 30
0.0
 40
15.0
100
AcDbArc
 50
25.6792889999995
 51
90.0
  0
ARC
  5
A08
330
2
100
AcDbEntity
  8
0
100
AcDbCircle
 10
540.6820026325056
 20
814.8569844131662
 30
0.0
 40
15.0
100
AcDbArc
 50
19.79890100000035
 51
90.0
  0
ARC
  5
A09
330
2
100
AcDbEntity
  8
0
100
AcDbCircle
 10
539.2242086325056
 20
804.8569844131661
 30
0.0
 40
9.0
100
AcDbArc
 50
269.5536039999997
 51
243.7633510000002
  0
ARC
  5
A0C
330
2
100
AcDbEntity
  8
0
100
AcDbCircle
 10
513.7934526325055
 20
786.8569844131662
 30
0.0
 40
15.0
100
AcDbArc
 50
50.19442700000015
 51
90.0
  0
LINE
  5
A0D
330
2
100
AcDbEntity
  8
0
100
AcDbLine
 10
533.7696486325054
 20
796.8569844131661
 30
0.0
 11
525.2242086325057
 21
796.8569844131661
 31
0.0
  0
LINE
  5
A0E
330
2
100
AcDbEntity
  8
0
100
AcDbLine
 10
523.3962356325056
 20
798.3803004131659
 30
0.0
 11
525.2242086325057
 21
796.8569844131661
 31
0.0
  0
LINE
  5
A0F
330
2
100
AcDbEntity
  8
0
100
AcDbLine
 10
567.8916586325057
 20
783.558461413166
 30
0.0
 11
554.7952526325055
 21
819.937734413166
 31
0.0
  0
ARC
  5
A10
330
2
100
AcDbEntity
  8
0
100
AcDbCircle
 10
560.8066366325056
 20
794.8569844131662
 30
0.0
 40
15.0
100
AcDbArc
 50
205.6792909999997
 51
270.0
  0
ARC
  5
A11
330
2
100
AcDbEntity
  8
0
100
AcDbCircle
 10
563.1761426325055
 20
774.8569844131662
 30
0.0
 40
5.0
100
AcDbArc
 50
1.000000000000147
 51
90.0
  0
ARC
  5
A12
330
2
100
AcDbEntity
  8
0
100
AcDbCircle
 10
565.5394246325055
 20
782.7116604131661
 30
0.0
 40
2.5
100
AcDbArc
 50
1.000000000000147
 51
19.79869299999982
  0
LINE
  5
BB8
330
2
100
AcDbEntity
  8
CENTER
100
AcDbLine
 10
389.2242086325056
 20
610.105397413166
 30
0.0
 11
389.2242086325056
 21
639.6085714131664
 31
0.0
  0
LINE
  5
BB9
330
2
100
AcDbEntity
  8
CENTER
100
AcDbLine
 10
374.4726216325054
 20
624.8569844131662
 30
0.0
 11
403.9757956325058
 21
624.8569844131662
 31
0.0
  0
LINE
  5
BBA
330
2
100
AcDbEntity
  8
CENTER
100
AcDbLine
 10
374.4726216325054
 20
804.8569844131661
 30
0.0
 11
403.9757956325058
 21
804.8569844131661
 31
0.0
  0
LINE
  5
BBB
330
2
100
AcDbEntity
  8
CENTER
100
AcDbLine
 10
389.2242086325056
 20
790.1053974131658
 30
0.0
 11
389.2242086325056
 21
819.6085714131662
 31
0.0
  0
LINE
  5
BBC
330
2
100
AcDbEntity
  8
CENTER
100
AcDbLine
 10
539.2242086325054
 20
610.105397413166
 30
0.0
 11
539.2242086325054
 21
639.6085714131664
 31
0.0
  0
LINE
  5
BBD
330
2
100
AcDbEntity
  8
CENTER
100
AcDbLine
 10
524.4726216325052
 20
624.8569844131662
 30
0.0
 11
553.9757956325056
 21
624.8569844131662
 31
0.0
  0
LINE
  5
BBE
330
2
100
AcDbEntity
  8
CENTER
100
AcDbLine
 10
524.4726216325052
 20
804.8569844131661
 30
0.0
 11
553.9757956325056
 21
804.8569844131661
 31
0.0
  0
LINE
  5
BBF
330
2
100
AcDbEntity
  8
CENTER
100
AcDbLine
 10
539.2242086325054
 20
790.1053974131658
 30
0.0
 11
539.2242086325054
 21
819.6085714131662
 31
0.0
  0
LINE
  5
D7A
330
2
100
AcDbEntity
  8
0
100
AcDbLine
 10
240.8614616325055
 20
794.6132714131663
 30
0.0
 11
128.5869706325056
 21
794.6132714131663
 31
0.0
  0
LINE
  5
D7B
330
2
100
AcDbEntity
  8
0
100
AcDbLine
 10
128.3909866325056
 20
793.6423234131664
 30
0.0
 11
241.0574296325055
 21
793.6423234131664
 31
0.0
  0
LINE
  5
D7C
330
2
100
AcDbEntity
  8
0
100
AcDbLine
 10
240.8769636325057
 20
789.3416644131661
 30
0.0
 11
128.5714526325057
 21
789.3416644131661
 31
0.0
  0
LINE
  5
D7D
330
2
100
AcDbEntity
  8
0
100
AcDbLine
 10
240.7512776325056
 20
785.8672684131663
 30
0.0
 11
128.6971546325057
 21
785.8672684131663
 31
0.0
  0
LINE
  5
D7E
330
2
100
AcDbEntity
  8
0
100
AcDbLine
 10
240.4244036325055
 20
777.8246964131662
 30
0.0
 11
129.0240286325056
 21
777.8246964131662
 31
0.0
  0
LINE
  5
D7F
330
2
100
AcDbEntity
  8
0
100
AcDbLine
 10
240.1081196325055
 20
771.7797754131663
 30
0.0
 11
129.3403046325056
 21
771.7797754131663
 31
0.0
  0
LINE
  5
D80
330
2
100
AcDbEntity
  8
0
100
AcDbLine
 10
239.8665576325056
 20
762.7899984131661
 30
0.0
 11
129.5818746325055
 21
762.7899984131661
 31
0.0
  0
LINE
  5
D81
330
2
100
AcDbEntity
  8
0
100
AcDbLine
 10
241.0277056325055
 20
750.4338584131663
 30
0.0
 11
128.4207186325056
 21
750.4338584131663
 31
0.0
  0
LINE
  5
D82
330
2
100
AcDbEntity
  8
0
100
AcDbLine
 10
126.2242156325057
 20
742.7356464131662
 30
0.0
 11
243.2242086325056
 21
742.7356464131662
 31
0.0
  0
LINE
  5
D83
330
2
100
AcDbEntity
  8
0
100
AcDbLine
 10
128.0399816325057
 20
791.9032794131664
 30
0.0
 11
241.4084426325055
 21
791.9032794131664
 31
0.0
  0
LINE
  5
D84
330
2
100
AcDbEntity
  8
0
100
AcDbLine
 10
240.4244036325055
 20
651.8892724131663
 30
0.0
 11
129.0240286325056
 21
651.8892724131663
 31
0.0
  0
LINE
  5
D85
330
2
100
AcDbEntity
  8
0
100
AcDbLine
 10
240.1081196325055
 20
657.9341934131662
 30
0.0
 11
129.3403046325056
 21
657.9341934131662
 31
0.0
  0
LINE
  5
D86
330
2
100
AcDbEntity
  8
0
100
AcDbLine
 10
239.8665576325056
 20
666.9239704131662
 30
0.0
 11
129.5818746325055
 21
666.9239704131662
 31
0.0
  0
LINE
  5
D87
330
2
100
AcDbEntity
  8
0
100
AcDbLine
 10
241.0277056325055
 20
679.2801104131662
 30
0.0
 11
128.4207186325056
 21
679.2801104131662
 31
0.0
  0
LINE
  5
D88
330
2
100
AcDbEntity
  8
0
100
AcDbLine
 10
126.2242156325057
 20
686.9783224131662
 30
0.0
 11
243.2242086325056
 21
686.9783224131662
 31
0.0
  0
LINE
  5
D89
330
2
100
AcDbEntity
  8
0
100
AcDbLine
 10
193.9586906325059
 20
594.716462413166
 30
0.0
 11
124.398631632506
 21
594.716462413166
 31
0.0
  0
LINE
  5
D8A
330
2
100
AcDbEntity
  8
0
100
AcDbLine
 10
128.6971546325057
 20
643.8467004131663
 30
0.0
 11
240.7512776325056
 21
643.8467004131663
 31
0.0
  0
LINE
  5
D8B
330
2
100
AcDbEntity
  8
0
100
AcDbLine
 10
126.8467516325058
 20
639.3569844131661
 30
0.0
 11
198.7127186325069
 21
639.3569844131661
 31
0.0
  0
LINE
  5
D8C
330
2
100
AcDbEntity
  8
0
100
AcDbLine
 10
205.5460926325058
 20
632.5561574131661
 30
0.0
 11
121.589061632507
 21
593.4063864131663
 31
0.0
  0
LINE
  5
D8D
330
2
100
AcDbEntity
  8
0
100
AcDbLine
 10
204.0355946325057
 20
638.8661394131664
 30
0.0
 11
117.7243156325059
 21
598.6185284131661
 31
0.0
  0
LINE
  5
D8E
330
2
100
AcDbEntity
  8
0
100
AcDbLine
 10
209.7242086325056
 20
640.8569844131664
 30
0.0
 11
127.4251206325057
 21
640.8569844131664
 31
0.0
  0
LINE
  5
D8F
330
2
100
AcDbEntity
  8
0
100
AcDbLine
 10
127.7686196325055
 20
353.6671092991578
 30
0.0
 11
241.6798056325055
 21
353.6671092991578
 31
0.0
  0
LINE
  5
D90
330
2
100
AcDbEntity
  8
0
100
AcDbLine
 10
127.2242166325054
 20
348.7219492991578
 30
0.0
 11
242.2242086325054
 21
348.7219492991578
 31
0.0
  0
LINE
  5
D91
330
2
100
AcDbEntity
  8
0
100
AcDbLine
 10
242.2242086325054
 20
345.4670972991578
 30
0.0
 11
127.2242166325054
 21
345.4670972991578
 31
0.0
  0
LINE
  5
D92
330
2
100
AcDbEntity
  8
0
100
AcDbLine
 10
242.2242086325054
 20
347.4670972991578
 30
0.0
 11
127.2242166325054
 21
347.4670972991578
 31
0.0
  0
LINE
  5
D93
330
2
100
AcDbEntity
  8
0
100
AcDbLine
 10
242.2242086325054
 20
338.9670972991579
 30
0.0
 11
127.2242166325054
 21
338.9670972991579
 31
0.0
  0
LINE
  5
D94
330
2
100
AcDbEntity
  8
0
100
AcDbLine
 10
242.2242086325054
 20
340.9670972991579
 30
0.0
 11
127.2242166325054
 21
340.9670972991579
 31
0.0
  0
LINE
  5
D95
330
2
100
AcDbEntity
  8
0
100
AcDbLine
 10
242.2242086325054
 20
332.4670972991579
 30
0.0
 11
127.2242166325054
 21
332.4670972991579
 31
0.0
  0
LINE
  5
D96
330
2
100
AcDbEntity
  8
0
100
AcDbLine
 10
242.2242086325054
 20
334.4670972991577
 30
0.0
 11
127.2242166325054
 21
334.4670972991577
 31
0.0
  0
LINE
  5
D97
330
2
100
AcDbEntity
  8
0
100
AcDbLine
 10
242.2242086325054
 20
325.6671092991577
 30
0.0
 11
127.2242166325054
 21
325.6671092991577
 31
0.0
  0
LINE
  5
D98
330
2
100
AcDbEntity
  8
0
100
AcDbLine
 10
242.2242086325054
 20
327.6671092991577
 30
0.0
 11
127.2242166325054
 21
327.6671092991577
 31
0.0
  0
LINE
  5
D99
330
2
100
AcDbEntity
  8
0
100
AcDbLine
 10
126.5245176325054
 20
315.8671057991579
 30
0.0
 11
197.9245116325055
 21
315.8671057991579
 31
0.0
  0
LINE
  5
D9A
330
2
100
AcDbEntity
  8
0
100
AcDbLine
 10
197.9245116325055
 20
318.6671087991579
 30
0.0
 11
126.5245176325054
 21
318.6671087991579
 31
0.0
  0
LINE
  5
D9B
330
2
100
AcDbEntity
  8
0
100
AcDbLine
 10
197.9245116325055
 20
236.6671017991581
 30
0.0
 11
126.5245176325054
 21
236.6671017991581
 31
0.0
  0
LINE
  5
D9C
330
2
100
AcDbEntity
  8
0
100
AcDbLine
 10
126.5245176325054
 20
239.4671047991579
 30
0.0
 11
197.9245116325055
 21
239.4671047991579
 31
0.0
  0
LINE
  5
D9D
330
2
100
AcDbEntity
  8
0
100
AcDbLine
 10
127.7686196325055
 20
201.6671112991578
 30
0.0
 11
241.6798056325055
 21
201.6671112991578
 31
0.0
  0
LINE
  5
D9E
330
2
100
AcDbEntity
  8
0
100
AcDbLine
 10
242.2242086325054
 20
214.3671252991578
 30
0.0
 11
132.2241936325056
 21
214.3671252991578
 31
0.0
  0
LINE
  5
D9F
330
2
100
AcDbEntity
  8
0
100
AcDbLine
 10
242.2242086325054
 20
207.8671232991578
 30
0.0
 11
131.7661326325055
 21
207.8671232991578
 31
0.0
  0
LINE
  5
DA0
330
2
100
AcDbEntity
  8
0
100
AcDbLine
 10
242.2242086325054
 20
209.8671232991578
 30
0.0
 11
132.2241936325056
 21
209.8671232991578
 31
0.0
  0
LINE
  5
DA1
330
2
100
AcDbEntity
  8
0
100
AcDbLine
 10
129.2241936325056
 20
206.6122712991578
 30
0.0
 11
242.2242086325054
 21
206.6122712991578
 31
0.0
  0
LINE
  5
DA2
330
2
100
AcDbEntity
  8
0
100
AcDbLine
 10
242.2242086325054
 20
227.6671132991578
 30
0.0
 11
127.2242166325054
 21
227.6671132991578
 31
0.0
  0
LINE
  5
DA3
330
2
100
AcDbEntity
  8
0
100
AcDbLine
 10
242.2242086325054
 20
220.8671252991578
 30
0.0
 11
129.8375816325055
 21
220.8671252991578
 31
0.0
  0
LINE
  5
DA4
330
2
100
AcDbEntity
  8
0
100
AcDbLine
 10
242.2242086325054
 20
222.8671252991578
 30
0.0
 11
127.2242166325054
 21
222.8671252991578
 31
0.0
  0
LINE
  5
DA5
330
2
100
AcDbEntity
  8
0
100
AcDbLine
 10
242.2242086325054
 20
216.3671252991578
 30
0.0
 11
132.1336786325055
 21
216.3671252991578
 31
0.0
  0
LINE
  5
DA6
330
2
100
AcDbEntity
  8
0
100
AcDbLine
 10
242.2242086325054
 20
229.6671132991578
 30
0.0
 11
127.2242166325054
 21
229.6671132991578
 31
0.0
  0
ARC
  5
DA9
330
2
100
AcDbEntity
  8
0
100
AcDbCircle
 10
123.5243496325051
 20
245.6671927991577
 30
0.0
 40
3.0
100
AcDbArc
 50
90.21849099999606
 51
180.601662
  0
LINE
  5
DAA
330
2
100
AcDbEntity
  8
0
100
AcDbLine
 10
117.7245146325055
 20
245.4671047991579
 30
0.0
 11
117.7245146325055
 21
309.8671137991579
 31
0.0
  0
ARC
  5
DAB
330
2
100
AcDbEntity
  8
0
100
AcDbCircle
 10
476.7236535071674
 20
277.6671092991578
 30
0.0
 40
420.0000000000001
100
AcDbArc
 50
171.480375745857
 51
188.5196242541429
  0
ARC
  5
DAC
330
2
100
AcDbEntity
  8
0
100
AcDbCircle
 10
-312.2763464928327
 20
277.6671092991578
 30
0.0
 40
400.0
100
AcDbArc
 50
349.031598484418
 51
11.33146085831674
  0
LINE
  5
DAD
330
2
100
AcDbEntity
  8
0
100
AcDbLine
 10
126.2241936325056
 20
215.1671322991578
 30
0.0
 11
126.2241936325056
 21
206.4526552991578
 31
0.0
  0
LINE
  5
DAE
330
2
100
AcDbEntity
  8
0
100
AcDbLine
 10
132.2241936325056
 20
215.1671322991578
 30
0.0
 11
132.2241936325056
 21
208.0401732991578
 31
0.0
  0
LINE
  5
DAF
330
2
100
AcDbEntity
  8
0
100
AcDbLine
 10
123.2242166325054
 20
217.1671322991578
 30
0.0
 11
123.2242166325054
 21
205.6671112991578
 31
0.0
  0
LINE
  5
DB0
330
2
100
AcDbEntity
  8
0
100
AcDbLine
 10
122.2236535071674
 20
237.7896984809156
 30
0.0
 11
122.2236535071674
 21
201.1802567184227
 31
0.0
  0
LINE
  5
DB1
330
2
100
AcDbEntity
  8
0
100
AcDbLine
 10
129.2241936325056
 20
215.1671322991578
 30
0.0
 11
129.2241936325056
 21
205.1945942991578
 31
0.0
  0
ARC
  5
DB2
330
2
100
AcDbEntity
  8
0
100
AcDbCircle
 10
76.19275582260661
 20
217.6671092991578
 30
0.0
 40
15.0
100
AcDbArc
 50
188.5196242541429
 51
270.0
  0
LINE
  5
DB3
330
2
100
AcDbEntity
  8
0
100
AcDbLine
 10
120.7105637039198
 20
199.6803138338264
 30
0.0
 11
82.412941460188
 21
199.6803138338264
 31
0.0
  0
ARC
  5
DB4
330
2
100
AcDbEntity
  8
0
100
AcDbCircle
 10
82.412941460188
 20
201.6803138338264
 30
0.0
 40
2.0
100
AcDbArc
 50
180.7896990045909
 51
270.0
  0
LINE
  5
DB5
330
2
100
AcDbEntity
  8
0
100
AcDbLine
 10
76.19275582260661
 20
202.6671092991578
 30
0.0
 11
79.4219529415127
 21
202.6389285228308
 31
0.0
  0
ARC
  5
DB6
330
2
100
AcDbEntity
  8
0
100
AcDbCircle
 10
79.41322640601447
 20
201.6389665997667
 30
0.0
 40
1.0
100
AcDbArc
 50
0.789699004591009
 51
89.50000000000846
  0
LINE
  5
DB7
330
2
100
AcDbEntity
  8
0
100
AcDbLine
 10
125.3851056325056
 20
205.6671112991578
 30
0.0
 11
123.2242166325054
 21
205.6671112991578
 31
0.0
  0
LINE
  5
DB8
330
2
100
AcDbEntity
  8
0
100
AcDbLine
 10
122.2242126325054
 20
207.1671192991578
 30
0.0
 11
123.2242126325054
 21
207.1671192991578
 31
0.0
  0
LINE
  5
DB9
330
2
100
AcDbEntity
  8
0
100
AcDbLine
 10
129.2241936325056
 20
206.9068132991578
 30
0.0
 11
132.2241936325056
 21
208.0401732991578
 31
0.0
  0
LINE
  5
DBA
330
2
100
AcDbEntity
  8
0
100
AcDbLine
 10
128.5241736325056
 20
205.4881732991578
 30
0.0
 11
128.5241736325056
 21
199.7608752991578
 31
0.0
  0
LINE
  5
DBB
330
2
100
AcDbEntity
  8
0
100
AcDbLine
 10
128.7241936325056
 20
205.4042942991578
 30
0.0
 11
128.7241936325056
 21
199.7608752991578
 31
0.0
  0
ARC
  5
DBC
330
2
100
AcDbEntity
  8
0
100
AcDbCircle
 10
120.7236535071674
 20
201.1802567184227
 30
0.0
 40
1.5
100
AcDbArc
 50
269.4999999999954
 51
0.0
  0
LINE
  5
DBD
330
2
100
AcDbEntity
  8
0
100
AcDbLine
 10
126.7838026325055
 20
202.4934662991578
 30
0.0
 11
126.3699226325054
 21
204.8407582991578
 31
0.0
  0
ARC
  5
DBE
330
2
100
AcDbEntity
  8
0
100
AcDbCircle
 10
127.7686196325055
 20
202.6671112991578
 30
0.0
 40
1.0
100
AcDbArc
 50
189.9999999999982
 51
270.0
  0
LINE
  5
DBF
330
2
100
AcDbEntity
  8
0
100
AcDbLine
 10
126.7241936325055
 20
206.2429932991578
 30
0.0
 11
126.7241936325055
 21
199.7608752991578
 31
0.0
  0
LINE
  5
DC0
330
2
100
AcDbEntity
  8
0
100
AcDbLine
 10
126.9242366325056
 20
206.1591142991578
 30
0.0
 11
126.9242366325056
 21
199.7608752991578
 31
0.0
  0
LINE
  5
DC1
330
2
100
AcDbEntity
  8
0
100
AcDbLine
 10
127.1242106325055
 20
206.0752742991578
 30
0.0
 11
127.1242106325055
 21
199.7608752991578
 31
0.0
  0
LINE
  5
DC2
330
2
100
AcDbEntity
  8
0
100
AcDbLine
 10
127.3241926325054
 20
205.9913552991578
 30
0.0
 11
127.3241926325054
 21
199.7608752991578
 31
0.0
  0
LINE
  5
DC3
330
2
100
AcDbEntity
  8
0
100
AcDbLine
 10
127.5241736325056
 20
205.9074942991578
 30
0.0
 11
127.5241736325056
 21
199.7608752991578
 31
0.0
  0
LINE
  5
DC4
330
2
100
AcDbEntity
  8
0
100
AcDbLine
 10
127.7241936325056
 20
205.8236342991578
 30
0.0
 11
127.7241936325056
 21
199.7608752991578
 31
0.0
  0
LINE
  5
DC5
330
2
100
AcDbEntity
  8
0
100
AcDbLine
 10
127.9242366325056
 20
205.7397742991578
 30
0.0
 11
127.9242366325056
 21
199.7608752991578
 31
0.0
  0
LINE
  5
DC6
330
2
100
AcDbEntity
  8
0
100
AcDbLine
 10
128.1242106325055
 20
205.6558942991578
 30
0.0
 11
128.1242106325055
 21
199.7608752991578
 31
0.0
  0
LINE
  5
DC7
330
2
100
AcDbEntity
  8
0
100
AcDbLine
 10
128.3241926325054
 20
205.5720342991578
 30
0.0
 11
128.3241926325054
 21
199.7608752991578
 31
0.0
  0
LINE
  5
DC8
330
2
100
AcDbEntity
  8
0
100
AcDbLine
 10
126.2241936325056
 20
206.4526552991578
 30
0.0
 11
129.2241936325056
 21
205.1945942991578
 31
0.0
  0
ARC
  5
DC9
330
2
100
AcDbEntity
  8
0
100
AcDbCircle
 10
125.3851056325056
 20
204.6671112991578
 30
0.0
 40
1.0
100
AcDbArc
 50
9.999999999998278
 51
90.0
  0
LINE
  5
DCA
330
2
100
AcDbEntity
  8
0
100
AcDbLine
 10
126.2242166325054
 20
208.8671232991578
 30
0.0
 11
126.2242166325054
 21
205.2110852991578
 31
0.0
  0
LINE
  5
DCB
330
2
100
AcDbEntity
  8
0
100
AcDbLine
 10
130.1242106325055
 20
207.2468542991578
 30
0.0
 11
130.1242106325055
 21
201.9796342991578
 31
0.0
  0
LINE
  5
DCC
330
2
100
AcDbEntity
  8
0
100
AcDbLine
 10
130.3241926325054
 20
207.3224132991578
 30
0.0
 11
130.3241926325054
 21
201.9796342991578
 31
0.0
  0
LINE
  5
DCD
330
2
100
AcDbEntity
  8
0
100
AcDbLine
 10
130.5241736325056
 20
207.3979352991578
 30
0.0
 11
130.5241736325056
 21
201.9796342991578
 31
0.0
  0
LINE
  5
DCE
330
2
100
AcDbEntity
  8
0
100
AcDbLine
 10
130.7241936325056
 20
207.4735342991578
 30
0.0
 11
130.7241936325056
 21
201.9796342991578
 31
0.0
  0
LINE
  5
DCF
330
2
100
AcDbEntity
  8
0
100
AcDbLine
 10
130.9242366325056
 20
207.5490542991579
 30
0.0
 11
130.9242366325056
 21
201.9796342991578
 31
0.0
  0
LINE
  5
DD0
330
2
100
AcDbEntity
  8
0
100
AcDbLine
 10
131.1242106325055
 20
207.6246142991578
 30
0.0
 11
131.1242106325055
 21
201.9796342991578
 31
0.0
  0
LINE
  5
DD1
330
2
100
AcDbEntity
  8
0
100
AcDbLine
 10
131.3241926325054
 20
207.7001542991578
 30
0.0
 11
131.3241926325054
 21
201.9796342991578
 31
0.0
  0
LINE
  5
DD2
330
2
100
AcDbEntity
  8
0
100
AcDbLine
 10
131.5241736325056
 20
207.7757142991578
 30
0.0
 11
131.5241736325056
 21
201.9796342991578
 31
0.0
  0
LINE
  5
DD3
330
2
100
AcDbEntity
  8
0
100
AcDbLine
 10
131.7241936325056
 20
207.8512732991578
 30
0.0
 11
131.7241936325056
 21
201.9796342991578
 31
0.0
  0
LINE
  5
DD4
330
2
100
AcDbEntity
  8
0
100
AcDbLine
 10
129.7241936325056
 20
207.0957132991578
 30
0.0
 11
129.7241936325056
 21
201.9796342991578
 31
0.0
  0
LINE
  5
DD5
330
2
100
AcDbEntity
  8
0
100
AcDbLine
 10
129.9242366325056
 20
207.1712942991578
 30
0.0
 11
129.9242366325056
 21
201.9796342991578
 31
0.0
  0
ARC
  5
DD6
330
2
100
AcDbEntity
  8
0
100
AcDbCircle
 10
127.2242166325054
 20
228.6671132991579
 30
0.0
 40
1.0
100
AcDbArc
 50
90.0
 51
270.0
  0
LINE
  5
DD7
330
2
100
AcDbEntity
  8
0
100
AcDbLine
 10
123.2242166325054
 20
237.3094082303092
 30
0.0
 11
123.2242166325054
 21
223.1671322991578
 31
0.0
  0
ARC
  5
DD8
330
2
100
AcDbEntity
  8
0
100
AcDbCircle
 10
124.2241936325056
 20
215.1671322991578
 30
0.0
 40
5.0
100
AcDbArc
 50
0.0
 51
90.0
  0
ARC
  5
DD9
330
2
100
AcDbEntity
  8
0
100
AcDbCircle
 10
127.2242166325054
 20
221.8671252991578
 30
0.0
 40
1.0
100
AcDbArc
 50
90.0
 51
117.5270159999938
  0
LINE
  5
DDA
330
2
100
AcDbEntity
  8
0
100
AcDbLine
 10
124.2241936325056
 20
223.1671322991578
 30
0.0
 11
122.2241936325056
 21
223.1671322991578
 31
0.0
  0
LINE
  5
DDB
330
2
100
AcDbEntity
  8
0
100
AcDbLine
 10
124.2241936325056
 20
220.1671322991578
 30
0.0
 11
122.2241936325056
 21
220.1671322991578
 31
0.0
  0
ARC
  5
DDC
330
2
100
AcDbEntity
  8
0
100
AcDbCircle
 10
124.2241936325056
 20
215.1671322991578
 30
0.0
 40
2.0
100
AcDbArc
 50
0.0
 51
90.0
  0
LINE
  5
DDD
330
2
100
AcDbEntity
  8
0
100
AcDbLine
 10
124.2241936325056
 20
217.1671322991578
 30
0.0
 11
122.2241936325056
 21
217.1671322991578
 31
0.0
  0
ARC
  5
DDE
330
2
100
AcDbEntity
  8
0
100
AcDbCircle
 10
124.2241936325056
 20
215.1671322991578
 30
0.0
 40
8.0
100
AcDbArc
 50
0.0
 51
90.0
  0
ARC
  5
DDF
330
2
100
AcDbEntity
  8
0
100
AcDbCircle
 10
126.5245176325052
 20
245.4671047991577
 30
0.0
 40
8.8
100
AcDbArc
 50
180.0
 51
270.0
  0
LINE
  5
DE0
330
2
100
AcDbEntity
  8
0
100
AcDbLine
 10
120.5245176325054
 20
245.4671047991579
 30
0.0
 11
120.5245176325054
 21
245.667192799158
 31
0.0
  0
ARC
  5
DE1
330
2
100
AcDbEntity
  8
0
100
AcDbCircle
 10
126.5245176325052
 20
245.4671047991577
 30
0.0
 40
6.0
100
AcDbArc
 50
180.0
 51
270.0
  0
LINE
  5
DE2
330
2
100
AcDbEntity
  8
0
100
AcDbLine
 10
122.2236535071674
 20
357.1539618798932
 30
0.0
 11
122.2236535071674
 21
317.5445201173996
 31
0.0
  0
LINE
  5
DE3
330
2
100
AcDbEntity
  8
0
100
AcDbLine
 10
123.2242166325054
 20
349.6671092991578
 30
0.0
 11
123.2242166325054
 21
318.024810368006
 31
0.0
  0
LINE
  5
DE4
330
2
100
AcDbEntity
  8
0
100
AcDbLine
 10
120.5245176325054
 20
267.6671167991579
 30
0.0
 11
120.5245176325054
 21
309.8671137991579
 31
0.0
  0
ARC
  5
DE5
330
2
100
AcDbEntity
  8
0
100
AcDbCircle
 10
123.5245176325052
 20
267.6671167991577
 30
0.0
 40
3.0
100
AcDbArc
 50
180.0
 51
270.0
  0
CIRCLE
  5
DE6
330
2
100
AcDbEntity
  8
0
100
AcDbCircle
 10
123.5245176325052
 20
256.6671167991577
 30
0.0
 40
4.0
  0
ARC
  5
DE7
330
2
100
AcDbEntity
  8
0
100
AcDbCircle
 10
123.5245176325052
 20
256.6671167991577
 30
0.0
 40
8.0
100
AcDbArc
 50
270.2184880000026
 51
90.0
  0
ARC
  5
DE8
330
2
100
AcDbEntity
  8
0
100
AcDbCircle
 10
126.5245176325054
 20
309.8671137991576
 30
0.0
 40
8.8
100
AcDbArc
 50
90.0
 51
180.0
  0
ARC
  5
DE9
330
2
100
AcDbEntity
  8
0
100
AcDbCircle
 10
126.5245176325054
 20
309.8671137991576
 30
0.0
 40
6.0
100
AcDbArc
 50
90.0
 51
180.0
  0
LINE
  5
DEA
330
2
100
AcDbEntity
  8
0
100
AcDbLine
 10
120.7105637039198
 20
358.6539047644894
 30
0.0
 11
81.88743436750746
 21
358.6539047644894
 31
0.0
  0
ARC
  5
DEB
330
2
100
AcDbEntity
  8
0
100
AcDbCircle
 10
76.19275582260661
 20
337.6671092991577
 30
0.0
 40
15.0
100
AcDbArc
 50
90.0
 51
171.480375745857
  0
LINE
  5
DEC
330
2
100
AcDbEntity
  8
0
100
AcDbLine
 10
76.19275582260661
 20
352.6671092991577
 30
0.0
 11
79.4219529415127
 21
352.6952900754847
 31
0.0
  0
ARC
  5
DED
330
2
100
AcDbEntity
  8
0
100
AcDbCircle
 10
79.41322640601402
 20
353.695251998549
 30
0.0
 40
1.0
100
AcDbArc
 50
270.5000000000045
 51
10.98469207193821
  0
ARC
  5
DEE
330
2
100
AcDbEntity
  8
0
100
AcDbCircle
 10
81.88743436750701
 20
356.6539047644893
 30
0.0
 40
2.0
100
AcDbArc
 50
90.0
 51
191.3314608583239
  0
ARC
  5
DEF
330
2
100
AcDbEntity
  8
0
100
AcDbCircle
 10
127.2242166325054
 20
339.9670972991579
 30
0.0
 40
1.0
100
AcDbArc
 50
90.0
 51
270.0
  0
ARC
  5
DF0
330
2
100
AcDbEntity
  8
0
100
AcDbCircle
 10
127.2242166325054
 20
333.4670972991577
 30
0.0
 40
1.0
100
AcDbArc
 50
90.0
 51
270.0
  0
ARC
  5
DF1
330
2
100
AcDbEntity
  8
0
100
AcDbCircle
 10
127.2242166325054
 20
326.6671092991578
 30
0.0
 40
1.0
100
AcDbArc
 50
90.0
 51
270.0
  0
ARC
  5
DF2
330
2
100
AcDbEntity
  8
0
100
AcDbCircle
 10
120.7236535071674
 20
357.1539618798932
 30
0.0
 40
1.5
100
AcDbArc
 50
0.0
 51
90.50000000000457
  0
ARC
  5
DF3
330
2
100
AcDbEntity
  8
0
100
AcDbCircle
 10
125.3851056325056
 20
350.6671092991577
 30
0.0
 40
1.0
100
AcDbArc
 50
270.0
 51
350.0000000000017
  0
LINE
  5
DF4
330
2
100
AcDbEntity
  8
0
100
AcDbLine
 10
125.3851056325056
 20
349.6671092991578
 30
0.0
 11
123.2242166325054
 21
349.6671092991578
 31
0.0
  0
LINE
  5
DF5
330
2
100
AcDbEntity
  8
0
100
AcDbLine
 10
126.2242166325054
 20
346.4670972991577
 30
0.0
 11
126.2242166325054
 21
350.1231332991577
 31
0.0
  0
ARC
  5
DF6
330
2
100
AcDbEntity
  8
0
100
AcDbCircle
 10
127.2242166325054
 20
346.4670972991577
 30
0.0
 40
1.0
100
AcDbArc
 50
90.0
 51
270.0
  0
ARC
  5
DF7
330
2
100
AcDbEntity
  8
0
100
AcDbCircle
 10
127.2242166325054
 20
347.7219492991578
 30
0.0
 40
1.0
100
AcDbArc
 50
90.0
 51
180.0
  0
LINE
  5
DF8
330
2
100
AcDbEntity
  8
0
100
AcDbLine
 10
122.2242126325054
 20
348.1671252991578
 30
0.0
 11
123.2242126325054
 21
348.1671252991578
 31
0.0
  0
ARC
  5
DF9
330
2
100
AcDbEntity
  8
0
100
AcDbCircle
 10
127.7686196325055
 20
352.6671092991577
 30
0.0
 40
1.0
100
AcDbArc
 50
90.0
 51
170.0000000000017
  0
LINE
  5
DFA
330
2
100
AcDbEntity
  8
0
100
AcDbLine
 10
126.7838026325055
 20
352.8407542991577
 30
0.0
 11
126.3699226325054
 21
350.4934642991577
 31
0.0
  0
ARC
  5
DFB
330
2
100
AcDbEntity
  8
0
100
AcDbCircle
 10
479.4398589603008
 20
714.8569844131665
 30
0.0
 40
400.0000000000018
100
AcDbArc
 50
168.5531233357844
 51
191.4468766642155
  0
ARC
  5
DFC
330
2
100
AcDbEntity
  8
0
100
AcDbCircle
 10
76.19332594794537
 20
654.8569844131665
 30
0.0
 40
15.0
100
AcDbArc
 50
188.5196242541429
 51
270.0
  0
LINE
  5
DFD
330
2
100
AcDbEntity
  8
0
100
AcDbLine
 10
123.2242126325056
 20
786.8569844131664
 30
0.0
 11
123.2242126325056
 21
642.8569844131664
 31
0.0
  0
LINE
  5
DFE
330
2
100
AcDbEntity
  8
0
100
AcDbLine
 10
122.2242236325059
 20
794.3438369939017
 30
0.0
 11
122.2242236325059
 21
635.3701318324312
 31
0.0
  0
LINE
  5
DFF
330
2
100
AcDbEntity
  8
0
100
AcDbLine
 10
127.7123446325056
 20
644.6730554131663
 30
0.0
 11
126.2242156325057
 21
653.1126604131661
 31
0.0
  0
LINE
  5
E00
330
2
100
AcDbEntity
  8
0
100
AcDbLine
 10
124.0467026325068
 20
636.5569814131663
 30
0.0
 11
124.046702632507
 21
601.5667384131661
 31
0.0
  0
ARC
  5
E01
330
2
100
AcDbEntity
  8
0
100
AcDbCircle
 10
121.0397446325052
 20
594.5845864131663
 30
0.0
 40
1.3
100
AcDbArc
 50
204.9999999999986
 51
295.0000000000069
  0
LINE
  5
E02
330
2
100
AcDbEntity
  8
0
100
AcDbLine
 10
119.8615226325071
 20
594.035184413166
 30
0.0
 11
117.7243156325059
 21
598.6185284131661
 31
0.0
  0
LINE
  5
E03
330
2
100
AcDbEntity
  8
0
100
AcDbLine
 10
120.7111338292584
 20
633.870188947835
 30
0.0
 11
89.35642411319122
 21
633.870188947835
 31
0.0
  0
ARC
  5
E04
330
2
100
AcDbEntity
  8
0
100
AcDbCircle
 10
89.35642411319122
 20
635.870188947835
 30
0.0
 40
2.0
100
AcDbArc
 50
191.4468766642261
 51
270.0
  0
LINE
  5
E05
330
2
100
AcDbEntity
  8
0
100
AcDbLine
 10
76.19332594794537
 20
639.8569844131665
 30
0.0
 11
85.73251357965295
 21
639.7737371838736
 31
0.0
  0
ARC
  5
E06
330
2
100
AcDbEntity
  8
0
100
AcDbCircle
 10
85.72378704415474
 20
638.7737752608093
 30
0.0
 40
1.0
100
AcDbArc
 50
10.93724298598147
 51
89.49999999999542
  0
LINE
  5
E07
330
2
100
AcDbEntity
  8
CENTER
100
AcDbLine
 10
117.2262686325068
 20
616.3569844131662
 30
0.0
 11
134.2663076325059
 21
616.3569844131662
 31
0.0
  0
LINE
  5
E08
330
2
100
AcDbEntity
  8
0
100
AcDbLine
 10
134.7243156325057
 20
639.3569844131661
 30
0.0
 11
134.7243156325057
 21
640.8569844131662
 31
0.0
  0
ARC
  5
E09
330
2
100
AcDbEntity
  8
0
100
AcDbCircle
 10
126.8467516325054
 20
636.5569814131663
 30
0.0
 40
2.799999999999998
100
AcDbArc
 50
90.0
 51
180.0
  0
ARC
  5
E0A
330
2
100
AcDbEntity
  8
0
100
AcDbCircle
 10
120.7242236325059
 20
635.3701318324311
 30
0.0
 40
1.5
100
AcDbArc
 50
269.4999999999954
 51
0.0
  0
ARC
  5
E0B
330
2
100
AcDbEntity
  8
0
100
AcDbCircle
 10
128.6971546325057
 20
644.8467004131662
 30
0.0
 40
1.0
100
AcDbArc
 50
189.9999999999982
 51
270.0
  0
ARC
  5
E0C
330
2
100
AcDbEntity
  8
0
100
AcDbCircle
 10
125.3851046325057
 20
641.8569844131662
 30
0.0
 40
1.0
100
AcDbArc
 50
9.999999999998278
 51
90.0
  0
LINE
  5
E0D
330
2
100
AcDbEntity
  8
0
100
AcDbLine
 10
125.3851046325057
 20
642.8569844131664
 30
0.0
 11
123.2242126325056
 21
642.8569844131664
 31
0.0
  0
ARC
  5
E0E
330
2
100
AcDbEntity
  8
0
100
AcDbCircle
 10
127.4251206325057
 20
641.8569844131662
 30
0.0
 40
1.0
100
AcDbArc
 50
191.4112549999976
 51
270.0
  0
LINE
  5
E0F
330
2
100
AcDbEntity
  8
0
100
AcDbLine
 10
126.4448886325055
 20
641.6591394131662
 30
0.0
 11
126.3699066325057
 21
642.0306294131663
 31
0.0
  0
LINE
  5
E10
330
2
100
AcDbEntity
  8
0
100
AcDbLine
 10
122.2242126325056
 20
644.3569844131664
 30
0.0
 11
123.2242126325056
 21
644.3569844131664
 31
0.0
  0
LINE
  5
E11
330
2
100
AcDbEntity
  8
0
100
AcDbLine
 10
126.2242156325057
 20
686.9783224131662
 30
0.0
 11
126.2242156325057
 21
742.7356464131662
 31
0.0
  0
ARC
  5
E12
330
2
100
AcDbEntity
  8
0
100
AcDbCircle
 10
476.7242236325057
 20
714.8569844131665
 30
0.0
 40
420.0000000000001
100
AcDbArc
 50
171.480375745857
 51
188.5196242541429
  0
LINE
  5
E13
330
2
100
AcDbEntity
  8
0
100
AcDbLine
 10
128.5970646325056
 20
667.7503254131663
 30
0.0
 11
126.2242156325057
 21
681.2074484131662
 31
0.0
  0
LINE
  5
E14
330
2
100
AcDbEntity
  8
0
100
AcDbLine
 10
128.3555026325057
 20
658.7605484131663
 30
0.0
 11
126.2242156325057
 21
670.8476764131662
 31
0.0
  0
ARC
  5
E15
330
2
100
AcDbEntity
  8
0
100
AcDbCircle
 10
129.5818746325055
 20
667.9239704131663
 30
0.0
 40
1.0
100
AcDbArc
 50
189.9999999999982
 51
270.0
  0
LINE
  5
E16
330
2
100
AcDbEntity
  8
0
100
AcDbLine
 10
128.0392186325057
 20
652.7156274131664
 30
0.0
 11
126.2242156325057
 21
663.0090534131661
 31
0.0
  0
ARC
  5
E17
330
2
100
AcDbEntity
  8
0
100
AcDbCircle
 10
129.0240286325056
 20
652.8892724131662
 30
0.0
 40
1.0
100
AcDbArc
 50
189.9999999999982
 51
270.0
  0
ARC
  5
E18
330
2
100
AcDbEntity
  8
0
100
AcDbCircle
 10
129.3403046325056
 20
658.9341934131661
 30
0.0
 40
1.0
100
AcDbArc
 50
189.9999999999982
 51
270.0
  0
ARC
  5
E19
330
2
100
AcDbEntity
  8
0
100
AcDbCircle
 10
128.4207186325056
 20
680.2801104131662
 30
0.0
 40
1.0
100
AcDbArc
 50
189.9999999999982
 51
270.0
  0
LINE
  5
E1A
330
2
100
AcDbEntity
  8
0
100
AcDbLine
 10
127.4359086325057
 20
680.1064654131663
 30
0.0
 11
126.2242156325057
 21
686.9783224131662
 31
0.0
  0
LINE
  5
E1B
330
2
100
AcDbEntity
  8
0
100
AcDbLine
 10
128.3555026325057
 20
770.9534204131665
 30
0.0
 11
126.2242156325057
 21
758.8662924131662
 31
0.0
  0
LINE
  5
E1C
330
2
100
AcDbEntity
  8
0
100
AcDbLine
 10
127.4359086325057
 20
749.6075034131663
 30
0.0
 11
126.2242156325057
 21
742.7356464131662
 31
0.0
  0
ARC
  5
E1D
330
2
100
AcDbEntity
  8
0
100
AcDbCircle
 10
129.5818746325055
 20
761.7899984131661
 30
0.0
 40
1.0
100
AcDbArc
 50
90.0
 51
170.0000000000017
  0
ARC
  5
E1E
330
2
100
AcDbEntity
  8
0
100
AcDbCircle
 10
128.4207186325056
 20
749.4338584131663
 30
0.0
 40
1.0
100
AcDbArc
 50
90.0
 51
170.0000000000017
  0
LINE
  5
E1F
330
2
100
AcDbEntity
  8
0
100
AcDbLine
 10
128.5970646325056
 20
761.9636434131664
 30
0.0
 11
126.2242156325057
 21
748.5065204131663
 31
0.0
  0
LINE
  5
E20
330
2
100
AcDbEntity
  8
0
100
AcDbLine
 10
120.7111338292584
 20
795.8437798784983
 30
0.0
 11
89.35642411319122
 21
795.8437798784983
 31
0.0
  0
ARC
  5
E21
330
2
100
AcDbEntity
  8
0
100
AcDbCircle
 10
76.19332594794537
 20
774.8569844131666
 30
0.0
 40
15.0
100
AcDbArc
 50
90.0
 51
171.480375745857
  0
LINE
  5
E22
330
2
100
AcDbEntity
  8
0
100
AcDbLine
 10
76.19332594794537
 20
789.8569844131666
 30
0.0
 11
85.73251357965295
 21
789.9402316424593
 31
0.0
  0
ARC
  5
E23
330
2
100
AcDbEntity
  8
0
100
AcDbCircle
 10
89.35642411319122
 20
793.843779878498
 30
0.0
 40
2.0
100
AcDbArc
 50
90.0
 51
168.5531233357738
  0
ARC
  5
E24
330
2
100
AcDbEntity
  8
0
100
AcDbCircle
 10
85.72378704415474
 20
790.9401935655234
 30
0.0
 40
1.0
100
AcDbArc
 50
270.5000000000045
 51
349.0627570140185
  0
LINE
  5
E25
330
2
100
AcDbEntity
  8
0
100
AcDbLine
 10
127.5866506325057
 20
788.5153094131663
 30
0.0
 11
126.2242156325057
 21
780.7885644131661
 31
0.0
  0
LINE
  5
E26
330
2
100
AcDbEntity
  8
0
100
AcDbLine
 10
127.7123446325056
 20
785.0409134131662
 30
0.0
 11
126.2242156325057
 21
776.6013084131661
 31
0.0
  0
LINE
  5
E27
330
2
100
AcDbEntity
  8
0
100
AcDbLine
 10
128.0392186325057
 20
776.9983414131663
 30
0.0
 11
126.2242156325057
 21
766.7049154131661
 31
0.0
  0
ARC
  5
E28
330
2
100
AcDbEntity
  8
0
100
AcDbCircle
 10
129.3403046325056
 20
770.7797754131664
 30
0.0
 40
1.0
100
AcDbArc
 50
90.0
 51
170.0000000000017
  0
ARC
  5
E29
330
2
100
AcDbEntity
  8
0
100
AcDbCircle
 10
129.0240286325056
 20
776.8246964131662
 30
0.0
 40
1.0
100
AcDbArc
 50
90.0
 51
170.0000000000017
  0
ARC
  5
E2A
330
2
100
AcDbEntity
  8
0
100
AcDbCircle
 10
125.3851046325057
 20
787.8569844131663
 30
0.0
 40
1.0
100
AcDbArc
 50
270.0
 51
350.0000000000017
  0
ARC
  5
E2B
330
2
100
AcDbEntity
  8
0
100
AcDbCircle
 10
128.6971546325057
 20
784.8672684131663
 30
0.0
 40
1.0
100
AcDbArc
 50
90.0
 51
170.0000000000017
  0
LINE
  5
E2C
330
2
100
AcDbEntity
  8
0
100
AcDbLine
 10
125.3851046325057
 20
786.8569844131664
 30
0.0
 11
123.2242126325056
 21
786.8569844131664
 31
0.0
  0
LINE
  5
E2D
330
2
100
AcDbEntity
  8
0
100
AcDbLine
 10
122.2242126325056
 20
785.3569844131661
 30
0.0
 11
123.2242126325056
 21
785.3569844131661
 31
0.0
  0
LINE
  5
E2E
330
2
100
AcDbEntity
  8
0
100
AcDbLine
 10
122.2242126325056
 20
785.3569844131661
 30
0.0
 11
123.2242126325056
 21
785.3569844131661
 31
0.0
  0
ARC
  5
E2F
330
2
100
AcDbEntity
  8
0
100
AcDbCircle
 10
128.5869706325056
 20
793.6132714131663
 30
0.0
 40
1.0
100
AcDbArc
 50
90.0
 51
168.5887450000007
  0
ARC
  5
E30
330
2
100
AcDbEntity
  8
0
100
AcDbCircle
 10
128.3909866325056
 20
792.6423234131662
 30
0.0
 40
1.0
100
AcDbArc
 50
90.0
 51
168.5887450000007
  0
ARC
  5
E31
330
2
100
AcDbEntity
  8
0
100
AcDbCircle
 10
128.5714526325057
 20
788.3416644131662
 30
0.0
 40
1.0
100
AcDbArc
 50
90.0
 51
170.0000000000017
  0
ARC
  5
E32
330
2
100
AcDbEntity
  8
0
100
AcDbCircle
 10
128.0399816325057
 20
790.9032794131665
 30
0.0
 40
1.0
100
AcDbArc
 50
90.0
 51
168.5887450000007
  0
ARC
  5
E33
330
2
100
AcDbEntity
  8
0
100
AcDbCircle
 10
120.7242236325059
 20
794.3438369939017
 30
0.0
 40
1.5
100
AcDbArc
 50
0.0
 51
90.50000000000457
  0
LINE
  5
E34
330
2
100
AcDbEntity
  8
0
100
AcDbLine
 10
127.6067386325057
 20
793.8111474131662
 30
0.0
 11
126.3699066325057
 21
787.6833394131663
 31
0.0
  0
LINE
  5
E3F
330
2
100
AcDbEntity
  8
0
100
AcDbLine
 10
203.9245266325055
 20
245.4671047991579
 30
0.0
 11
203.9245266325055
 21
309.8671137991579
 31
0.0
  0
LINE
  5
E40
330
2
100
AcDbEntity
  8
0
100
AcDbLine
 10
206.7245146325055
 20
245.4671047991579
 30
0.0
 11
206.7245146325055
 21
309.8671137991579
 31
0.0
  0
LINE
  5
E42
330
2
100
AcDbEntity
  8
0
100
AcDbLine
 10
242.2242086325054
 20
240.0671072991579
 30
0.0
 11
204.8728946818191
 21
240.0671072991579
 31
0.0
  0
LINE
  5
E43
330
2
100
AcDbEntity
  8
0
100
AcDbLine
 10
242.2242086325054
 20
242.0671072991579
 30
0.0
 11
206.041162234816
 21
242.0671072991579
 31
0.0
  0
ARC
  5
E44
330
2
100
AcDbEntity
  8
0
100
AcDbCircle
 10
197.924511632505
 20
245.4671047991575
 30
0.0
 40
8.8
100
AcDbArc
 50
270.0
 51
0.0
  0
ARC
  5
E45
330
2
100
AcDbEntity
  8
0
100
AcDbCircle
 10
197.924511632505
 20
245.4671047991575
 30
0.0
 40
6.0
100
AcDbArc
 50
270.0
 51
0.0
  0
ARC
  5
E46
330
2
100
AcDbEntity
  8
0
100
AcDbCircle
 10
242.2242086325054
 20
208.8671232991578
 30
0.0
 40
1.0
100
AcDbArc
 50
270.0
 51
90.0
  0
LINE
  5
E47
330
2
100
AcDbEntity
  8
0
100
AcDbLine
 10
263.2242086325054
 20
205.6671112991578
 30
0.0
 11
244.0633206325055
 21
205.6671112991578
 31
0.0
  0
ARC
  5
E48
330
2
100
AcDbEntity
  8
0
100
AcDbCircle
 10
242.2242086325054
 20
207.6122712991578
 30
0.0
 40
1.0
100
AcDbArc
 50
270.0
 51
0.0
  0
LINE
  5
E49
330
2
100
AcDbEntity
  8
0
100
AcDbLine
 10
242.6646086325054
 20
202.4934662991578
 30
0.0
 11
243.0785026325054
 21
204.8407582991578
 31
0.0
  0
ARC
  5
E4A
330
2
100
AcDbEntity
  8
0
100
AcDbCircle
 10
241.6798056325055
 20
202.6671112991578
 30
0.0
 40
1.0
100
AcDbArc
 50
270.0
 51
350.0000000000017
  0
ARC
  5
E4B
330
2
100
AcDbEntity
  8
0
100
AcDbCircle
 10
244.0633206325055
 20
204.6671112991578
 30
0.0
 40
1.0
100
AcDbArc
 50
90.0
 51
170.0000000000017
  0
LINE
  5
E4C
330
2
100
AcDbEntity
  8
0
100
AcDbLine
 10
243.2242086325054
 20
208.8671232991578
 30
0.0
 11
243.2242086325054
 21
205.2110852991578
 31
0.0
  0
ARC
  5
E4D
330
2
100
AcDbEntity
  8
0
100
AcDbCircle
 10
242.2242086325054
 20
228.6671132991579
 30
0.0
 40
1.0
100
AcDbArc
 50
270.0
 51
90.0
  0
ARC
  5
E4E
330
2
100
AcDbEntity
  8
0
100
AcDbCircle
 10
242.2242086325054
 20
221.8671252991578
 30
0.0
 40
1.0
100
AcDbArc
 50
270.0
 51
90.0
  0
ARC
  5
E4F
330
2
100
AcDbEntity
  8
0
100
AcDbCircle
 10
242.2242086325054
 20
215.3671252991578
 30
0.0
 40
1.0
100
AcDbArc
 50
270.0
 51
90.0
  0
ARC
  5
E50
330
2
100
AcDbEntity
  8
0
100
AcDbCircle
 10
242.2242086325054
 20
241.0671072991579
 30
0.0
 40
1.0
100
AcDbArc
 50
270.0
 51
90.0
  0
LINE
  5
E51
330
2
100
AcDbEntity
  8
0
100
AcDbLine
 10
242.2242086325054
 20
315.2671152991578
 30
0.0
 11
204.8728915731817
 21
315.2671152991577
 31
0.0
  0
LINE
  5
E52
330
2
100
AcDbEntity
  8
0
100
AcDbLine
 10
242.2242086325054
 20
313.2671152991578
 30
0.0
 11
206.041160559248
 21
313.2671152991577
 31
0.0
  0
LINE
  5
E53
330
2
100
AcDbEntity
  8
0
100
AcDbLine
 10
242.2242086325054
 20
307.6671092991578
 30
0.0
 11
206.7245146325055
 21
307.6671092991578
 31
0.0
  0
LINE
  5
E54
330
2
100
AcDbEntity
  8
0
100
AcDbLine
 10
242.2242086325054
 20
305.6671092991578
 30
0.0
 11
210.7242246325053
 21
305.6671092991578
 31
0.0
  0
LINE
  5
E55
330
2
100
AcDbEntity
  8
0
100
AcDbLine
 10
242.2242086325054
 20
298.0671032991579
 30
0.0
 11
210.7242246325053
 21
298.0671032991579
 31
0.0
  0
LINE
  5
E56
330
2
100
AcDbEntity
  8
0
100
AcDbLine
 10
242.2242086325054
 20
300.0671032991579
 30
0.0
 11
210.7242246325053
 21
300.0671032991579
 31
0.0
  0
LINE
  5
E57
330
2
100
AcDbEntity
  8
0
100
AcDbLine
 10
242.2242086325054
 20
290.4670972991579
 30
0.0
 11
210.7242246325053
 21
290.4670972991579
 31
0.0
  0
LINE
  5
E58
330
2
100
AcDbEntity
  8
0
100
AcDbLine
 10
242.2242086325054
 20
292.4670972991579
 30
0.0
 11
210.7242246325053
 21
292.4670972991579
 31
0.0
  0
LINE
  5
E59
330
2
100
AcDbEntity
  8
0
100
AcDbLine
 10
242.2242086325054
 20
284.8671212991579
 30
0.0
 11
210.7242246325053
 21
284.8671212991579
 31
0.0
  0
LINE
  5
E5A
330
2
100
AcDbEntity
  8
0
100
AcDbLine
 10
242.2242086325054
 20
282.8671212991578
 30
0.0
 11
210.7242246325053
 21
282.8671212991578
 31
0.0
  0
LINE
  5
E5B
330
2
100
AcDbEntity
  8
0
100
AcDbLine
 10
242.2242086325054
 20
247.6671092991579
 30
0.0
 11
206.7245146325055
 21
247.6671092991579
 31
0.0
  0
LINE
  5
E5C
330
2
100
AcDbEntity
  8
0
100
AcDbLine
 10
242.2242086325054
 20
272.4670972991579
 30
0.0
 11
210.7242246325053
 21
272.4670972991579
 31
0.0
  0
LINE
  5
E5D
330
2
100
AcDbEntity
  8
0
100
AcDbLine
 10
242.2242086325054
 20
270.4670972991578
 30
0.0
 11
210.7242246325053
 21
270.4670972991578
 31
0.0
  0
LINE
  5
E5E
330
2
100
AcDbEntity
  8
0
100
AcDbLine
 10
242.2242086325054
 20
262.8671212991579
 30
0.0
 11
210.7242246325053
 21
262.8671212991579
 31
0.0
  0
LINE
  5
E5F
330
2
100
AcDbEntity
  8
0
100
AcDbLine
 10
242.2242086325054
 20
264.8671212991578
 30
0.0
 11
210.7242246325053
 21
264.8671212991578
 31
0.0
  0
LINE
  5
E60
330
2
100
AcDbEntity
  8
0
100
AcDbLine
 10
242.2242086325054
 20
255.2671152991578
 30
0.0
 11
210.7242246325053
 21
255.2671152991578
 31
0.0
  0
LINE
  5
E61
330
2
100
AcDbEntity
  8
0
100
AcDbLine
 10
242.2242086325054
 20
257.2671152991579
 30
0.0
 11
210.7242246325053
 21
257.2671152991579
 31
0.0
  0
LINE
  5
E62
330
2
100
AcDbEntity
  8
0
100
AcDbLine
 10
242.2242086325054
 20
249.6671092991579
 30
0.0
 11
210.7242246325053
 21
249.6671092991579
 31
0.0
  0
ARC
  5
E63
330
2
100
AcDbEntity
  8
0
100
AcDbCircle
 10
211.7242246325054
 20
286.8671212991578
 30
0.0
 40
2.0
100
AcDbArc
 50
180.0
 51
270.0
  0
ARC
  5
E64
330
2
100
AcDbEntity
  8
0
100
AcDbCircle
 10
211.7242246325054
 20
266.8671212991579
 30
0.0
 40
2.0
100
AcDbArc
 50
180.0
 51
270.0
  0
ARC
  5
E65
330
2
100
AcDbEntity
  8
0
100
AcDbCircle
 10
210.7242246325053
 20
263.8671212991579
 30
0.0
 40
1.0
100
AcDbArc
 50
90.0
 51
270.0
  0
ARC
  5
E66
330
2
100
AcDbEntity
  8
0
100
AcDbCircle
 10
204.7242246325054
 20
252.6671092991579
 30
0.0
 40
5.0
100
AcDbArc
 50
293.5818043878695
 51
351.7867890000001
  0
ARC
  5
E67
330
2
100
AcDbEntity
  8
0
100
AcDbCircle
 10
211.6524166325055
 20
251.6671092991578
 30
0.0
 40
2.0
100
AcDbArc
 50
171.7867890000001
 51
270.0
  0
ARC
  5
E68
330
2
100
AcDbEntity
  8
0
100
AcDbCircle
 10
210.7242246325053
 20
248.6671092991579
 30
0.0
 40
1.0
100
AcDbArc
 50
90.0
 51
270.0
  0
LINE
  5
E69
330
2
100
AcDbEntity
  8
0
100
AcDbLine
 10
209.7242246325054
 20
260.8671212991579
 30
0.0
 11
209.7242246325054
 21
259.2671152991578
 31
0.0
  0
LINE
  5
E6A
330
2
100
AcDbEntity
  8
0
100
AcDbLine
 10
209.7242246325054
 20
253.2671152991578
 30
0.0
 11
209.7242246325054
 21
252.6671092991579
 31
0.0
  0
ARC
  5
E6B
330
2
100
AcDbEntity
  8
0
100
AcDbCircle
 10
210.7242246325053
 20
256.2671152991578
 30
0.0
 40
1.0
100
AcDbArc
 50
90.0
 51
270.0
  0
ARC
  5
E6C
330
2
100
AcDbEntity
  8
0
100
AcDbCircle
 10
211.7242246325054
 20
253.2671152991578
 30
0.0
 40
2.0
100
AcDbArc
 50
90.0
 51
180.0
  0
ARC
  5
E6D
330
2
100
AcDbEntity
  8
0
100
AcDbCircle
 10
211.7242246325054
 20
259.2671152991578
 30
0.0
 40
2.0
100
AcDbArc
 50
180.0
 51
270.0
  0
ARC
  5
E6E
330
2
100
AcDbEntity
  8
0
100
AcDbCircle
 10
204.7242246325054
 20
252.6671092991579
 30
0.0
 40
5.0
100
AcDbArc
 50
351.7867890000001
 51
0.0
  0
ARC
  5
E6F
330
2
100
AcDbEntity
  8
0
100
AcDbCircle
 10
211.7242246325054
 20
260.8671212991579
 30
0.0
 40
2.0
100
AcDbArc
 50
90.0
 51
180.0
  0
ARC
  5
E70
330
2
100
AcDbEntity
  8
0
100
AcDbCircle
 10
210.7242246325053
 20
283.8671212991578
 30
0.0
 40
1.0
100
AcDbArc
 50
90.0
 51
270.0
  0
LINE
  5
E71
330
2
100
AcDbEntity
  8
0
100
AcDbLine
 10
209.7242246325054
 20
280.8671212991579
 30
0.0
 11
209.7242246325054
 21
274.4670972991579
 31
0.0
  0
LINE
  5
E72
330
2
100
AcDbEntity
  8
0
100
AcDbLine
 10
209.7242246325054
 20
268.4670972991578
 30
0.0
 11
209.7242246325054
 21
266.8671212991579
 31
0.0
  0
ARC
  5
E73
330
2
100
AcDbEntity
  8
0
100
AcDbCircle
 10
210.7242246325053
 20
271.4670972991579
 30
0.0
 40
1.0
100
AcDbArc
 50
90.0
 51
270.0
  0
ARC
  5
E74
330
2
100
AcDbEntity
  8
0
100
AcDbCircle
 10
211.7242246325054
 20
268.4670972991578
 30
0.0
 40
2.0
100
AcDbArc
 50
90.0
 51
180.0
  0
ARC
  5
E75
330
2
100
AcDbEntity
  8
0
100
AcDbCircle
 10
211.7242246325054
 20
274.4670972991579
 30
0.0
 40
2.0
100
AcDbArc
 50
180.0
 51
270.0
  0
ARC
  5
E76
330
2
100
AcDbEntity
  8
0
100
AcDbCircle
 10
211.7242246325054
 20
280.8671212991579
 30
0.0
 40
2.0
100
AcDbArc
 50
90.0
 51
180.0
  0
ARC
  5
E77
330
2
100
AcDbEntity
  8
0
100
AcDbCircle
 10
204.7242246325054
 20
302.6671092991577
 30
0.0
 40
5.0
100
AcDbArc
 50
8.213210999999825
 51
66.41819561213008
  0
ARC
  5
E78
330
2
100
AcDbEntity
  8
0
100
AcDbCircle
 10
211.6524166325055
 20
303.6671092991578
 30
0.0
 40
2.0
100
AcDbArc
 50
90.0
 51
188.2131960000004
  0
LINE
  5
E79
330
2
100
AcDbEntity
  8
0
100
AcDbLine
 10
209.7242246325054
 20
302.6671092991577
 30
0.0
 11
209.7242246325054
 21
302.0671032991579
 31
0.0
  0
ARC
  5
E7A
330
2
100
AcDbEntity
  8
0
100
AcDbCircle
 10
204.7242246325054
 20
302.6671092991577
 30
0.0
 40
5.0
100
AcDbArc
 50
0.0
 51
8.213210999999825
  0
LINE
  5
E7B
330
2
100
AcDbEntity
  8
0
100
AcDbLine
 10
209.7242246325054
 20
288.4670972991579
 30
0.0
 11
209.7242246325054
 21
286.8671212991578
 31
0.0
  0
ARC
  5
E7C
330
2
100
AcDbEntity
  8
0
100
AcDbCircle
 10
210.7242246325053
 20
299.0671032991579
 30
0.0
 40
1.0
100
AcDbArc
 50
90.0
 51
270.0
  0
ARC
  5
E7D
330
2
100
AcDbEntity
  8
0
100
AcDbCircle
 10
211.7242246325054
 20
296.0671032991579
 30
0.0
 40
2.0
100
AcDbArc
 50
90.0
 51
180.0
  0
ARC
  5
E7E
330
2
100
AcDbEntity
  8
0
100
AcDbCircle
 10
210.7242246325053
 20
291.4670972991578
 30
0.0
 40
1.0
100
AcDbArc
 50
90.0
 51
270.0
  0
ARC
  5
E7F
330
2
100
AcDbEntity
  8
0
100
AcDbCircle
 10
211.7242246325054
 20
288.4670972991579
 30
0.0
 40
2.0
100
AcDbArc
 50
90.0
 51
180.0
  0
ARC
  5
E80
330
2
100
AcDbEntity
  8
0
100
AcDbCircle
 10
211.7242246325054
 20
294.4670972991579
 30
0.0
 40
2.0
100
AcDbArc
 50
180.0
 51
270.0
  0
LINE
  5
E81
330
2
100
AcDbEntity
  8
0
100
AcDbLine
 10
209.7242246325054
 20
296.0671032991579
 30
0.0
 11
209.7242246325054
 21
294.4670972991579
 31
0.0
  0
ARC
  5
E82
330
2
100
AcDbEntity
  8
0
100
AcDbCircle
 10
211.7242246325054
 20
302.0671032991579
 30
0.0
 40
2.0
100
AcDbArc
 50
180.0
 51
270.0
  0
ARC
  5
E83
330
2
100
AcDbEntity
  8
0
100
AcDbCircle
 10
197.9245116325053
 20
309.8671137991575
 30
0.0
 40
6.0
100
AcDbArc
 50
0.0
 51
90.0
  0
ARC
  5
E84
330
2
100
AcDbEntity
  8
0
100
AcDbCircle
 10
197.9245116325053
 20
309.8671137991575
 30
0.0
 40
8.8
100
AcDbArc
 50
0.0
 51
90.0
  0
ARC
  5
E85
330
2
100
AcDbEntity
  8
0
100
AcDbCircle
 10
210.7242246325053
 20
306.6671092991578
 30
0.0
 40
1.0
100
AcDbArc
 50
90.0
 51
270.0
  0
ARC
  5
E86
330
2
100
AcDbEntity
  8
0
100
AcDbCircle
 10
242.2242086325054
 20
263.8671212991579
 30
0.0
 40
1.0
100
AcDbArc
 50
270.0
 51
90.0
  0
ARC
  5
E87
330
2
100
AcDbEntity
  8
0
100
AcDbCircle
 10
242.2242086325054
 20
248.6671092991579
 30
0.0
 40
1.0
100
AcDbArc
 50
270.0
 51
90.0
  0
ARC
  5
E88
330
2
100
AcDbEntity
  8
0
100
AcDbCircle
 10
242.2242086325054
 20
256.2671152991578
 30
0.0
 40
1.0
100
AcDbArc
 50
270.0
 51
90.0
  0
ARC
  5
E89
330
2
100
AcDbEntity
  8
0
100
AcDbCircle
 10
242.2242086325054
 20
283.8671212991578
 30
0.0
 40
1.0
100
AcDbArc
 50
270.0
 51
90.0
  0
ARC
  5
E8A
330
2
100
AcDbEntity
  8
0
100
AcDbCircle
 10
242.2242086325054
 20
271.4670972991579
 30
0.0
 40
1.0
100
AcDbArc
 50
270.0
 51
90.0
  0
ARC
  5
E8B
330
2
100
AcDbEntity
  8
0
100
AcDbCircle
 10
242.2242086325054
 20
299.0671032991579
 30
0.0
 40
1.0
100
AcDbArc
 50
270.0
 51
90.0
  0
ARC
  5
E8C
330
2
100
AcDbEntity
  8
0
100
AcDbCircle
 10
242.2242086325054
 20
291.4670972991578
 30
0.0
 40
1.0
100
AcDbArc
 50
270.0
 51
90.0
  0
ARC
  5
E8D
330
2
100
AcDbEntity
  8
0
100
AcDbCircle
 10
242.2242086325054
 20
306.6671092991578
 30
0.0
 40
1.0
100
AcDbArc
 50
270.0
 51
90.0
  0
ARC
  5
E8E
330
2
100
AcDbEntity
  8
0
100
AcDbCircle
 10
242.2242086325054
 20
314.2671152991578
 30
0.0
 40
1.0
100
AcDbArc
 50
270.0
 51
90.0
  0
ARC
  5
E8F
330
2
100
AcDbEntity
  8
0
100
AcDbCircle
 10
242.2242086325054
 20
339.9670972991579
 30
0.0
 40
1.0
100
AcDbArc
 50
270.0
 51
90.0
  0
ARC
  5
E90
330
2
100
AcDbEntity
  8
0
100
AcDbCircle
 10
242.2242086325054
 20
333.4670972991577
 30
0.0
 40
1.0
100
AcDbArc
 50
270.0
 51
90.0
  0
ARC
  5
E91
330
2
100
AcDbEntity
  8
0
100
AcDbCircle
 10
242.2242086325054
 20
326.6671092991578
 30
0.0
 40
1.0
100
AcDbArc
 50
270.0
 51
90.0
  0
LINE
  5
E92
330
2
100
AcDbEntity
  8
0
100
AcDbLine
 10
263.2242086325054
 20
349.6671092991578
 30
0.0
 11
244.0633206325055
 21
349.6671092991578
 31
0.0
  0
ARC
  5
E93
330
2
100
AcDbEntity
  8
0
100
AcDbCircle
 10
244.0633206325055
 20
350.6671092991577
 30
0.0
 40
1.0
100
AcDbArc
 50
189.9999999999982
 51
270.0
  0
LINE
  5
E94
330
2
100
AcDbEntity
  8
0
100
AcDbLine
 10
243.2242086325054
 20
346.4670972991577
 30
0.0
 11
243.2242086325054
 21
350.1231332991577
 31
0.0
  0
ARC
  5
E95
330
2
100
AcDbEntity
  8
0
100
AcDbCircle
 10
242.2242086325054
 20
347.7219492991578
 30
0.0
 40
1.0
100
AcDbArc
 50
0.0
 51
90.0
  0
ARC
  5
E96
330
2
100
AcDbEntity
  8
0
100
AcDbCircle
 10
242.2242086325054
 20
346.4670972991577
 30
0.0
 40
1.0
100
AcDbArc
 50
270.0
 51
90.0
  0
ARC
  5
E97
330
2
100
AcDbEntity
  8
0
100
AcDbCircle
 10
241.6798056325055
 20
352.6671092991577
 30
0.0
 40
1.0
100
AcDbArc
 50
9.999999999998278
 51
90.0
  0
LINE
  5
E98
330
2
100
AcDbEntity
  8
0
100
AcDbLine
 10
242.6646086325054
 20
352.8407542991577
 30
0.0
 11
243.0785026325054
 21
350.4934642991577
 31
0.0
  0
LINE
  5
EB1
330
2
100
AcDbEntity
  8
0
100
AcDbLine
 10
241.7360796325056
 20
644.6730554131663
 30
0.0
 11
243.2242086325056
 21
653.1126604131661
 31
0.0
  0
LINE
  5
EB3
330
2
100
AcDbEntity
  8
CENTER
100
AcDbLine
 10
164.7243156325057
 20
651.0807084131661
 30
0.0
 11
164.7243156325059
 21
590.3569844131661
 31
0.0
  0
LINE
  5
EB5
330
2
100
AcDbEntity
  8
0
100
AcDbLine
 10
240.8614616325055
 20
635.1006674131663
 30
0.0
 11
211.7044026325056
 21
635.1006674131663
 31
0.0
  0
LINE
  5
EB6
330
2
100
AcDbEntity
  8
0
100
AcDbLine
 10
240.8769636325057
 20
640.3723044131663
 30
0.0
 11
209.8220476325057
 21
640.3723044131663
 31
0.0
  0
LINE
  5
EB7
330
2
100
AcDbEntity
  8
0
100
AcDbLine
 10
211.5084186325054
 20
636.0716454131662
 30
0.0
 11
241.0574296325055
 21
636.0716454131662
 31
0.0
  0
LINE
  5
EB8
330
2
100
AcDbEntity
  8
0
100
AcDbLine
 10
211.1574056325057
 20
637.8106894131661
 30
0.0
 11
241.4084426325055
 21
637.8106894131661
 31
0.0
  0
LINE
  5
EB9
330
2
100
AcDbEntity
  8
0
100
AcDbLine
 10
204.758616632507
 20
605.5164624131662
 30
0.0
 11
204.7586166325067
 21
631.6232544131662
 31
0.0
  0
ARC
  5
EBA
330
2
100
AcDbEntity
  8
0
100
AcDbCircle
 10
193.9586906325055
 20
605.5164624131662
 30
0.0
 40
10.8
100
AcDbArc
 50
270.0
 51
0.0
  0
ARC
  5
EBB
330
2
100
AcDbEntity
  8
0
100
AcDbCircle
 10
198.7127186325064
 20
636.5569814131663
 30
0.0
 40
2.799999999999998
100
AcDbArc
 50
24.99999999999861
 51
90.0
  0
LINE
  5
EBC
330
2
100
AcDbEntity
  8
0
100
AcDbLine
 10
201.2504386325058
 20
637.7403154131662
 30
0.0
 11
201.3166006325068
 21
637.598286413166
 31
0.0
  0
LINE
  5
EBD
330
2
100
AcDbEntity
  8
0
100
AcDbLine
 10
194.7243156325057
 20
639.3569844131661
 30
0.0
 11
194.7243156325057
 21
640.8569844131662
 31
0.0
  0
LINE
  5
EBE
330
2
100
AcDbEntity
  8
0
100
AcDbLine
 10
206.1748766325058
 20
634.2837574131663
 30
0.0
 11
204.0375476325057
 21
638.8671014131659
 31
0.0
  0
LINE
  5
EBF
330
2
100
AcDbEntity
  8
0
100
AcDbLine
 10
210.7241626325055
 20
635.9028214131662
 30
0.0
 11
209.7242086325056
 21
640.8569844131664
 31
0.0
  0
ARC
  5
EC0
330
2
100
AcDbEntity
  8
0
100
AcDbCircle
 10
205.7586166325054
 20
631.6232544131662
 30
0.0
 40
1.0
100
AcDbArc
 50
135.7174989999915
 51
180.0
  0
ARC
  5
EC1
330
2
100
AcDbEntity
  8
0
100
AcDbCircle
 10
204.996653632505
 20
633.7343534131662
 30
0.0
 40
1.3
100
AcDbArc
 50
295.0000000000069
 51
24.99999999999861
  0
ARC
  5
EC2
330
2
100
AcDbEntity
  8
0
100
AcDbCircle
 10
211.7044026325056
 20
636.1006674131663
 30
0.0
 40
1.0
100
AcDbArc
 50
191.4112549999976
 51
270.0
  0
ARC
  5
EC3
330
2
100
AcDbEntity
  8
0
100
AcDbCircle
 10
211.5084186325054
 20
637.0716454131661
 30
0.0
 40
1.0
100
AcDbArc
 50
191.4112549999976
 51
270.0
  0
ARC
  5
EC4
330
2
100
AcDbEntity
  8
0
100
AcDbCircle
 10
211.1574056325057
 20
638.8106894131661
 30
0.0
 40
1.0
100
AcDbArc
 50
191.4112549999976
 51
270.0
  0
LINE
  5
EC5
330
2
100
AcDbEntity
  8
0
100
AcDbLine
 10
263.2242086325056
 20
642.8569844131664
 30
0.0
 11
244.0633196325054
 21
642.8569844131664
 31
0.0
  0
LINE
  5
EC6
330
2
100
AcDbEntity
  8
0
100
AcDbLine
 10
241.8416856325054
 20
635.9028214131662
 30
0.0
 11
243.0785176325055
 21
642.0306294131663
 31
0.0
  0
ARC
  5
EC7
330
2
100
AcDbEntity
  8
0
100
AcDbCircle
 10
240.8614616325055
 20
636.1006674131663
 30
0.0
 40
1.0
100
AcDbArc
 50
270.0
 51
348.5887379999989
  0
ARC
  5
EC8
330
2
100
AcDbEntity
  8
0
100
AcDbCircle
 10
241.0574296325055
 20
637.0716454131661
 30
0.0
 40
1.0
100
AcDbArc
 50
270.0
 51
348.5887379999989
  0
ARC
  5
EC9
330
2
100
AcDbEntity
  8
0
100
AcDbCircle
 10
244.0633196325054
 20
641.8569844131662
 30
0.0
 40
1.0
100
AcDbArc
 50
90.0
 51
170.0000000000017
  0
ARC
  5
ECA
330
2
100
AcDbEntity
  8
0
100
AcDbCircle
 10
241.4084426325055
 20
638.8106894131661
 30
0.0
 40
1.0
100
AcDbArc
 50
270.0
 51
348.5887379999989
  0
ARC
  5
ECB
330
2
100
AcDbEntity
  8
0
100
AcDbCircle
 10
240.7512776325056
 20
644.8467004131662
 30
0.0
 40
1.0
100
AcDbArc
 50
270.0
 51
350.0000000000017
  0
ARC
  5
ECC
330
2
100
AcDbEntity
  8
0
100
AcDbCircle
 10
240.8769636325057
 20
641.3723044131663
 30
0.0
 40
1.0
100
AcDbArc
 50
270.0
 51
350.0000000000017
  0
LINE
  5
ECD
330
2
100
AcDbEntity
  8
0
100
AcDbLine
 10
241.8617816325056
 20
641.1986594131662
 30
0.0
 11
243.2242086325056
 21
648.9254044131662
 31
0.0
  0
LINE
  5
ECE
330
2
100
AcDbEntity
  8
0
100
AcDbLine
 10
243.2242086325056
 20
686.9783224131662
 30
0.0
 11
243.2242086325056
 21
742.7356464131662
 31
0.0
  0
LINE
  5
ECF
330
2
100
AcDbEntity
  8
0
100
AcDbLine
 10
240.8513596325058
 20
667.7503254131663
 30
0.0
 11
243.2242086325056
 21
681.2074484131662
 31
0.0
  0
LINE
  5
ED0
330
2
100
AcDbEntity
  8
0
100
AcDbLine
 10
241.0929216325057
 20
658.7605484131663
 30
0.0
 11
243.2242086325056
 21
670.8476764131662
 31
0.0
  0
LINE
  5
ED1
330
2
100
AcDbEntity
  8
0
100
AcDbLine
 10
241.4092056325055
 20
652.7156274131664
 30
0.0
 11
243.2242086325056
 21
663.0090534131661
 31
0.0
  0
ARC
  5
ED2
330
2
100
AcDbEntity
  8
0
100
AcDbCircle
 10
240.4244036325055
 20
652.8892724131662
 30
0.0
 40
1.0
100
AcDbArc
 50
270.0
 51
350.0000000000017
  0
ARC
  5
ED3
330
2
100
AcDbEntity
  8
0
100
AcDbCircle
 10
240.1081196325055
 20
658.9341934131661
 30
0.0
 40
1.0
100
AcDbArc
 50
270.0
 51
350.0000000000017
  0
ARC
  5
ED4
330
2
100
AcDbEntity
  8
0
100
AcDbCircle
 10
239.8665576325056
 20
667.9239704131663
 30
0.0
 40
1.0
100
AcDbArc
 50
270.0
 51
350.0000000000017
  0
ARC
  5
ED5
330
2
100
AcDbEntity
  8
0
100
AcDbCircle
 10
241.0277056325055
 20
680.2801104131662
 30
0.0
 40
1.0
100
AcDbArc
 50
270.0
 51
350.0000000000017
  0
LINE
  5
ED6
330
2
100
AcDbEntity
  8
0
100
AcDbLine
 10
242.0125236325056
 20
680.1064654131663
 30
0.0
 11
243.2242086325056
 21
686.9783224131662
 31
0.0
  0
LINE
  5
ED7
330
2
100
AcDbEntity
  8
0
100
AcDbLine
 10
241.0929216325057
 20
770.9534204131665
 30
0.0
 11
243.2242086325056
 21
758.8662924131662
 31
0.0
  0
LINE
  5
ED8
330
2
100
AcDbEntity
  8
0
100
AcDbLine
 10
242.0125236325056
 20
749.6075034131663
 30
0.0
 11
243.2242086325056
 21
742.7356464131662
 31
0.0
  0
ARC
  5
ED9
330
2
100
AcDbEntity
  8
0
100
AcDbCircle
 10
239.8665576325056
 20
761.7899984131661
 30
0.0
 40
1.0
100
AcDbArc
 50
9.999999999998278
 51
90.0
  0
ARC
  5
EDA
330
2
100
AcDbEntity
  8
0
100
AcDbCircle
 10
241.0277056325055
 20
749.4338584131663
 30
0.0
 40
1.0
100
AcDbArc
 50
9.999999999998278
 51
90.0
  0
LINE
  5
EDB
330
2
100
AcDbEntity
  8
0
100
AcDbLine
 10
240.8513596325058
 20
761.9636434131664
 30
0.0
 11
243.2242086325056
 21
748.5065204131663
 31
0.0
  0
LINE
  5
EDC
330
2
100
AcDbEntity
  8
0
100
AcDbLine
 10
241.8617816325056
 20
788.5153094131663
 30
0.0
 11
243.2242086325056
 21
780.7885644131661
 31
0.0
  0
LINE
  5
EDD
330
2
100
AcDbEntity
  8
0
100
AcDbLine
 10
241.7360796325056
 20
785.0409134131662
 30
0.0
 11
243.2242086325056
 21
776.6013084131661
 31
0.0
  0
LINE
  5
EDE
330
2
100
AcDbEntity
  8
0
100
AcDbLine
 10
241.4092056325055
 20
776.9983414131663
 30
0.0
 11
243.2242086325056
 21
766.7049154131661
 31
0.0
  0
ARC
  5
EDF
330
2
100
AcDbEntity
  8
0
100
AcDbCircle
 10
240.1081196325055
 20
770.7797754131664
 30
0.0
 40
1.0
100
AcDbArc
 50
9.999999999998278
 51
90.0
  0
ARC
  5
EE0
330
2
100
AcDbEntity
  8
0
100
AcDbCircle
 10
240.4244036325055
 20
776.8246964131662
 30
0.0
 40
1.0
100
AcDbArc
 50
9.999999999998278
 51
90.0
  0
LINE
  5
EE1
330
2
100
AcDbEntity
  8
0
100
AcDbLine
 10
263.2242086325056
 20
786.8569844131664
 30
0.0
 11
244.0633196325054
 21
786.8569844131664
 31
0.0
  0
ARC
  5
EE2
330
2
100
AcDbEntity
  8
0
100
AcDbCircle
 10
244.0633196325054
 20
787.8569844131663
 30
0.0
 40
1.0
100
AcDbArc
 50
189.9999999999982
 51
270.0
  0
ARC
  5
EE3
330
2
100
AcDbEntity
  8
0
100
AcDbCircle
 10
240.7512776325056
 20
784.8672684131663
 30
0.0
 40
1.0
100
AcDbArc
 50
9.999999999998278
 51
90.0
  0
ARC
  5
EE4
330
2
100
AcDbEntity
  8
0
100
AcDbCircle
 10
240.8614616325055
 20
793.6132714131663
 30
0.0
 40
1.0
100
AcDbArc
 50
11.41125499999761
 51
90.0
  0
ARC
  5
EE5
330
2
100
AcDbEntity
  8
0
100
AcDbCircle
 10
241.4084426325055
 20
790.9032794131665
 30
0.0
 40
1.0
100
AcDbArc
 50
11.41125499999761
 51
90.0
  0
ARC
  5
EE6
330
2
100
AcDbEntity
  8
0
100
AcDbCircle
 10
241.0574296325055
 20
792.6423234131662
 30
0.0
 40
1.0
100
AcDbArc
 50
11.41125499999761
 51
90.0
  0
ARC
  5
EE7
330
2
100
AcDbEntity
  8
0
100
AcDbCircle
 10
240.8769636325057
 20
788.3416644131662
 30
0.0
 40
1.0
100
AcDbArc
 50
9.999999999998278
 51
90.0
  0
LINE
  5
EE8
330
2
100
AcDbEntity
  8
0
100
AcDbLine
 10
241.8416856325054
 20
793.8111474131662
 30
0.0
 11
243.0785176325055
 21
787.6833394131663
 31
0.0
  0
LINE
  5
F26
330
2
100
AcDbEntity
  8
0
100
AcDbLine
 10
776.3135162167913
 20
244.1671092991579
 30
0.0
 11
776.3135162167915
 21
266.6671092991579
 31
0.0
  0
ARC
  5
F28
330
2
100
AcDbEntity
  8
0
100
AcDbCircle
 10
783.1135162167913
 20
244.1671092991575
 30
0.0
 40
6.799999999999998
100
AcDbArc
 50
180.0
 51
270.0
  0
LINE
  5
F29
330
2
100
AcDbEntity
  8
0
100
AcDbLine
 10
783.1135162167916
 20
237.3671212991581
 30
0.0
 11
812.9998089135678
 21
237.3671212991581
 31
0.0
  0
LINE
  5
F2F
330
2
100
AcDbEntity
  8
0
100
AcDbLine
 10
783.1007412471726
 20
317.9670972991581
 30
0.0
 11
808.3135162167911
 21
317.9670972991581
 31
0.0
  0
ARC
  5
F30
330
2
100
AcDbEntity
  8
0
100
AcDbCircle
 10
783.1135162167916
 20
311.1671092991575
 30
0.0
 40
6.799999999999998
100
AcDbArc
 50
90.0
 51
126.0188541926389
  0
TEXT
  5
19AC
330
2
100
AcDbEntity
  8
TITLE
100
AcDbText
 10
746.5995112705544
 20
657.6101495348184
 30
0.0
 40
12.0
  1
H2LB-50R-300~450-075
100
AcDbText
  0
ENDSEC
  0
SECTION
  2
OBJECTS
  0
DICTIONARY
  5
7
330
0
100
AcDbDictionary
  3
ACAD_GROUP
350
75
  3
ACAD_LAYOUT
350
61
  3
ACAD_MLINESTYLE
350
76
  3
ACAD_PLOTSETTINGS
350
77
  3
ACAD_PLOTSTYLENAME
350
6
  3
ACADDIM
350
480
  3
ACDBHEADERROUNDTRIPXREC
350
19FE
  3
ACDBVARIABLEDICTIONARY
350
102
  3
DWGPROPS
350
3D2
  0
DICTIONARY
  5
1A1F
330
2
100
AcDbDictionary
280
     1
  3
ACAD_LAYOUTSELFREF
360
1A20
  0
DICTIONARY
  5
1A21
330
19F8
100
AcDbDictionary
280
     1
  3
ACAD_LAYOUTSELFREF
360
1A22
  0
DICTIONARY
  5
75
102
{ACAD_REACTORS
330
7
102
}
330
7
100
AcDbDictionary
  0
DICTIONARY
  5
61
102
{ACAD_REACTORS
330
7
102
}
330
7
100
AcDbDictionary
  0
DICTIONARY
  5
76
102
{ACAD_REACTORS
330
7
102
}
330
7
100
AcDbDictionary
  3
STANDARD
350
78
  0
DICTIONARY
  5
77
102
{ACAD_REACTORS
330
7
102
}
330
7
100
AcDbDictionary
  0
ACDBDICTIONARYWDFLT
  5
6
102
{ACAD_REACTORS
330
7
102
}
330
7
100
AcDbDictionary
281
     1
  3
Normal
350
5
100
AcDbDictionaryWithDefault
340
5
  0
XRECORD
  5
480
102
{ACAD_REACTORS
330
7
102
}
330
7
100
AcDbXrecord
 90
   990106
  3

 60
     0
 61
     0
 62
     1
 63
     3
 64
     1
 65
     0
 66
     0
 67
     3
 68
     1
 69
     0
 70
     0
 71
     0
 72
     0
 40
0.0
170
     2
340
0
  0
DICTIONARY
  5
19FE
102
{ACAD_REACTORS
330
7
102
}
330
7
100
AcDbDictionary
  3
CEPSNTYPE
350
1A08
  3
DIMSTYLEDATA
350
1A0C
  3
FINGERPRINTGUID
350
1A09
  3
HYPERLINKBASE
350
1A01
  3
INSUNITS
350
1A07
  3
LAYOUTDICT
350
1A03
  3
LWETCUNION
350
1A06
  3
PLOTSETDICT
350
1A04
  3
PLOTSTYLNAMDICT
350
1A05
  3
PSVPSCALE
350
1A0B
  3
PUCSBASE
350
1A0F
  3
PUCSORGBACK
350
1A15
  3
PUCSORGBOTTOM
350
1A11
  3
PUCSORGFRONT
350
1A14
  3
PUCSORGLEFT
350
1A12
  3
PUCSORGRIGHT
350
1A13
  3
PUCSORGTOP
350
1A10
  3
PUCSORTHOREF
350
1A0D
  3
PUCSORTHOVIEW
350
1A0E
  3
STYLESHEET
350
1A02
  3
TSTACKALIGN
350
19FF
  3
TSTACKSIZE
350
1A00
  3
UCSBASE
350
1A18
  3
UCSORGBACK
350
1A1E
  3
UCSORGBOTTOM
350
1A1A
  3
UCSORGFRONT
350
1A1D
  3
UCSORGLEFT
350
1A1B
  3
UCSORGRIGHT
350
1A1C
  3
UCSORGTOP
350
1A19
  3
UCSORTHOREF
350
1A16
  3
UCSORTHOVIEW
350
1A17
  3
VERSIONGUID
350
1A0A
  0
DICTIONARY
  5
102
102
{ACAD_REACTORS
330
7
102
}
330
7
100
AcDbDictionary
  3
DIMASSOC
350
103
  0
XRECORD
  5
3D2
102
{ACAD_REACTORS
330
7
102
}
330
7
100
AcDbXrecord
  1
DWGPROPS COOKIE
  2

  3

  4

  6

  7

  8

  9

300
=
301
=
302
=
303
=
304
=
305
=
306
=
307
=
308
=
309
=
 40
0.5353330671296296
 41
2452052.431989363
 42
2453406.550756377
  1

 90
        0
  0
XRECORD
  5
1A20
102
{ACAD_REACTORS
330
1A1F
102
}
330
1A1F
100
AcDbXrecord
340
2
  0
XRECORD
  5
1A22
102
{ACAD_REACTORS
330
1A21
102
}
330
1A21
100
AcDbXrecord
340
19F8
  0
MLINESTYLE
  5
78
102
{ACAD_REACTORS
330
76
102
}
330
76
100
AcDbMlineStyle
  2
STANDARD
 70
     0
  3

 62
     0
 51
90.0
 52
90.0
 71
     2
 49
0.5
 62
   256
  6
BYLAYER
 49
-0.5
 62
   256
  6
BYLAYER
  0
ACDBPLACEHOLDER
  5
5
102
{ACAD_REACTORS
330
6
102
}
330
6
100
AcDbPlaceHolder
280
     0
  0
XRECORD
  5
1A08
102
{ACAD_REACTORS
330
19FE
102
}
330
19FE
100
AcDbXrecord
 90
        0
  0
XRECORD
  5
1A0C
102
{ACAD_REACTORS
330
19FE
102
}
330
19FE
100
AcDbXrecord
1000
DSTYLE
1002
{
1070
   179
 70
     2
1070
   277
 70
     6
1002
}
  0
XRECORD
  5
1A09
102
{ACAD_REACTORS
330
19FE
102
}
330
19FE
100
AcDbXrecord
  1
{6385560B-F4B1-4644-A7C2-A3E32AC3D232}
  0
XRECORD
  5
1A01
102
{ACAD_REACTORS
330
19FE
102
}
330
19FE
100
AcDbXrecord
  1

  0
XRECORD
  5
1A07
102
{ACAD_REACTORS
330
19FE
102
}
330
19FE
100
AcDbXrecord
 90
        0
  0
XRECORD
  5
1A03
102
{ACAD_REACTORS
330
19FE
102
}
330
19FE
100
AcDbXrecord
340
61
  0
XRECORD
  5
1A06
102
{ACAD_REACTORS
330
19FE
102
}
330
19FE
100
AcDbXrecord
 90
    10781
  0
XRECORD
  5
1A04
102
{ACAD_REACTORS
330
19FE
102
}
330
19FE
100
AcDbXrecord
340
77
  0
XRECORD
  5
1A05
102
{ACAD_REACTORS
330
19FE
102
}
330
19FE
100
AcDbXrecord
340
6
  0
XRECORD
  5
1A0B
102
{ACAD_REACTORS
330
19FE
102
}
330
19FE
100
AcDbXrecord
 40
0.0
  0
XRECORD
  5
1A0F
102
{ACAD_REACTORS
330
19FE
102
}
330
19FE
100
AcDbXrecord
340
0
  0
XRECORD
  5
1A15
102
{ACAD_REACTORS
330
19FE
102
}
330
19FE
100
AcDbXrecord
 10
0.0
 20
0.0
 30
0.0
  0
XRECORD
  5
1A11
102
{ACAD_REACTORS
330
19FE
102
}
330
19FE
100
AcDbXrecord
 10
0.0
 20
0.0
 30
0.0
  0
XRECORD
  5
1A14
102
{ACAD_REACTORS
330
19FE
102
}
330
19FE
100
AcDbXrecord
 10
0.0
 20
0.0
 30
0.0
  0
XRECORD
  5
1A12
102
{ACAD_REACTORS
330
19FE
102
}
330
19FE
100
AcDbXrecord
 10
0.0
 20
0.0
 30
0.0
  0
XRECORD
  5
1A13
102
{ACAD_REACTORS
330
19FE
102
}
330
19FE
100
AcDbXrecord
 10
0.0
 20
0.0
 30
0.0
  0
XRECORD
  5
1A10
102
{ACAD_REACTORS
330
19FE
102
}
330
19FE
100
AcDbXrecord
 10
0.0
 20
0.0
 30
0.0
  0
XRECORD
  5
1A0D
102
{ACAD_REACTORS
330
19FE
102
}
330
19FE
100
AcDbXrecord
340
0
  0
XRECORD
  5
1A0E
102
{ACAD_REACTORS
330
19FE
102
}
330
19FE
100
AcDbXrecord
 70
     0
  0
XRECORD
  5
1A02
102
{ACAD_REACTORS
330
19FE
102
}
330
19FE
100
AcDbXrecord
  1
Sekkei.ctb
  0
XRECORD
  5
19FF
102
{ACAD_REACTORS
330
19FE
102
}
330
19FE
100
AcDbXrecord
 90
        1
  0
XRECORD
  5
1A00
102
{ACAD_REACTORS
330
19FE
102
}
330
19FE
100
AcDbXrecord
 90
       70
  0
XRECORD
  5
1A18
102
{ACAD_REACTORS
330
19FE
102
}
330
19FE
100
AcDbXrecord
340
0
  0
XRECORD
  5
1A1E
102
{ACAD_REACTORS
330
19FE
102
}
330
19FE
100
AcDbXrecord
 10
0.0
 20
0.0
 30
0.0
  0
XRECORD
  5
1A1A
102
{ACAD_REACTORS
330
19FE
102
}
330
19FE
100
AcDbXrecord
 10
0.0
 20
0.0
 30
0.0
  0
XRECORD
  5
1A1D
102
{ACAD_REACTORS
330
19FE
102
}
330
19FE
100
AcDbXrecord
 10
0.0
 20
0.0
 30
0.0
  0
XRECORD
  5
1A1B
102
{ACAD_REACTORS
330
19FE
102
}
330
19FE
100
AcDbXrecord
 10
0.0
 20
0.0
 30
0.0
  0
XRECORD
  5
1A1C
102
{ACAD_REACTORS
330
19FE
102
}
330
19FE
100
AcDbXrecord
 10
0.0
 20
0.0
 30
0.0
  0
XRECORD
  5
1A19
102
{ACAD_REACTORS
330
19FE
102
}
330
19FE
100
AcDbXrecord
 10
0.0
 20
0.0
 30
0.0
  0
XRECORD
  5
1A16
102
{ACAD_REACTORS
330
19FE
102
}
330
19FE
100
AcDbXrecord
340
0
  0
XRECORD
  5
1A17
102
{ACAD_REACTORS
330
19FE
102
}
330
19FE
100
AcDbXrecord
 70
     0
  0
XRECORD
  5
1A0A
102
{ACAD_REACTORS
330
19FE
102
}
330
19FE
100
AcDbXrecord
  1
{226C9D96-86A2-4A56-896C-B2B7EF1C5751}
  0
DICTIONARYVAR
  5
103
102
{ACAD_REACTORS
330
102
102
}
330
102
100
DictionaryVariables
280
     0
  1
1
  0
ENDSEC
  0
EOF
