  0
SECTION
  2
HEADER
  9
$ACADVER
  1
AC1014
  9
$ACADMAINTVER
 70
     9
  9
$DWGCODEPAGE
  3
ANSI_932
  9
$INSBASE
 10
0.0
 20
0.0
 30
0.0
  9
$EXTMIN
 10
36.96293668592943
 20
109.4794226623994
 30
0.0
  9
$EXTMAX
 10
1030.9324788354
 20
914.0101254086967
 30
0.0
  9
$LIMMIN
 10
0.0
 20
0.0
  9
$LIMMAX
 10
297.0
 20
210.0
  9
$ORTHOMODE
 70
     1
  9
$REGENMODE
 70
     1
  9
$FILLMODE
 70
     1
  9
$QTEXTMODE
 70
     0
  9
$MIRRTEXT
 70
     0
  9
$DRAGMODE
 70
     2
  9
$LTSCALE
 40
4.0
  9
$OSMODE
 70
    37
  9
$ATTMODE
 70
     1
  9
$TEXTSIZE
 40
2.0
  9
$TRACEWID
 40
1.0
  9
$TEXTSTYLE
  7
STANDARD
  9
$CLAYER
  8
0
  9
$CELTYPE
  6
BYLAYER
  9
$CECOLOR
 62
   256
  9
$CELTSCALE
 40
1.0
  9
$DELOBJ
 70
     1
  9
$DISPSILH
 70
     0
  9
$DIMSCALE
 40
4.0
  9
$DIMASZ
 40
1.8
  9
$DIMEXO
 40
0.625
  9
$DIMDLI
 40
3.75
  9
$DIMRND
 40
0.0
  9
$DIMDLE
 40
0.0
  9
$DIMEXE
 40
1.25
  9
$DIMTP
 40
0.0
  9
$DIMTM
 40
0.0
  9
$DIMTXT
 40
1.8
  9
$DIMCEN
 40
2.5
  9
$DIMTSZ
 40
0.0
  9
$DIMTOL
 70
     0
  9
$DIMLIM
 70
     0
  9
$DIMTIH
 70
     0
  9
$DIMTOH
 70
     0
  9
$DIMSE1
 70
     0
  9
$DIMSE2
 70
     0
  9
$DIMTAD
 70
     1
  9
$DIMZIN
 70
     8
  9
$DIMBLK
  1

  9
$DIMASO
 70
     1
  9
$DIMSHO
 70
     1
  9
$DIMPOST
  1

  9
$DIMAPOST
  1

  9
$DIMALT
 70
     0
  9
$DIMALTD
 70
     4
  9
$DIMALTF
 40
0.0394
  9
$DIMLFAC
 40
1.0
  9
$DIMTOFL
 70
     1
  9
$DIMTVP
 40
0.0
  9
$DIMTIX
 70
     0
  9
$DIMSOXD
 70
     0
  9
$DIMSAH
 70
     0
  9
$DIMBLK1
  1

  9
$DIMBLK2
  1

  9
$DIMSTYLE
  2
STANDARD
  9
$DIMCLRD
 70
     0
  9
$DIMCLRE
 70
     0
  9
$DIMCLRT
 70
     0
  9
$DIMTFAC
 40
1.0
  9
$DIMGAP
 40
0.75
  9
$DIMJUST
 70
     0
  9
$DIMSD1
 70
     0
  9
$DIMSD2
 70
     0
  9
$DIMTOLJ
 70
     1
  9
$DIMTZIN
 70
     0
  9
$DIMALTZ
 70
     0
  9
$DIMALTTZ
 70
     0
  9
$DIMFIT
 70
     3
  9
$DIMUPT
 70
     0
  9
$DIMUNIT
 70
     8
  9
$DIMDEC
 70
     2
  9
$DIMTDEC
 70
     2
  9
$DIMALTU
 70
     8
  9
$DIMALTTD
 70
     4
  9
$DIMTXSTY
  7
STANDARD
  9
$DIMAUNIT
 70
     0
  9
$LUNITS
 70
     2
  9
$LUPREC
 70
     3
  9
$SKETCHINC
 40
1.0
  9
$FILLETRAD
 40
10.0
  9
$AUNITS
 70
     0
  9
$AUPREC
 70
     2
  9
$MENU
  1
.
  9
$ELEVATION
 40
0.0
  9
$PELEVATION
 40
0.0
  9
$THICKNESS
 40
0.0
  9
$LIMCHECK
 70
     0
  9
$BLIPMODE
 70
     0
  9
$CHAMFERA
 40
0.0
  9
$CHAMFERB
 40
0.0
  9
$CHAMFERC
 40
20.0
  9
$CHAMFERD
 40
0.0
  9
$SKPOLY
 70
     0
  9
$TDCREATE
 40
2453479.416541874
  9
$TDUPDATE
 40
2454028.473990521
  9
$TDINDWG
 40
0.0848815856
  9
$TDUSRTIMER
 40
0.0848815856
  9
$USRTIMER
 70
     1
  9
$ANGBASE
 50
0.0
  9
$ANGDIR
 70
     0
  9
$PDMODE
 70
     0
  9
$PDSIZE
 40
-10.0
  9
$PLINEWID
 40
0.0
  9
$COORDS
 70
     2
  9
$SPLFRAME
 70
     0
  9
$SPLINETYPE
 70
     6
  9
$SPLINESEGS
 70
     8
  9
$ATTDIA
 70
     0
  9
$ATTREQ
 70
     1
  9
$HANDLING
 70
-16383
  9
$HANDSEED
  5
1B5A
  9
$SURFTAB1
 70
     6
  9
$SURFTAB2
 70
     6
  9
$SURFTYPE
 70
     6
  9
$SURFU
 70
     6
  9
$SURFV
 70
     6
  9
$UCSNAME
  2

  9
$UCSORG
 10
0.0
 20
0.0
 30
0.0
  9
$UCSXDIR
 10
1.0
 20
0.0
 30
0.0
  9
$UCSYDIR
 10
0.0
 20
1.0
 30
0.0
  9
$PUCSNAME
  2

  9
$PUCSORG
 10
0.0
 20
0.0
 30
0.0
  9
$PUCSXDIR
 10
1.0
 20
0.0
 30
0.0
  9
$PUCSYDIR
 10
0.0
 20
1.0
 30
0.0
  9
$USERI1
 70
     0
  9
$USERI2
 70
     0
  9
$USERI3
 70
     0
  9
$USERI4
 70
     0
  9
$USERI5
 70
     0
  9
$USERR1
 40
0.0
  9
$USERR2
 40
0.0
  9
$USERR3
 40
0.0
  9
$USERR4
 40
0.0
  9
$USERR5
 40
0.0
  9
$WORLDVIEW
 70
     1
  9
$SHADEDGE
 70
     3
  9
$SHADEDIF
 70
    70
  9
$TILEMODE
 70
     1
  9
$MAXACTVP
 70
    48
  9
$PINSBASE
 10
0.0
 20
0.0
 30
0.0
  9
$PLIMCHECK
 70
     0
  9
$PEXTMIN
 10
0.0
 20
0.0
 30
0.0
  9
$PEXTMAX
 10
0.0
 20
0.0
 30
0.0
  9
$PLIMMIN
 10
0.0
 20
0.0
  9
$PLIMMAX
 10
12.0
 20
9.0
  9
$UNITMODE
 70
     0
  9
$VISRETAIN
 70
     1
  9
$PLINEGEN
 70
     0
  9
$PSLTSCALE
 70
     1
  9
$TREEDEPTH
 70
  3020
  9
$PICKSTYLE
 70
     1
  9
$CMLSTYLE
  2
STANDARD
  9
$CMLJUST
 70
     0
  9
$CMLSCALE
 40
1.0
  9
$PROXYGRAPHICS
 70
     1
  9
$MEASUREMENT
 70
     0
  0
ENDSEC
  0
SECTION
  2
CLASSES
  0
CLASS
  1
DICTIONARYVAR
  2
AcDbDictionaryVar
  3
AutoCAD 2000
 90
        0
280
     0
281
     0
  0
CLASS
  1
ACDBDICTIONARYWDFLT
  2
AcDbDictionaryWithDefault
  3
AutoCAD 2000
 90
        0
280
     0
281
     0
  0
CLASS
  1
ACDBPLACEHOLDER
  2
AcDbPlaceHolder
  3
AutoCAD 2000
 90
        0
280
     0
281
     0
  0
CLASS
  1
LAYOUT
  2
AcDbLayout
  3
AutoCAD 2000
 90
        0
280
     0
281
     0
  0
CLASS
  1
LONG_TRANSACTION
  2
AcDbLongTransaction
  3
AutoCAD 2000
 90
        0
280
     0
281
     0
  0
CLASS
  1
LWPOLYLINE
  2
AcDbPolyline
  3
AutoCAD 2000
 90
        0
280
     0
281
     1
  0
CLASS
  1
HATCH
  2
AcDbHatch
  3
AutoCAD 2000
 90
        0
280
     0
281
     1
  0
CLASS
  1
XRECORD
  2
AcDbXrecord
  3
AutoCAD 2000
 90
        0
280
     0
281
     0
  0
ENDSEC
  0
SECTION
  2
TABLES
  0
TABLE
  2
VPORT
  5
6E
330
0
100
AcDbSymbolTable
 70
     2
  0
VPORT
  5
1B34
330
6E
100
AcDbSymbolTableRecord
100
AcDbViewportTableRecord
  2
*ACTIVE
 70
     0
 10
0.0
 20
0.0
 11
1.0
 21
1.0
 12
547.7701470365555
 22
488.2405793571654
 13
0.0
 23
0.0
 14
10.0
 24
10.0
 15
10.0
 25
10.0
 16
0.0
 26
0.0
 36
1.0
 17
0.0
 27
0.0
 37
0.0
 40
858.2025818149729
 41
1.566970091027307
 42
50.0
 43
0.0
 44
0.0
 50
0.0
 51
0.0
 71
     0
 72
   100
 73
     1
 74
     3
 75
     0
 76
     0
 77
     0
 78
     0
  0
ENDTAB
  0
TABLE
  2
LTYPE
  5
69
330
0
100
AcDbSymbolTable
 70
     3
  0
LTYPE
  5
6A
330
69
100
AcDbSymbolTableRecord
100
AcDbLinetypeTableRecord
  2
BYBLOCK
 70
     0
  3

 72
    65
 73
     0
 40
0.0
  0
LTYPE
  5
6B
330
69
100
AcDbSymbolTableRecord
100
AcDbLinetypeTableRecord
  2
BYLAYER
 70
     0
  3

 72
    65
 73
     0
 40
0.0
  0
LTYPE
  5
8
330
69
100
AcDbSymbolTableRecord
100
AcDbLinetypeTableRecord
  2
CONTINUOUS
 70
     0
  3
Solid line
 72
    65
 73
     0
 40
0.0
  0
LTYPE
  5
27C
330
69
100
AcDbSymbolTableRecord
100
AcDbLinetypeTableRecord
  2
SEKKEI_A2_
 70
     0
  3
center(A2)  ____ _ ____ _ ____ _ ____ _ ____ _ 
 72
    65
 73
     4
 40
14.28749999999999
 49
9.525
 74
     0
 49
-1.587499999999999
 74
     0
 49
1.587499999999999
 74
     0
 49
-1.587499999999999
 74
     0
  0
LTYPE
  5
2B4
330
69
100
AcDbSymbolTableRecord
100
AcDbLinetypeTableRecord
  2
HIDDEN2
 70
     0
  3
Hidden (.5x) _ _ _ _ _ _ _ _ _ _ _ _ _ _ _ _ _
 72
    65
 73
     2
 40
4.762499999999999
 49
3.174999999999999
 74
     0
 49
-1.587499999999999
 74
     0
  0
ENDTAB
  0
TABLE
  2
LAYER
  5
66
330
0
100
AcDbSymbolTable
 70
     8
  0
LAYER
  5
5E
330
66
100
AcDbSymbolTableRecord
100
AcDbLayerTableRecord
  2
0
 70
     0
 62
     7
  6
CONTINUOUS
  0
LAYER
  5
3E
330
66
100
AcDbSymbolTableRecord
100
AcDbLayerTableRecord
  2
CENTER
 70
     0
 62
     3
  6
SEKKEI_A2_
  0
LAYER
  5
2B5
330
66
100
AcDbSymbolTableRecord
100
AcDbLayerTableRecord
  2
HIDS
 70
     0
 62
     1
  6
HIDDEN2
  0
LAYER
  5
3FA
330
66
100
AcDbSymbolTableRecord
100
AcDbLayerTableRecord
  2
TITLE
 70
     0
 62
     4
  6
CONTINUOUS
  0
ENDTAB
  0
TABLE
  2
STYLE
  5
67
330
0
100
AcDbSymbolTable
 70
     1
  0
STYLE
  5
16
330
67
100
AcDbSymbolTableRecord
100
AcDbTextStyleTableRecord
  2
STANDARD
 70
     0
 40
0.0
 41
1.0
 50
0.0
 71
     0
 42
2.0
  3
simplex.shx
  4
extfont.shx
  0
ENDTAB
  0
TABLE
  2
VIEW
  5
6C
330
0
100
AcDbSymbolTable
 70
     0
  0
ENDTAB
  0
TABLE
  2
UCS
  5
6D
330
0
100
AcDbSymbolTable
 70
     0
  0
ENDTAB
  0
TABLE
  2
APPID
  5
70
330
0
100
AcDbSymbolTable
 70
     1
  0
APPID
  5
71
330
70
100
AcDbSymbolTableRecord
100
AcDbRegAppTableRecord
  2
ACAD
 70
     0
  0
ENDTAB
  0
TABLE
  2
DIMSTYLE
  5
72
330
0
100
AcDbSymbolTable
 70
     1
  0
DIMSTYLE
105
73
330
72
100
AcDbSymbolTableRecord
100
AcDbDimStyleTableRecord
  2
STANDARD
 70
     0
  3

  4

  5

  6

  7

 40
4.0
 41
1.8
 42
0.625
 43
3.75
 44
1.25
 45
0.0
 46
0.0
 47
0.0
 48
0.0
140
1.8
141
2.5
142
0.0
143
0.0394
144
1.0
145
0.0
146
1.0
147
0.75
 71
     0
 72
     0
 73
     0
 74
     0
 75
     0
 76
     0
 77
     1
 78
     8
170
     0
171
     4
172
     1
173
     0
174
     0
175
     0
176
     0
177
     0
178
     0
270
     8
271
     2
272
     2
273
     8
274
     4
340
16
275
     0
280
     0
281
     0
282
     0
283
     1
284
     0
285
     0
286
     0
287
     3
288
     0
  0
ENDTAB
  0
TABLE
  2
BLOCK_RECORD
  5
1
330
0
100
AcDbSymbolTable
 70
    55
  0
BLOCK_RECORD
  5
2
102
{ACAD_XDICTIONARY
360
1B56
102
}
330
1
100
AcDbSymbolTableRecord
100
AcDbBlockTableRecord
  2
*MODEL_SPACE
  0
BLOCK_RECORD
  5
1B2F
102
{ACAD_XDICTIONARY
360
1B58
102
}
330
1
100
AcDbSymbolTableRecord
100
AcDbBlockTableRecord
  2
*PAPER_SPACE
  0
ENDTAB
  0
ENDSEC
  0
SECTION
  2
BLOCKS
  0
BLOCK
  5
5D
330
2
100
AcDbEntity
  8
0
100
AcDbBlockBegin
  2
*MODEL_SPACE
 70
     0
 10
0.0
 20
0.0
 30
0.0
  3
*MODEL_SPACE
  1

  0
ENDBLK
  5
5F
330
2
100
AcDbEntity
  8
0
100
AcDbBlockEnd
  0
BLOCK
  5
1B31
330
1B2F
100
AcDbEntity
 67
     1
  8
0
100
AcDbBlockBegin
  2
*PAPER_SPACE
 70
     0
 10
0.0
 20
0.0
 30
0.0
  3
*PAPER_SPACE
  1

  0
ENDBLK
  5
1B32
330
1B2F
100
AcDbEntity
 67
     1
  8
0
100
AcDbBlockEnd
  0
ENDSEC
  0
SECTION
  2
ENTITIES
  0
LINE
  5
77B
330
2
100
AcDbEntity
  8
0
100
AcDbLine
 10
517.7197277475211
 20
342.9456056623994
 30
0.0
 11
542.7115487475211
 21
254.4029336623994
 31
0.0
  0
LINE
  5
77C
330
2
100
AcDbEntity
  8
0
100
AcDbLine
 10
522.1851517475211
 20
344.2059966623994
 30
0.0
 11
547.1771257475212
 21
255.6633866623993
 31
0.0
  0
ARC
  5
77D
330
2
100
AcDbEntity
  8
0
100
AcDbCircle
 10
497.4789437475211
 20
241.6355996623993
 30
0.0
 40
51.639999
100
AcDbArc
 50
270.0
 51
15.7621899999999
  0
ARC
  5
77E
330
2
100
AcDbEntity
  8
0
100
AcDbCircle
 10
497.4789437475211
 20
241.6355996623993
 30
0.0
 40
47.0
100
AcDbArc
 50
270.0
 51
15.7621899999999
  0
LINE
  5
77F
330
2
100
AcDbEntity
  8
0
100
AcDbLine
 10
502.1847547475211
 20
433.2532376623993
 30
0.0
 11
561.5903337475209
 21
395.0639976623993
 31
0.0
  0
LINE
  5
780
330
2
100
AcDbEntity
  8
0
100
AcDbLine
 10
358.4789437475212
 20
152.6356016623994
 30
0.0
 11
568.4789437475211
 21
152.6356016623994
 31
0.0
  0
LINE
  5
781
330
2
100
AcDbEntity
  8
0
100
AcDbLine
 10
358.4789437475211
 20
127.6356026623994
 30
0.0
 11
568.4789437475211
 21
127.6356026623994
 31
0.0
  0
LINE
  5
782
330
2
100
AcDbEntity
  8
CENTER
100
AcDbLine
 10
367.3558057475211
 20
327.6356076623994
 30
0.0
 11
541.2599928207246
 21
327.6356076623994
 31
0.0
  0
LINE
  5
783
330
2
100
AcDbEntity
  8
0
100
AcDbLine
 10
533.0243547475211
 20
651.1786434086966
 30
0.0
 11
524.4789437475211
 21
651.1786434086966
 31
0.0
  0
LINE
  5
784
330
2
100
AcDbEntity
  8
0
100
AcDbLine
 10
557.5173967475211
 20
668.1786434086966
 30
0.0
 11
358.4789437475211
 21
668.1786434086966
 31
0.0
  0
ARC
  5
785
330
2
100
AcDbEntity
  8
0
100
AcDbCircle
 10
538.4789437475212
 20
643.1786434086966
 30
0.0
 40
9.0
100
AcDbArc
 50
116.2366489999997
 51
90.44639600000021
  0
LINE
  5
786
330
2
100
AcDbEntity
  8
0
100
AcDbLine
 10
533.0243547475211
 20
815.1786434086966
 30
0.0
 11
524.4789437475211
 21
815.1786434086966
 31
0.0
  0
LINE
  5
787
330
2
100
AcDbEntity
  8
0
100
AcDbLine
 10
562.4308787475209
 20
798.1786434086966
 30
0.0
 11
358.4789437475211
 21
798.1786434086966
 31
0.0
  0
LINE
  5
789
330
2
100
AcDbEntity
  8
0
100
AcDbLine
 10
539.9367387475209
 20
618.1786434086966
 30
0.0
 11
491.9789437475211
 21
618.1786434086966
 31
0.0
  0
ARC
  5
78A
330
2
100
AcDbEntity
  8
0
100
AcDbCircle
 10
538.4789437475212
 20
823.1786434086966
 30
0.0
 40
9.0
100
AcDbArc
 50
269.5536039999997
 51
243.7633510000002
  0
LINE
  5
78C
330
2
100
AcDbEntity
  8
0
100
AcDbLine
 10
539.9367387475209
 20
848.1786434086966
 30
0.0
 11
491.9789437475211
 21
848.1786434086966
 31
0.0
  0
LINE
  5
78D
330
2
100
AcDbEntity
  8
CENTER
100
AcDbLine
 10
590.7455147475211
 20
733.1786434086966
 30
0.0
 11
36.96293668592943
 21
733.1786434086966
 31
0.0
  0
TEXT
  5
7B7
330
2
100
AcDbEntity
  8
TITLE
100
AcDbText
 10
733.240008145861
 20
662.5319932543711
 30
0.0
 40
12.0
  1
H2LB-50T-300~450-075W
100
AcDbText
  0
LINE
  5
834
330
2
100
AcDbEntity
  8
0
100
AcDbLine
 10
332.9789437475211
 20
180.1357216623994
 30
0.0
 11
332.9789437475211
 21
345.1357296623994
 31
0.0
  0
LINE
  5
835
330
2
100
AcDbEntity
  8
0
100
AcDbLine
 10
295.478821747521
 20
255.3855996623993
 30
0.0
 11
295.478821747521
 21
212.8855996623994
 31
0.0
  0
LINE
  5
836
330
2
100
AcDbEntity
  8
0
100
AcDbLine
 10
320.9788217475211
 20
182.3981236623994
 30
0.0
 11
320.9788217475211
 21
296.8856076623993
 31
0.0
  0
LINE
  5
837
330
2
100
AcDbEntity
  8
0
100
AcDbLine
 10
267.9434517475211
 20
235.1712596623994
 30
0.0
 11
292.5504777475211
 21
210.5647996623994
 31
0.0
  0
LINE
  5
838
330
2
100
AcDbEntity
  8
0
100
AcDbLine
 10
477.7289437475211
 20
243.6355996623993
 30
0.0
 11
477.7289437475211
 21
218.6355996623993
 31
0.0
  0
ARC
  5
839
330
2
100
AcDbEntity
  8
0
100
AcDbCircle
 10
494.7289437475212
 20
233.2708466623994
 30
0.0
 40
11.25
100
AcDbArc
 50
311.8104209999998
 51
59.13299199999959
  0
ARC
  5
83A
330
2
100
AcDbEntity
  8
0
100
AcDbCircle
 10
494.6039437475211
 20
233.0105996623993
 30
0.0
 40
1.875
100
AcDbArc
 50
270.0
 51
90.0
  0
LINE
  5
83B
330
2
100
AcDbEntity
  8
0
100
AcDbLine
 10
485.8539437475211
 20
234.8855996623994
 30
0.0
 11
485.8539437475211
 21
218.6355996623993
 31
0.0
  0
LINE
  5
83C
330
2
100
AcDbEntity
  8
0
100
AcDbLine
 10
467.6039437475211
 20
234.8855996623994
 30
0.0
 11
467.6039437475211
 21
218.6355996623993
 31
0.0
  0
LINE
  5
83D
330
2
100
AcDbEntity
  8
0
100
AcDbLine
 10
458.8539437475211
 20
234.8855996623994
 30
0.0
 11
458.8539437475211
 21
218.6355996623993
 31
0.0
  0
ARC
  5
83E
330
2
100
AcDbEntity
  8
0
100
AcDbCircle
 10
435.8021257475211
 20
229.8855996623994
 30
0.0
 40
5.0
100
AcDbArc
 50
90.0
 51
135.5462039999995
  0
ARC
  5
83F
330
2
100
AcDbEntity
  8
0
100
AcDbCircle
 10
437.2289437475211
 20
228.0430406623994
 30
0.0
 40
16.25
100
AcDbArc
 50
112.352501
 51
215.374496
  0
LINE
  5
840
330
2
100
AcDbEntity
  8
0
100
AcDbLine
 10
349.4789437475211
 20
214.3296006623994
 30
0.0
 11
349.4789437475211
 21
310.9416076623994
 31
0.0
  0
ARC
  5
841
330
2
100
AcDbEntity
  8
0
100
AcDbCircle
 10
429.4789437475211
 20
241.6355996623993
 30
0.0
 40
51.639999
100
AcDbArc
 50
164.2378999999996
 51
270.0
  0
ARC
  5
842
330
2
100
AcDbEntity
  8
0
100
AcDbCircle
 10
429.4789437475211
 20
241.6355996623993
 30
0.0
 40
47.0
100
AcDbArc
 50
164.2378999999996
 51
270.0
  0
LINE
  5
843
330
2
100
AcDbEntity
  8
CENTER
100
AcDbLine
 10
463.4789437475212
 20
455.4794336623994
 30
0.0
 11
463.4789437475212
 21
112.2193626623994
 31
0.0
  0
ARC
  5
845
330
2
100
AcDbEntity
  8
0
100
AcDbCircle
 10
299.6211557475211
 20
217.6357216623994
 30
0.0
 40
10.0
100
AcDbArc
 50
225.000595
 51
270.0
  0
ARC
  5
846
330
2
100
AcDbEntity
  8
0
100
AcDbCircle
 10
343.479004747521
 20
165.1356606623994
 30
0.0
 40
15.0
100
AcDbArc
 50
0.0
 51
90.0
  0
LINE
  5
847
330
2
100
AcDbEntity
  8
0
100
AcDbLine
 10
358.4789437475211
 20
209.3296006623993
 30
0.0
 11
358.4789437475211
 21
127.6356026623994
 31
0.0
  0
LINE
  5
848
330
2
100
AcDbEntity
  8
0
100
AcDbLine
 10
343.4789437475211
 20
180.1357216623994
 30
0.0
 11
332.9789437475211
 21
180.1357216623994
 31
0.0
  0
ARC
  5
849
330
2
100
AcDbEntity
  8
0
100
AcDbCircle
 10
310.9789437475211
 20
197.2262446623994
 30
0.0
 40
10.0
100
AcDbArc
 50
0.0
 51
88.4997859999996
  0
LINE
  5
84A
330
2
100
AcDbEntity
  8
0
100
AcDbLine
 10
322.926575747521
 20
180.3988406623994
 30
0.0
 11
332.9789437475211
 21
180.1356036623994
 31
0.0
  0
ARC
  5
84B
330
2
100
AcDbEntity
  8
0
100
AcDbCircle
 10
322.978821747521
 20
182.3981236623994
 30
0.0
 40
2.0
100
AcDbArc
 50
180.0
 51
268.501312
  0
LINE
  5
84C
330
2
100
AcDbEntity
  8
0
100
AcDbLine
 10
311.2407847475211
 20
207.2228196623993
 30
0.0
 11
299.618332747521
 21
207.5272016623994
 31
0.0
  0
LINE
  5
84D
330
2
100
AcDbEntity
  8
0
100
AcDbLine
 10
351.9789437475211
 20
211.8296006623994
 30
0.0
 11
355.9789437475211
 21
211.8296006623994
 31
0.0
  0
ARC
  5
84E
330
2
100
AcDbEntity
  8
0
100
AcDbCircle
 10
351.9789437475211
 20
214.3296006623994
 30
0.0
 40
2.5
100
AcDbArc
 50
180.0
 51
270.0
  0
ARC
  5
84F
330
2
100
AcDbEntity
  8
0
100
AcDbCircle
 10
355.9789437475211
 20
209.3296006623993
 30
0.0
 40
2.5
100
AcDbArc
 50
0.0
 51
90.0
  0
LINE
  5
850
330
2
100
AcDbEntity
  8
0
100
AcDbLine
 10
421.2501537475211
 20
160.6356016623994
 30
0.0
 11
505.7077647475209
 21
160.6356016623994
 31
0.0
  0
LINE
  5
851
330
2
100
AcDbEntity
  8
0
100
AcDbLine
 10
429.4789437475211
 20
194.6356036623994
 30
0.0
 11
497.4789437475211
 21
194.6356036623994
 31
0.0
  0
LINE
  5
852
330
2
100
AcDbEntity
  8
0
100
AcDbLine
 10
429.4789437475211
 20
189.9956046623994
 30
0.0
 11
497.4789437475211
 21
189.9956046623994
 31
0.0
  0
ARC
  5
853
330
2
100
AcDbEntity
  8
0
100
AcDbCircle
 10
409.599152747521
 20
159.6356016623994
 30
0.0
 40
7.0
100
AcDbArc
 50
270.0
 51
327.99469
  0
LINE
  5
854
330
2
100
AcDbEntity
  8
0
100
AcDbLine
 10
376.4789437475211
 20
127.6356026623994
 30
0.0
 11
376.4789437475211
 21
149.6981016623994
 31
0.0
  0
LINE
  5
855
330
2
100
AcDbEntity
  8
HIDS
100
AcDbLine
 10
379.4789437475211
 20
152.6356016623994
 30
0.0
 11
379.4789437475211
 21
127.6356026623994
 31
0.0
  0
LINE
  5
856
330
2
100
AcDbEntity
  8
HIDS
100
AcDbLine
 10
397.4789437475211
 20
152.6356016623994
 30
0.0
 11
397.4789437475211
 21
127.6356026623994
 31
0.0
  0
LINE
  5
857
330
2
100
AcDbEntity
  8
CENTER
100
AcDbLine
 10
388.4789437475211
 20
164.2856016623994
 30
0.0
 11
388.4789437475211
 21
115.9856026623994
 31
0.0
  0
ARC
  5
858
330
2
100
AcDbEntity
  8
0
100
AcDbCircle
 10
415.4789437475211
 20
155.6356016623994
 30
0.0
 40
3.0
100
AcDbArc
 50
270.0
 51
0.0
  0
ARC
  5
859
330
2
100
AcDbEntity
  8
0
100
AcDbCircle
 10
421.2501537475211
 20
155.6356016623994
 30
0.0
 40
5.0
100
AcDbArc
 50
90.0
 51
147.9947970000001
  0
LINE
  5
85A
330
2
100
AcDbEntity
  8
0
100
AcDbLine
 10
417.0101327475209
 20
158.2856036623994
 30
0.0
 11
415.5351267475211
 21
155.9256426623994
 31
0.0
  0
LINE
  5
85B
330
2
100
AcDbEntity
  8
0
100
AcDbLine
 10
418.4789437475211
 20
158.6699816623994
 30
0.0
 11
418.4789437475211
 21
155.6356016623994
 31
0.0
  0
LINE
  5
85C
330
2
100
AcDbEntity
  8
0
100
AcDbLine
 10
423.9789437475211
 20
218.6355996623993
 30
0.0
 11
448.4789437475211
 21
218.6355996623993
 31
0.0
  0
LINE
  5
85D
330
2
100
AcDbEntity
  8
0
100
AcDbLine
 10
432.7783517475211
 20
221.1355996623993
 30
0.0
 11
440.3539437475211
 21
221.1355996623993
 31
0.0
  0
ARC
  5
85E
330
2
100
AcDbEntity
  8
0
100
AcDbCircle
 10
432.7783517475211
 20
222.3855996623993
 30
0.0
 40
1.25
100
AcDbArc
 50
220.5301969999998
 51
270.0
  0
ARC
  5
85F
330
2
100
AcDbEntity
  8
0
100
AcDbCircle
 10
438.4789437475212
 20
227.2593256623994
 30
0.0
 40
8.75
100
AcDbArc
 50
135.5460969999996
 51
220.5290069999997
  0
LINE
  5
860
330
2
100
AcDbEntity
  8
0
100
AcDbLine
 10
440.3539437475211
 20
231.1355996623994
 30
0.0
 11
448.4789437475211
 21
231.1355996623994
 31
0.0
  0
LINE
  5
861
330
2
100
AcDbEntity
  8
0
100
AcDbLine
 10
440.3539437475211
 20
231.1355996623994
 30
0.0
 11
440.3539437475211
 21
221.1355996623993
 31
0.0
  0
LINE
  5
862
330
2
100
AcDbEntity
  8
0
100
AcDbLine
 10
448.4789437475211
 20
231.1355996623994
 30
0.0
 11
448.4789437475211
 21
218.6355996623993
 31
0.0
  0
LINE
  5
863
330
2
100
AcDbEntity
  8
HIDS
100
AcDbLine
 10
529.4789437475211
 20
152.6356016623994
 30
0.0
 11
529.4789437475211
 21
127.6356026623994
 31
0.0
  0
ARC
  5
864
330
2
100
AcDbEntity
  8
0
100
AcDbCircle
 10
511.4789437475211
 20
155.6356016623994
 30
0.0
 40
3.0
100
AcDbArc
 50
180.0
 51
270.0
  0
ARC
  5
865
330
2
100
AcDbEntity
  8
0
100
AcDbCircle
 10
517.3587657475208
 20
159.6356016623994
 30
0.0
 40
7.0
100
AcDbArc
 50
212.0052029999998
 51
270.0
  0
LINE
  5
866
330
2
100
AcDbEntity
  8
0
100
AcDbLine
 10
511.4227307475212
 20
155.9256216623994
 30
0.0
 11
509.9477547475212
 21
158.2856036623994
 31
0.0
  0
ARC
  5
867
330
2
100
AcDbEntity
  8
0
100
AcDbCircle
 10
505.7077647475209
 20
155.6356016623994
 30
0.0
 40
5.0
100
AcDbArc
 50
32.00542099999972
 51
90.0
  0
LINE
  5
868
330
2
100
AcDbEntity
  8
0
100
AcDbLine
 10
508.4789437475211
 20
158.6699816623994
 30
0.0
 11
508.4789437475211
 21
155.6356016623994
 31
0.0
  0
LINE
  5
869
330
2
100
AcDbEntity
  8
0
100
AcDbLine
 10
488.9789437475211
 20
231.1355996623994
 30
0.0
 11
496.4789437475211
 21
218.6355996623993
 31
0.0
  0
LINE
  5
86A
330
2
100
AcDbEntity
  8
0
100
AcDbLine
 10
488.9789437475211
 20
231.1355996623994
 30
0.0
 11
494.6039437475211
 21
231.1355996623994
 31
0.0
  0
LINE
  5
86B
330
2
100
AcDbEntity
  8
0
100
AcDbLine
 10
458.8539437475211
 20
218.6355996623993
 30
0.0
 11
467.6039437475211
 21
218.6355996623993
 31
0.0
  0
LINE
  5
86C
330
2
100
AcDbEntity
  8
0
100
AcDbLine
 10
477.7289437475211
 20
218.6355996623993
 30
0.0
 11
485.8539437475211
 21
218.6355996623993
 31
0.0
  0
LINE
  5
86D
330
2
100
AcDbEntity
  8
0
100
AcDbLine
 10
496.4789437475211
 20
218.6355996623993
 30
0.0
 11
505.9789437475211
 21
218.6355996623993
 31
0.0
  0
LINE
  5
86E
330
2
100
AcDbEntity
  8
0
100
AcDbLine
 10
505.9789437475211
 20
218.6355996623993
 30
0.0
 11
502.2289437475211
 21
224.8855996623994
 31
0.0
  0
LINE
  5
86F
330
2
100
AcDbEntity
  8
CENTER
100
AcDbLine
 10
36.96293668592943
 20
313.6356076623993
 30
0.0
 11
383.5356457475211
 21
313.6356076623993
 31
0.0
  0
LINE
  5
870
330
2
100
AcDbEntity
  8
0
100
AcDbLine
 10
365.3675857475211
 20
395.0639976623993
 30
0.0
 11
424.7731027475211
 21
433.2532376623993
 31
0.0
  0
LINE
  5
871
330
2
100
AcDbEntity
  8
CENTER
100
AcDbLine
 10
290.7289437475211
 20
262.6356076623993
 30
0.0
 11
378.1394667475209
 21
262.6356076623993
 31
0.0
  0
LINE
  5
872
330
2
100
AcDbEntity
  8
0
100
AcDbLine
 10
262.478943747521
 20
385.6356076623993
 30
0.0
 11
262.478943747521
 21
241.6355996623993
 31
0.0
  0
LINE
  5
873
330
2
100
AcDbEntity
  8
0
100
AcDbLine
 10
273.478943747521
 20
381.6356076623993
 30
0.0
 11
273.478943747521
 21
306.2606076623993
 31
0.0
  0
ARC
  5
874
330
2
100
AcDbEntity
  8
0
100
AcDbCircle
 10
343.4789137475211
 20
360.1357296623994
 30
0.0
 40
15.0
100
AcDbArc
 50
270.0
 51
0.0
  0
LINE
  5
875
330
2
100
AcDbEntity
  8
0
100
AcDbLine
 10
358.4789437475211
 20
315.9416076623993
 30
0.0
 11
358.4789437475211
 21
382.4463986623994
 31
0.0
  0
LINE
  5
876
330
2
100
AcDbEntity
  8
0
100
AcDbLine
 10
323.536713747521
 20
325.0896026623993
 30
0.0
 11
284.6128707475211
 21
325.0896026623993
 31
0.0
  0
LINE
  5
877
330
2
100
AcDbEntity
  8
0
100
AcDbLine
 10
284.6128707475211
 20
316.5415986623994
 30
0.0
 11
323.536713747521
 21
316.5415986623994
 31
0.0
  0
LINE
  5
879
330
2
100
AcDbEntity
  8
0
100
AcDbLine
 10
283.2170267475211
 20
346.4390596623994
 30
0.0
 11
332.9789437475211
 21
345.1356076623994
 31
0.0
  0
LINE
  5
887
330
2
100
AcDbEntity
  8
0
100
AcDbLine
 10
266.4789437475211
 20
244.1355996623994
 30
0.0
 11
266.4789437475211
 21
238.7068816623993
 31
0.0
  0
ARC
  5
888
330
2
100
AcDbEntity
  8
0
100
AcDbCircle
 10
271.478928747521
 20
238.7068816623993
 30
0.0
 40
5.0
100
AcDbArc
 50
180.0
 51
225.0010070000001
  0
ARC
  5
889
330
2
100
AcDbEntity
  8
0
100
AcDbCircle
 10
263.4789437475211
 20
239.6355996623993
 30
0.0
 40
3.0
100
AcDbArc
 50
0.0
 51
90.0
  0
LINE
  5
88A
330
2
100
AcDbEntity
  8
0
100
AcDbLine
 10
263.4789437475211
 20
242.6355996623993
 30
0.0
 11
262.478943747521
 21
242.6355996623993
 31
0.0
  0
ARC
  5
892
330
2
100
AcDbEntity
  8
0
100
AcDbCircle
 10
283.4788827475211
 20
356.4356866623993
 30
0.0
 40
10.0
100
AcDbArc
 50
180.0
 51
268.4997859999995
  0
LINE
  5
893
330
2
100
AcDbEntity
  8
0
100
AcDbLine
 10
357.4789437475211
 20
258.1355996623993
 30
0.0
 11
357.4789437475211
 21
267.1356076623993
 31
0.0
  0
ARC
  5
894
330
2
100
AcDbEntity
  8
0
100
AcDbCircle
 10
354.9789437475211
 20
258.1355996623993
 30
0.0
 40
2.5
100
AcDbArc
 50
270.0
 51
0.0
  0
ARC
  5
895
330
2
100
AcDbEntity
  8
0
100
AcDbCircle
 10
351.9789437475211
 20
253.1355996623993
 30
0.0
 40
2.5
100
AcDbArc
 50
90.0
 51
180.0
  0
LINE
  5
896
330
2
100
AcDbEntity
  8
0
100
AcDbLine
 10
351.9789437475211
 20
255.6355996623994
 30
0.0
 11
354.9789437475211
 21
255.6355996623994
 31
0.0
  0
ARC
  5
897
330
2
100
AcDbEntity
  8
0
100
AcDbCircle
 10
354.9789437475211
 20
267.1356076623993
 30
0.0
 40
2.5
100
AcDbArc
 50
0.0
 51
90.0
  0
ARC
  5
898
330
2
100
AcDbEntity
  8
0
100
AcDbCircle
 10
351.9789437475211
 20
272.1356076623993
 30
0.0
 40
2.5
100
AcDbArc
 50
180.0
 51
270.0
  0
LINE
  5
899
330
2
100
AcDbEntity
  8
0
100
AcDbLine
 10
351.9789437475211
 20
269.6356076623993
 30
0.0
 11
354.9789437475211
 21
269.6356076623993
 31
0.0
  0
LINE
  5
89A
330
2
100
AcDbEntity
  8
0
100
AcDbLine
 10
332.9789437475211
 20
345.1357296623994
 30
0.0
 11
343.478882747521
 21
345.1357296623994
 31
0.0
  0
LINE
  5
89B
330
2
100
AcDbEntity
  8
0
100
AcDbLine
 10
324.9789437475211
 20
323.4716366623994
 30
0.0
 11
324.9789437475211
 21
319.0282776623994
 31
0.0
  0
LINE
  5
89C
330
2
100
AcDbEntity
  8
0
100
AcDbLine
 10
351.9789437475211
 20
313.4416076623994
 30
0.0
 11
355.9789437475211
 21
313.4416076623994
 31
0.0
  0
ARC
  5
89D
330
2
100
AcDbEntity
  8
0
100
AcDbCircle
 10
351.9789437475211
 20
310.9416076623994
 30
0.0
 40
2.5
100
AcDbArc
 50
90.0
 51
180.0
  0
ARC
  5
89E
330
2
100
AcDbEntity
  8
0
100
AcDbCircle
 10
355.9789437475211
 20
315.9416076623993
 30
0.0
 40
2.5
100
AcDbArc
 50
270.0
 51
0.0
  0
LINE
  5
8A9
330
2
100
AcDbEntity
  8
0
100
AcDbLine
 10
270.4789437475211
 20
384.6356076623994
 30
0.0
 11
262.478943747521
 21
384.6356076623994
 31
0.0
  0
ARC
  5
8AA
330
2
100
AcDbEntity
  8
0
100
AcDbCircle
 10
270.4789597475211
 20
381.6355766623993
 30
0.0
 40
3.0
100
AcDbArc
 50
0.0
 51
90.0
  0
LINE
  5
8AB
330
2
100
AcDbEntity
  8
0
100
AcDbLine
 10
353.2795417475211
 20
432.6355926623994
 30
0.0
 11
353.2795417475211
 21
372.6356076623993
 31
0.0
  0
LINE
  5
8AC
330
2
100
AcDbEntity
  8
0
100
AcDbLine
 10
356.4771127475211
 20
432.6355926623994
 30
0.0
 11
356.4795547475209
 21
372.6356076623993
 31
0.0
  0
LINE
  5
8AD
330
2
100
AcDbEntity
  8
0
100
AcDbLine
 10
356.4791267475211
 20
395.6355926623994
 30
0.0
 11
356.4791267475211
 21
374.6356076623993
 31
0.0
  0
ARC
  5
8AE
330
2
100
AcDbEntity
  8
0
100
AcDbCircle
 10
373.4789747475211
 20
382.4463986623994
 30
0.0
 40
15.0
100
AcDbArc
 50
122.7356029999998
 51
180.0
  0
LINE
  5
8AF
330
2
100
AcDbEntity
  8
0
100
AcDbLine
 10
353.2795417475211
 20
372.6356076623993
 30
0.0
 11
356.4795547475209
 21
372.6356076623993
 31
0.0
  0
LINE
  5
8B0
330
2
100
AcDbEntity
  8
0
100
AcDbLine
 10
351.2795417475211
 20
390.3356046623994
 30
0.0
 11
351.2795417475211
 21
374.9355956623993
 31
0.0
  0
ARC
  5
8B1
330
2
100
AcDbEntity
  8
0
100
AcDbCircle
 10
347.479554747521
 20
376.9456056623993
 30
0.0
 40
1.5
100
AcDbArc
 50
180.0
 51
270.0
  0
LINE
  5
8B2
330
2
100
AcDbEntity
  8
0
100
AcDbLine
 10
351.2795417475211
 20
374.9355956623993
 30
0.0
 11
353.2795417475211
 21
374.9355956623993
 31
0.0
  0
LINE
  5
8B3
330
2
100
AcDbEntity
  8
0
100
AcDbLine
 10
347.479554747521
 20
375.4456056623993
 30
0.0
 11
351.2795417475211
 21
375.4456056623993
 31
0.0
  0
ARC
  5
8B4
330
2
100
AcDbEntity
  8
0
100
AcDbCircle
 10
347.479554747521
 20
377.6983826623994
 30
0.0
 40
1.5
100
AcDbArc
 50
90.0
 51
180.0
  0
ARC
  5
8B5
330
2
100
AcDbEntity
  8
0
100
AcDbCircle
 10
347.479554747521
 20
388.3256096623994
 30
0.0
 40
1.5
100
AcDbArc
 50
90.0
 51
180.0
  0
ARC
  5
8B6
330
2
100
AcDbEntity
  8
0
100
AcDbCircle
 10
347.479554747521
 20
387.5728326623994
 30
0.0
 40
1.5
100
AcDbArc
 50
180.0
 51
270.0
  0
ARC
  5
8B7
330
2
100
AcDbEntity
  8
0
100
AcDbCircle
 10
347.479554747521
 20
380.6983826623994
 30
0.0
 40
1.5
100
AcDbArc
 50
180.0
 51
270.0
  0
ARC
  5
8B8
330
2
100
AcDbEntity
  8
0
100
AcDbCircle
 10
347.479554747521
 20
384.5728326623994
 30
0.0
 40
1.5
100
AcDbArc
 50
90.0
 51
180.0
  0
LINE
  5
8B9
330
2
100
AcDbEntity
  8
0
100
AcDbLine
 10
345.979554747521
 20
388.3256096623994
 30
0.0
 11
345.979554747521
 21
376.9456056623993
 31
0.0
  0
LINE
  5
8BA
330
2
100
AcDbEntity
  8
0
100
AcDbLine
 10
351.2795417475211
 20
390.3356046623994
 30
0.0
 11
353.2795417475211
 21
390.3356046623994
 31
0.0
  0
LINE
  5
8BB
330
2
100
AcDbEntity
  8
0
100
AcDbLine
 10
347.479554747521
 20
379.1983826623993
 30
0.0
 11
351.2795417475211
 21
379.1983826623993
 31
0.0
  0
LINE
  5
8BC
330
2
100
AcDbEntity
  8
0
100
AcDbLine
 10
347.479554747521
 20
386.0728326623994
 30
0.0
 11
351.2795417475211
 21
386.0728326623994
 31
0.0
  0
LINE
  5
8BD
330
2
100
AcDbEntity
  8
0
100
AcDbLine
 10
347.479554747521
 20
389.8255946623994
 30
0.0
 11
351.2795417475211
 21
389.8255946623994
 31
0.0
  0
LINE
  5
8BE
330
2
100
AcDbEntity
  8
0
100
AcDbLine
 10
356.4791267475211
 20
374.6356076623993
 30
0.0
 11
358.4789437475211
 21
373.6356076623993
 31
0.0
  0
LINE
  5
8BF
330
2
100
AcDbEntity
  8
CENTER
100
AcDbLine
 10
345.9157417475211
 20
416.6355926623994
 30
0.0
 11
364.0133377475211
 21
416.6355926623994
 31
0.0
  0
LINE
  5
8C0
330
2
100
AcDbEntity
  8
HIDS
100
AcDbLine
 10
353.2795417475211
 20
406.6355926623995
 30
0.0
 11
356.4795547475209
 21
406.6355926623995
 31
0.0
  0
LINE
  5
8C1
330
2
100
AcDbEntity
  8
0
100
AcDbLine
 10
356.4791267475211
 20
395.6355926623994
 30
0.0
 11
368.1123367475211
 21
397.4407676623994
 31
0.0
  0
ARC
  5
8C2
330
2
100
AcDbEntity
  8
0
100
AcDbCircle
 10
367.1922927475209
 20
403.3698146623993
 30
0.0
 40
6.0
100
AcDbArc
 50
278.8204039999996
 51
302.7352289999999
  0
LINE
  5
8C3
330
2
100
AcDbEntity
  8
0
100
AcDbLine
 10
353.2795417475211
 20
432.6355926623994
 30
0.0
 11
356.4771127475211
 21
432.6355926623994
 31
0.0
  0
LINE
  5
8C4
330
2
100
AcDbEntity
  8
HIDS
100
AcDbLine
 10
353.2795417475211
 20
426.6355926623994
 30
0.0
 11
356.4795547475209
 21
426.6355926623994
 31
0.0
  0
ARC
  5
8C5
330
2
100
AcDbEntity
  8
0
100
AcDbCircle
 10
463.4789437475212
 20
327.6356076623994
 30
0.0
 40
56.360001
100
AcDbArc
 50
164.2378999999996
 51
15.7621899999999
  0
ARC
  5
8C6
330
2
100
AcDbEntity
  8
0
100
AcDbCircle
 10
463.4789437475212
 20
327.6356076623994
 30
0.0
 40
61.0
100
AcDbArc
 50
15.7621899999999
 51
164.2378999999996
  0
CIRCLE
  5
8C7
330
2
100
AcDbEntity
  8
0
100
AcDbCircle
 10
463.4789437475212
 20
327.6356076623994
 30
0.0
 40
55.0
  0
ARC
  5
8C8
330
2
100
AcDbEntity
  8
0
100
AcDbCircle
 10
463.4789437475212
 20
327.6356076623994
 30
0.0
 40
25.0
100
AcDbArc
 50
16.26018900000009
 51
343.7398069999997
  0
LINE
  5
8C9
330
2
100
AcDbEntity
  8
0
100
AcDbLine
 10
384.2462477475211
 20
254.4028576623993
 30
0.0
 11
409.238129747521
 21
342.9454216623994
 31
0.0
  0
LINE
  5
8CA
330
2
100
AcDbEntity
  8
0
100
AcDbLine
 10
379.780732747521
 20
255.6632796623994
 30
0.0
 11
404.7727367475209
 21
344.2057976623993
 31
0.0
  0
ARC
  5
8CB
330
2
100
AcDbEntity
  8
0
100
AcDbCircle
 10
433.9013377475211
 20
236.1355996623993
 30
0.0
 40
7.5
100
AcDbArc
 50
90.0
 51
112.3526989999998
  0
LINE
  5
8CC
330
2
100
AcDbEntity
  8
0
100
AcDbLine
 10
433.9013377475211
 20
243.6355996623993
 30
0.0
 11
448.4789437475211
 21
243.6355996623993
 31
0.0
  0
LINE
  5
8CD
330
2
100
AcDbEntity
  8
0
100
AcDbLine
 10
435.8021257475211
 20
234.8855996623994
 30
0.0
 11
448.4789437475211
 21
234.8855996623994
 31
0.0
  0
LINE
  5
8CE
330
2
100
AcDbEntity
  8
0
100
AcDbLine
 10
448.4789437475211
 20
234.8855996623994
 30
0.0
 11
448.4789437475211
 21
243.6355996623993
 31
0.0
  0
LINE
  5
8CF
330
2
100
AcDbEntity
  8
0
100
AcDbLine
 10
497.9355477475211
 20
243.6355996623993
 30
0.0
 11
477.7289437475211
 21
243.6355996623993
 31
0.0
  0
LINE
  5
8D0
330
2
100
AcDbEntity
  8
0
100
AcDbLine
 10
485.8539437475211
 20
234.8855996623994
 30
0.0
 11
494.6039437475211
 21
234.8855996623994
 31
0.0
  0
LINE
  5
8D1
330
2
100
AcDbEntity
  8
0
100
AcDbLine
 10
454.4789437475211
 20
243.6355996623993
 30
0.0
 11
471.9789437475212
 21
243.6355996623993
 31
0.0
  0
LINE
  5
8D2
330
2
100
AcDbEntity
  8
0
100
AcDbLine
 10
454.4789437475211
 20
243.6355996623993
 30
0.0
 11
454.4789437475211
 21
234.8855996623994
 31
0.0
  0
LINE
  5
8D3
330
2
100
AcDbEntity
  8
0
100
AcDbLine
 10
454.4789437475211
 20
234.8855996623994
 30
0.0
 11
458.8539437475211
 21
234.8855996623994
 31
0.0
  0
LINE
  5
8D4
330
2
100
AcDbEntity
  8
0
100
AcDbLine
 10
471.9789437475212
 20
243.6355996623993
 30
0.0
 11
471.9789437475212
 21
234.8855996623994
 31
0.0
  0
LINE
  5
8D5
330
2
100
AcDbEntity
  8
0
100
AcDbLine
 10
467.6039437475211
 20
234.8855996623994
 30
0.0
 11
471.9789437475212
 21
234.8855996623994
 31
0.0
  0
ARC
  5
8D6
330
2
100
AcDbEntity
  8
0
100
AcDbCircle
 10
497.9355477475211
 20
238.6355996623993
 30
0.0
 40
5.0
100
AcDbArc
 50
59.13309900000024
 51
90.0
  0
LINE
  5
8D7
330
2
100
AcDbEntity
  8
0
100
AcDbLine
 10
491.9789437475211
 20
334.6358216623994
 30
0.0
 11
482.9789437475211
 21
334.6356076623994
 31
0.0
  0
LINE
  5
8D8
330
2
100
AcDbEntity
  8
0
100
AcDbLine
 10
491.9789437475211
 20
320.6358056623994
 30
0.0
 11
482.9789437475211
 21
320.6356076623993
 31
0.0
  0
LINE
  5
8D9
330
2
100
AcDbEntity
  8
0
100
AcDbLine
 10
482.9789437475211
 20
320.6356076623993
 30
0.0
 11
482.9789437475211
 21
334.6356076623994
 31
0.0
  0
LINE
  5
8DA
330
2
100
AcDbEntity
  8
0
100
AcDbLine
 10
491.9789437475211
 20
320.6358056623994
 30
0.0
 11
491.9789437475211
 21
334.6358216623994
 31
0.0
  0
LINE
  5
8DB
330
2
100
AcDbEntity
  8
0
100
AcDbLine
 10
432.8845527475209
 20
435.6355926623995
 30
0.0
 11
494.0733657475211
 21
435.6355926623995
 31
0.0
  0
ARC
  5
8DC
330
2
100
AcDbEntity
  8
0
100
AcDbCircle
 10
432.8845527475209
 20
420.6355926623994
 30
0.0
 40
15.0
100
AcDbArc
 50
90.0
 51
122.7354969999997
  0
ARC
  5
8DD
330
2
100
AcDbEntity
  8
0
100
AcDbCircle
 10
494.073548747521
 20
420.6355926623994
 30
0.0
 40
15.0
100
AcDbArc
 50
57.26490000000016
 51
90.0
  0
LINE
  5
938
330
2
100
AcDbEntity
  8
0
100
AcDbLine
 10
262.478943747521
 20
805.1786434086967
 30
0.0
 11
262.478943747521
 21
661.1786434086968
 31
0.0
  0
LINE
  5
939
330
2
100
AcDbEntity
  8
0
100
AcDbLine
 10
273.4788827475211
 20
801.3870174086969
 30
0.0
 11
273.4786387475211
 21
664.9701474086967
 31
0.0
  0
LINE
  5
93A
330
2
100
AcDbEntity
  8
0
100
AcDbLine
 10
359.5277717475211
 20
793.2659234086968
 30
0.0
 11
358.7320267475211
 21
747.6786434086966
 31
0.0
  0
LINE
  5
93B
330
2
100
AcDbEntity
  8
0
100
AcDbLine
 10
428.4789437475211
 20
791.1786434086966
 30
0.0
 11
428.4789437475211
 21
675.1786434086966
 31
0.0
  0
LINE
  5
93C
330
2
100
AcDbEntity
  8
0
100
AcDbLine
 10
498.4789437475211
 20
791.1786434086966
 30
0.0
 11
498.4789437475211
 21
675.1786434086966
 31
0.0
  0
LINE
  5
93D
330
2
100
AcDbEntity
  8
0
100
AcDbLine
 10
332.9790357475211
 20
815.6786434086965
 30
0.0
 11
332.9790357475211
 21
650.6786434086966
 31
0.0
  0
LINE
  5
93E
330
2
100
AcDbEntity
  8
CENTER
100
AcDbLine
 10
463.4789437475212
 20
914.0101254086967
 30
0.0
 11
463.4789437475212
 21
552.3471614086965
 31
0.0
  0
ARC
  5
93F
330
2
100
AcDbEntity
  8
0
100
AcDbCircle
 10
366.8964857475211
 20
653.1786434086968
 30
0.0
 40
15.0
100
AcDbArc
 50
25.6792889999995
 51
90.0
  0
ARC
  5
940
330
2
100
AcDbEntity
  8
0
100
AcDbCircle
 10
387.0213327475211
 20
633.1786434086966
 30
0.0
 40
15.0
100
AcDbArc
 50
199.7989040000003
 51
270.0
  0
LINE
  5
942
330
2
100
AcDbEntity
  8
0
100
AcDbLine
 10
358.6267407475211
 20
667.7682424086969
 30
0.0
 11
372.9081437475211
 21
628.0978324086968
 31
0.0
  0
LINE
  5
943
330
2
100
AcDbEntity
  8
0
100
AcDbLine
 10
284.612702747521
 20
670.725640408697
 30
0.0
 11
323.5365307475211
 21
670.725640408697
 31
0.0
  0
LINE
  5
944
330
2
100
AcDbEntity
  8
0
100
AcDbLine
 10
284.612702747521
 20
679.2726374086969
 30
0.0
 11
323.5365307475211
 21
679.2726374086969
 31
0.0
  0
LINE
  5
945
330
2
100
AcDbEntity
  8
0
100
AcDbLine
 10
262.480576747521
 20
662.1786434086966
 30
0.0
 11
320.9790357475211
 21
660.6472714086969
 31
0.0
  0
ARC
  5
958
330
2
100
AcDbEntity
  8
0
100
AcDbCircle
 10
270.478882747521
 20
664.9701474086967
 30
0.0
 40
3.0
100
AcDbArc
 50
268.5000609999994
 51
0.0
  0
LINE
  5
95A
330
2
100
AcDbEntity
  8
0
100
AcDbLine
 10
359.442017747521
 20
678.0040824086968
 30
0.0
 11
358.7320267475211
 21
718.6786434086966
 31
0.0
  0
LINE
  5
95B
330
2
100
AcDbEntity
  8
0
100
AcDbLine
 10
343.234192747521
 20
650.6786434086966
 30
0.0
 11
332.9790357475211
 21
650.6786434086966
 31
0.0
  0
ARC
  5
95C
330
2
100
AcDbEntity
  8
0
100
AcDbCircle
 10
322.9790357475211
 20
652.9061514086968
 30
0.0
 40
2.0
100
AcDbArc
 50
180.0
 51
268.6997679999999
  0
LINE
  5
95D
330
2
100
AcDbEntity
  8
0
100
AcDbLine
 10
322.9336557475211
 20
650.9066704086968
 30
0.0
 11
332.980561747521
 21
650.6786434086966
 31
0.0
  0
LINE
  5
95E
330
2
100
AcDbEntity
  8
0
100
AcDbLine
 10
320.9790357475211
 20
652.9061514086968
 30
0.0
 11
320.9790357475211
 21
660.6472714086969
 31
0.0
  0
LINE
  5
95F
330
2
100
AcDbEntity
  8
0
100
AcDbLine
 10
324.9790357475211
 20
672.2607354086967
 30
0.0
 11
324.9790357475211
 21
677.5927664086968
 31
0.0
  0
ARC
  5
960
330
2
100
AcDbEntity
  8
0
100
AcDbCircle
 10
369.4404917475211
 20
678.1786434086966
 30
0.0
 40
10.0
100
AcDbArc
 50
181.0000000000001
 51
270.0
  0
ARC
  5
961
330
2
100
AcDbEntity
  8
0
100
AcDbCircle
 10
359.9789437475211
 20
665.6786434086968
 30
0.0
 40
2.5
100
AcDbArc
 50
90.0
 51
180.0
  0
ARC
  5
962
330
2
100
AcDbEntity
  8
0
100
AcDbCircle
 10
353.6409927475211
 20
663.1786434086966
 30
0.0
 40
5.0
100
AcDbArc
 50
90.0
 51
177.0
  0
ARC
  5
963
330
2
100
AcDbEntity
  8
0
100
AcDbCircle
 10
352.4790357475211
 20
663.6786434086966
 30
0.0
 40
5.0
100
AcDbArc
 50
270.0
 51
0.0
  0
LINE
  5
964
330
2
100
AcDbEntity
  8
0
100
AcDbLine
 10
353.6409927475211
 20
668.1786434086966
 30
0.0
 11
358.4789437475211
 21
668.1786434086966
 31
0.0
  0
ARC
  5
965
330
2
100
AcDbEntity
  8
0
100
AcDbCircle
 10
343.234192747521
 20
655.6786434086966
 30
0.0
 40
5.0
100
AcDbArc
 50
270.0
 51
357.0
  0
ARC
  5
966
330
2
100
AcDbEntity
  8
0
100
AcDbCircle
 10
350.7706917475211
 20
656.1786434086968
 30
0.0
 40
2.5
100
AcDbArc
 50
90.0
 51
177.0
  0
LINE
  5
967
330
2
100
AcDbEntity
  8
0
100
AcDbLine
 10
352.4790357475211
 20
658.6786434086966
 30
0.0
 11
350.7706917475211
 21
658.6786434086966
 31
0.0
  0
LINE
  5
968
330
2
100
AcDbEntity
  8
0
100
AcDbLine
 10
348.6478287475211
 20
663.4404234086969
 30
0.0
 11
348.2273567475211
 21
655.4170464086967
 31
0.0
  0
LINE
  5
969
330
2
100
AcDbEntity
  8
0
100
AcDbLine
 10
357.4789437475211
 20
665.6786434086968
 30
0.0
 11
357.4789437475211
 21
663.6786434086966
 31
0.0
  0
LINE
  5
96A
330
2
100
AcDbEntity
  8
0
100
AcDbLine
 10
351.279145747521
 20
740.8786554086966
 30
0.0
 11
351.279145747521
 21
725.4786314086966
 31
0.0
  0
LINE
  5
96B
330
2
100
AcDbEntity
  8
0
100
AcDbLine
 10
345.979157747521
 20
738.8686454086967
 30
0.0
 11
345.979157747521
 21
727.4886404086969
 31
0.0
  0
LINE
  5
96C
330
2
100
AcDbEntity
  8
0
100
AcDbLine
 10
353.2791457475211
 20
749.1786434086966
 30
0.0
 11
353.2791457475211
 21
717.1786434086966
 31
0.0
  0
LINE
  5
96D
330
2
100
AcDbEntity
  8
0
100
AcDbLine
 10
356.4791267475211
 20
749.1786434086966
 30
0.0
 11
356.4791267475211
 21
717.1786434086966
 31
0.0
  0
LINE
  5
96E
330
2
100
AcDbEntity
  8
0
100
AcDbLine
 10
369.3677987475211
 20
721.1786434086966
 30
0.0
 11
369.3677987475211
 21
745.1786434086966
 31
0.0
  0
LINE
  5
96F
330
2
100
AcDbEntity
  8
0
100
AcDbLine
 10
356.4791267475211
 20
747.6786434086966
 30
0.0
 11
356.4791267475211
 21
718.6786434086966
 31
0.0
  0
LINE
  5
970
330
2
100
AcDbEntity
  8
HIDS
100
AcDbLine
 10
353.2791457475211
 20
723.1786434086966
 30
0.0
 11
356.4791267475211
 21
723.1786434086966
 31
0.0
  0
LINE
  5
971
330
2
100
AcDbEntity
  8
0
100
AcDbLine
 10
353.2791457475211
 20
717.1786434086966
 30
0.0
 11
356.4791267475211
 21
717.1786434086966
 31
0.0
  0
ARC
  5
972
330
2
100
AcDbEntity
  8
0
100
AcDbCircle
 10
347.479157747521
 20
728.2413874086967
 30
0.0
 40
1.5
100
AcDbArc
 50
90.0
 51
180.0
  0
ARC
  5
973
330
2
100
AcDbEntity
  8
0
100
AcDbCircle
 10
347.479157747521
 20
727.4886404086969
 30
0.0
 40
1.5
100
AcDbArc
 50
180.0
 51
270.0
  0
ARC
  5
974
330
2
100
AcDbEntity
  8
0
100
AcDbCircle
 10
347.479157747521
 20
731.2413874086969
 30
0.0
 40
1.5
100
AcDbArc
 50
180.0
 51
270.0
  0
LINE
  5
975
330
2
100
AcDbEntity
  8
0
100
AcDbLine
 10
351.279145747521
 20
725.4786314086966
 30
0.0
 11
353.2791457475211
 21
725.4786314086966
 31
0.0
  0
LINE
  5
976
330
2
100
AcDbEntity
  8
0
100
AcDbLine
 10
347.479157747521
 20
729.7413874086969
 30
0.0
 11
351.279145747521
 21
729.7413874086969
 31
0.0
  0
LINE
  5
977
330
2
100
AcDbEntity
  8
0
100
AcDbLine
 10
347.479157747521
 20
725.9886404086967
 30
0.0
 11
351.279145747521
 21
725.9886404086967
 31
0.0
  0
LINE
  5
978
330
2
100
AcDbEntity
  8
0
100
AcDbLine
 10
356.4791267475211
 20
718.6786434086966
 30
0.0
 11
366.8677987475211
 21
718.6786434086966
 31
0.0
  0
LINE
  5
979
330
2
100
AcDbEntity
  8
HIDS
100
AcDbLine
 10
353.2791457475211
 20
743.1786434086966
 30
0.0
 11
356.4791267475211
 21
743.1786434086966
 31
0.0
  0
LINE
  5
97A
330
2
100
AcDbEntity
  8
0
100
AcDbLine
 10
353.2791457475211
 20
749.1786434086966
 30
0.0
 11
356.4791267475211
 21
749.1786434086966
 31
0.0
  0
ARC
  5
97B
330
2
100
AcDbEntity
  8
0
100
AcDbCircle
 10
347.479157747521
 20
738.8686454086967
 30
0.0
 40
1.5
100
AcDbArc
 50
90.0
 51
180.0
  0
ARC
  5
97C
330
2
100
AcDbEntity
  8
0
100
AcDbCircle
 10
347.479157747521
 20
738.1158384086968
 30
0.0
 40
1.5
100
AcDbArc
 50
180.0
 51
270.0
  0
ARC
  5
97D
330
2
100
AcDbEntity
  8
0
100
AcDbCircle
 10
347.479157747521
 20
735.1158384086966
 30
0.0
 40
1.5
100
AcDbArc
 50
90.0
 51
180.0
  0
LINE
  5
97E
330
2
100
AcDbEntity
  8
0
100
AcDbLine
 10
351.279145747521
 20
740.8786554086966
 30
0.0
 11
353.2791457475211
 21
740.8786554086966
 31
0.0
  0
LINE
  5
97F
330
2
100
AcDbEntity
  8
0
100
AcDbLine
 10
347.479157747521
 20
736.6158384086968
 30
0.0
 11
351.279145747521
 21
736.6158384086968
 31
0.0
  0
LINE
  5
980
330
2
100
AcDbEntity
  8
0
100
AcDbLine
 10
347.479157747521
 20
740.3686454086969
 30
0.0
 11
351.279145747521
 21
740.3686454086969
 31
0.0
  0
LINE
  5
981
330
2
100
AcDbEntity
  8
0
100
AcDbLine
 10
356.4791267475211
 20
747.6786434086966
 30
0.0
 11
366.8677987475211
 21
747.6786434086966
 31
0.0
  0
LINE
  5
982
330
2
100
AcDbEntity
  8
0
100
AcDbLine
 10
491.9789437475211
 20
638.1786434086966
 30
0.0
 11
491.9789437475211
 21
568.1786434086966
 31
0.0
  0
LINE
  5
983
330
2
100
AcDbEntity
  8
0
100
AcDbLine
 10
487.4789437475211
 20
638.1786434086966
 30
0.0
 11
487.4789437475211
 21
568.1786434086966
 31
0.0
  0
LINE
  5
984
330
2
100
AcDbEntity
  8
0
100
AcDbLine
 10
438.4789437475212
 20
643.1786434086966
 30
0.0
 11
438.4789437475212
 21
568.1786434086966
 31
0.0
  0
ARC
  5
985
330
2
100
AcDbEntity
  8
0
100
AcDbCircle
 10
388.4789437475211
 20
643.1786434086966
 30
0.0
 40
9.0
100
AcDbArc
 50
89.5535889999998
 51
63.76334800000042
  0
LINE
  5
987
330
2
100
AcDbEntity
  8
0
100
AcDbLine
 10
491.9789437475211
 20
568.1786434086966
 30
0.0
 11
438.4789437475212
 21
568.1786434086966
 31
0.0
  0
LINE
  5
988
330
2
100
AcDbEntity
  8
0
100
AcDbLine
 10
387.0213327475211
 20
618.1786434086966
 30
0.0
 11
438.4789437475212
 21
618.1786434086966
 31
0.0
  0
LINE
  5
989
330
2
100
AcDbEntity
  8
0
100
AcDbLine
 10
435.9789437475211
 20
643.1786434086966
 30
0.0
 11
490.9789437475211
 21
643.1786434086966
 31
0.0
  0
LINE
  5
98A
330
2
100
AcDbEntity
  8
0
100
AcDbLine
 10
513.0481887475212
 20
646.1786434086966
 30
0.0
 11
413.9096997475211
 21
646.1786434086966
 31
0.0
  0
LINE
  5
98B
330
2
100
AcDbEntity
  8
0
100
AcDbLine
 10
393.9335037475211
 20
651.1786434086966
 30
0.0
 11
402.4789437475211
 21
651.1786434086966
 31
0.0
  0
ARC
  5
98C
330
2
100
AcDbEntity
  8
0
100
AcDbCircle
 10
393.9335037475211
 20
666.1786434086969
 30
0.0
 40
15.0
100
AcDbArc
 50
205.6792909999997
 51
270.0
  0
ARC
  5
98D
330
2
100
AcDbEntity
  8
0
100
AcDbCircle
 10
413.9096997475211
 20
661.1786434086968
 30
0.0
 40
15.0
100
AcDbArc
 50
230.1944270000001
 51
270.0
  0
LINE
  5
98E
330
2
100
AcDbEntity
  8
0
100
AcDbLine
 10
404.3069167475211
 20
649.6553274086968
 30
0.0
 11
402.4789437475211
 21
651.1786434086966
 31
0.0
  0
LINE
  5
98F
330
2
100
AcDbEntity
  8
0
100
AcDbLine
 10
435.9789437475211
 20
646.1786434086966
 30
0.0
 11
435.9789437475211
 21
643.1786434086966
 31
0.0
  0
LINE
  5
990
330
2
100
AcDbEntity
  8
0
100
AcDbLine
 10
487.4789437475211
 20
638.1786434086966
 30
0.0
 11
491.9789437475211
 21
638.1786434086966
 31
0.0
  0
LINE
  5
991
330
2
100
AcDbEntity
  8
0
100
AcDbLine
 10
490.9789437475211
 20
646.1786434086966
 30
0.0
 11
490.9789437475211
 21
643.1786434086966
 31
0.0
  0
LINE
  5
992
330
2
100
AcDbEntity
  8
0
100
AcDbLine
 10
488.4789437475212
 20
643.1786434086966
 30
0.0
 11
488.4789437475212
 21
638.1786434086966
 31
0.0
  0
ARC
  5
993
330
2
100
AcDbEntity
  8
0
100
AcDbCircle
 10
513.0481887475212
 20
661.1786434086968
 30
0.0
 40
15.0
100
AcDbArc
 50
270.0
 51
309.8055729999998
  0
LINE
  5
994
330
2
100
AcDbEntity
  8
0
100
AcDbLine
 10
522.6509717475212
 20
649.6553274086968
 30
0.0
 11
524.4789437475211
 21
651.1786434086966
 31
0.0
  0
ARC
  5
995
330
2
100
AcDbEntity
  8
0
100
AcDbCircle
 10
366.8964857475211
 20
813.1786434086967
 30
0.0
 40
15.0
100
AcDbArc
 50
270.0
 51
334.3207109999997
  0
ARC
  5
996
330
2
100
AcDbEntity
  8
0
100
AcDbCircle
 10
387.0213327475211
 20
833.1786434086966
 30
0.0
 40
15.0
100
AcDbArc
 50
90.0
 51
160.2010959999996
  0
LINE
  5
998
330
2
100
AcDbEntity
  8
0
100
AcDbLine
 10
284.612702747521
 20
795.6316464086969
 30
0.0
 11
323.5365307475211
 21
795.6316464086969
 31
0.0
  0
LINE
  5
999
330
2
100
AcDbEntity
  8
0
100
AcDbLine
 10
284.612702747521
 20
787.0846494086968
 30
0.0
 11
323.5365307475211
 21
787.0846494086968
 31
0.0
  0
LINE
  5
99A
330
2
100
AcDbEntity
  8
0
100
AcDbLine
 10
262.480576747521
 20
804.1785214086969
 30
0.0
 11
320.9790357475211
 21
805.710015408697
 31
0.0
  0
ARC
  5
9AC
330
2
100
AcDbEntity
  8
0
100
AcDbCircle
 10
270.478882747521
 20
801.3870174086969
 30
0.0
 40
3.0
100
AcDbArc
 50
0.0
 51
91.50050399999978
  0
LINE
  5
9AD
330
2
100
AcDbEntity
  8
0
100
AcDbLine
 10
358.6228957475209
 20
798.5783624086969
 30
0.0
 11
372.9081437475211
 21
838.2594534086967
 31
0.0
  0
LINE
  5
9AE
330
2
100
AcDbEntity
  8
0
100
AcDbLine
 10
343.234192747521
 20
815.6786434086965
 30
0.0
 11
332.9790357475211
 21
815.6786434086965
 31
0.0
  0
LINE
  5
9AF
330
2
100
AcDbEntity
  8
0
100
AcDbLine
 10
324.9790357475211
 20
794.0965504086967
 30
0.0
 11
324.9790357475211
 21
788.7645194086969
 31
0.0
  0
LINE
  5
9B0
330
2
100
AcDbEntity
  8
0
100
AcDbLine
 10
320.9790357475211
 20
813.4511044086966
 30
0.0
 11
320.9790357475211
 21
805.710015408697
 31
0.0
  0
LINE
  5
9B1
330
2
100
AcDbEntity
  8
0
100
AcDbLine
 10
332.980561747521
 20
815.6786434086965
 30
0.0
 11
322.9336557475211
 21
815.450615408697
 31
0.0
  0
ARC
  5
9B2
330
2
100
AcDbEntity
  8
0
100
AcDbCircle
 10
322.9790357475211
 20
813.4511044086966
 30
0.0
 40
2.0
100
AcDbArc
 50
91.30023200000007
 51
180.0
  0
ARC
  5
9B3
330
2
100
AcDbEntity
  8
0
100
AcDbCircle
 10
364.5270097475211
 20
793.1786434086967
 30
0.0
 40
5.0
100
AcDbArc
 50
90.0
 51
178.9999999999998
  0
ARC
  5
9B4
330
2
100
AcDbEntity
  8
0
100
AcDbCircle
 10
352.4790357475211
 20
802.6786434086966
 30
0.0
 40
5.0
100
AcDbArc
 50
0.0
 51
90.0
  0
LINE
  5
9B5
330
2
100
AcDbEntity
  8
0
100
AcDbLine
 10
353.6409927475211
 20
798.1786434086966
 30
0.0
 11
358.4789437475211
 21
798.1786434086966
 31
0.0
  0
ARC
  5
9B6
330
2
100
AcDbEntity
  8
0
100
AcDbCircle
 10
350.7706917475211
 20
810.1786434086966
 30
0.0
 40
2.5
100
AcDbArc
 50
182.9999999999999
 51
270.0
  0
LINE
  5
9B7
330
2
100
AcDbEntity
  8
0
100
AcDbLine
 10
348.6478287475211
 20
802.9168634086968
 30
0.0
 11
348.2273567475211
 21
810.9402394086968
 31
0.0
  0
LINE
  5
9B8
330
2
100
AcDbEntity
  8
0
100
AcDbLine
 10
352.4790357475211
 20
807.6786434086965
 30
0.0
 11
350.7706917475211
 21
807.6786434086965
 31
0.0
  0
ARC
  5
9B9
330
2
100
AcDbEntity
  8
0
100
AcDbCircle
 10
353.6409927475211
 20
803.1786434086965
 30
0.0
 40
5.0
100
AcDbArc
 50
182.9999999999999
 51
270.0
  0
ARC
  5
9BA
330
2
100
AcDbEntity
  8
0
100
AcDbCircle
 10
343.234192747521
 20
810.6786434086966
 30
0.0
 40
5.0
100
AcDbArc
 50
2.999999999999903
 51
90.0
  0
ARC
  5
9BB
330
2
100
AcDbEntity
  8
0
100
AcDbCircle
 10
359.9789437475211
 20
800.6786434086967
 30
0.0
 40
2.5
100
AcDbArc
 50
180.0
 51
270.0
  0
LINE
  5
9BC
330
2
100
AcDbEntity
  8
0
100
AcDbLine
 10
357.4789437475211
 20
800.6786434086967
 30
0.0
 11
357.4789437475211
 21
802.6786434086966
 31
0.0
  0
LINE
  5
9BD
330
2
100
AcDbEntity
  8
0
100
AcDbLine
 10
491.9789437475211
 20
828.1786434086965
 30
0.0
 11
491.9789437475211
 21
898.1786434086966
 31
0.0
  0
LINE
  5
9BE
330
2
100
AcDbEntity
  8
0
100
AcDbLine
 10
487.4789437475211
 20
828.1786434086965
 30
0.0
 11
487.4789437475211
 21
898.1786434086966
 31
0.0
  0
LINE
  5
9BF
330
2
100
AcDbEntity
  8
0
100
AcDbLine
 10
438.4789437475212
 20
823.1786434086966
 30
0.0
 11
438.4789437475212
 21
898.1786434086966
 31
0.0
  0
LINE
  5
9C0
330
2
100
AcDbEntity
  8
0
100
AcDbLine
 10
435.9789437475211
 20
823.1786434086966
 30
0.0
 11
490.9789437475211
 21
823.1786434086966
 31
0.0
  0
LINE
  5
9C1
330
2
100
AcDbEntity
  8
0
100
AcDbLine
 10
513.0481887475212
 20
820.1786434086965
 30
0.0
 11
413.9096997475211
 21
820.1786434086965
 31
0.0
  0
ARC
  5
9C2
330
2
100
AcDbEntity
  8
0
100
AcDbCircle
 10
388.4789437475211
 20
823.1786434086966
 30
0.0
 40
9.0
100
AcDbArc
 50
296.236656
 51
270.4464110000001
  0
LINE
  5
9C4
330
2
100
AcDbEntity
  8
0
100
AcDbLine
 10
393.9335037475211
 20
815.1786434086966
 30
0.0
 11
402.4789437475211
 21
815.1786434086966
 31
0.0
  0
ARC
  5
9C5
330
2
100
AcDbEntity
  8
0
100
AcDbCircle
 10
393.9335037475211
 20
800.1786434086966
 30
0.0
 40
15.0
100
AcDbArc
 50
90.0
 51
154.3207090000002
  0
ARC
  5
9C6
330
2
100
AcDbEntity
  8
0
100
AcDbCircle
 10
413.9096997475211
 20
805.1786434086967
 30
0.0
 40
15.0
100
AcDbArc
 50
90.0
 51
129.8055729999998
  0
LINE
  5
9C7
330
2
100
AcDbEntity
  8
0
100
AcDbLine
 10
404.3069167475211
 20
816.7019584086968
 30
0.0
 11
402.4789437475211
 21
815.1786434086966
 31
0.0
  0
LINE
  5
9C8
330
2
100
AcDbEntity
  8
0
100
AcDbLine
 10
435.9789437475211
 20
820.1786434086965
 30
0.0
 11
435.9789437475211
 21
823.1786434086966
 31
0.0
  0
LINE
  5
9C9
330
2
100
AcDbEntity
  8
0
100
AcDbLine
 10
387.0213327475211
 20
848.1786434086966
 30
0.0
 11
438.4789437475212
 21
848.1786434086966
 31
0.0
  0
LINE
  5
9CA
330
2
100
AcDbEntity
  8
0
100
AcDbLine
 10
488.4789437475212
 20
823.1786434086966
 30
0.0
 11
488.4789437475212
 21
828.1786434086965
 31
0.0
  0
LINE
  5
9CB
330
2
100
AcDbEntity
  8
0
100
AcDbLine
 10
490.9789437475211
 20
820.1786434086965
 30
0.0
 11
490.9789437475211
 21
823.1786434086966
 31
0.0
  0
ARC
  5
9CC
330
2
100
AcDbEntity
  8
0
100
AcDbCircle
 10
513.0481887475212
 20
805.1786434086967
 30
0.0
 40
15.0
100
AcDbArc
 50
50.19442700000015
 51
90.0
  0
LINE
  5
9CD
330
2
100
AcDbEntity
  8
0
100
AcDbLine
 10
522.6509717475212
 20
816.7019584086968
 30
0.0
 11
524.4789437475211
 21
815.1786434086966
 31
0.0
  0
LINE
  5
9CE
330
2
100
AcDbEntity
  8
0
100
AcDbLine
 10
487.4789437475211
 20
828.1786434086965
 30
0.0
 11
491.9789437475211
 21
828.1786434086965
 31
0.0
  0
LINE
  5
9CF
330
2
100
AcDbEntity
  8
0
100
AcDbLine
 10
491.9789437475211
 20
898.1786434086966
 30
0.0
 11
438.4789437475212
 21
898.1786434086966
 31
0.0
  0
LINE
  5
9D0
330
2
100
AcDbEntity
  8
CENTER
100
AcDbLine
 10
772.8707715865266
 20
313.6356076623993
 30
0.0
 11
927.3312220842745
 21
313.6356076623993
 31
0.0
  0
LINE
  5
9D1
330
2
100
AcDbEntity
  8
0
100
AcDbLine
 10
802.1009968354006
 20
129.6356026623994
 30
0.0
 11
898.1009968354005
 21
129.6356026623994
 31
0.0
  0
LINE
  5
9D2
330
2
100
AcDbEntity
  8
0
100
AcDbLine
 10
789.1948078354005
 20
390.6355926623994
 30
0.0
 11
910.9947958354005
 21
390.6355926623994
 31
0.0
  0
LINE
  5
9D3
330
2
100
AcDbEntity
  8
0
100
AcDbLine
 10
910.1882168354007
 20
434.5869776623994
 30
0.0
 11
850.1009968354006
 21
435.6355926623995
 31
0.0
  0
LINE
  5
9D4
330
2
100
AcDbEntity
  8
CENTER
100
AcDbLine
 10
669.2695148354005
 20
327.6356076623994
 30
0.0
 11
1030.9324788354
 21
327.6356076623994
 31
0.0
  0
LINE
  5
9D5
330
2
100
AcDbEntity
  8
CENTER
100
AcDbLine
 10
759.1009968354005
 20
262.6356076623993
 30
0.0
 11
940.1009968354005
 21
262.6356076623993
 31
0.0
  0
LINE
  5
9D6
330
2
100
AcDbEntity
  8
0
100
AcDbLine
 10
768.1009968354005
 20
333.3950066623994
 30
0.0
 11
768.1009968354005
 21
205.8340256623994
 31
0.0
  0
LINE
  5
9D7
330
2
100
AcDbEntity
  8
0
100
AcDbLine
 10
785.1009968354007
 20
388.6356076623994
 30
0.0
 11
785.1009968354007
 21
127.6356026623994
 31
0.0
  0
LINE
  5
9D8
330
2
100
AcDbEntity
  8
CENTER
100
AcDbLine
 10
850.1009968354006
 20
109.4794226623994
 30
0.0
 11
850.1009968354006
 21
455.4794336623994
 31
0.0
  0
LINE
  5
9D9
330
2
100
AcDbEntity
  8
0
100
AcDbLine
 10
568.4789437475211
 20
382.4462006623993
 30
0.0
 11
568.4789437475211
 21
127.6356026623994
 31
0.0
  0
LINE
  5
9DA
330
2
100
AcDbEntity
  8
0
100
AcDbLine
 10
550.4789437475211
 20
149.6981016623994
 30
0.0
 11
550.4789437475211
 21
127.6356026623994
 31
0.0
  0
LINE
  5
9DB
330
2
100
AcDbEntity
  8
HIDS
100
AcDbLine
 10
547.4789437475211
 20
152.6356016623994
 30
0.0
 11
547.4789437475211
 21
127.6356026623994
 31
0.0
  0
LINE
  5
9DC
330
2
100
AcDbEntity
  8
CENTER
100
AcDbLine
 10
538.4789437475212
 20
164.2856016623994
 30
0.0
 11
538.4789437475212
 21
115.9856026623994
 31
0.0
  0
LINE
  5
9DD
330
2
100
AcDbEntity
  8
0
100
AcDbLine
 10
735.1009968354007
 20
127.6356026623994
 30
0.0
 11
800.1009968354006
 21
127.6356026623994
 31
0.0
  0
LINE
  5
9DE
330
2
100
AcDbEntity
  8
0
100
AcDbLine
 10
739.2339928354004
 20
152.5598016623994
 30
0.0
 11
780.9680018354007
 21
159.9078226623994
 31
0.0
  0
ARC
  5
9DF
330
2
100
AcDbEntity
  8
0
100
AcDbCircle
 10
783.1009968354006
 20
205.8340256623994
 30
0.0
 40
15.0
100
AcDbArc
 50
180.0
 51
244.3206019999994
  0
LINE
  5
9E0
330
2
100
AcDbEntity
  8
0
100
AcDbLine
 10
740.1009968354006
 20
152.6356016623994
 30
0.0
 11
776.1009968354005
 21
152.6356016623994
 31
0.0
  0
ARC
  5
9E1
330
2
100
AcDbEntity
  8
0
100
AcDbCircle
 10
740.1009968354006
 20
147.6356026623994
 30
0.0
 40
5.0
100
AcDbArc
 50
90.0
 51
180.0
  0
LINE
  5
9E2
330
2
100
AcDbEntity
  8
HIDS
100
AcDbLine
 10
769.1009968354006
 20
152.6356016623994
 30
0.0
 11
769.1009968354006
 21
127.6356026623994
 31
0.0
  0
LINE
  5
9E3
330
2
100
AcDbEntity
  8
HIDS
100
AcDbLine
 10
751.1009968354005
 20
152.6356016623994
 30
0.0
 11
751.1009968354005
 21
127.6356026623994
 31
0.0
  0
LINE
  5
9E4
330
2
100
AcDbEntity
  8
CENTER
100
AcDbLine
 10
760.1009968354007
 20
164.2856016623994
 30
0.0
 11
760.1009968354007
 21
115.9856026623994
 31
0.0
  0
LINE
  5
9E5
330
2
100
AcDbEntity
  8
0
100
AcDbLine
 10
735.1009968354007
 20
147.6356026623994
 30
0.0
 11
735.1009968354007
 21
127.6356026623994
 31
0.0
  0
LINE
  5
9E6
330
2
100
AcDbEntity
  8
0
100
AcDbLine
 10
800.1009968354006
 20
127.6356026623994
 30
0.0
 11
802.1009968354006
 21
129.6356026623994
 31
0.0
  0
ARC
  5
9E7
330
2
100
AcDbEntity
  8
0
100
AcDbCircle
 10
776.1009968354005
 20
161.6356016623994
 30
0.0
 40
9.0
100
AcDbArc
 50
270.0
 51
0.0
  0
ARC
  5
9E8
330
2
100
AcDbEntity
  8
0
100
AcDbCircle
 10
780.1009968354005
 20
164.8322016623994
 30
0.0
 40
5.0
100
AcDbArc
 50
279.9857789999999
 51
0.0
  0
ARC
  5
9E9
330
2
100
AcDbEntity
  8
0
100
AcDbCircle
 10
770.1009968354006
 20
178.7969806623994
 30
0.0
 40
15.0
100
AcDbArc
 50
359.9985959999999
 51
64.3206479999997
  0
LINE
  5
9EA
330
2
100
AcDbEntity
  8
0
100
AcDbLine
 10
748.1009968354007
 20
320.6356076623993
 30
0.0
 11
685.1009968354007
 21
320.6356076623993
 31
0.0
  0
LINE
  5
9EB
330
2
100
AcDbEntity
  8
0
100
AcDbLine
 10
748.1009968354007
 20
334.6356076623994
 30
0.0
 11
685.1009968354007
 21
334.6356076623994
 31
0.0
  0
LINE
  5
9EC
330
2
100
AcDbEntity
  8
0
100
AcDbLine
 10
760.1009968354007
 20
302.6356076623994
 30
0.0
 11
685.1009968354007
 21
302.6356076623994
 31
0.0
  0
LINE
  5
9ED
330
2
100
AcDbEntity
  8
0
100
AcDbLine
 10
760.1009968354007
 20
352.6356076623993
 30
0.0
 11
685.1009968354007
 21
352.6356076623993
 31
0.0
  0
LINE
  5
9EE
330
2
100
AcDbEntity
  8
0
100
AcDbLine
 10
685.1009968354007
 20
302.6356076623994
 30
0.0
 11
685.1009968354007
 21
352.6356076623993
 31
0.0
  0
ARC
  5
9EF
330
2
100
AcDbEntity
  8
0
100
AcDbCircle
 10
553.4789437475211
 20
382.4462006623993
 30
0.0
 40
15.0
100
AcDbArc
 50
0.0
 51
57.26491900000045
  0
LINE
  5
9F0
330
2
100
AcDbEntity
  8
0
100
AcDbLine
 10
763.1009968354005
 20
371.1788206623993
 30
0.0
 11
763.1009968354005
 21
280.2452266623994
 31
0.0
  0
ARC
  5
9F6
330
2
100
AcDbEntity
  8
0
100
AcDbCircle
 10
850.1009968354006
 20
262.6356076623993
 30
0.0
 40
82.5
100
AcDbArc
 50
176.9468539999998
 51
186.3112489999999
  0
ARC
  5
9F7
330
2
100
AcDbEntity
  8
0
100
AcDbCircle
 10
753.1009968354006
 20
263.6622186623994
 30
0.0
 40
15.0
100
AcDbArc
 50
0.0
 51
33.55733099999988
  0
ARC
  5
9F9
330
2
100
AcDbEntity
  8
0
100
AcDbCircle
 10
778.1009968354006
 20
280.2454096623994
 30
0.0
 40
15.0
100
AcDbArc
 50
180.0
 51
213.5572970000004
  0
ARC
  5
9FA
330
2
100
AcDbEntity
  8
0
100
AcDbCircle
 10
748.1009968354007
 20
327.6356076623994
 30
0.0
 40
7.0
100
AcDbArc
 50
270.0
 51
90.0
  0
LINE
  5
9FB
330
2
100
AcDbEntity
  8
0
100
AcDbLine
 10
760.1009968354007
 20
355.1356076623994
 30
0.0
 11
760.1009968354007
 21
300.1356076623993
 31
0.0
  0
LINE
  5
9FC
330
2
100
AcDbEntity
  8
0
100
AcDbLine
 10
763.1009968354005
 20
300.1356076623993
 30
0.0
 11
760.1009968354007
 21
300.1356076623993
 31
0.0
  0
LINE
  5
9FF
330
2
100
AcDbEntity
  8
0
100
AcDbLine
 10
763.1009968354005
 20
355.1356076623994
 30
0.0
 11
760.1009968354007
 21
355.1356076623994
 31
0.0
  0
ARC
  5
A00
330
2
100
AcDbEntity
  8
0
100
AcDbCircle
 10
778.1009968354006
 20
371.1788206623993
 30
0.0
 40
15.0
100
AcDbArc
 50
105.2552029999997
 51
180.0
  0
LINE
  5
A01
330
2
100
AcDbEntity
  8
0
100
AcDbLine
 10
785.1009968354007
 20
424.6738006623994
 30
0.0
 11
785.1009968354007
 21
388.6356076623994
 31
0.0
  0
ARC
  5
A02
330
2
100
AcDbEntity
  8
0
100
AcDbCircle
 10
770.1009968354006
 20
400.0923796623993
 30
0.0
 40
15.0
100
AcDbArc
 50
285.255188
 51
0.0
  0
LINE
  5
A03
330
2
100
AcDbEntity
  8
0
100
AcDbLine
 10
794.9263758354005
 20
434.6723966623993
 30
0.0
 11
850.1009968354006
 21
435.6355926623995
 31
0.0
  0
ARC
  5
A04
330
2
100
AcDbEntity
  8
0
100
AcDbCircle
 10
795.1009968354006
 20
424.6738006623994
 30
0.0
 40
10.0
100
AcDbArc
 50
91.00058700000005
 51
180.0
  0
LINE
  5
A05
330
2
100
AcDbEntity
  8
0
100
AcDbLine
 10
932.1009968354005
 20
333.3950066623994
 30
0.0
 11
932.1009968354005
 21
205.8340256623994
 31
0.0
  0
LINE
  5
A06
330
2
100
AcDbEntity
  8
0
100
AcDbLine
 10
915.1009968354005
 20
388.6356076623994
 30
0.0
 11
915.1009968354005
 21
127.6356026623994
 31
0.0
  0
LINE
  5
A07
330
2
100
AcDbEntity
  8
0
100
AcDbLine
 10
965.1009968354005
 20
127.6356026623994
 30
0.0
 11
900.1009968354006
 21
127.6356026623994
 31
0.0
  0
LINE
  5
A08
330
2
100
AcDbEntity
  8
0
100
AcDbLine
 10
960.9680018354008
 20
152.5598016623994
 30
0.0
 11
919.2339928354005
 21
159.9078226623994
 31
0.0
  0
ARC
  5
A09
330
2
100
AcDbEntity
  8
0
100
AcDbCircle
 10
917.1009968354006
 20
205.8340256623994
 30
0.0
 40
15.0
100
AcDbArc
 50
295.6793820000002
 51
0.0
  0
LINE
  5
A0A
330
2
100
AcDbEntity
  8
0
100
AcDbLine
 10
960.1009968354006
 20
152.6356016623994
 30
0.0
 11
924.1009968354005
 21
152.6356016623994
 31
0.0
  0
LINE
  5
A0B
330
2
100
AcDbEntity
  8
0
100
AcDbLine
 10
900.1009968354006
 20
127.6356026623994
 30
0.0
 11
898.1009968354005
 21
129.6356026623994
 31
0.0
  0
ARC
  5
A0C
330
2
100
AcDbEntity
  8
0
100
AcDbCircle
 10
924.1009968354005
 20
161.6356016623994
 30
0.0
 40
9.0
100
AcDbArc
 50
180.0
 51
270.0
  0
ARC
  5
A0D
330
2
100
AcDbEntity
  8
0
100
AcDbCircle
 10
920.1009968354007
 20
164.8322016623994
 30
0.0
 40
5.0
100
AcDbArc
 50
180.0
 51
260.0145870000002
  0
ARC
  5
A0E
330
2
100
AcDbEntity
  8
0
100
AcDbCircle
 10
930.1009968354005
 20
178.7969806623994
 30
0.0
 40
15.0
100
AcDbArc
 50
115.6793979999998
 51
180.0
  0
LINE
  5
A0F
330
2
100
AcDbEntity
  8
HIDS
100
AcDbLine
 10
949.1009968354005
 20
152.6356016623994
 30
0.0
 11
949.1009968354005
 21
127.6356026623994
 31
0.0
  0
LINE
  5
A10
330
2
100
AcDbEntity
  8
HIDS
100
AcDbLine
 10
931.1009968354005
 20
152.6356016623994
 30
0.0
 11
931.1009968354005
 21
127.6356026623994
 31
0.0
  0
LINE
  5
A11
330
2
100
AcDbEntity
  8
CENTER
100
AcDbLine
 10
940.1009968354005
 20
164.2856016623994
 30
0.0
 11
940.1009968354005
 21
115.9856026623994
 31
0.0
  0
LINE
  5
A12
330
2
100
AcDbEntity
  8
0
100
AcDbLine
 10
965.1009968354005
 20
148.3719826623994
 30
0.0
 11
965.1009968354005
 21
127.6356026623994
 31
0.0
  0
ARC
  5
A13
330
2
100
AcDbEntity
  8
0
100
AcDbCircle
 10
960.1009968354006
 20
147.6356026623994
 30
0.0
 40
5.0
100
AcDbArc
 50
0.0
 51
90.0
  0
LINE
  5
A14
330
2
100
AcDbEntity
  8
0
100
AcDbLine
 10
952.1009968354006
 20
320.6356076623993
 30
0.0
 11
1015.1009968354
 21
320.6356076623993
 31
0.0
  0
LINE
  5
A15
330
2
100
AcDbEntity
  8
0
100
AcDbLine
 10
952.1009968354006
 20
334.6356076623994
 30
0.0
 11
1015.1009968354
 21
334.6356076623994
 31
0.0
  0
LINE
  5
A16
330
2
100
AcDbEntity
  8
0
100
AcDbLine
 10
940.1009968354005
 20
302.6356076623994
 30
0.0
 11
1015.1009968354
 21
302.6356076623994
 31
0.0
  0
LINE
  5
A17
330
2
100
AcDbEntity
  8
0
100
AcDbLine
 10
940.1009968354005
 20
352.6356076623993
 30
0.0
 11
1015.1009968354
 21
352.6356076623993
 31
0.0
  0
LINE
  5
A18
330
2
100
AcDbEntity
  8
0
100
AcDbLine
 10
937.1009968354007
 20
371.1788206623993
 30
0.0
 11
937.1009968354007
 21
280.2454096623994
 31
0.0
  0
ARC
  5
A19
330
2
100
AcDbEntity
  8
0
100
AcDbCircle
 10
850.1009968354006
 20
262.6356076623993
 30
0.0
 40
82.5
100
AcDbArc
 50
353.6887519999994
 51
3.053152000000283
  0
ARC
  5
A1A
330
2
100
AcDbEntity
  8
0
100
AcDbCircle
 10
947.1009968354005
 20
263.6622186623994
 30
0.0
 40
15.0
100
AcDbArc
 50
146.4427029999995
 51
180.0
  0
ARC
  5
A1B
330
2
100
AcDbEntity
  8
0
100
AcDbCircle
 10
922.1009968354005
 20
280.2454096623994
 30
0.0
 40
15.0
100
AcDbArc
 50
326.7492100000003
 51
0.0
  0
ARC
  5
A1C
330
2
100
AcDbEntity
  8
0
100
AcDbCircle
 10
952.1009968354006
 20
327.6356076623994
 30
0.0
 40
7.0
100
AcDbArc
 50
90.0
 51
270.0
  0
LINE
  5
A1D
330
2
100
AcDbEntity
  8
0
100
AcDbLine
 10
940.1009968354005
 20
355.1356076623994
 30
0.0
 11
940.1009968354005
 21
300.1356076623993
 31
0.0
  0
LINE
  5
A1E
330
2
100
AcDbEntity
  8
0
100
AcDbLine
 10
937.1009968354007
 20
300.1356076623993
 30
0.0
 11
940.1009968354005
 21
300.1356076623993
 31
0.0
  0
LINE
  5
A1F
330
2
100
AcDbEntity
  8
0
100
AcDbLine
 10
937.1009968354007
 20
355.1356076623994
 30
0.0
 11
940.1009968354005
 21
355.1356076623994
 31
0.0
  0
ARC
  5
A20
330
2
100
AcDbEntity
  8
0
100
AcDbCircle
 10
922.1009968354005
 20
371.1788206623993
 30
0.0
 40
15.0
100
AcDbArc
 50
0.0
 51
74.74484300000018
  0
LINE
  5
A21
330
2
100
AcDbEntity
  8
0
100
AcDbLine
 10
915.1009968354005
 20
429.5878016623993
 30
0.0
 11
915.1009968354005
 21
388.6356076623994
 31
0.0
  0
ARC
  5
A22
330
2
100
AcDbEntity
  8
0
100
AcDbCircle
 10
930.1009968354005
 20
400.0923796623993
 30
0.0
 40
15.0
100
AcDbArc
 50
180.0
 51
254.5339049999999
  0
ARC
  5
A23
330
2
100
AcDbEntity
  8
0
100
AcDbCircle
 10
910.1009968354006
 20
429.5878016623993
 30
0.0
 40
5.0
100
AcDbArc
 50
0.0
 51
89.00039700000059
  0
LINE
  5
A24
330
2
100
AcDbEntity
  8
0
100
AcDbLine
 10
1015.1009968354
 20
302.6356076623994
 30
0.0
 11
1015.1009968354
 21
352.6356076623993
 31
0.0
  0
LINE
  5
A25
330
2
100
AcDbEntity
  8
0
100
AcDbLine
 10
567.2937637475212
 20
801.0769584086968
 30
0.0
 11
568.4789437475211
 21
733.1786434086966
 31
0.0
  0
LINE
  5
A27
330
2
100
AcDbEntity
  8
0
100
AcDbLine
 10
567.1463637475211
 20
664.4769834086969
 30
0.0
 11
554.0499277475211
 21
628.0978324086968
 31
0.0
  0
ARC
  5
A28
330
2
100
AcDbEntity
  8
0
100
AcDbCircle
 10
539.9367387475209
 20
633.1786434086966
 30
0.0
 40
15.0
100
AcDbArc
 50
270.0
 51
340.2011299999997
  0
LINE
  5
A29
330
2
100
AcDbEntity
  8
0
100
AcDbLine
 10
567.2937637475212
 20
665.280144408697
 30
0.0
 11
568.4789437475211
 21
733.1786434086966
 31
0.0
  0
ARC
  5
A2A
330
2
100
AcDbEntity
  8
0
100
AcDbCircle
 10
557.5173967475211
 20
678.1786434086966
 30
0.0
 40
10.0
100
AcDbArc
 50
270.0
 51
358.9999999999998
  0
ARC
  5
A2B
330
2
100
AcDbEntity
  8
0
100
AcDbCircle
 10
560.061371747521
 20
653.1786434086968
 30
0.0
 40
15.0
100
AcDbArc
 50
90.0
 51
154.3207090000002
  0
ARC
  5
A2C
330
2
100
AcDbEntity
  8
0
100
AcDbCircle
 10
533.0243547475211
 20
666.1786434086969
 30
0.0
 40
15.0
100
AcDbArc
 50
270.0
 51
334.3207109999997
  0
ARC
  5
A2D
330
2
100
AcDbEntity
  8
0
100
AcDbCircle
 10
564.794159747521
 20
665.3237844086968
 30
0.0
 40
2.5
100
AcDbArc
 50
340.2012019999998
 51
358.9999999999998
  0
LINE
  5
A2E
330
2
100
AcDbEntity
  8
0
100
AcDbLine
 10
567.1463637475211
 20
801.8800594086966
 30
0.0
 11
554.0499587475209
 21
838.2593314086966
 31
0.0
  0
ARC
  5
A30
330
2
100
AcDbEntity
  8
0
100
AcDbCircle
 10
562.4308787475209
 20
793.1786434086967
 30
0.0
 40
5.0
100
AcDbArc
 50
1.000000000000147
 51
90.0
  0
ARC
  5
A31
330
2
100
AcDbEntity
  8
0
100
AcDbCircle
 10
560.061371747521
 20
813.1786434086967
 30
0.0
 40
15.0
100
AcDbArc
 50
205.6792909999997
 51
270.0
  0
ARC
  5
A32
330
2
100
AcDbEntity
  8
0
100
AcDbCircle
 10
533.0243547475211
 20
800.1786434086966
 30
0.0
 40
15.0
100
AcDbArc
 50
25.6792889999995
 51
90.0
  0
ARC
  5
A33
330
2
100
AcDbEntity
  8
0
100
AcDbCircle
 10
564.794159747521
 20
801.0333184086967
 30
0.0
 40
2.5
100
AcDbArc
 50
1.000000000000147
 51
19.79869299999982
  0
ARC
  5
A34
330
2
100
AcDbEntity
  8
0
100
AcDbCircle
 10
539.9367387475209
 20
833.1786434086966
 30
0.0
 40
15.0
100
AcDbArc
 50
19.79890100000035
 51
90.0
  0
LINE
  5
B5F
330
2
100
AcDbEntity
  8
CENTER
100
AcDbLine
 10
373.7273567475209
 20
643.1786434086966
 30
0.0
 11
403.2305307475213
 21
643.1786434086966
 31
0.0
  0
LINE
  5
B71
330
2
100
AcDbEntity
  8
CENTER
100
AcDbLine
 10
388.4789437475211
 20
628.4270564086964
 30
0.0
 11
388.4789437475211
 21
657.9302304086968
 31
0.0
  0
LINE
  5
B77
330
2
100
AcDbEntity
  8
CENTER
100
AcDbLine
 10
373.7273567475209
 20
823.1786434086965
 30
0.0
 11
403.2305307475213
 21
823.1786434086965
 31
0.0
  0
LINE
  5
B9E
330
2
100
AcDbEntity
  8
CENTER
100
AcDbLine
 10
388.4789437475211
 20
808.4270564086963
 30
0.0
 11
388.4789437475211
 21
837.9302304086968
 31
0.0
  0
LINE
  5
BA7
330
2
100
AcDbEntity
  8
CENTER
100
AcDbLine
 10
523.7273567475207
 20
643.1786434086966
 30
0.0
 11
553.2305307475211
 21
643.1786434086966
 31
0.0
  0
LINE
  5
BAB
330
2
100
AcDbEntity
  8
CENTER
100
AcDbLine
 10
538.4789437475209
 20
628.4270564086964
 30
0.0
 11
538.4789437475209
 21
657.9302304086968
 31
0.0
  0
LINE
  5
BB7
330
2
100
AcDbEntity
  8
CENTER
100
AcDbLine
 10
523.7273567475207
 20
823.1786434086965
 30
0.0
 11
553.2305307475211
 21
823.1786434086965
 31
0.0
  0
LINE
  5
BBC
330
2
100
AcDbEntity
  8
CENTER
100
AcDbLine
 10
538.4789437475209
 20
808.4270564086963
 30
0.0
 11
538.4789437475209
 21
837.9302304086968
 31
0.0
  0
LINE
  5
D7D
330
2
100
AcDbEntity
  8
0
100
AcDbLine
 10
240.1161967475209
 20
812.9349304086968
 30
0.0
 11
127.841705747521
 21
812.9349304086968
 31
0.0
  0
LINE
  5
D7E
330
2
100
AcDbEntity
  8
0
100
AcDbLine
 10
127.645721747521
 20
811.9639824086968
 30
0.0
 11
240.3121647475209
 21
811.9639824086968
 31
0.0
  0
LINE
  5
D7F
330
2
100
AcDbEntity
  8
0
100
AcDbLine
 10
240.1316987475211
 20
807.6633234086965
 30
0.0
 11
127.8261877475211
 21
807.6633234086965
 31
0.0
  0
LINE
  5
D80
330
2
100
AcDbEntity
  8
0
100
AcDbLine
 10
240.006012747521
 20
804.1889274086967
 30
0.0
 11
127.9518897475211
 21
804.1889274086967
 31
0.0
  0
LINE
  5
D81
330
2
100
AcDbEntity
  8
0
100
AcDbLine
 10
239.6791387475209
 20
796.1463554086967
 30
0.0
 11
128.278763747521
 21
796.1463554086967
 31
0.0
  0
LINE
  5
D82
330
2
100
AcDbEntity
  8
0
100
AcDbLine
 10
239.3628547475209
 20
790.1014344086968
 30
0.0
 11
128.595039747521
 21
790.1014344086968
 31
0.0
  0
LINE
  5
D83
330
2
100
AcDbEntity
  8
0
100
AcDbLine
 10
239.121292747521
 20
781.1116574086966
 30
0.0
 11
128.8366097475209
 21
781.1116574086966
 31
0.0
  0
LINE
  5
D84
330
2
100
AcDbEntity
  8
0
100
AcDbLine
 10
240.2824407475209
 20
768.7555174086969
 30
0.0
 11
127.675453747521
 21
768.7555174086969
 31
0.0
  0
LINE
  5
D85
330
2
100
AcDbEntity
  8
0
100
AcDbLine
 10
125.4789507475211
 20
761.0573054086967
 30
0.0
 11
242.478943747521
 21
761.0573054086967
 31
0.0
  0
LINE
  5
D86
330
2
100
AcDbEntity
  8
0
100
AcDbLine
 10
127.294716747521
 20
810.224938408697
 30
0.0
 11
240.6631777475208
 21
810.224938408697
 31
0.0
  0
LINE
  5
D87
330
2
100
AcDbEntity
  8
0
100
AcDbLine
 10
239.6791387475209
 20
670.2109314086968
 30
0.0
 11
128.278763747521
 21
670.2109314086968
 31
0.0
  0
LINE
  5
D88
330
2
100
AcDbEntity
  8
0
100
AcDbLine
 10
239.3628547475209
 20
676.2558524086967
 30
0.0
 11
128.595039747521
 21
676.2558524086967
 31
0.0
  0
LINE
  5
D89
330
2
100
AcDbEntity
  8
0
100
AcDbLine
 10
239.121292747521
 20
685.2456294086967
 30
0.0
 11
128.8366097475209
 21
685.2456294086967
 31
0.0
  0
LINE
  5
D8A
330
2
100
AcDbEntity
  8
0
100
AcDbLine
 10
240.2824407475209
 20
697.6017694086967
 30
0.0
 11
127.675453747521
 21
697.6017694086967
 31
0.0
  0
LINE
  5
D8B
330
2
100
AcDbEntity
  8
0
100
AcDbLine
 10
125.4789507475211
 20
705.2999814086966
 30
0.0
 11
242.478943747521
 21
705.2999814086966
 31
0.0
  0
LINE
  5
D8C
330
2
100
AcDbEntity
  8
0
100
AcDbLine
 10
193.2134257475213
 20
613.0381214086964
 30
0.0
 11
123.6533667475214
 21
613.0381214086964
 31
0.0
  0
LINE
  5
D8D
330
2
100
AcDbEntity
  8
0
100
AcDbLine
 10
127.9518897475211
 20
662.1683594086968
 30
0.0
 11
240.006012747521
 21
662.1683594086968
 31
0.0
  0
LINE
  5
D8E
330
2
100
AcDbEntity
  8
0
100
AcDbLine
 10
126.1014867475212
 20
657.6786434086966
 30
0.0
 11
197.9674537475223
 21
657.6786434086966
 31
0.0
  0
LINE
  5
D8F
330
2
100
AcDbEntity
  8
0
100
AcDbLine
 10
204.8008277475212
 20
650.8778164086966
 30
0.0
 11
120.8437967475224
 21
611.7280454086967
 31
0.0
  0
LINE
  5
D90
330
2
100
AcDbEntity
  8
0
100
AcDbLine
 10
203.2903297475211
 20
657.1877984086968
 30
0.0
 11
116.9790507475213
 21
616.9401874086966
 31
0.0
  0
LINE
  5
D91
330
2
100
AcDbEntity
  8
0
100
AcDbLine
 10
208.978943747521
 20
659.1786434086968
 30
0.0
 11
126.679855747521
 21
659.1786434086968
 31
0.0
  0
LINE
  5
D92
330
2
100
AcDbEntity
  8
0
100
AcDbLine
 10
127.0233547475211
 20
389.6356076623992
 30
0.0
 11
240.9345407475211
 21
389.6356076623992
 31
0.0
  0
LINE
  5
D93
330
2
100
AcDbEntity
  8
0
100
AcDbLine
 10
126.478951747521
 20
384.6904476623992
 30
0.0
 11
241.478943747521
 21
384.6904476623992
 31
0.0
  0
LINE
  5
D94
330
2
100
AcDbEntity
  8
0
100
AcDbLine
 10
241.478943747521
 20
381.4355956623992
 30
0.0
 11
126.478951747521
 21
381.4355956623992
 31
0.0
  0
LINE
  5
D95
330
2
100
AcDbEntity
  8
0
100
AcDbLine
 10
241.478943747521
 20
383.4355956623992
 30
0.0
 11
126.478951747521
 21
383.4355956623992
 31
0.0
  0
LINE
  5
D96
330
2
100
AcDbEntity
  8
0
100
AcDbLine
 10
241.478943747521
 20
374.9355956623993
 30
0.0
 11
126.478951747521
 21
374.9355956623993
 31
0.0
  0
LINE
  5
D97
330
2
100
AcDbEntity
  8
0
100
AcDbLine
 10
241.478943747521
 20
376.9355956623993
 30
0.0
 11
126.478951747521
 21
376.9355956623993
 31
0.0
  0
LINE
  5
D98
330
2
100
AcDbEntity
  8
0
100
AcDbLine
 10
241.478943747521
 20
368.4355956623993
 30
0.0
 11
126.478951747521
 21
368.4355956623993
 31
0.0
  0
LINE
  5
D99
330
2
100
AcDbEntity
  8
0
100
AcDbLine
 10
241.478943747521
 20
370.4355956623992
 30
0.0
 11
126.478951747521
 21
370.4355956623992
 31
0.0
  0
LINE
  5
D9A
330
2
100
AcDbEntity
  8
0
100
AcDbLine
 10
241.478943747521
 20
361.6356076623992
 30
0.0
 11
126.478951747521
 21
361.6356076623992
 31
0.0
  0
LINE
  5
D9B
330
2
100
AcDbEntity
  8
0
100
AcDbLine
 10
241.478943747521
 20
363.6356076623992
 30
0.0
 11
126.478951747521
 21
363.6356076623992
 31
0.0
  0
LINE
  5
D9C
330
2
100
AcDbEntity
  8
0
100
AcDbLine
 10
125.779252747521
 20
351.8356041623993
 30
0.0
 11
197.1792467475211
 21
351.8356041623993
 31
0.0
  0
LINE
  5
D9D
330
2
100
AcDbEntity
  8
0
100
AcDbLine
 10
197.1792467475211
 20
354.6356071623994
 30
0.0
 11
125.779252747521
 21
354.6356071623994
 31
0.0
  0
LINE
  5
D9E
330
2
100
AcDbEntity
  8
0
100
AcDbLine
 10
197.1792467475211
 20
272.6356001623995
 30
0.0
 11
125.779252747521
 21
272.6356001623995
 31
0.0
  0
LINE
  5
D9F
330
2
100
AcDbEntity
  8
0
100
AcDbLine
 10
125.779252747521
 20
275.4356031623994
 30
0.0
 11
197.1792467475211
 21
275.4356031623994
 31
0.0
  0
LINE
  5
DA0
330
2
100
AcDbEntity
  8
0
100
AcDbLine
 10
127.0233547475211
 20
237.6356096623993
 30
0.0
 11
240.9345407475211
 21
237.6356096623993
 31
0.0
  0
LINE
  5
DA1
330
2
100
AcDbEntity
  8
0
100
AcDbLine
 10
241.478943747521
 20
250.3356236623992
 30
0.0
 11
131.4789287475212
 21
250.3356236623992
 31
0.0
  0
LINE
  5
DA2
330
2
100
AcDbEntity
  8
0
100
AcDbLine
 10
241.478943747521
 20
243.8356216623992
 30
0.0
 11
131.0208677475211
 21
243.8356216623992
 31
0.0
  0
LINE
  5
DA3
330
2
100
AcDbEntity
  8
0
100
AcDbLine
 10
241.478943747521
 20
245.8356216623992
 30
0.0
 11
131.4789287475212
 21
245.8356216623992
 31
0.0
  0
LINE
  5
DA4
330
2
100
AcDbEntity
  8
0
100
AcDbLine
 10
128.4789287475212
 20
242.5807696623993
 30
0.0
 11
241.478943747521
 21
242.5807696623993
 31
0.0
  0
LINE
  5
DA5
330
2
100
AcDbEntity
  8
0
100
AcDbLine
 10
241.478943747521
 20
263.6356116623993
 30
0.0
 11
126.478951747521
 21
263.6356116623993
 31
0.0
  0
LINE
  5
DA6
330
2
100
AcDbEntity
  8
0
100
AcDbLine
 10
241.478943747521
 20
256.8356236623992
 30
0.0
 11
129.0923167475211
 21
256.8356236623992
 31
0.0
  0
LINE
  5
DA7
330
2
100
AcDbEntity
  8
0
100
AcDbLine
 10
241.478943747521
 20
258.8356236623992
 30
0.0
 11
126.478951747521
 21
258.8356236623992
 31
0.0
  0
LINE
  5
DA8
330
2
100
AcDbEntity
  8
0
100
AcDbLine
 10
241.478943747521
 20
252.3356236623992
 30
0.0
 11
131.3884137475211
 21
252.3356236623992
 31
0.0
  0
LINE
  5
DA9
330
2
100
AcDbEntity
  8
0
100
AcDbLine
 10
241.478943747521
 20
265.6356116623993
 30
0.0
 11
126.478951747521
 21
265.6356116623993
 31
0.0
  0
ARC
  5
DAC
330
2
100
AcDbEntity
  8
0
100
AcDbCircle
 10
122.7790847475207
 20
281.6356911623992
 30
0.0
 40
3.0
100
AcDbArc
 50
90.21849099999606
 51
180.601662
  0
LINE
  5
DAD
330
2
100
AcDbEntity
  8
0
100
AcDbLine
 10
116.9792497475211
 20
281.4356031623993
 30
0.0
 11
116.9792497475211
 21
345.8356121623993
 31
0.0
  0
ARC
  5
DAE
330
2
100
AcDbEntity
  8
0
100
AcDbCircle
 10
475.978388622183
 20
313.6356076623992
 30
0.0
 40
420.0000000000001
100
AcDbArc
 50
171.480375745857
 51
188.5196242541429
  0
ARC
  5
DAF
330
2
100
AcDbEntity
  8
0
100
AcDbCircle
 10
-313.0216113778171
 20
313.6356076623992
 30
0.0
 40
400.0
100
AcDbArc
 50
349.031598484418
 51
11.33146085831466
  0
LINE
  5
DB0
330
2
100
AcDbEntity
  8
0
100
AcDbLine
 10
125.4789287475212
 20
251.1356306623993
 30
0.0
 11
125.4789287475212
 21
242.4211536623993
 31
0.0
  0
LINE
  5
DB1
330
2
100
AcDbEntity
  8
0
100
AcDbLine
 10
131.4789287475212
 20
251.1356306623993
 30
0.0
 11
131.4789287475212
 21
244.0086716623993
 31
0.0
  0
LINE
  5
DB2
330
2
100
AcDbEntity
  8
0
100
AcDbLine
 10
122.478951747521
 20
253.1356306623993
 30
0.0
 11
122.478951747521
 21
241.6356096623993
 31
0.0
  0
LINE
  5
DB3
330
2
100
AcDbEntity
  8
0
100
AcDbLine
 10
121.478388622183
 20
273.758196844157
 30
0.0
 11
121.478388622183
 21
237.1487550816641
 31
0.0
  0
LINE
  5
DB4
330
2
100
AcDbEntity
  8
0
100
AcDbLine
 10
128.4789287475212
 20
251.1356306623993
 30
0.0
 11
128.4789287475212
 21
241.1630926623993
 31
0.0
  0
ARC
  5
DB5
330
2
100
AcDbEntity
  8
0
100
AcDbCircle
 10
75.4474909376222
 20
253.6356076623992
 30
0.0
 40
15.0
100
AcDbArc
 50
188.5196242541429
 51
270.0
  0
LINE
  5
DB6
330
2
100
AcDbEntity
  8
0
100
AcDbLine
 10
119.9652988189354
 20
235.6488121970678
 30
0.0
 11
81.66767657520358
 21
235.6488121970678
 31
0.0
  0
ARC
  5
DB7
330
2
100
AcDbEntity
  8
0
100
AcDbCircle
 10
81.66767657520358
 20
237.6488121970678
 30
0.0
 40
2.0
100
AcDbArc
 50
180.7896990045909
 51
270.0
  0
LINE
  5
DB8
330
2
100
AcDbEntity
  8
0
100
AcDbLine
 10
75.4474909376222
 20
238.6356076623992
 30
0.0
 11
78.67668805652829
 21
238.6074268860722
 31
0.0
  0
ARC
  5
DB9
330
2
100
AcDbEntity
  8
0
100
AcDbCircle
 10
78.66796152103006
 20
237.6074649630081
 30
0.0
 40
1.0
100
AcDbArc
 50
0.789699004591009
 51
89.50000000000843
  0
LINE
  5
DBA
330
2
100
AcDbEntity
  8
0
100
AcDbLine
 10
124.6398407475212
 20
241.6356096623993
 30
0.0
 11
122.478951747521
 21
241.6356096623993
 31
0.0
  0
LINE
  5
DBB
330
2
100
AcDbEntity
  8
0
100
AcDbLine
 10
121.478947747521
 20
243.1356176623993
 30
0.0
 11
122.478947747521
 21
243.1356176623993
 31
0.0
  0
LINE
  5
DBC
330
2
100
AcDbEntity
  8
0
100
AcDbLine
 10
128.4789287475212
 20
242.8753116623993
 30
0.0
 11
131.4789287475212
 21
244.0086716623993
 31
0.0
  0
LINE
  5
DBD
330
2
100
AcDbEntity
  8
0
100
AcDbLine
 10
127.7789087475212
 20
241.4566716623993
 30
0.0
 11
127.7789087475212
 21
235.7293736623993
 31
0.0
  0
LINE
  5
DBE
330
2
100
AcDbEntity
  8
0
100
AcDbLine
 10
127.9789287475211
 20
241.3727926623993
 30
0.0
 11
127.9789287475211
 21
235.7293736623993
 31
0.0
  0
ARC
  5
DBF
330
2
100
AcDbEntity
  8
0
100
AcDbCircle
 10
119.978388622183
 20
237.1487550816641
 30
0.0
 40
1.5
100
AcDbArc
 50
269.4999999999954
 51
0.0
  0
LINE
  5
DC0
330
2
100
AcDbEntity
  8
0
100
AcDbLine
 10
126.0385377475211
 20
238.4619646623994
 30
0.0
 11
125.624657747521
 21
240.8092566623993
 31
0.0
  0
ARC
  5
DC1
330
2
100
AcDbEntity
  8
0
100
AcDbCircle
 10
127.0233547475211
 20
238.6356096623993
 30
0.0
 40
1.0
100
AcDbArc
 50
189.9999999999986
 51
270.0
  0
LINE
  5
DC2
330
2
100
AcDbEntity
  8
0
100
AcDbLine
 10
125.9789287475211
 20
242.2114916623993
 30
0.0
 11
125.9789287475211
 21
235.7293736623993
 31
0.0
  0
LINE
  5
DC3
330
2
100
AcDbEntity
  8
0
100
AcDbLine
 10
126.1789717475212
 20
242.1276126623993
 30
0.0
 11
126.1789717475212
 21
235.7293736623993
 31
0.0
  0
LINE
  5
DC4
330
2
100
AcDbEntity
  8
0
100
AcDbLine
 10
126.3789457475211
 20
242.0437726623993
 30
0.0
 11
126.3789457475211
 21
235.7293736623993
 31
0.0
  0
LINE
  5
DC5
330
2
100
AcDbEntity
  8
0
100
AcDbLine
 10
126.5789277475209
 20
241.9598536623993
 30
0.0
 11
126.5789277475209
 21
235.7293736623993
 31
0.0
  0
LINE
  5
DC6
330
2
100
AcDbEntity
  8
0
100
AcDbLine
 10
126.7789087475212
 20
241.8759926623993
 30
0.0
 11
126.7789087475212
 21
235.7293736623993
 31
0.0
  0
LINE
  5
DC7
330
2
100
AcDbEntity
  8
0
100
AcDbLine
 10
126.9789287475211
 20
241.7921326623993
 30
0.0
 11
126.9789287475211
 21
235.7293736623993
 31
0.0
  0
LINE
  5
DC8
330
2
100
AcDbEntity
  8
0
100
AcDbLine
 10
127.1789717475212
 20
241.7082726623994
 30
0.0
 11
127.1789717475212
 21
235.7293736623993
 31
0.0
  0
LINE
  5
DC9
330
2
100
AcDbEntity
  8
0
100
AcDbLine
 10
127.3789457475211
 20
241.6243926623992
 30
0.0
 11
127.3789457475211
 21
235.7293736623993
 31
0.0
  0
LINE
  5
DCA
330
2
100
AcDbEntity
  8
0
100
AcDbLine
 10
127.5789277475209
 20
241.5405326623992
 30
0.0
 11
127.5789277475209
 21
235.7293736623993
 31
0.0
  0
LINE
  5
DCB
330
2
100
AcDbEntity
  8
0
100
AcDbLine
 10
125.4789287475212
 20
242.4211536623993
 30
0.0
 11
128.4789287475212
 21
241.1630926623993
 31
0.0
  0
ARC
  5
DCC
330
2
100
AcDbEntity
  8
0
100
AcDbCircle
 10
124.6398407475212
 20
240.6356096623993
 30
0.0
 40
1.0
100
AcDbArc
 50
9.999999999998609
 51
90.0
  0
LINE
  5
DCD
330
2
100
AcDbEntity
  8
0
100
AcDbLine
 10
125.478951747521
 20
244.8356216623992
 30
0.0
 11
125.478951747521
 21
241.1795836623992
 31
0.0
  0
LINE
  5
DCE
330
2
100
AcDbEntity
  8
0
100
AcDbLine
 10
129.3789457475211
 20
243.2153526623992
 30
0.0
 11
129.3789457475211
 21
237.9481326623992
 31
0.0
  0
LINE
  5
DCF
330
2
100
AcDbEntity
  8
0
100
AcDbLine
 10
129.5789277475209
 20
243.2909116623993
 30
0.0
 11
129.5789277475209
 21
237.9481326623992
 31
0.0
  0
LINE
  5
DD0
330
2
100
AcDbEntity
  8
0
100
AcDbLine
 10
129.7789087475212
 20
243.3664336623993
 30
0.0
 11
129.7789087475212
 21
237.9481326623992
 31
0.0
  0
LINE
  5
DD1
330
2
100
AcDbEntity
  8
0
100
AcDbLine
 10
129.9789287475211
 20
243.4420326623993
 30
0.0
 11
129.9789287475211
 21
237.9481326623992
 31
0.0
  0
LINE
  5
DD2
330
2
100
AcDbEntity
  8
0
100
AcDbLine
 10
130.1789717475212
 20
243.5175526623993
 30
0.0
 11
130.1789717475212
 21
237.9481326623992
 31
0.0
  0
LINE
  5
DD3
330
2
100
AcDbEntity
  8
0
100
AcDbLine
 10
130.3789457475211
 20
243.5931126623993
 30
0.0
 11
130.3789457475211
 21
237.9481326623992
 31
0.0
  0
LINE
  5
DD4
330
2
100
AcDbEntity
  8
0
100
AcDbLine
 10
130.578927747521
 20
243.6686526623993
 30
0.0
 11
130.578927747521
 21
237.9481326623992
 31
0.0
  0
LINE
  5
DD5
330
2
100
AcDbEntity
  8
0
100
AcDbLine
 10
130.7789087475212
 20
243.7442126623993
 30
0.0
 11
130.7789087475212
 21
237.9481326623992
 31
0.0
  0
LINE
  5
DD6
330
2
100
AcDbEntity
  8
0
100
AcDbLine
 10
130.9789287475211
 20
243.8197716623992
 30
0.0
 11
130.9789287475211
 21
237.9481326623992
 31
0.0
  0
LINE
  5
DD7
330
2
100
AcDbEntity
  8
0
100
AcDbLine
 10
128.9789287475211
 20
243.0642116623993
 30
0.0
 11
128.9789287475211
 21
237.9481326623992
 31
0.0
  0
LINE
  5
DD8
330
2
100
AcDbEntity
  8
0
100
AcDbLine
 10
129.1789717475212
 20
243.1397926623992
 30
0.0
 11
129.1789717475212
 21
237.9481326623992
 31
0.0
  0
ARC
  5
DD9
330
2
100
AcDbEntity
  8
0
100
AcDbCircle
 10
126.478951747521
 20
264.6356116623993
 30
0.0
 40
1.0
100
AcDbArc
 50
90.0
 51
270.0
  0
LINE
  5
DDA
330
2
100
AcDbEntity
  8
0
100
AcDbLine
 10
122.478951747521
 20
273.2779065935507
 30
0.0
 11
122.478951747521
 21
259.1356306623993
 31
0.0
  0
ARC
  5
DDB
330
2
100
AcDbEntity
  8
0
100
AcDbCircle
 10
123.4789287475211
 20
251.1356306623993
 30
0.0
 40
5.0
100
AcDbArc
 50
0.0
 51
90.0
  0
ARC
  5
DDC
330
2
100
AcDbEntity
  8
0
100
AcDbCircle
 10
126.478951747521
 20
257.8356236623992
 30
0.0
 40
1.0
100
AcDbArc
 50
90.0
 51
117.527015999993
  0
LINE
  5
DDD
330
2
100
AcDbEntity
  8
0
100
AcDbLine
 10
123.4789287475211
 20
259.1356306623993
 30
0.0
 11
121.4789287475211
 21
259.1356306623993
 31
0.0
  0
LINE
  5
DDE
330
2
100
AcDbEntity
  8
0
100
AcDbLine
 10
123.4789287475211
 20
256.1356306623993
 30
0.0
 11
121.4789287475211
 21
256.1356306623993
 31
0.0
  0
ARC
  5
DDF
330
2
100
AcDbEntity
  8
0
100
AcDbCircle
 10
123.4789287475211
 20
251.1356306623993
 30
0.0
 40
2.0
100
AcDbArc
 50
0.0
 51
90.0
  0
LINE
  5
DE0
330
2
100
AcDbEntity
  8
0
100
AcDbLine
 10
123.4789287475211
 20
253.1356306623993
 30
0.0
 11
121.4789287475211
 21
253.1356306623993
 31
0.0
  0
ARC
  5
DE1
330
2
100
AcDbEntity
  8
0
100
AcDbCircle
 10
123.4789287475211
 20
251.1356306623993
 30
0.0
 40
8.0
100
AcDbArc
 50
0.0
 51
90.0
  0
ARC
  5
DE2
330
2
100
AcDbEntity
  8
0
100
AcDbCircle
 10
125.7792527475207
 20
281.4356031623991
 30
0.0
 40
8.8
100
AcDbArc
 50
180.0
 51
270.0
  0
LINE
  5
DE3
330
2
100
AcDbEntity
  8
0
100
AcDbLine
 10
119.779252747521
 20
281.4356031623993
 30
0.0
 11
119.779252747521
 21
281.6356911623994
 31
0.0
  0
ARC
  5
DE4
330
2
100
AcDbEntity
  8
0
100
AcDbCircle
 10
125.7792527475207
 20
281.4356031623991
 30
0.0
 40
6.0
100
AcDbArc
 50
180.0
 51
270.0
  0
LINE
  5
DE5
330
2
100
AcDbEntity
  8
0
100
AcDbLine
 10
121.478388622183
 20
393.1224602431345
 30
0.0
 11
121.478388622183
 21
353.5130184806411
 31
0.0
  0
LINE
  5
DE6
330
2
100
AcDbEntity
  8
0
100
AcDbLine
 10
122.478951747521
 20
385.6356076623992
 30
0.0
 11
122.478951747521
 21
353.9933087312474
 31
0.0
  0
LINE
  5
DE7
330
2
100
AcDbEntity
  8
0
100
AcDbLine
 10
119.779252747521
 20
303.6356151623994
 30
0.0
 11
119.779252747521
 21
345.8356121623993
 31
0.0
  0
ARC
  5
DE8
330
2
100
AcDbEntity
  8
0
100
AcDbCircle
 10
122.7792527475207
 20
303.6356151623991
 30
0.0
 40
3.0
100
AcDbArc
 50
180.0
 51
270.0
  0
CIRCLE
  5
DE9
330
2
100
AcDbEntity
  8
0
100
AcDbCircle
 10
122.7792527475207
 20
292.6356151623991
 30
0.0
 40
4.0
  0
ARC
  5
DEA
330
2
100
AcDbEntity
  8
0
100
AcDbCircle
 10
122.7792527475207
 20
292.6356151623991
 30
0.0
 40
8.0
100
AcDbArc
 50
270.2184880000026
 51
90.0
  0
ARC
  5
DEB
330
2
100
AcDbEntity
  8
0
100
AcDbCircle
 10
125.779252747521
 20
345.8356121623991
 30
0.0
 40
8.8
100
AcDbArc
 50
90.0
 51
180.0
  0
ARC
  5
DEC
330
2
100
AcDbEntity
  8
0
100
AcDbCircle
 10
125.779252747521
 20
345.8356121623991
 30
0.0
 40
6.0
100
AcDbArc
 50
90.0
 51
180.0
  0
LINE
  5
DED
330
2
100
AcDbEntity
  8
0
100
AcDbLine
 10
119.9652988189354
 20
394.6224031277308
 30
0.0
 11
81.14216948252305
 21
394.6224031277308
 31
0.0
  0
ARC
  5
DEE
330
2
100
AcDbEntity
  8
0
100
AcDbCircle
 10
75.4474909376222
 20
373.6356076623992
 30
0.0
 40
15.0
100
AcDbArc
 50
90.0
 51
171.480375745857
  0
LINE
  5
DEF
330
2
100
AcDbEntity
  8
0
100
AcDbLine
 10
75.4474909376222
 20
388.6356076623992
 30
0.0
 11
78.67668805652829
 21
388.6637884387262
 31
0.0
  0
ARC
  5
DF0
330
2
100
AcDbEntity
  8
0
100
AcDbCircle
 10
78.66796152102961
 20
389.6637503617905
 30
0.0
 40
1.0
100
AcDbArc
 50
270.5000000000046
 51
10.98469207193821
  0
ARC
  5
DF1
330
2
100
AcDbEntity
  8
0
100
AcDbCircle
 10
81.14216948252261
 20
392.6224031277308
 30
0.0
 40
2.0
100
AcDbArc
 50
90.0
 51
191.331460858321
  0
ARC
  5
DF2
330
2
100
AcDbEntity
  8
0
100
AcDbCircle
 10
126.478951747521
 20
375.9355956623993
 30
0.0
 40
1.0
100
AcDbArc
 50
90.0
 51
270.0
  0
ARC
  5
DF3
330
2
100
AcDbEntity
  8
0
100
AcDbCircle
 10
126.478951747521
 20
369.4355956623992
 30
0.0
 40
1.0
100
AcDbArc
 50
90.0
 51
270.0
  0
ARC
  5
DF4
330
2
100
AcDbEntity
  8
0
100
AcDbCircle
 10
126.478951747521
 20
362.6356076623992
 30
0.0
 40
1.0
100
AcDbArc
 50
90.0
 51
270.0
  0
ARC
  5
DF5
330
2
100
AcDbEntity
  8
0
100
AcDbCircle
 10
119.978388622183
 20
393.1224602431345
 30
0.0
 40
1.5
100
AcDbArc
 50
0.0
 51
90.5000000000046
  0
ARC
  5
DF6
330
2
100
AcDbEntity
  8
0
100
AcDbCircle
 10
124.6398407475212
 20
386.6356076623992
 30
0.0
 40
1.0
100
AcDbArc
 50
270.0
 51
350.0000000000013
  0
LINE
  5
DF7
330
2
100
AcDbEntity
  8
0
100
AcDbLine
 10
124.6398407475212
 20
385.6356076623992
 30
0.0
 11
122.478951747521
 21
385.6356076623992
 31
0.0
  0
LINE
  5
DF8
330
2
100
AcDbEntity
  8
0
100
AcDbLine
 10
125.478951747521
 20
382.4355956623992
 30
0.0
 11
125.478951747521
 21
386.0916316623992
 31
0.0
  0
ARC
  5
DF9
330
2
100
AcDbEntity
  8
0
100
AcDbCircle
 10
126.478951747521
 20
382.4355956623992
 30
0.0
 40
1.0
100
AcDbArc
 50
90.0
 51
270.0
  0
ARC
  5
DFA
330
2
100
AcDbEntity
  8
0
100
AcDbCircle
 10
126.478951747521
 20
383.6904476623992
 30
0.0
 40
1.0
100
AcDbArc
 50
90.0
 51
180.0
  0
LINE
  5
DFB
330
2
100
AcDbEntity
  8
0
100
AcDbLine
 10
121.478947747521
 20
384.1356236623993
 30
0.0
 11
122.478947747521
 21
384.1356236623993
 31
0.0
  0
ARC
  5
DFC
330
2
100
AcDbEntity
  8
0
100
AcDbCircle
 10
127.0233547475211
 20
388.6356076623992
 30
0.0
 40
1.0
100
AcDbArc
 50
90.0
 51
170.0000000000013
  0
LINE
  5
DFD
330
2
100
AcDbEntity
  8
0
100
AcDbLine
 10
126.0385377475211
 20
388.8092526623992
 30
0.0
 11
125.624657747521
 21
386.4619626623991
 31
0.0
  0
ARC
  5
DFE
330
2
100
AcDbEntity
  8
0
100
AcDbCircle
 10
478.6945940753162
 20
733.178643408697
 30
0.0
 40
400.0000000000018
100
AcDbArc
 50
168.5531233357823
 51
191.4468766642176
  0
ARC
  5
DFF
330
2
100
AcDbEntity
  8
0
100
AcDbCircle
 10
75.44806106296073
 20
673.178643408697
 30
0.0
 40
15.0
100
AcDbArc
 50
188.5196242541429
 51
270.0
  0
LINE
  5
E00
330
2
100
AcDbEntity
  8
0
100
AcDbLine
 10
122.478947747521
 20
805.1786434086968
 30
0.0
 11
122.478947747521
 21
661.1786434086968
 31
0.0
  0
LINE
  5
E01
330
2
100
AcDbEntity
  8
0
100
AcDbLine
 10
121.4789587475213
 20
812.6654959894322
 30
0.0
 11
121.4789587475213
 21
653.6917908279617
 31
0.0
  0
LINE
  5
E02
330
2
100
AcDbEntity
  8
0
100
AcDbLine
 10
126.9670797475209
 20
662.9947144086968
 30
0.0
 11
125.4789507475211
 21
671.4343194086966
 31
0.0
  0
LINE
  5
E03
330
2
100
AcDbEntity
  8
0
100
AcDbLine
 10
123.3014377475221
 20
654.8786404086968
 30
0.0
 11
123.3014377475224
 21
619.8883974086966
 31
0.0
  0
ARC
  5
E04
330
2
100
AcDbEntity
  8
0
100
AcDbCircle
 10
120.2944797475206
 20
612.9062454086968
 30
0.0
 40
1.3
100
AcDbArc
 50
204.9999999999993
 51
295.000000000008
  0
LINE
  5
E05
330
2
100
AcDbEntity
  8
0
100
AcDbLine
 10
119.1162577475224
 20
612.3568434086965
 30
0.0
 11
116.9790507475213
 21
616.9401874086966
 31
0.0
  0
LINE
  5
E06
330
2
100
AcDbEntity
  8
0
100
AcDbLine
 10
119.9658689442737
 20
652.1918479433654
 30
0.0
 11
88.61115922820658
 21
652.1918479433654
 31
0.0
  0
ARC
  5
E07
330
2
100
AcDbEntity
  8
0
100
AcDbCircle
 10
88.61115922820658
 20
654.1918479433654
 30
0.0
 40
2.0
100
AcDbArc
 50
191.446876664224
 51
270.0
  0
LINE
  5
E08
330
2
100
AcDbEntity
  8
0
100
AcDbLine
 10
75.44806106296073
 20
658.178643408697
 30
0.0
 11
84.98724869466832
 21
658.0953961794041
 31
0.0
  0
ARC
  5
E09
330
2
100
AcDbEntity
  8
0
100
AcDbCircle
 10
84.9785221591701
 20
657.0954342563397
 30
0.0
 40
1.0
100
AcDbArc
 50
10.93724298597944
 51
89.49999999999539
  0
LINE
  5
E0A
330
2
100
AcDbEntity
  8
CENTER
100
AcDbLine
 10
116.4810037475222
 20
634.6786434086966
 30
0.0
 11
133.5210427475212
 21
634.6786434086966
 31
0.0
  0
LINE
  5
E0B
330
2
100
AcDbEntity
  8
0
100
AcDbLine
 10
133.9790507475211
 20
657.6786434086966
 30
0.0
 11
133.9790507475211
 21
659.1786434086966
 31
0.0
  0
ARC
  5
E0C
330
2
100
AcDbEntity
  8
0
100
AcDbCircle
 10
126.1014867475207
 20
654.8786404086968
 30
0.0
 40
2.799999999999998
100
AcDbArc
 50
90.0
 51
180.0
  0
ARC
  5
E0D
330
2
100
AcDbEntity
  8
0
100
AcDbCircle
 10
119.9789587475213
 20
653.6917908279616
 30
0.0
 40
1.5
100
AcDbArc
 50
269.4999999999954
 51
0.0
  0
ARC
  5
E0E
330
2
100
AcDbEntity
  8
0
100
AcDbCircle
 10
127.9518897475211
 20
663.1683594086966
 30
0.0
 40
1.0
100
AcDbArc
 50
189.9999999999986
 51
270.0
  0
ARC
  5
E0F
330
2
100
AcDbEntity
  8
0
100
AcDbCircle
 10
124.6398397475211
 20
660.1786434086966
 30
0.0
 40
1.0
100
AcDbArc
 50
9.999999999998609
 51
90.0
  0
LINE
  5
E10
330
2
100
AcDbEntity
  8
0
100
AcDbLine
 10
124.6398397475211
 20
661.1786434086968
 30
0.0
 11
122.478947747521
 21
661.1786434086968
 31
0.0
  0
ARC
  5
E11
330
2
100
AcDbEntity
  8
0
100
AcDbCircle
 10
126.679855747521
 20
660.1786434086966
 30
0.0
 40
1.0
100
AcDbArc
 50
191.4112549999965
 51
270.0
  0
LINE
  5
E12
330
2
100
AcDbEntity
  8
0
100
AcDbLine
 10
125.6996237475209
 20
659.9807984086967
 30
0.0
 11
125.624641747521
 21
660.3522884086968
 31
0.0
  0
LINE
  5
E13
330
2
100
AcDbEntity
  8
0
100
AcDbLine
 10
121.478947747521
 20
662.6786434086969
 30
0.0
 11
122.478947747521
 21
662.6786434086969
 31
0.0
  0
LINE
  5
E14
330
2
100
AcDbEntity
  8
0
100
AcDbLine
 10
125.4789507475211
 20
705.2999814086966
 30
0.0
 11
125.4789507475211
 21
761.0573054086967
 31
0.0
  0
ARC
  5
E15
330
2
100
AcDbEntity
  8
0
100
AcDbCircle
 10
475.9789587475211
 20
733.178643408697
 30
0.0
 40
420.0000000000001
100
AcDbArc
 50
171.480375745857
 51
188.5196242541429
  0
LINE
  5
E16
330
2
100
AcDbEntity
  8
0
100
AcDbLine
 10
127.851799747521
 20
686.0719844086968
 30
0.0
 11
125.4789507475211
 21
699.5291074086967
 31
0.0
  0
LINE
  5
E17
330
2
100
AcDbEntity
  8
0
100
AcDbLine
 10
127.610237747521
 20
677.0822074086968
 30
0.0
 11
125.4789507475211
 21
689.1693354086967
 31
0.0
  0
ARC
  5
E18
330
2
100
AcDbEntity
  8
0
100
AcDbCircle
 10
128.8366097475209
 20
686.2456294086968
 30
0.0
 40
1.0
100
AcDbArc
 50
189.9999999999986
 51
270.0
  0
LINE
  5
E19
330
2
100
AcDbEntity
  8
0
100
AcDbLine
 10
127.293953747521
 20
671.0372864086969
 30
0.0
 11
125.4789507475211
 21
681.3307124086966
 31
0.0
  0
ARC
  5
E1A
330
2
100
AcDbEntity
  8
0
100
AcDbCircle
 10
128.278763747521
 20
671.2109314086966
 30
0.0
 40
1.0
100
AcDbArc
 50
189.9999999999986
 51
270.0
  0
ARC
  5
E1B
330
2
100
AcDbEntity
  8
0
100
AcDbCircle
 10
128.595039747521
 20
677.2558524086966
 30
0.0
 40
1.0
100
AcDbArc
 50
189.9999999999986
 51
270.0
  0
ARC
  5
E1C
330
2
100
AcDbEntity
  8
0
100
AcDbCircle
 10
127.675453747521
 20
698.6017694086966
 30
0.0
 40
1.0
100
AcDbArc
 50
189.9999999999986
 51
270.0
  0
LINE
  5
E1D
330
2
100
AcDbEntity
  8
0
100
AcDbLine
 10
126.6906437475211
 20
698.4281244086968
 30
0.0
 11
125.4789507475211
 21
705.2999814086966
 31
0.0
  0
LINE
  5
E1E
330
2
100
AcDbEntity
  8
0
100
AcDbLine
 10
127.610237747521
 20
789.2750794086969
 30
0.0
 11
125.4789507475211
 21
777.1879514086967
 31
0.0
  0
LINE
  5
E1F
330
2
100
AcDbEntity
  8
0
100
AcDbLine
 10
126.6906437475211
 20
767.9291624086967
 30
0.0
 11
125.4789507475211
 21
761.0573054086967
 31
0.0
  0
ARC
  5
E20
330
2
100
AcDbEntity
  8
0
100
AcDbCircle
 10
128.8366097475209
 20
780.1116574086965
 30
0.0
 40
1.0
100
AcDbArc
 50
90.0
 51
170.0000000000013
  0
ARC
  5
E21
330
2
100
AcDbEntity
  8
0
100
AcDbCircle
 10
127.675453747521
 20
767.7555174086969
 30
0.0
 40
1.0
100
AcDbArc
 50
90.0
 51
170.0000000000013
  0
LINE
  5
E22
330
2
100
AcDbEntity
  8
0
100
AcDbLine
 10
127.851799747521
 20
780.2853024086969
 30
0.0
 11
125.4789507475211
 21
766.8281794086968
 31
0.0
  0
LINE
  5
E23
330
2
100
AcDbEntity
  8
0
100
AcDbLine
 10
119.9658689442737
 20
814.1654388740287
 30
0.0
 11
88.61115922820658
 21
814.1654388740287
 31
0.0
  0
ARC
  5
E24
330
2
100
AcDbEntity
  8
0
100
AcDbCircle
 10
75.44806106296073
 20
793.1786434086971
 30
0.0
 40
15.0
100
AcDbArc
 50
90.0
 51
171.480375745857
  0
LINE
  5
E25
330
2
100
AcDbEntity
  8
0
100
AcDbLine
 10
75.44806106296073
 20
808.1786434086971
 30
0.0
 11
84.98724869466832
 21
808.2618906379899
 31
0.0
  0
ARC
  5
E26
330
2
100
AcDbEntity
  8
0
100
AcDbCircle
 10
88.61115922820658
 20
812.1654388740285
 30
0.0
 40
2.0
100
AcDbArc
 50
90.0
 51
168.553123335776
  0
ARC
  5
E27
330
2
100
AcDbEntity
  8
0
100
AcDbCircle
 10
84.9785221591701
 20
809.2618525610539
 30
0.0
 40
1.0
100
AcDbArc
 50
270.5000000000046
 51
349.0627570140205
  0
LINE
  5
E28
330
2
100
AcDbEntity
  8
0
100
AcDbLine
 10
126.8413857475211
 20
806.8369684086967
 30
0.0
 11
125.4789507475211
 21
799.1102234086966
 31
0.0
  0
LINE
  5
E29
330
2
100
AcDbEntity
  8
0
100
AcDbLine
 10
126.9670797475209
 20
803.3625724086967
 30
0.0
 11
125.4789507475211
 21
794.9229674086966
 31
0.0
  0
LINE
  5
E2A
330
2
100
AcDbEntity
  8
0
100
AcDbLine
 10
127.293953747521
 20
795.3200004086968
 30
0.0
 11
125.4789507475211
 21
785.0265744086966
 31
0.0
  0
ARC
  5
E2B
330
2
100
AcDbEntity
  8
0
100
AcDbCircle
 10
128.595039747521
 20
789.1014344086968
 30
0.0
 40
1.0
100
AcDbArc
 50
90.0
 51
170.0000000000013
  0
ARC
  5
E2C
330
2
100
AcDbEntity
  8
0
100
AcDbCircle
 10
128.278763747521
 20
795.1463554086967
 30
0.0
 40
1.0
100
AcDbArc
 50
90.0
 51
170.0000000000013
  0
ARC
  5
E2D
330
2
100
AcDbEntity
  8
0
100
AcDbCircle
 10
124.6398397475211
 20
806.1786434086968
 30
0.0
 40
1.0
100
AcDbArc
 50
270.0
 51
350.0000000000013
  0
ARC
  5
E2E
330
2
100
AcDbEntity
  8
0
100
AcDbCircle
 10
127.9518897475211
 20
803.1889274086967
 30
0.0
 40
1.0
100
AcDbArc
 50
90.0
 51
170.0000000000013
  0
LINE
  5
E2F
330
2
100
AcDbEntity
  8
0
100
AcDbLine
 10
124.6398397475211
 20
805.1786434086968
 30
0.0
 11
122.478947747521
 21
805.1786434086968
 31
0.0
  0
LINE
  5
E30
330
2
100
AcDbEntity
  8
0
100
AcDbLine
 10
121.478947747521
 20
803.6786434086966
 30
0.0
 11
122.478947747521
 21
803.6786434086966
 31
0.0
  0
LINE
  5
E31
330
2
100
AcDbEntity
  8
0
100
AcDbLine
 10
121.478947747521
 20
803.6786434086966
 30
0.0
 11
122.478947747521
 21
803.6786434086966
 31
0.0
  0
ARC
  5
E32
330
2
100
AcDbEntity
  8
0
100
AcDbCircle
 10
127.841705747521
 20
811.9349304086968
 30
0.0
 40
1.0
100
AcDbArc
 50
90.0
 51
168.5887449999971
  0
ARC
  5
E33
330
2
100
AcDbEntity
  8
0
100
AcDbCircle
 10
127.645721747521
 20
810.9639824086967
 30
0.0
 40
1.0
100
AcDbArc
 50
90.0
 51
168.5887449999971
  0
ARC
  5
E34
330
2
100
AcDbEntity
  8
0
100
AcDbCircle
 10
127.8261877475211
 20
806.6633234086966
 30
0.0
 40
1.0
100
AcDbArc
 50
90.0
 51
170.0000000000013
  0
ARC
  5
E35
330
2
100
AcDbEntity
  8
0
100
AcDbCircle
 10
127.294716747521
 20
809.2249384086969
 30
0.0
 40
1.0
100
AcDbArc
 50
90.0
 51
168.5887449999971
  0
ARC
  5
E36
330
2
100
AcDbEntity
  8
0
100
AcDbCircle
 10
119.9789587475213
 20
812.6654959894322
 30
0.0
 40
1.5
100
AcDbArc
 50
0.0
 51
90.5000000000046
  0
LINE
  5
E37
330
2
100
AcDbEntity
  8
0
100
AcDbLine
 10
126.8614737475211
 20
812.1328064086966
 30
0.0
 11
125.624641747521
 21
806.0049984086967
 31
0.0
  0
ARC
  5
E40
330
2
100
AcDbEntity
  8
0
100
AcDbCircle
 10
734.9009968354007
 20
280.135607662399
 30
0.0
 40
6.799999999999998
100
AcDbArc
 50
180.0
 51
270.0
  0
LINE
  5
E42
330
2
100
AcDbEntity
  8
0
100
AcDbLine
 10
203.1792617475212
 20
281.4356031623993
 30
0.0
 11
203.1792617475212
 21
345.8356121623993
 31
0.0
  0
LINE
  5
E43
330
2
100
AcDbEntity
  8
0
100
AcDbLine
 10
205.9792497475211
 20
281.4356031623993
 30
0.0
 11
205.9792497475211
 21
345.8356121623993
 31
0.0
  0
LINE
  5
E45
330
2
100
AcDbEntity
  8
0
100
AcDbLine
 10
241.478943747521
 20
276.0356056623993
 30
0.0
 11
204.1276297968347
 21
276.0356056623993
 31
0.0
  0
LINE
  5
E46
330
2
100
AcDbEntity
  8
0
100
AcDbLine
 10
241.478943747521
 20
278.0356056623993
 30
0.0
 11
205.2958973498316
 21
278.0356056623993
 31
0.0
  0
ARC
  5
E47
330
2
100
AcDbEntity
  8
0
100
AcDbCircle
 10
197.1792467475206
 20
281.435603162399
 30
0.0
 40
8.8
100
AcDbArc
 50
270.0
 51
0.0
  0
ARC
  5
E48
330
2
100
AcDbEntity
  8
0
100
AcDbCircle
 10
197.1792467475206
 20
281.435603162399
 30
0.0
 40
6.0
100
AcDbArc
 50
270.0
 51
0.0
  0
ARC
  5
E49
330
2
100
AcDbEntity
  8
0
100
AcDbCircle
 10
241.478943747521
 20
244.8356216623992
 30
0.0
 40
1.0
100
AcDbArc
 50
270.0
 51
90.0
  0
LINE
  5
E4A
330
2
100
AcDbEntity
  8
0
100
AcDbLine
 10
262.478943747521
 20
241.6356096623993
 30
0.0
 11
243.3180557475211
 21
241.6356096623993
 31
0.0
  0
ARC
  5
E4B
330
2
100
AcDbEntity
  8
0
100
AcDbCircle
 10
241.478943747521
 20
243.5807696623993
 30
0.0
 40
1.0
100
AcDbArc
 50
270.0
 51
0.0
  0
LINE
  5
E4C
330
2
100
AcDbEntity
  8
0
100
AcDbLine
 10
241.919343747521
 20
238.4619646623994
 30
0.0
 11
242.333237747521
 21
240.8092566623993
 31
0.0
  0
ARC
  5
E4D
330
2
100
AcDbEntity
  8
0
100
AcDbCircle
 10
240.9345407475211
 20
238.6356096623993
 30
0.0
 40
1.0
100
AcDbArc
 50
270.0
 51
350.0000000000013
  0
ARC
  5
E4E
330
2
100
AcDbEntity
  8
0
100
AcDbCircle
 10
243.3180557475211
 20
240.6356096623993
 30
0.0
 40
1.0
100
AcDbArc
 50
90.0
 51
170.0000000000013
  0
LINE
  5
E4F
330
2
100
AcDbEntity
  8
0
100
AcDbLine
 10
242.478943747521
 20
244.8356216623992
 30
0.0
 11
242.478943747521
 21
241.1795836623992
 31
0.0
  0
ARC
  5
E50
330
2
100
AcDbEntity
  8
0
100
AcDbCircle
 10
241.478943747521
 20
264.6356116623993
 30
0.0
 40
1.0
100
AcDbArc
 50
270.0
 51
90.0
  0
ARC
  5
E51
330
2
100
AcDbEntity
  8
0
100
AcDbCircle
 10
241.478943747521
 20
257.8356236623992
 30
0.0
 40
1.0
100
AcDbArc
 50
270.0
 51
90.0
  0
ARC
  5
E52
330
2
100
AcDbEntity
  8
0
100
AcDbCircle
 10
241.478943747521
 20
251.3356236623992
 30
0.0
 40
1.0
100
AcDbArc
 50
270.0
 51
90.0
  0
ARC
  5
E53
330
2
100
AcDbEntity
  8
0
100
AcDbCircle
 10
241.478943747521
 20
277.0356056623993
 30
0.0
 40
1.0
100
AcDbArc
 50
270.0
 51
90.0
  0
LINE
  5
E54
330
2
100
AcDbEntity
  8
0
100
AcDbLine
 10
241.478943747521
 20
351.2356136623992
 30
0.0
 11
204.1276266881973
 21
351.2356136623991
 31
0.0
  0
LINE
  5
E55
330
2
100
AcDbEntity
  8
0
100
AcDbLine
 10
241.478943747521
 20
349.2356136623992
 30
0.0
 11
205.2958956742636
 21
349.2356136623991
 31
0.0
  0
LINE
  5
E56
330
2
100
AcDbEntity
  8
0
100
AcDbLine
 10
241.478943747521
 20
343.6356076623992
 30
0.0
 11
205.9792497475211
 21
343.6356076623992
 31
0.0
  0
LINE
  5
E57
330
2
100
AcDbEntity
  8
0
100
AcDbLine
 10
241.478943747521
 20
341.6356076623992
 30
0.0
 11
209.978959747521
 21
341.6356076623992
 31
0.0
  0
LINE
  5
E58
330
2
100
AcDbEntity
  8
0
100
AcDbLine
 10
241.478943747521
 20
334.0356016623993
 30
0.0
 11
209.978959747521
 21
334.0356016623993
 31
0.0
  0
LINE
  5
E59
330
2
100
AcDbEntity
  8
0
100
AcDbLine
 10
241.478943747521
 20
336.0356016623993
 30
0.0
 11
209.978959747521
 21
336.0356016623993
 31
0.0
  0
LINE
  5
E5A
330
2
100
AcDbEntity
  8
0
100
AcDbLine
 10
241.478943747521
 20
326.4355956623993
 30
0.0
 11
209.978959747521
 21
326.4355956623993
 31
0.0
  0
LINE
  5
E5B
330
2
100
AcDbEntity
  8
0
100
AcDbLine
 10
241.478943747521
 20
328.4355956623993
 30
0.0
 11
209.978959747521
 21
328.4355956623993
 31
0.0
  0
LINE
  5
E5C
330
2
100
AcDbEntity
  8
0
100
AcDbLine
 10
241.478943747521
 20
320.8356196623992
 30
0.0
 11
209.978959747521
 21
320.8356196623992
 31
0.0
  0
LINE
  5
E5D
330
2
100
AcDbEntity
  8
0
100
AcDbLine
 10
241.478943747521
 20
318.8356196623992
 30
0.0
 11
209.978959747521
 21
318.8356196623992
 31
0.0
  0
LINE
  5
E5E
330
2
100
AcDbEntity
  8
0
100
AcDbLine
 10
241.478943747521
 20
283.6356076623993
 30
0.0
 11
205.9792497475211
 21
283.6356076623993
 31
0.0
  0
LINE
  5
E5F
330
2
100
AcDbEntity
  8
0
100
AcDbLine
 10
241.478943747521
 20
308.4355956623993
 30
0.0
 11
209.978959747521
 21
308.4355956623993
 31
0.0
  0
LINE
  5
E60
330
2
100
AcDbEntity
  8
0
100
AcDbLine
 10
241.478943747521
 20
306.4355956623993
 30
0.0
 11
209.978959747521
 21
306.4355956623993
 31
0.0
  0
LINE
  5
E61
330
2
100
AcDbEntity
  8
0
100
AcDbLine
 10
241.478943747521
 20
298.8356196623993
 30
0.0
 11
209.978959747521
 21
298.8356196623993
 31
0.0
  0
LINE
  5
E62
330
2
100
AcDbEntity
  8
0
100
AcDbLine
 10
241.478943747521
 20
300.8356196623992
 30
0.0
 11
209.978959747521
 21
300.8356196623992
 31
0.0
  0
LINE
  5
E63
330
2
100
AcDbEntity
  8
0
100
AcDbLine
 10
241.478943747521
 20
291.2356136623993
 30
0.0
 11
209.978959747521
 21
291.2356136623993
 31
0.0
  0
LINE
  5
E64
330
2
100
AcDbEntity
  8
0
100
AcDbLine
 10
241.478943747521
 20
293.2356136623993
 30
0.0
 11
209.978959747521
 21
293.2356136623993
 31
0.0
  0
LINE
  5
E65
330
2
100
AcDbEntity
  8
0
100
AcDbLine
 10
241.478943747521
 20
285.6356076623993
 30
0.0
 11
209.978959747521
 21
285.6356076623993
 31
0.0
  0
ARC
  5
E66
330
2
100
AcDbEntity
  8
0
100
AcDbCircle
 10
210.9789597475209
 20
322.8356196623992
 30
0.0
 40
2.0
100
AcDbArc
 50
180.0
 51
270.0
  0
ARC
  5
E67
330
2
100
AcDbEntity
  8
0
100
AcDbCircle
 10
210.9789597475209
 20
302.8356196623994
 30
0.0
 40
2.0
100
AcDbArc
 50
180.0
 51
270.0
  0
ARC
  5
E68
330
2
100
AcDbEntity
  8
0
100
AcDbCircle
 10
209.978959747521
 20
299.8356196623993
 30
0.0
 40
1.0
100
AcDbArc
 50
90.0
 51
270.0
  0
ARC
  5
E69
330
2
100
AcDbEntity
  8
0
100
AcDbCircle
 10
203.978959747521
 20
288.6356076623993
 30
0.0
 40
5.0
100
AcDbArc
 50
293.5818043878708
 51
351.7867890000001
  0
ARC
  5
E6A
330
2
100
AcDbEntity
  8
0
100
AcDbCircle
 10
210.907151747521
 20
287.6356076623993
 30
0.0
 40
2.0
100
AcDbArc
 50
171.7867890000001
 51
270.0
  0
ARC
  5
E6B
330
2
100
AcDbEntity
  8
0
100
AcDbCircle
 10
209.978959747521
 20
284.6356076623994
 30
0.0
 40
1.0
100
AcDbArc
 50
90.0
 51
270.0
  0
LINE
  5
E6C
330
2
100
AcDbEntity
  8
0
100
AcDbLine
 10
208.9789597475209
 20
296.8356196623993
 30
0.0
 11
208.9789597475209
 21
295.2356136623993
 31
0.0
  0
LINE
  5
E6D
330
2
100
AcDbEntity
  8
0
100
AcDbLine
 10
208.9789597475209
 20
289.2356136623993
 30
0.0
 11
208.9789597475209
 21
288.6356076623993
 31
0.0
  0
ARC
  5
E6E
330
2
100
AcDbEntity
  8
0
100
AcDbCircle
 10
209.978959747521
 20
292.2356136623993
 30
0.0
 40
1.0
100
AcDbArc
 50
90.0
 51
270.0
  0
ARC
  5
E6F
330
2
100
AcDbEntity
  8
0
100
AcDbCircle
 10
210.9789597475209
 20
289.2356136623993
 30
0.0
 40
2.0
100
AcDbArc
 50
90.0
 51
180.0
  0
ARC
  5
E70
330
2
100
AcDbEntity
  8
0
100
AcDbCircle
 10
210.9789597475209
 20
295.2356136623993
 30
0.0
 40
2.0
100
AcDbArc
 50
180.0
 51
270.0
  0
ARC
  5
E71
330
2
100
AcDbEntity
  8
0
100
AcDbCircle
 10
203.978959747521
 20
288.6356076623993
 30
0.0
 40
5.0
100
AcDbArc
 50
351.7867890000001
 51
0.0
  0
ARC
  5
E72
330
2
100
AcDbEntity
  8
0
100
AcDbCircle
 10
210.9789597475209
 20
296.8356196623993
 30
0.0
 40
2.0
100
AcDbArc
 50
90.0
 51
180.0
  0
ARC
  5
E73
330
2
100
AcDbEntity
  8
0
100
AcDbCircle
 10
209.978959747521
 20
319.8356196623992
 30
0.0
 40
1.0
100
AcDbArc
 50
90.0
 51
270.0
  0
LINE
  5
E74
330
2
100
AcDbEntity
  8
0
100
AcDbLine
 10
208.9789597475209
 20
316.8356196623993
 30
0.0
 11
208.9789597475209
 21
310.4355956623993
 31
0.0
  0
LINE
  5
E75
330
2
100
AcDbEntity
  8
0
100
AcDbLine
 10
208.9789597475209
 20
304.4355956623993
 30
0.0
 11
208.9789597475209
 21
302.8356196623994
 31
0.0
  0
ARC
  5
E76
330
2
100
AcDbEntity
  8
0
100
AcDbCircle
 10
209.978959747521
 20
307.4355956623993
 30
0.0
 40
1.0
100
AcDbArc
 50
90.0
 51
270.0
  0
ARC
  5
E77
330
2
100
AcDbEntity
  8
0
100
AcDbCircle
 10
210.9789597475209
 20
304.4355956623993
 30
0.0
 40
2.0
100
AcDbArc
 50
90.0
 51
180.0
  0
ARC
  5
E78
330
2
100
AcDbEntity
  8
0
100
AcDbCircle
 10
210.9789597475209
 20
310.4355956623993
 30
0.0
 40
2.0
100
AcDbArc
 50
180.0
 51
270.0
  0
ARC
  5
E79
330
2
100
AcDbEntity
  8
0
100
AcDbCircle
 10
210.9789597475209
 20
316.8356196623993
 30
0.0
 40
2.0
100
AcDbArc
 50
90.0
 51
180.0
  0
ARC
  5
E7A
330
2
100
AcDbEntity
  8
0
100
AcDbCircle
 10
203.978959747521
 20
338.6356076623992
 30
0.0
 40
5.0
100
AcDbArc
 50
8.213210999999825
 51
66.41819561212909
  0
ARC
  5
E7B
330
2
100
AcDbEntity
  8
0
100
AcDbCircle
 10
210.907151747521
 20
339.6356076623992
 30
0.0
 40
2.0
100
AcDbArc
 50
90.0
 51
188.2131959999971
  0
LINE
  5
E7C
330
2
100
AcDbEntity
  8
0
100
AcDbLine
 10
208.9789597475209
 20
338.6356076623992
 30
0.0
 11
208.9789597475209
 21
338.0356016623993
 31
0.0
  0
ARC
  5
E7D
330
2
100
AcDbEntity
  8
0
100
AcDbCircle
 10
203.978959747521
 20
338.6356076623992
 30
0.0
 40
5.0
100
AcDbArc
 50
0.0
 51
8.213210999999825
  0
LINE
  5
E7E
330
2
100
AcDbEntity
  8
0
100
AcDbLine
 10
208.9789597475209
 20
324.4355956623993
 30
0.0
 11
208.9789597475209
 21
322.8356196623992
 31
0.0
  0
ARC
  5
E7F
330
2
100
AcDbEntity
  8
0
100
AcDbCircle
 10
209.978959747521
 20
335.0356016623993
 30
0.0
 40
1.0
100
AcDbArc
 50
90.0
 51
270.0
  0
ARC
  5
E80
330
2
100
AcDbEntity
  8
0
100
AcDbCircle
 10
210.9789597475209
 20
332.0356016623993
 30
0.0
 40
2.0
100
AcDbArc
 50
90.0
 51
180.0
  0
ARC
  5
E81
330
2
100
AcDbEntity
  8
0
100
AcDbCircle
 10
209.978959747521
 20
327.4355956623993
 30
0.0
 40
1.0
100
AcDbArc
 50
90.0
 51
270.0
  0
ARC
  5
E82
330
2
100
AcDbEntity
  8
0
100
AcDbCircle
 10
210.9789597475209
 20
324.4355956623993
 30
0.0
 40
2.0
100
AcDbArc
 50
90.0
 51
180.0
  0
ARC
  5
E83
330
2
100
AcDbEntity
  8
0
100
AcDbCircle
 10
210.9789597475209
 20
330.4355956623993
 30
0.0
 40
2.0
100
AcDbArc
 50
180.0
 51
270.0
  0
LINE
  5
E84
330
2
100
AcDbEntity
  8
0
100
AcDbLine
 10
208.9789597475209
 20
332.0356016623993
 30
0.0
 11
208.9789597475209
 21
330.4355956623993
 31
0.0
  0
ARC
  5
E85
330
2
100
AcDbEntity
  8
0
100
AcDbCircle
 10
210.9789597475209
 20
338.0356016623993
 30
0.0
 40
2.0
100
AcDbArc
 50
180.0
 51
270.0
  0
ARC
  5
E86
330
2
100
AcDbEntity
  8
0
100
AcDbCircle
 10
197.1792467475209
 20
345.835612162399
 30
0.0
 40
6.0
100
AcDbArc
 50
0.0
 51
90.0
  0
ARC
  5
E87
330
2
100
AcDbEntity
  8
0
100
AcDbCircle
 10
197.1792467475209
 20
345.835612162399
 30
0.0
 40
8.8
100
AcDbArc
 50
0.0
 51
90.0
  0
ARC
  5
E88
330
2
100
AcDbEntity
  8
0
100
AcDbCircle
 10
209.978959747521
 20
342.6356076623992
 30
0.0
 40
1.0
100
AcDbArc
 50
90.0
 51
270.0
  0
ARC
  5
E89
330
2
100
AcDbEntity
  8
0
100
AcDbCircle
 10
241.478943747521
 20
299.8356196623993
 30
0.0
 40
1.0
100
AcDbArc
 50
270.0
 51
90.0
  0
ARC
  5
E8A
330
2
100
AcDbEntity
  8
0
100
AcDbCircle
 10
241.478943747521
 20
284.6356076623994
 30
0.0
 40
1.0
100
AcDbArc
 50
270.0
 51
90.0
  0
ARC
  5
E8B
330
2
100
AcDbEntity
  8
0
100
AcDbCircle
 10
241.478943747521
 20
292.2356136623993
 30
0.0
 40
1.0
100
AcDbArc
 50
270.0
 51
90.0
  0
ARC
  5
E8C
330
2
100
AcDbEntity
  8
0
100
AcDbCircle
 10
241.478943747521
 20
319.8356196623992
 30
0.0
 40
1.0
100
AcDbArc
 50
270.0
 51
90.0
  0
ARC
  5
E8D
330
2
100
AcDbEntity
  8
0
100
AcDbCircle
 10
241.478943747521
 20
307.4355956623993
 30
0.0
 40
1.0
100
AcDbArc
 50
270.0
 51
90.0
  0
ARC
  5
E8E
330
2
100
AcDbEntity
  8
0
100
AcDbCircle
 10
241.478943747521
 20
335.0356016623993
 30
0.0
 40
1.0
100
AcDbArc
 50
270.0
 51
90.0
  0
ARC
  5
E8F
330
2
100
AcDbEntity
  8
0
100
AcDbCircle
 10
241.478943747521
 20
327.4355956623993
 30
0.0
 40
1.0
100
AcDbArc
 50
270.0
 51
90.0
  0
ARC
  5
E90
330
2
100
AcDbEntity
  8
0
100
AcDbCircle
 10
241.478943747521
 20
342.6356076623992
 30
0.0
 40
1.0
100
AcDbArc
 50
270.0
 51
90.0
  0
ARC
  5
E91
330
2
100
AcDbEntity
  8
0
100
AcDbCircle
 10
241.478943747521
 20
350.2356136623992
 30
0.0
 40
1.0
100
AcDbArc
 50
270.0
 51
90.0
  0
ARC
  5
E92
330
2
100
AcDbEntity
  8
0
100
AcDbCircle
 10
241.478943747521
 20
375.9355956623993
 30
0.0
 40
1.0
100
AcDbArc
 50
270.0
 51
90.0
  0
ARC
  5
E93
330
2
100
AcDbEntity
  8
0
100
AcDbCircle
 10
241.478943747521
 20
369.4355956623992
 30
0.0
 40
1.0
100
AcDbArc
 50
270.0
 51
90.0
  0
ARC
  5
E94
330
2
100
AcDbEntity
  8
0
100
AcDbCircle
 10
241.478943747521
 20
362.6356076623992
 30
0.0
 40
1.0
100
AcDbArc
 50
270.0
 51
90.0
  0
LINE
  5
E95
330
2
100
AcDbEntity
  8
0
100
AcDbLine
 10
262.478943747521
 20
385.6356076623992
 30
0.0
 11
243.3180557475211
 21
385.6356076623992
 31
0.0
  0
ARC
  5
E96
330
2
100
AcDbEntity
  8
0
100
AcDbCircle
 10
243.3180557475211
 20
386.6356076623992
 30
0.0
 40
1.0
100
AcDbArc
 50
189.9999999999986
 51
270.0
  0
LINE
  5
E97
330
2
100
AcDbEntity
  8
0
100
AcDbLine
 10
242.478943747521
 20
382.4355956623992
 30
0.0
 11
242.478943747521
 21
386.0916316623992
 31
0.0
  0
ARC
  5
E98
330
2
100
AcDbEntity
  8
0
100
AcDbCircle
 10
241.478943747521
 20
383.6904476623992
 30
0.0
 40
1.0
100
AcDbArc
 50
0.0
 51
90.0
  0
ARC
  5
E99
330
2
100
AcDbEntity
  8
0
100
AcDbCircle
 10
241.478943747521
 20
382.4355956623992
 30
0.0
 40
1.0
100
AcDbArc
 50
270.0
 51
90.0
  0
ARC
  5
E9A
330
2
100
AcDbEntity
  8
0
100
AcDbCircle
 10
240.9345407475211
 20
388.6356076623992
 30
0.0
 40
1.0
100
AcDbArc
 50
9.999999999998609
 51
90.0
  0
LINE
  5
E9B
330
2
100
AcDbEntity
  8
0
100
AcDbLine
 10
241.919343747521
 20
388.8092526623992
 30
0.0
 11
242.333237747521
 21
386.4619626623991
 31
0.0
  0
LINE
  5
EB1
330
2
100
AcDbEntity
  8
0
100
AcDbLine
 10
734.9009968354009
 20
273.3356196623996
 30
0.0
 11
764.7872895321772
 21
273.3356196623996
 31
0.0
  0
LINE
  5
EB4
330
2
100
AcDbEntity
  8
0
100
AcDbLine
 10
240.9908147475209
 20
662.9947144086968
 30
0.0
 11
242.478943747521
 21
671.4343194086966
 31
0.0
  0
LINE
  5
EB6
330
2
100
AcDbEntity
  8
CENTER
100
AcDbLine
 10
163.9790507475211
 20
669.4023674086966
 30
0.0
 11
163.9790507475213
 21
608.6786434086966
 31
0.0
  0
LINE
  5
EB8
330
2
100
AcDbEntity
  8
0
100
AcDbLine
 10
240.1161967475209
 20
653.4223264086968
 30
0.0
 11
210.959137747521
 21
653.4223264086968
 31
0.0
  0
LINE
  5
EB9
330
2
100
AcDbEntity
  8
0
100
AcDbLine
 10
240.1316987475211
 20
658.6939634086968
 30
0.0
 11
209.076782747521
 21
658.6939634086968
 31
0.0
  0
LINE
  5
EBA
330
2
100
AcDbEntity
  8
0
100
AcDbLine
 10
210.7631537475208
 20
654.3933044086966
 30
0.0
 11
240.3121647475209
 21
654.3933044086966
 31
0.0
  0
LINE
  5
EBB
330
2
100
AcDbEntity
  8
0
100
AcDbLine
 10
210.4121407475211
 20
656.1323484086966
 30
0.0
 11
240.6631777475208
 21
656.1323484086966
 31
0.0
  0
LINE
  5
EBC
330
2
100
AcDbEntity
  8
0
100
AcDbLine
 10
204.0133517475223
 20
623.8381214086967
 30
0.0
 11
204.0133517475221
 21
649.9449134086967
 31
0.0
  0
ARC
  5
EBD
330
2
100
AcDbEntity
  8
0
100
AcDbCircle
 10
193.2134257475208
 20
623.8381214086967
 30
0.0
 40
10.8
100
AcDbArc
 50
270.0
 51
0.0
  0
ARC
  5
EBE
330
2
100
AcDbEntity
  8
0
100
AcDbCircle
 10
197.9674537475218
 20
654.8786404086968
 30
0.0
 40
2.799999999999998
100
AcDbArc
 50
24.99999999999935
 51
90.0
  0
LINE
  5
EBF
330
2
100
AcDbEntity
  8
0
100
AcDbLine
 10
200.5051737475212
 20
656.0619744086966
 30
0.0
 11
200.5713357475221
 21
655.9199454086965
 31
0.0
  0
LINE
  5
EC0
330
2
100
AcDbEntity
  8
0
100
AcDbLine
 10
193.9790507475211
 20
657.6786434086966
 30
0.0
 11
193.9790507475211
 21
659.1786434086966
 31
0.0
  0
LINE
  5
EC1
330
2
100
AcDbEntity
  8
0
100
AcDbLine
 10
205.4296117475212
 20
652.6054164086968
 30
0.0
 11
203.292282747521
 21
657.1887604086964
 31
0.0
  0
LINE
  5
EC2
330
2
100
AcDbEntity
  8
0
100
AcDbLine
 10
209.9788977475209
 20
654.2244804086967
 30
0.0
 11
208.978943747521
 21
659.1786434086968
 31
0.0
  0
ARC
  5
EC3
330
2
100
AcDbEntity
  8
0
100
AcDbCircle
 10
205.0133517475208
 20
649.9449134086967
 30
0.0
 40
1.0
100
AcDbArc
 50
135.7174989999921
 51
180.0
  0
ARC
  5
EC4
330
2
100
AcDbEntity
  8
0
100
AcDbCircle
 10
204.2513887475204
 20
652.0560124086967
 30
0.0
 40
1.3
100
AcDbArc
 50
295.000000000008
 51
24.99999999999935
  0
ARC
  5
EC5
330
2
100
AcDbEntity
  8
0
100
AcDbCircle
 10
210.959137747521
 20
654.4223264086967
 30
0.0
 40
1.0
100
AcDbArc
 50
191.4112549999965
 51
270.0
  0
ARC
  5
EC6
330
2
100
AcDbEntity
  8
0
100
AcDbCircle
 10
210.7631537475208
 20
655.3933044086966
 30
0.0
 40
1.0
100
AcDbArc
 50
191.4112549999965
 51
270.0
  0
ARC
  5
EC7
330
2
100
AcDbEntity
  8
0
100
AcDbCircle
 10
210.4121407475211
 20
657.1323484086966
 30
0.0
 40
1.0
100
AcDbArc
 50
191.4112549999965
 51
270.0
  0
LINE
  5
EC8
330
2
100
AcDbEntity
  8
0
100
AcDbLine
 10
262.478943747521
 20
661.1786434086968
 30
0.0
 11
243.3180547475208
 21
661.1786434086968
 31
0.0
  0
LINE
  5
EC9
330
2
100
AcDbEntity
  8
0
100
AcDbLine
 10
241.0964207475208
 20
654.2244804086967
 30
0.0
 11
242.3332527475208
 21
660.3522884086968
 31
0.0
  0
ARC
  5
ECA
330
2
100
AcDbEntity
  8
0
100
AcDbCircle
 10
240.1161967475209
 20
654.4223264086967
 30
0.0
 40
1.0
100
AcDbArc
 50
270.0
 51
348.5887379999994
  0
ARC
  5
ECB
330
2
100
AcDbEntity
  8
0
100
AcDbCircle
 10
240.3121647475209
 20
655.3933044086966
 30
0.0
 40
1.0
100
AcDbArc
 50
270.0
 51
348.5887379999994
  0
ARC
  5
ECC
330
2
100
AcDbEntity
  8
0
100
AcDbCircle
 10
243.3180547475208
 20
660.1786434086966
 30
0.0
 40
1.0
100
AcDbArc
 50
90.0
 51
170.0000000000013
  0
ARC
  5
ECD
330
2
100
AcDbEntity
  8
0
100
AcDbCircle
 10
240.6631777475208
 20
657.1323484086966
 30
0.0
 40
1.0
100
AcDbArc
 50
270.0
 51
348.5887379999994
  0
ARC
  5
ECE
330
2
100
AcDbEntity
  8
0
100
AcDbCircle
 10
240.006012747521
 20
663.1683594086966
 30
0.0
 40
1.0
100
AcDbArc
 50
270.0
 51
350.0000000000013
  0
ARC
  5
ECF
330
2
100
AcDbEntity
  8
0
100
AcDbCircle
 10
240.1316987475211
 20
659.6939634086968
 30
0.0
 40
1.0
100
AcDbArc
 50
270.0
 51
350.0000000000013
  0
LINE
  5
ED0
330
2
100
AcDbEntity
  8
0
100
AcDbLine
 10
241.116516747521
 20
659.5203184086967
 30
0.0
 11
242.478943747521
 21
667.2470634086967
 31
0.0
  0
LINE
  5
ED1
330
2
100
AcDbEntity
  8
0
100
AcDbLine
 10
242.478943747521
 20
705.2999814086966
 30
0.0
 11
242.478943747521
 21
761.0573054086967
 31
0.0
  0
LINE
  5
ED2
330
2
100
AcDbEntity
  8
0
100
AcDbLine
 10
240.1060947475211
 20
686.0719844086968
 30
0.0
 11
242.478943747521
 21
699.5291074086967
 31
0.0
  0
LINE
  5
ED3
330
2
100
AcDbEntity
  8
0
100
AcDbLine
 10
240.3476567475211
 20
677.0822074086968
 30
0.0
 11
242.478943747521
 21
689.1693354086967
 31
0.0
  0
LINE
  5
ED4
330
2
100
AcDbEntity
  8
0
100
AcDbLine
 10
240.6639407475208
 20
671.0372864086969
 30
0.0
 11
242.478943747521
 21
681.3307124086966
 31
0.0
  0
ARC
  5
ED5
330
2
100
AcDbEntity
  8
0
100
AcDbCircle
 10
239.6791387475209
 20
671.2109314086966
 30
0.0
 40
1.0
100
AcDbArc
 50
270.0
 51
350.0000000000013
  0
ARC
  5
ED6
330
2
100
AcDbEntity
  8
0
100
AcDbCircle
 10
239.3628547475209
 20
677.2558524086966
 30
0.0
 40
1.0
100
AcDbArc
 50
270.0
 51
350.0000000000013
  0
ARC
  5
ED7
330
2
100
AcDbEntity
  8
0
100
AcDbCircle
 10
239.121292747521
 20
686.2456294086968
 30
0.0
 40
1.0
100
AcDbArc
 50
270.0
 51
350.0000000000013
  0
ARC
  5
ED8
330
2
100
AcDbEntity
  8
0
100
AcDbCircle
 10
240.2824407475209
 20
698.6017694086966
 30
0.0
 40
1.0
100
AcDbArc
 50
270.0
 51
350.0000000000013
  0
LINE
  5
ED9
330
2
100
AcDbEntity
  8
0
100
AcDbLine
 10
241.267258747521
 20
698.4281244086968
 30
0.0
 11
242.478943747521
 21
705.2999814086966
 31
0.0
  0
LINE
  5
EDA
330
2
100
AcDbEntity
  8
0
100
AcDbLine
 10
240.3476567475211
 20
789.2750794086969
 30
0.0
 11
242.478943747521
 21
777.1879514086967
 31
0.0
  0
LINE
  5
EDB
330
2
100
AcDbEntity
  8
0
100
AcDbLine
 10
241.267258747521
 20
767.9291624086967
 30
0.0
 11
242.478943747521
 21
761.0573054086967
 31
0.0
  0
ARC
  5
EDC
330
2
100
AcDbEntity
  8
0
100
AcDbCircle
 10
239.121292747521
 20
780.1116574086965
 30
0.0
 40
1.0
100
AcDbArc
 50
9.999999999998609
 51
90.0
  0
ARC
  5
EDD
330
2
100
AcDbEntity
  8
0
100
AcDbCircle
 10
240.2824407475209
 20
767.7555174086969
 30
0.0
 40
1.0
100
AcDbArc
 50
9.999999999998609
 51
90.0
  0
LINE
  5
EDE
330
2
100
AcDbEntity
  8
0
100
AcDbLine
 10
240.1060947475211
 20
780.2853024086969
 30
0.0
 11
242.478943747521
 21
766.8281794086968
 31
0.0
  0
LINE
  5
EDF
330
2
100
AcDbEntity
  8
0
100
AcDbLine
 10
241.116516747521
 20
806.8369684086967
 30
0.0
 11
242.478943747521
 21
799.1102234086966
 31
0.0
  0
LINE
  5
EE0
330
2
100
AcDbEntity
  8
0
100
AcDbLine
 10
240.9908147475209
 20
803.3625724086967
 30
0.0
 11
242.478943747521
 21
794.9229674086966
 31
0.0
  0
LINE
  5
EE1
330
2
100
AcDbEntity
  8
0
100
AcDbLine
 10
240.6639407475208
 20
795.3200004086968
 30
0.0
 11
242.478943747521
 21
785.0265744086966
 31
0.0
  0
ARC
  5
EE2
330
2
100
AcDbEntity
  8
0
100
AcDbCircle
 10
239.3628547475209
 20
789.1014344086968
 30
0.0
 40
1.0
100
AcDbArc
 50
9.999999999998609
 51
90.0
  0
ARC
  5
EE3
330
2
100
AcDbEntity
  8
0
100
AcDbCircle
 10
239.6791387475209
 20
795.1463554086967
 30
0.0
 40
1.0
100
AcDbArc
 50
9.999999999998609
 51
90.0
  0
LINE
  5
EE4
330
2
100
AcDbEntity
  8
0
100
AcDbLine
 10
262.478943747521
 20
805.1786434086968
 30
0.0
 11
243.3180547475208
 21
805.1786434086968
 31
0.0
  0
ARC
  5
EE5
330
2
100
AcDbEntity
  8
0
100
AcDbCircle
 10
243.3180547475208
 20
806.1786434086968
 30
0.0
 40
1.0
100
AcDbArc
 50
189.9999999999986
 51
270.0
  0
ARC
  5
EE6
330
2
100
AcDbEntity
  8
0
100
AcDbCircle
 10
240.006012747521
 20
803.1889274086967
 30
0.0
 40
1.0
100
AcDbArc
 50
9.999999999998609
 51
90.0
  0
ARC
  5
EE7
330
2
100
AcDbEntity
  8
0
100
AcDbCircle
 10
240.1161967475209
 20
811.9349304086968
 30
0.0
 40
1.0
100
AcDbArc
 50
11.4112549999965
 51
90.0
  0
ARC
  5
EE8
330
2
100
AcDbEntity
  8
0
100
AcDbCircle
 10
240.6631777475208
 20
809.2249384086969
 30
0.0
 40
1.0
100
AcDbArc
 50
11.4112549999965
 51
90.0
  0
ARC
  5
EE9
330
2
100
AcDbEntity
  8
0
100
AcDbCircle
 10
240.3121647475209
 20
810.9639824086967
 30
0.0
 40
1.0
100
AcDbArc
 50
11.4112549999965
 51
90.0
  0
ARC
  5
EEA
330
2
100
AcDbEntity
  8
0
100
AcDbCircle
 10
240.1316987475211
 20
806.6633234086966
 30
0.0
 40
1.0
100
AcDbArc
 50
9.999999999998609
 51
90.0
  0
LINE
  5
EEB
330
2
100
AcDbEntity
  8
0
100
AcDbLine
 10
241.0964207475208
 20
812.1328064086966
 30
0.0
 11
242.3332527475208
 21
806.0049984086967
 31
0.0
  0
ARC
  5
EFC
330
2
100
AcDbEntity
  8
0
100
AcDbCircle
 10
734.9009968354009
 20
347.135607662399
 30
0.0
 40
6.799999999999998
100
AcDbArc
 50
90.0
 51
126.0188541926378
  0
LINE
  5
EFF
330
2
100
AcDbEntity
  8
0
100
AcDbLine
 10
728.1009968354007
 20
280.1356076623993
 30
0.0
 11
728.1009968354009
 21
302.6356076623994
 31
0.0
  0
LINE
  5
F05
330
2
100
AcDbEntity
  8
0
100
AcDbLine
 10
734.8882218657897
 20
353.9355956623996
 30
0.0
 11
760.1009968354007
 21
353.9355956623996
 31
0.0
  0
TEXT
  5
1ADE
330
2
100
AcDbEntity
  8
TITLE
100
AcDbText
 10
733.240008145861
 20
687.626342129708
 30
0.0
 40
12.0
  1
H2LB-50T-300~450-075
100
AcDbText
  0
ENDSEC
  0
SECTION
  2
OBJECTS
  0
DICTIONARY
  5
7
330
0
100
AcDbDictionary
  3
ACAD_GROUP
350
75
  3
ACAD_LAYOUT
350
61
  3
ACAD_MLINESTYLE
350
76
  3
ACAD_PLOTSETTINGS
350
77
  3
ACAD_PLOTSTYLENAME
350
6
  3
ACADDIM
350
480
  3
ACDBHEADERROUNDTRIPXREC
350
1B35
  3
ACDBVARIABLEDICTIONARY
350
102
  3
DWGPROPS
350
3D2
  0
DICTIONARY
  5
1B56
330
2
100
AcDbDictionary
280
     1
  3
ACAD_LAYOUTSELFREF
360
1B57
  0
DICTIONARY
  5
1B58
330
1B2F
100
AcDbDictionary
280
     1
  3
ACAD_LAYOUTSELFREF
360
1B59
  0
DICTIONARY
  5
75
102
{ACAD_REACTORS
330
7
102
}
330
7
100
AcDbDictionary
  0
DICTIONARY
  5
61
102
{ACAD_REACTORS
330
7
102
}
330
7
100
AcDbDictionary
  0
DICTIONARY
  5
76
102
{ACAD_REACTORS
330
7
102
}
330
7
100
AcDbDictionary
  3
STANDARD
350
78
  0
DICTIONARY
  5
77
102
{ACAD_REACTORS
330
7
102
}
330
7
100
AcDbDictionary
  0
ACDBDICTIONARYWDFLT
  5
6
102
{ACAD_REACTORS
330
7
102
}
330
7
100
AcDbDictionary
281
     1
  3
Normal
350
5
100
AcDbDictionaryWithDefault
340
5
  0
XRECORD
  5
480
102
{ACAD_REACTORS
330
7
102
}
330
7
100
AcDbXrecord
 90
   990106
  3

 60
     0
 61
     0
 62
     1
 63
     3
 64
     1
 65
     0
 66
     0
 67
     3
 68
     1
 69
     0
 70
     0
 71
     0
 72
     0
 40
0.0
170
     2
340
0
  0
DICTIONARY
  5
1B35
102
{ACAD_REACTORS
330
7
102
}
330
7
100
AcDbDictionary
  3
CEPSNTYPE
350
1B3F
  3
DIMSTYLEDATA
350
1B43
  3
FINGERPRINTGUID
350
1B40
  3
HYPERLINKBASE
350
1B38
  3
INSUNITS
350
1B3E
  3
LAYOUTDICT
350
1B3A
  3
LWETCUNION
350
1B3D
  3
PLOTSETDICT
350
1B3B
  3
PLOTSTYLNAMDICT
350
1B3C
  3
PSVPSCALE
350
1B42
  3
PUCSBASE
350
1B46
  3
PUCSORGBACK
350
1B4C
  3
PUCSORGBOTTOM
350
1B48
  3
PUCSORGFRONT
350
1B4B
  3
PUCSORGLEFT
350
1B49
  3
PUCSORGRIGHT
350
1B4A
  3
PUCSORGTOP
350
1B47
  3
PUCSORTHOREF
350
1B44
  3
PUCSORTHOVIEW
350
1B45
  3
STYLESHEET
350
1B39
  3
TSTACKALIGN
350
1B36
  3
TSTACKSIZE
350
1B37
  3
UCSBASE
350
1B4F
  3
UCSORGBACK
350
1B55
  3
UCSORGBOTTOM
350
1B51
  3
UCSORGFRONT
350
1B54
  3
UCSORGLEFT
350
1B52
  3
UCSORGRIGHT
350
1B53
  3
UCSORGTOP
350
1B50
  3
UCSORTHOREF
350
1B4D
  3
UCSORTHOVIEW
350
1B4E
  3
VERSIONGUID
350
1B41
  0
DICTIONARY
  5
102
102
{ACAD_REACTORS
330
7
102
}
330
7
100
AcDbDictionary
  3
DIMASSOC
350
103
  0
XRECORD
  5
3D2
102
{ACAD_REACTORS
330
7
102
}
330
7
100
AcDbXrecord
  1
DWGPROPS COOKIE
  2

  3

  4

  6

  7

  8

  9

300
=
301
=
302
=
303
=
304
=
305
=
306
=
307
=
308
=
309
=
 40
0.5353330671296296
 41
2452052.431989363
 42
2453406.550756377
  1

 90
        0
  0
XRECORD
  5
1B57
102
{ACAD_REACTORS
330
1B56
102
}
330
1B56
100
AcDbXrecord
340
2
  0
XRECORD
  5
1B59
102
{ACAD_REACTORS
330
1B58
102
}
330
1B58
100
AcDbXrecord
340
1B2F
  0
MLINESTYLE
  5
78
102
{ACAD_REACTORS
330
76
102
}
330
76
100
AcDbMlineStyle
  2
STANDARD
 70
     0
  3

 62
     0
 51
90.0
 52
90.0
 71
     2
 49
0.5
 62
   256
  6
BYLAYER
 49
-0.5
 62
   256
  6
BYLAYER
  0
ACDBPLACEHOLDER
  5
5
102
{ACAD_REACTORS
330
6
102
}
330
6
100
AcDbPlaceHolder
280
     0
  0
XRECORD
  5
1B3F
102
{ACAD_REACTORS
330
1B35
102
}
330
1B35
100
AcDbXrecord
 90
        0
  0
XRECORD
  5
1B43
102
{ACAD_REACTORS
330
1B35
102
}
330
1B35
100
AcDbXrecord
1000
DSTYLE
1002
{
1070
   179
 70
     2
1070
   277
 70
     6
1002
}
  0
XRECORD
  5
1B40
102
{ACAD_REACTORS
330
1B35
102
}
330
1B35
100
AcDbXrecord
  1
{6385560B-F4B1-4644-A7C2-A3E32AC3D232}
  0
XRECORD
  5
1B38
102
{ACAD_REACTORS
330
1B35
102
}
330
1B35
100
AcDbXrecord
  1

  0
XRECORD
  5
1B3E
102
{ACAD_REACTORS
330
1B35
102
}
330
1B35
100
AcDbXrecord
 90
        0
  0
XRECORD
  5
1B3A
102
{ACAD_REACTORS
330
1B35
102
}
330
1B35
100
AcDbXrecord
340
61
  0
XRECORD
  5
1B3D
102
{ACAD_REACTORS
330
1B35
102
}
330
1B35
100
AcDbXrecord
 90
    10781
  0
XRECORD
  5
1B3B
102
{ACAD_REACTORS
330
1B35
102
}
330
1B35
100
AcDbXrecord
340
77
  0
XRECORD
  5
1B3C
102
{ACAD_REACTORS
330
1B35
102
}
330
1B35
100
AcDbXrecord
340
6
  0
XRECORD
  5
1B42
102
{ACAD_REACTORS
330
1B35
102
}
330
1B35
100
AcDbXrecord
 40
0.0
  0
XRECORD
  5
1B46
102
{ACAD_REACTORS
330
1B35
102
}
330
1B35
100
AcDbXrecord
340
0
  0
XRECORD
  5
1B4C
102
{ACAD_REACTORS
330
1B35
102
}
330
1B35
100
AcDbXrecord
 10
0.0
 20
0.0
 30
0.0
  0
XRECORD
  5
1B48
102
{ACAD_REACTORS
330
1B35
102
}
330
1B35
100
AcDbXrecord
 10
0.0
 20
0.0
 30
0.0
  0
XRECORD
  5
1B4B
102
{ACAD_REACTORS
330
1B35
102
}
330
1B35
100
AcDbXrecord
 10
0.0
 20
0.0
 30
0.0
  0
XRECORD
  5
1B49
102
{ACAD_REACTORS
330
1B35
102
}
330
1B35
100
AcDbXrecord
 10
0.0
 20
0.0
 30
0.0
  0
XRECORD
  5
1B4A
102
{ACAD_REACTORS
330
1B35
102
}
330
1B35
100
AcDbXrecord
 10
0.0
 20
0.0
 30
0.0
  0
XRECORD
  5
1B47
102
{ACAD_REACTORS
330
1B35
102
}
330
1B35
100
AcDbXrecord
 10
0.0
 20
0.0
 30
0.0
  0
XRECORD
  5
1B44
102
{ACAD_REACTORS
330
1B35
102
}
330
1B35
100
AcDbXrecord
340
0
  0
XRECORD
  5
1B45
102
{ACAD_REACTORS
330
1B35
102
}
330
1B35
100
AcDbXrecord
 70
     0
  0
XRECORD
  5
1B39
102
{ACAD_REACTORS
330
1B35
102
}
330
1B35
100
AcDbXrecord
  1
Sekkei.ctb
  0
XRECORD
  5
1B36
102
{ACAD_REACTORS
330
1B35
102
}
330
1B35
100
AcDbXrecord
 90
        1
  0
XRECORD
  5
1B37
102
{ACAD_REACTORS
330
1B35
102
}
330
1B35
100
AcDbXrecord
 90
       70
  0
XRECORD
  5
1B4F
102
{ACAD_REACTORS
330
1B35
102
}
330
1B35
100
AcDbXrecord
340
0
  0
XRECORD
  5
1B55
102
{ACAD_REACTORS
330
1B35
102
}
330
1B35
100
AcDbXrecord
 10
0.0
 20
0.0
 30
0.0
  0
XRECORD
  5
1B51
102
{ACAD_REACTORS
330
1B35
102
}
330
1B35
100
AcDbXrecord
 10
0.0
 20
0.0
 30
0.0
  0
XRECORD
  5
1B54
102
{ACAD_REACTORS
330
1B35
102
}
330
1B35
100
AcDbXrecord
 10
0.0
 20
0.0
 30
0.0
  0
XRECORD
  5
1B52
102
{ACAD_REACTORS
330
1B35
102
}
330
1B35
100
AcDbXrecord
 10
0.0
 20
0.0
 30
0.0
  0
XRECORD
  5
1B53
102
{ACAD_REACTORS
330
1B35
102
}
330
1B35
100
AcDbXrecord
 10
0.0
 20
0.0
 30
0.0
  0
XRECORD
  5
1B50
102
{ACAD_REACTORS
330
1B35
102
}
330
1B35
100
AcDbXrecord
 10
0.0
 20
0.0
 30
0.0
  0
XRECORD
  5
1B4D
102
{ACAD_REACTORS
330
1B35
102
}
330
1B35
100
AcDbXrecord
340
0
  0
XRECORD
  5
1B4E
102
{ACAD_REACTORS
330
1B35
102
}
330
1B35
100
AcDbXrecord
 70
     0
  0
XRECORD
  5
1B41
102
{ACAD_REACTORS
330
1B35
102
}
330
1B35
100
AcDbXrecord
  1
{4BE411B3-4C92-4D87-8D58-82DA869CF33E}
  0
DICTIONARYVAR
  5
103
102
{ACAD_REACTORS
330
102
102
}
330
102
100
DictionaryVariables
280
     0
  1
1
  0
ENDSEC
  0
EOF
