  0
SECTION
  2
HEADER
  9
$CLAYER
  8
1
  9
$LTSCALE
 40
3.0
  0
ENDSEC
  0
SECTION
  2
TABLES
  0
TABLE
  2
LTYPE
 70
     4
  0
LTYPE
  2
CONTINUOUS
  3
solid line
 70
    64
 72
    65
 73
     0
 40
0.0
  0
LTYPE
  2
DASHED
  3
__ __ __ __ __ __ __ __ __ __ __ __ __ __ __
 70
    64
 72
    65
 73
     2
 40
0.75
 49
0.5
 49
-0.25
  0
LTYPE
  2
CENTER
  3
____ _ ____ _ ____ _ ____ _ ____ _ ____ _ ____
 70
    64
 72
    65
 73
     4
 40
2.0
 49
1.25
 49
-0.25
 49
0.25
 49
-0.25
  0
LTYPE
  2
PHANTOM
  3
_____ _ _ _____ _ _ _____ _ _ _____ _ _ ____
 70
    64
 72
    65
 73
     6
 40
2.5
 49
1.25
 49
-0.25
 49
0.25
 49
-0.25
 49
0.25
 49
-0.25
  0
ENDTAB
  0
TABLE
  2
LAYER
 70
     1
  0
LAYER
  2
0
 70
    64
 62
     7
  6
CONTINUOUS
  0
ENDTAB
  0
TABLE
  2
STYLE
 70
     1
  0
STYLE
  2
STANDARD
 70
     0
 40
0.000000
 41
1.000000
 50
0.000000
 71
     0
 42
3.000000
  3
txt
  4
BIGFONT
  0
ENDTAB
  0
ENDSEC
  0
SECTION
  2
BLOCKS
  0
ENDSEC
  0
SECTION
  2
ENTITIES
  0
LINE
  8
0
  6
CENTER
 10
-9.638750
 20
331.152496
 11
328.186523
 21
331.152496
  0
ARC
  8
0
  6
CONTINUOUS
 10
270.347290
 20
-107.818298
 40
500.000000
 50
91.999352
 51
95.163734
  0
LINE
  8
0
  6
CONTINUOUS
 10
267.400146
 20
392.130524
 11
252.902359
 21
391.877289
  0
ARC
  8
0
  6
CONTINUOUS
 10
267.347778
 20
395.130096
 40
3.000000
 50
-88.999023
 51
0.000000
  0
LINE
  8
0
  6
CONTINUOUS
 10
280.346191
 20
407.652496
 11
280.346313
 21
254.652496
  0
LINE
  8
0
  6
CONTINUOUS
 10
273.346191
 20
408.152496
 11
279.846191
 21
408.152496
  0
LINE
  8
0
  6
CONTINUOUS
 10
273.346191
 20
254.152496
 11
279.846313
 21
254.152496
  0
LINE
  8
0
  6
CONTINUOUS
 10
280.346191
 20
403.652496
 11
282.846069
 21
403.652496
  0
LINE
  8
0
  6
CONTINUOUS
 10
280.346313
 20
258.652496
 11
282.846069
 21
258.652496
  0
LINE
  8
0
  6
CONTINUOUS
 10
283.346069
 20
403.152496
 11
283.346191
 21
259.152496
  0
LINE
  8
0
  6
CONTINUOUS
 10
270.346191
 20
405.152496
 11
270.345947
 21
257.152496
  0
LINE
  8
0
  6
CONTINUOUS
 10
282.846069
 20
258.652496
 11
283.346191
 21
259.152496
  0
LINE
  8
0
  6
CONTINUOUS
 10
279.846313
 20
254.152496
 11
280.346313
 21
254.652496
  0
LINE
  8
0
  6
CONTINUOUS
 10
279.846191
 20
408.152496
 11
280.346191
 21
407.652496
  0
LINE
  8
0
  6
CONTINUOUS
 10
282.846069
 20
403.652496
 11
283.346069
 21
403.152496
  0
LINE
  8
0
  6
CONTINUOUS
 10
225.346191
 20
390.152496
 11
225.346191
 21
272.152527
  0
ARC
  8
0
  6
CONTINUOUS
 10
270.347290
 20
770.123291
 40
500.000000
 50
-95.163734
 51
-91.999352
  0
LINE
  8
0
  6
CONTINUOUS
 10
267.400146
 20
270.174408
 11
252.902359
 21
270.427643
  0
ARC
  8
0
  6
CONTINUOUS
 10
267.347778
 20
267.174835
 40
3.000000
 50
0.000000
 51
88.999023
  0
LINE
  8
0
  6
CONTINUOUS
 10
285.346069
 20
341.152496
 11
285.346069
 21
321.152496
  0
LINE
  8
0
  6
CONTINUOUS
 10
283.346069
 20
341.152496
 11
285.346069
 21
341.152496
  0
LINE
  8
0
  6
CONTINUOUS
 10
283.346069
 20
321.152496
 11
285.346069
 21
321.152496
  0
LINE
  8
0
  6
CONTINUOUS
 10
285.346069
 20
340.152496
 11
315.346069
 21
340.152496
  0
LINE
  8
0
  6
CONTINUOUS
 10
315.346069
 20
340.152496
 11
315.346069
 21
319.652496
  0
LINE
  8
0
  6
CONTINUOUS
 10
288.346069
 20
322.667511
 11
288.346069
 21
319.652496
  0
LINE
  8
0
  6
CONTINUOUS
 10
288.346069
 20
319.652496
 11
315.346069
 21
319.652496
  0
LINE
  8
0
  6
CONTINUOUS
 10
285.346069
 20
322.152496
 11
288.346069
 21
322.152496
  0
ARC
  8
0
  6
CONTINUOUS
 10
273.346191
 20
257.152496
 40
3.000000
 50
180.000000
 51
270.000000
  0
ARC
  8
0
  6
CONTINUOUS
 10
273.346191
 20
405.152496
 40
3.000000
 50
90.000000
 51
180.000000
  0
LINE
  8
0
  6
CONTINUOUS
 10
218.381104
 20
388.915741
 11
210.846069
 21
388.652557
  0
ARC
  8
0
  6
CONTINUOUS
 10
218.346191
 20
389.915131
 40
1.000000
 50
271.999207
 51
321.059448
  0
LINE
  8
0
  6
CONTINUOUS
 10
219.346130
 20
389.508209
 11
219.346130
 21
272.784790
  0
LINE
  8
0
  6
CONTINUOUS
 10
218.381104
 20
273.389252
 11
210.846069
 21
273.652435
  0
ARC
  8
0
  6
CONTINUOUS
 10
218.346191
 20
272.389862
 40
1.000000
 50
-320.003998
 51
-271.999207
  0
LINE
  8
0
  6
CONTINUOUS
 10
282.846069
 20
26.160021
 11
280.346069
 21
26.160021
  0
LINE
  8
0
  6
CONTINUOUS
 10
283.346069
 20
26.660021
 11
282.846069
 21
26.160021
  0
LINE
  8
0
  6
CONTINUOUS
 10
282.846069
 20
171.160019
 11
283.346069
 21
170.660019
  0
LINE
  8
0
  6
CENTER
 10
251.203369
 20
98.660019
 11
326.019073
 21
98.660019
  0
LINE
  8
0
  6
CONTINUOUS
 10
283.346069
 20
26.660021
 11
283.346069
 21
170.660019
  0
LINE
  8
0
  6
CONTINUOUS
 10
225.346054
 20
144.659744
 11
225.345810
 21
20.659901
  0
LINE
  8
0
  6
CONTINUOUS
 10
280.346069
 20
171.160019
 11
282.846069
 21
171.160019
  0
LINE
  8
0
  6
CONTINUOUS
 10
280.346069
 20
26.160021
 11
282.846069
 21
26.160021
  0
LINE
  8
0
  6
CONTINUOUS
 10
280.346069
 20
19.160219
 11
280.346069
 21
175.160019
  0
LINE
  8
0
  6
CONTINUOUS
 10
270.345886
 20
172.660019
 11
270.345886
 21
21.782871
  0
LINE
  8
0
  6
CONTINUOUS
 10
279.846069
 20
175.660019
 11
273.346069
 21
175.660019
  0
ARC
  8
0
  6
CONTINUOUS
 10
270.345459
 20
-353.310974
 40
500.000000
 50
91.999352
 51
95.163643
  0
ARC
  8
0
  6
CONTINUOUS
 10
269.432098
 20
518.712402
 40
500.000000
 50
264.941071
 51
267.321899
  0
ARC
  8
0
  6
CONTINUOUS
 10
273.346069
 20
172.660019
 40
3.000000
 50
90.000000
 51
180.000000
  0
LINE
  8
0
  6
CONTINUOUS
 10
225.345856
 20
42.660019
 11
267.593475
 21
43.766220
  0
LINE
  8
0
  6
CONTINUOUS
 10
225.345840
 20
28.660000
 11
267.593475
 21
27.554041
  0
LINE
  8
0
  6
CONTINUOUS
 10
279.846069
 20
175.660019
 11
280.346069
 21
175.160019
  0
LINE
  8
0
  6
CONTINUOUS
 10
267.398285
 20
146.637680
 11
252.900467
 21
146.384506
  0
ARC
  8
0
  6
CONTINUOUS
 10
267.345886
 20
149.637344
 40
3.000000
 50
-88.999023
 51
0.000000
  0
LINE
  8
0
  6
CONTINUOUS
 10
279.846161
 20
18.668947
 11
246.070480
 21
19.258549
  0
LINE
  8
0
  6
CONTINUOUS
 10
285.346069
 20
108.660019
 11
285.346069
 21
88.660019
  0
LINE
  8
0
  6
CONTINUOUS
 10
285.346069
 20
107.659958
 11
315.346069
 21
107.660019
  0
LINE
  8
0
  6
CONTINUOUS
 10
285.346069
 20
89.660019
 11
315.346069
 21
89.660019
  0
LINE
  8
0
  6
CONTINUOUS
 10
315.346069
 20
107.660019
 11
315.346069
 21
89.660019
  0
LINE
  8
0
  6
CONTINUOUS
 10
291.346069
 20
101.660019
 11
315.346069
 21
101.660019
  0
LINE
  8
0
  6
CONTINUOUS
 10
291.346069
 20
95.660019
 11
315.346069
 21
95.660019
  0
ARC
  8
0
  6
CONTINUOUS
 10
291.346069
 20
98.660019
 40
3.000000
 50
90.000000
 51
270.000000
  0
LINE
  8
0
  6
CONTINUOUS
 10
283.346069
 20
88.660019
 11
285.346069
 21
88.660019
  0
LINE
  8
0
  6
CONTINUOUS
 10
283.346069
 20
108.660019
 11
285.346069
 21
108.660019
  0
LINE
  8
0
  6
CONTINUOUS
 10
219.345871
 20
142.554306
 11
219.345871
 21
22.765333
  0
LINE
  8
0
  6
CONTINUOUS
 10
224.470871
 20
42.659901
 11
220.720871
 21
42.659901
  0
LINE
  8
0
  6
CONTINUOUS
 10
224.470871
 20
28.659901
 11
220.720871
 21
28.659901
  0
LINE
  8
0
  6
CONTINUOUS
 10
210.845871
 20
139.660019
 11
210.845871
 21
24.660021
  0
LINE
  8
0
  6
CONTINUOUS
 10
210.845871
 20
139.660019
 11
218.377548
 21
139.923035
  0
LINE
  8
0
  6
CONTINUOUS
 10
210.845871
 20
24.660021
 11
218.378571
 21
24.396973
  0
LINE
  8
0
  6
CENTER
 10
-8.943726
 20
82.161865
 11
259.178101
 21
82.159615
  0
LINE
  8
0
  6
CENTER
 10
391.215637
 20
82.160019
 11
573.465637
 21
82.160019
  0
LINE
  8
0
  6
CENTER
 10
482.206238
 20
193.850021
 11
482.206238
 21
-2.569980
  0
CIRCLE
  8
0
  6
CONTINUOUS
 10
542.310242
 20
158.764206
 40
5.500000
  0
CIRCLE
  8
0
  6
CONTINUOUS
 10
422.102051
 20
38.555901
 40
5.500000
  0
CIRCLE
  8
0
  6
CONTINUOUS
 10
422.102051
 20
158.764206
 40
5.500000
  0
LINE
  8
0
  6
CENTER
 10
407.491058
 20
173.374863
 11
556.416443
 21
24.450121
  0
CIRCLE
  8
0
  6
CONTINUOUS
 10
542.310425
 20
38.555901
 40
5.500000
  0
CIRCLE
  8
0
  6
CONTINUOUS
 10
482.206238
 20
98.660019
 40
72.500000
  0
CIRCLE
  8
0
  6
CONTINUOUS
 10
482.206238
 20
98.660019
 40
67.500000
  0
LINE
  8
0
  6
CONTINUOUS
 10
484.706238
 20
162.925217
 11
484.706055
 21
143.413620
  0
LINE
  8
0
  6
CONTINUOUS
 10
479.706238
 20
162.925217
 11
479.706055
 21
143.413620
  0
ARC
  8
0
  6
CONTINUOUS
 10
476.706238
 20
162.925217
 40
3.000000
 50
0.000000
 51
94.896111
  0
ARC
  8
0
  6
CONTINUOUS
 10
487.706451
 20
162.925217
 40
3.000000
 50
85.108582
 51
180.000000
  0
CIRCLE
  8
0
  6
CONTINUOUS
 10
542.310242
 20
158.763824
 40
5.500000
  0
LINE
  8
0
  6
CENTER
 10
388.937500
 20
98.659775
 11
576.250000
 21
98.659775
  0
CIRCLE
  8
0
  6
CONTINUOUS
 10
542.310425
 20
38.555840
 40
5.500000
  0
CIRCLE
  8
0
  6
CONTINUOUS
 10
422.102264
 20
158.763824
 40
5.500000
  0
CIRCLE
  8
0
  6
CONTINUOUS
 10
422.102051
 20
38.555840
 40
5.500000
  0
LINE
  8
0
  6
CENTER
 10
408.036255
 20
24.490040
 11
555.811279
 21
172.265106
  0
LINE
  8
0
  6
CONTINUOUS
 10
525.880676
 20
145.870026
 11
513.947021
 21
133.936218
  0
LINE
  8
0
  6
CONTINUOUS
 10
529.416260
 20
142.334625
 11
518.991821
 21
131.910019
  0
LINE
  8
0
  6
CONTINUOUS
 10
438.531860
 20
145.869827
 11
450.465637
 21
133.936417
  0
LINE
  8
0
  6
CONTINUOUS
 10
434.996063
 20
142.334427
 11
445.420654
 21
131.910217
  0
ARC
  8
0
  6
CONTINUOUS
 10
432.874847
 20
140.213226
 40
3.000000
 50
45.000370
 51
139.895996
  0
ARC
  8
0
  6
CONTINUOUS
 10
440.653046
 20
147.991623
 40
3.000000
 50
130.112000
 51
225.000397
  0
ARC
  8
0
  6
CONTINUOUS
 10
523.759033
 20
147.991623
 40
3.000000
 50
-44.999939
 51
49.892139
  0
ARC
  8
0
  6
CONTINUOUS
 10
531.537048
 20
140.213821
 40
3.000000
 50
40.109409
 51
135.000504
  0
CIRCLE
  8
0
  6
CONTINUOUS
 10
482.206238
 20
98.660019
 40
25.000000
  0
ARC
  8
0
  6
CONTINUOUS
 10
482.206238
 20
-324.339966
 40
500.000000
 50
90.000000
 51
97.015846
  0
ARC
  8
0
  6
CONTINUOUS
 10
905.206421
 20
98.660019
 40
500.000000
 50
172.984299
 51
187.065796
  0
ARC
  8
0
  6
CONTINUOUS
 10
482.206238
 20
318.660217
 40
300.000000
 50
258.031403
 51
270.000000
  0
ARC
  8
0
  6
CONTINUOUS
 10
482.206238
 20
-324.339966
 40
500.000000
 50
82.984154
 51
90.000000
  0
ARC
  8
0
  6
CONTINUOUS
 10
59.206242
 20
98.660019
 40
500.000000
 50
-7.065796
 51
7.015738
  0
ARC
  8
0
  6
CONTINUOUS
 10
482.206238
 20
318.660217
 40
300.000000
 50
270.000000
 51
281.968597
  0
ARC
  8
0
  6
CONTINUOUS
 10
422.845245
 20
158.021027
 40
14.000000
 50
97.016220
 51
172.984604
  0
ARC
  8
0
  6
CONTINUOUS
 10
422.897247
 20
38.877300
 40
14.000000
 50
187.065796
 51
258.031311
  0
ARC
  8
0
  6
CONTINUOUS
 10
541.515442
 20
38.877300
 40
14.000000
 50
281.968689
 51
352.934387
  0
ARC
  8
0
  6
CONTINUOUS
 10
541.567444
 20
158.021027
 40
14.000000
 50
7.015888
 51
82.984283
  0
ARC
  8
0
  6
CONTINUOUS
 10
482.206238
 20
82.160019
 40
58.500000
 50
10.479610
 51
50.755550
  0
ARC
  8
0
  6
CONTINUOUS
 10
419.858063
 20
94.167831
 40
5.000000
 50
180.375198
 51
351.783203
  0
ARC
  8
0
  6
CONTINUOUS
 10
544.566040
 20
94.072433
 40
5.000000
 50
-173.108902
 51
2.124938
  0
ARC
  8
0
  6
CONTINUOUS
 10
443.299438
 20
129.789017
 40
3.000000
 50
-50.755192
 51
45.001190
  0
ARC
  8
0
  6
CONTINUOUS
 10
452.586639
 20
136.057419
 40
3.000000
 50
217.102707
 51
298.791687
  0
ARC
  8
0
  6
CONTINUOUS
 10
476.706055
 20
143.413620
 40
3.000000
 50
-84.868713
 51
0.000000
  0
ARC
  8
0
  6
CONTINUOUS
 10
487.705658
 20
143.413620
 40
3.000000
 50
180.000000
 51
264.869904
  0
ARC
  8
0
  6
CONTINUOUS
 10
511.826050
 20
136.057419
 40
3.000000
 50
241.208298
 51
315.000488
  0
ARC
  8
0
  6
CONTINUOUS
 10
521.113037
 20
129.789017
 40
3.000000
 50
135.000000
 51
230.755600
  0
ARC
  8
0
  6
CONTINUOUS
 10
482.206238
 20
82.160019
 40
58.500000
 50
61.208549
 51
84.869537
  0
ARC
  8
0
  6
CONTINUOUS
 10
482.206238
 20
82.160019
 40
58.500000
 50
95.130997
 51
118.791100
  0
ARC
  8
0
  6
CONTINUOUS
 10
482.206238
 20
82.160019
 40
58.500000
 50
129.244507
 51
169.327896
  0
CIRCLE
  8
0
  6
CENTER
 10
482.206238
 20
98.660019
 40
85.000000
  0
ARC
  8
0
  6
CONTINUOUS
 10
482.206238
 20
98.660019
 40
9.000000
 50
-160.527100
 51
160.530396
  0
LINE
  8
0
  6
CONTINUOUS
 10
476.706238
 20
101.659775
 11
476.706238
 21
95.659775
  0
LINE
  8
0
  6
CONTINUOUS
 10
470.706055
 20
101.659775
 11
470.706055
 21
95.659775
  0
LINE
  8
0
  6
CONTINUOUS
 10
470.706055
 20
101.659775
 11
476.706238
 21
101.659775
  0
LINE
  8
0
  6
CONTINUOUS
 10
470.706055
 20
95.659775
 11
476.706238
 21
95.659775
  0
LINE
  8
0
  6
CONTINUOUS
 10
210.846069
 20
388.652557
 11
210.846191
 21
273.652496
  0
LINE
  8
0
  6
CENTER
 10
284.804443
 20
158.764206
 11
265.566711
 21
158.764206
  0
LINE
  8
0
  6
CENTER
 10
284.804443
 20
38.555840
 11
265.566711
 21
38.555840
  0
LINE
  8
0
  6
CENTER
 10
284.804443
 20
391.256683
 11
265.566711
 21
391.256683
  0
LINE
  8
0
  6
CENTER
 10
284.804443
 20
271.048309
 11
265.566711
 21
271.048309
  0
ARC
  8
0
  6
CONTINUOUS
 10
218.342651
 20
140.922424
 40
1.000000
 50
272.000000
 51
359.884216
  0
ARC
  8
0
  6
CONTINUOUS
 10
218.343674
 20
23.397581
 40
1.000000
 50
0.189867
 51
88.000000
  0
ARC
  8
0
  6
CONTINUOUS
 10
273.346069
 20
21.782871
 40
3.000000
 50
180.000000
 51
268.999939
  0
LINE
  8
0
  6
CONTINUOUS
 10
279.846161
 20
18.668947
 11
280.346069
 21
19.160219
  0
LINE
  8
0
  6
CONTINUOUS
 10
225.346207
 20
390.152496
 11
220.627228
 21
390.028900
  0
ARC
  8
0
  6
CONTINUOUS
 10
220.679596
 20
388.029602
 40
2.000000
 50
91.500000
 51
141.059448
  0
ARC
  8
0
  6
CONTINUOUS
 10
218.346191
 20
272.389862
 40
1.000000
 50
-321.059448
 51
-271.999207
  0
LINE
  8
0
  6
CONTINUOUS
 10
225.346207
 20
272.152527
 11
220.627228
 21
272.276093
  0
ARC
  8
0
  6
CONTINUOUS
 10
220.679596
 20
274.275391
 40
2.000000
 50
-141.059448
 51
-91.500000
  0
LINE
  8
0
  6
CONTINUOUS
 10
221.293518
 20
144.553619
 11
225.346054
 21
144.659744
  0
ARC
  8
0
  6
CONTINUOUS
 10
221.345871
 20
142.554306
 40
2.000000
 50
91.500000
 51
180.000000
  0
LINE
  8
0
  6
CONTINUOUS
 10
225.345810
 20
20.659901
 11
221.293304
 21
20.766020
  0
ARC
  8
0
  6
CONTINUOUS
 10
221.345657
 20
22.765333
 40
2.000000
 50
180.000000
 51
268.500000
  0
LINE
  8
0
  6
CONTINUOUS
 10
288.346069
 20
322.667511
 11
315.346069
 21
322.667511
  0
LINE
  8
0
  6
DASHED
 10
280.346069
 20
396.756683
 11
270.346039
 21
396.756683
  0
LINE
  8
0
  6
DASHED
 10
280.346069
 20
385.756683
 11
270.346039
 21
385.756683
  0
LINE
  8
0
  6
DASHED
 10
280.346069
 20
276.548309
 11
270.346039
 21
276.548309
  0
LINE
  8
0
  6
DASHED
 10
280.346069
 20
265.548309
 11
270.346039
 21
265.548309
  0
LINE
  8
0
  6
DASHED
 10
280.346069
 20
164.264206
 11
270.346039
 21
164.264206
  0
LINE
  8
0
  6
DASHED
 10
280.346069
 20
153.264206
 11
270.346039
 21
153.264206
  0
LINE
  8
0
  6
DASHED
 10
280.346069
 20
44.055840
 11
270.346039
 21
44.055840
  0
LINE
  8
0
  6
DASHED
 10
280.346069
 20
33.055840
 11
270.346039
 21
33.055840
  0
LINE
  8
0
  6
CONTINUOUS
 10
117.846008
 20
388.652557
 11
117.846130
 21
273.652496
  0
LINE
  8
0
  6
CONTINUOUS
 10
12.846173
 20
388.652496
 11
117.846130
 21
388.652496
  0
LINE
  8
0
  6
CONTINUOUS
 10
12.846173
 20
273.652496
 11
20.846172
 21
273.652496
  0
LINE
  8
0
  6
CONTINUOUS
 10
12.846173
 20
388.652496
 11
12.846173
 21
273.652496
  0
LINE
  8
0
  6
CONTINUOUS
 10
20.846172
 20
388.652496
 11
20.846172
 21
357.152405
  0
LINE
  8
0
  6
CONTINUOUS
 10
20.846172
 20
357.152405
 11
109.846191
 21
357.152405
  0
LINE
  8
0
  6
CONTINUOUS
 10
20.846172
 20
364.923035
 11
109.846191
 21
364.923035
  0
LINE
  8
0
  6
CONTINUOUS
 10
21.846172
 20
368.202484
 11
108.846191
 21
368.202484
  0
LINE
  8
0
  6
CONTINUOUS
 10
20.846172
 20
373.017517
 11
109.846191
 21
373.017517
  0
LINE
  8
0
  6
CONTINUOUS
 10
21.846172
 20
375.005371
 11
108.846191
 21
375.005371
  0
LINE
  8
0
  6
CONTINUOUS
 10
20.846172
 20
379.048096
 11
109.846191
 21
379.048096
  0
LINE
  8
0
  6
CONTINUOUS
 10
20.846172
 20
383.579010
 11
109.846191
 21
383.579010
  0
LINE
  8
0
  6
CONTINUOUS
 10
20.846172
 20
386.456116
 11
109.846191
 21
386.456116
  0
LINE
  8
0
  6
CONTINUOUS
 10
20.846172
 20
388.111450
 11
109.846191
 21
388.111450
  0
LINE
  8
0
  6
CONTINUOUS
 10
109.846191
 20
388.652496
 11
109.846191
 21
357.152405
  0
LINE
  8
0
  6
CONTINUOUS
 10
20.846172
 20
273.652496
 11
20.846172
 21
305.152618
  0
LINE
  8
0
  6
CONTINUOUS
 10
20.846172
 20
305.152618
 11
109.846191
 21
305.152618
  0
LINE
  8
0
  6
CONTINUOUS
 10
20.846172
 20
297.381989
 11
109.846191
 21
297.381989
  0
LINE
  8
0
  6
CONTINUOUS
 10
21.846172
 20
294.102539
 11
108.846191
 21
294.102539
  0
LINE
  8
0
  6
CONTINUOUS
 10
20.846172
 20
289.287506
 11
109.846191
 21
289.287506
  0
LINE
  8
0
  6
CONTINUOUS
 10
21.846172
 20
287.299622
 11
108.846191
 21
287.299622
  0
LINE
  8
0
  6
CONTINUOUS
 10
20.846172
 20
283.256927
 11
109.846191
 21
283.256927
  0
LINE
  8
0
  6
CONTINUOUS
 10
87.846130
 20
278.726013
 11
109.846191
 21
278.726013
  0
LINE
  8
0
  6
CONTINUOUS
 10
87.846130
 20
275.848877
 11
109.846191
 21
275.848877
  0
LINE
  8
0
  6
CONTINUOUS
 10
88.346130
 20
274.193542
 11
109.846191
 21
274.193542
  0
LINE
  8
0
  6
CONTINUOUS
 10
109.846191
 20
273.652496
 11
109.846191
 21
305.152618
  0
LINE
  8
0
  6
CONTINUOUS
 10
21.846172
 20
275.152496
 11
86.846191
 21
275.152496
  0
LINE
  8
0
  6
CONTINUOUS
 10
88.346130
 20
273.652496
 11
117.846130
 21
273.652496
  0
LINE
  8
0
  6
CONTINUOUS
 10
87.846130
 20
274.152527
 11
87.846130
 21
280.351135
  0
ARC
  8
0
  6
CONTINUOUS
 10
88.346130
 20
274.152527
 40
0.500000
 50
-180.000000
 51
-90.000000
  0
ARC
  8
0
  6
CONTINUOUS
 10
88.346130
 20
274.693573
 40
0.500000
 50
-180.000000
 51
-90.000000
  0
LINE
  8
0
  6
CONTINUOUS
 10
20.846172
 20
280.351135
 11
87.846130
 21
280.351135
  0
ARC
  8
0
  6
CONTINUOUS
 10
86.846191
 20
276.152496
 40
1.000000
 50
-90.000000
 51
0.000000
  0
ARC
  8
0
  6
CONTINUOUS
 10
21.846172
 20
276.152496
 40
1.000000
 50
-180.000000
 51
-90.000000
  0
LINE
  8
0
  6
CONTINUOUS
 10
1.346173
 20
352.312714
 11
1.346173
 21
309.992279
  0
LINE
  8
0
  6
CONTINUOUS
 10
9.516173
 20
273.902496
 11
12.846173
 21
273.902496
  0
LINE
  8
0
  6
CONTINUOUS
 10
9.516173
 20
388.402466
 11
12.846173
 21
388.402466
  0
LINE
  8
0
  6
CONTINUOUS
 10
2.015973
 20
354.812714
 11
3.279173
 21
357.000519
  0
ARC
  8
0
  6
CONTINUOUS
 10
205.286133
 20
363.422485
 40
199.999985
 50
-186.406006
 51
-180.287292
  0
ARC
  8
0
  6
CONTINUOUS
 10
6.346173
 20
352.312714
 40
5.000000
 50
-210.000305
 51
-180.000000
  0
ARC
  8
0
  6
CONTINUOUS
 10
9.516173
 20
385.402527
 40
3.000000
 50
-270.000000
 51
-186.406006
  0
LINE
  8
0
  6
CONTINUOUS
 10
6.852373
 20
384.840057
 11
6.852373
 21
278.027435
  0
LINE
  8
0
  6
CONTINUOUS
 10
2.015973
 20
307.492279
 11
3.279373
 21
305.304260
  0
ARC
  8
0
  6
CONTINUOUS
 10
205.286133
 20
298.882538
 40
199.999985
 50
-179.712601
 51
-173.593994
  0
ARC
  8
0
  6
CONTINUOUS
 10
6.346173
 20
309.992279
 40
5.000000
 50
-180.000000
 51
-149.999695
  0
ARC
  8
0
  6
CONTINUOUS
 10
9.516173
 20
276.902466
 40
3.000000
 50
-173.593994
 51
-90.000000
  0
ARC
  8
0
  6
CONTINUOUS
 10
-9.711227
 20
364.500702
 40
15.000000
 50
-30.000500
 51
-0.287300
  0
ARC
  8
0
  6
CONTINUOUS
 10
-9.711227
 20
297.804260
 40
15.000000
 50
-359.713104
 51
-329.999908
  0
LINE
  8
0
  6
CONTINUOUS
 10
49.845955
 20
272.153442
 11
49.845955
 21
274.919464
  0
LINE
  8
0
  6
CONTINUOUS
 10
25.846373
 20
272.153442
 11
25.846373
 21
274.919464
  0
LINE
  8
0
  6
CONTINUOUS
 10
49.845955
 20
272.153442
 11
25.846373
 21
272.153442
  0
LINE
  8
0
  6
CONTINUOUS
 10
205.846130
 20
388.652496
 11
210.846130
 21
388.652496
  0
LINE
  8
0
  6
CONTINUOUS
 10
205.846130
 20
273.652496
 11
210.846130
 21
273.652496
  0
LINE
  8
0
  6
CONTINUOUS
 10
205.846130
 20
388.652496
 11
205.846130
 21
273.652496
  0
LINE
  8
0
  6
CONTINUOUS
 10
197.846130
 20
275.902496
 11
197.846130
 21
386.402496
  0
LINE
  8
0
  6
CONTINUOUS
 10
134.846130
 20
273.902496
 11
134.846130
 21
388.402496
  0
LINE
  8
0
  6
CONTINUOUS
 10
142.846130
 20
275.902496
 11
142.846130
 21
386.402496
  0
LINE
  8
0
  6
CONTINUOUS
 10
117.846130
 20
388.402496
 11
140.846130
 21
388.402496
  0
LINE
  8
0
  6
CONTINUOUS
 10
117.846130
 20
273.902496
 11
126.346252
 21
273.902496
  0
LINE
  8
0
  6
CONTINUOUS
 10
199.846130
 20
273.902496
 11
205.846130
 21
273.902496
  0
LINE
  8
0
  6
CONTINUOUS
 10
199.846130
 20
388.402496
 11
205.846130
 21
388.402496
  0
ARC
  8
0
  6
CONTINUOUS
 10
140.846130
 20
386.402496
 40
2.000000
 50
0.000000
 51
90.000000
  0
ARC
  8
0
  6
CONTINUOUS
 10
199.846130
 20
386.402496
 40
2.000000
 50
90.000000
 51
180.000000
  0
LINE
  8
0
  6
CONTINUOUS
 10
144.443008
 20
386.152496
 11
196.249252
 21
386.152496
  0
ARC
  8
0
  6
CONTINUOUS
 10
196.249252
 20
388.152496
 40
2.000000
 50
270.000000
 51
334.055511
  0
ARC
  8
0
  6
CONTINUOUS
 10
144.443008
 20
388.152496
 40
2.000000
 50
205.944473
 51
270.000000
  0
ARC
  8
0
  6
CONTINUOUS
 10
140.846130
 20
275.902496
 40
2.000000
 50
-90.000000
 51
0.000000
  0
ARC
  8
0
  6
CONTINUOUS
 10
199.846130
 20
275.902496
 40
2.000000
 50
-180.000000
 51
-90.000000
  0
LINE
  8
0
  6
CONTINUOUS
 10
144.443008
 20
276.152496
 11
176.346252
 21
276.152496
  0
ARC
  8
0
  6
CONTINUOUS
 10
196.249252
 20
274.152496
 40
2.000000
 50
-334.055511
 51
-270.000000
  0
ARC
  8
0
  6
CONTINUOUS
 10
144.443008
 20
274.152496
 40
2.000000
 50
-270.000000
 51
-205.944473
  0
LINE
  8
0
  6
CONTINUOUS
 10
144.443008
 20
298.152496
 11
196.249252
 21
298.152496
  0
LINE
  8
0
  6
CONTINUOUS
 10
144.443008
 20
364.152496
 11
196.249252
 21
364.152496
  0
LINE
  8
0
  6
CONTINUOUS
 10
173.846130
 20
276.652496
 11
181.846130
 21
276.652496
  0
LINE
  8
0
  6
CONTINUOUS
 10
181.846130
 20
279.181366
 11
181.846130
 21
276.652496
  0
LINE
  8
0
  6
CONTINUOUS
 10
173.846130
 20
279.181366
 11
173.846130
 21
276.652496
  0
LINE
  8
0
  6
CONTINUOUS
 10
127.157249
 20
276.289093
 11
126.344444
 21
276.209778
  0
LINE
  8
0
  6
CONTINUOUS
 10
126.345070
 20
276.208130
 11
125.724655
 21
275.972809
  0
LINE
  8
0
  6
CONTINUOUS
 10
125.709976
 20
275.989594
 11
125.476387
 21
275.785187
  0
LINE
  8
0
  6
CONTINUOUS
 10
125.487679
 20
275.772278
 11
125.509171
 21
275.514313
  0
LINE
  8
0
  6
CONTINUOUS
 10
125.542366
 20
275.517090
 11
125.706429
 21
275.371246
  0
LINE
  8
0
  6
CONTINUOUS
 10
125.699821
 20
275.333801
 11
126.107468
 21
275.261871
  0
LINE
  8
0
  6
CONTINUOUS
 10
126.110275
 20
275.284302
 11
126.346252
 21
275.254822
  0
LINE
  8
0
  6
CONTINUOUS
 10
128.495483
 20
276.319153
 11
128.878296
 21
276.228027
  0
LINE
  8
0
  6
CONTINUOUS
 10
128.878296
 20
276.228027
 11
129.406952
 21
276.136871
  0
LINE
  8
0
  6
CONTINUOUS
 10
129.406952
 20
276.136871
 11
129.753296
 21
276.063965
  0
LINE
  8
0
  6
CONTINUOUS
 10
129.753296
 20
276.063965
 11
129.935593
 21
275.991028
  0
LINE
  8
0
  6
CONTINUOUS
 10
129.967010
 20
276.021240
 11
130.117889
 21
275.845215
  0
LINE
  8
0
  6
CONTINUOUS
 10
130.117889
 20
275.826965
 11
130.203568
 21
275.655609
  0
LINE
  8
0
  6
CONTINUOUS
 10
130.154343
 20
275.608215
 11
130.008514
 21
275.462402
  0
LINE
  8
0
  6
CONTINUOUS
 10
129.996765
 20
275.428436
 11
129.498093
 21
275.298340
  0
LINE
  8
0
  6
CONTINUOUS
 10
129.489304
 20
275.282288
 11
129.346252
 21
275.275482
  0
LINE
  8
0
  6
CONTINUOUS
 10
127.157249
 20
276.289093
 11
127.438194
 21
276.296387
  0
LINE
  8
0
  6
CONTINUOUS
 10
127.438194
 20
276.296387
 11
128.021530
 21
276.305481
  0
LINE
  8
0
  6
CONTINUOUS
 10
128.021530
 20
276.305481
 11
128.495483
 21
276.319153
  0
ARC
  8
0
  6
CONTINUOUS
 10
177.846130
 20
270.016205
 40
10.000000
 50
66.421822
 51
113.578178
  0
LINE
  8
0
  6
CONTINUOUS
 10
134.845871
 20
139.410019
 11
134.845871
 21
24.910021
  0
LINE
  8
0
  6
CONTINUOUS
 10
134.845871
 20
139.410019
 11
117.845871
 21
139.410019
  0
LINE
  8
0
  6
CONTINUOUS
 10
134.845871
 20
24.910021
 11
117.845871
 21
24.910021
  0
LINE
  8
0
  6
CONTINUOUS
 10
127.845871
 20
96.160019
 11
127.845871
 21
70.410019
  0
LINE
  8
0
  6
CONTINUOUS
 10
129.345871
 20
96.160019
 11
129.345871
 21
69.472519
  0
LINE
  8
0
  6
CONTINUOUS
 10
126.345871
 20
96.160019
 11
126.345871
 21
69.870026
  0
LINE
  8
0
  6
CONTINUOUS
 10
126.345871
 20
69.870026
 11
127.820877
 21
71.566269
  0
LINE
  8
0
  6
CONTINUOUS
 10
127.850296
 20
70.417374
 11
129.366837
 21
69.507446
  0
ARC
  8
0
  6
CONTINUOUS
 10
128.595871
 20
96.160019
 40
0.750000
 50
0.000000
 51
180.000000
  0
ARC
  8
0
  6
CONTINUOUS
 10
127.095871
 20
96.160019
 40
0.750000
 50
0.000000
 51
180.000000
  0
ARC
  8
0
  6
CONTINUOUS
 10
127.845871
 20
96.160019
 40
3.000000
 50
-59.999939
 51
239.999893
  0
LINE
  8
0
  6
CONTINUOUS
 10
117.845871
 20
139.410019
 11
117.845871
 21
24.910021
  0
LINE
  8
0
  6
CONTINUOUS
 10
205.845871
 20
139.660019
 11
210.845871
 21
139.660019
  0
LINE
  8
0
  6
CONTINUOUS
 10
205.845871
 20
24.660021
 11
210.845871
 21
24.660021
  0
LINE
  8
0
  6
CONTINUOUS
 10
1.345874
 20
60.999802
 11
1.345874
 21
103.320236
  0
LINE
  8
0
  6
CONTINUOUS
 10
9.515934
 20
139.410019
 11
12.845874
 21
139.410019
  0
LINE
  8
0
  6
CONTINUOUS
 10
9.515934
 20
24.910061
 11
12.845874
 21
24.910061
  0
LINE
  8
0
  6
CONTINUOUS
 10
2.015734
 20
58.499802
 11
3.278888
 21
56.312000
  0
ARC
  8
0
  6
CONTINUOUS
 10
205.285873
 20
49.890041
 40
199.999985
 50
180.287292
 51
186.406006
  0
ARC
  8
0
  6
CONTINUOUS
 10
6.345858
 20
60.999802
 40
5.000000
 50
180.000000
 51
210.000305
  0
ARC
  8
0
  6
CONTINUOUS
 10
9.515918
 20
27.910021
 40
3.000000
 50
186.406006
 51
270.000000
  0
LINE
  8
0
  6
CONTINUOUS
 10
6.852008
 20
28.472481
 11
6.852008
 21
135.285126
  0
LINE
  8
0
  6
CONTINUOUS
 10
2.015734
 20
105.820236
 11
3.278994
 21
108.008263
  0
ARC
  8
0
  6
CONTINUOUS
 10
205.285873
 20
114.430000
 40
199.999985
 50
173.593994
 51
179.712601
  0
ARC
  8
0
  6
CONTINUOUS
 10
6.345858
 20
103.320236
 40
5.000000
 50
-210.000305
 51
-180.000000
  0
ARC
  8
0
  6
CONTINUOUS
 10
9.515918
 20
136.410065
 40
3.000000
 50
-270.000000
 51
-186.406006
  0
ARC
  8
0
  6
CONTINUOUS
 10
-9.711408
 20
48.811821
 40
15.000000
 50
0.287328
 51
30.000481
  0
ARC
  8
0
  6
CONTINUOUS
 10
-9.711408
 20
115.508263
 40
15.000000
 50
329.999908
 51
359.713104
  0
LINE
  8
0
  6
CONTINUOUS
 10
12.845874
 20
139.660019
 11
12.845874
 21
24.660021
  0
LINE
  8
0
  6
CONTINUOUS
 10
12.845874
 20
139.660019
 11
117.845871
 21
139.660019
  0
LINE
  8
0
  6
CONTINUOUS
 10
12.845874
 20
24.660021
 11
33.030872
 21
24.660021
  0
LINE
  8
0
  6
CONTINUOUS
 10
20.845875
 20
133.446045
 11
20.845875
 21
129.160019
  0
LINE
  8
0
  6
CONTINUOUS
 10
109.845871
 20
133.446045
 11
109.845871
 21
129.160019
  0
LINE
  8
0
  6
CONTINUOUS
 10
85.845871
 20
109.160019
 11
20.845875
 21
109.160019
  0
LINE
  8
0
  6
CONTINUOUS
 10
85.845871
 20
55.160019
 11
42.660873
 21
55.160019
  0
LINE
  8
0
  6
CONTINUOUS
 10
87.845871
 20
57.160019
 11
87.845871
 21
107.160019
  0
LINE
  8
0
  6
CONTINUOUS
 10
87.845871
 20
88.960007
 11
109.845871
 21
88.960007
  0
LINE
  8
0
  6
CONTINUOUS
 10
87.845871
 20
75.360031
 11
109.845871
 21
75.360031
  0
LINE
  8
0
  6
CONTINUOUS
 10
87.845871
 20
90.960007
 11
109.845871
 21
90.960007
  0
LINE
  8
0
  6
CONTINUOUS
 10
87.845871
 20
73.360031
 11
109.845871
 21
73.360031
  0
LINE
  8
0
  6
CONTINUOUS
 10
87.845871
 20
96.760025
 11
109.845871
 21
96.760025
  0
LINE
  8
0
  6
CONTINUOUS
 10
87.845871
 20
98.760025
 11
109.845871
 21
98.760025
  0
LINE
  8
0
  6
CONTINUOUS
 10
87.845871
 20
67.560013
 11
109.845871
 21
67.560013
  0
LINE
  8
0
  6
CONTINUOUS
 10
87.845871
 20
65.560013
 11
109.845871
 21
65.560013
  0
LINE
  8
0
  6
CONTINUOUS
 10
87.845871
 20
104.560020
 11
109.845871
 21
104.560020
  0
LINE
  8
0
  6
CONTINUOUS
 10
87.845871
 20
59.760021
 11
109.845871
 21
59.760021
  0
LINE
  8
0
  6
CONTINUOUS
 10
87.845871
 20
106.560020
 11
109.845871
 21
106.560020
  0
LINE
  8
0
  6
CONTINUOUS
 10
87.845871
 20
57.760021
 11
109.845871
 21
57.760021
  0
LINE
  8
0
  6
CONTINUOUS
 10
20.845875
 20
112.660019
 11
109.845871
 21
112.660019
  0
LINE
  8
0
  6
CONTINUOUS
 10
20.845875
 20
51.660019
 11
33.030872
 21
51.660019
  0
LINE
  8
0
  6
CONTINUOUS
 10
20.845875
 20
114.660019
 11
109.845871
 21
114.660019
  0
LINE
  8
0
  6
CONTINUOUS
 10
20.845875
 20
49.660019
 11
33.030872
 21
49.660019
  0
LINE
  8
0
  6
CONTINUOUS
 10
20.845875
 20
120.160019
 11
109.845871
 21
120.160019
  0
LINE
  8
0
  6
CONTINUOUS
 10
20.845875
 20
44.160019
 11
33.030872
 21
44.160019
  0
LINE
  8
0
  6
CONTINUOUS
 10
20.845875
 20
122.160019
 11
109.845871
 21
122.160019
  0
LINE
  8
0
  6
CONTINUOUS
 10
20.845875
 20
42.160019
 11
33.030872
 21
42.160019
  0
LINE
  8
0
  6
CONTINUOUS
 10
20.845875
 20
127.160019
 11
109.845871
 21
127.160019
  0
LINE
  8
0
  6
CONTINUOUS
 10
20.845875
 20
37.160019
 11
33.030872
 21
37.160019
  0
LINE
  8
0
  6
CONTINUOUS
 10
20.845875
 20
129.160019
 11
109.845871
 21
129.160019
  0
LINE
  8
0
  6
CONTINUOUS
 10
20.845875
 20
35.160019
 11
33.030872
 21
35.160019
  0
LINE
  8
0
  6
CONTINUOUS
 10
20.845875
 20
133.446045
 11
109.845871
 21
133.446045
  0
LINE
  8
0
  6
CONTINUOUS
 10
20.845875
 20
30.874001
 11
33.030872
 21
30.874001
  0
LINE
  8
0
  6
CONTINUOUS
 10
20.845875
 20
30.874001
 11
20.845875
 21
35.160019
  0
LINE
  8
0
  6
CONTINUOUS
 10
20.845875
 20
127.160019
 11
20.845875
 21
122.160019
  0
LINE
  8
0
  6
CONTINUOUS
 10
20.845875
 20
120.160019
 11
20.845875
 21
114.660019
  0
LINE
  8
0
  6
CONTINUOUS
 10
20.845875
 20
112.660019
 11
20.845875
 21
109.160019
  0
LINE
  8
0
  6
CONTINUOUS
 10
20.845875
 20
49.660019
 11
20.845875
 21
44.160019
  0
LINE
  8
0
  6
CONTINUOUS
 10
20.845875
 20
42.160019
 11
20.845875
 21
37.160019
  0
LINE
  8
0
  6
CONTINUOUS
 10
109.845871
 20
30.874001
 11
109.845871
 21
35.160019
  0
LINE
  8
0
  6
CONTINUOUS
 10
109.845871
 20
37.160019
 11
109.845871
 21
42.160019
  0
LINE
  8
0
  6
CONTINUOUS
 10
109.845871
 20
44.160019
 11
109.845871
 21
49.660019
  0
LINE
  8
0
  6
CONTINUOUS
 10
109.845871
 20
51.660019
 11
109.845871
 21
57.760021
  0
LINE
  8
0
  6
CONTINUOUS
 10
109.845871
 20
59.760021
 11
109.845871
 21
65.560013
  0
LINE
  8
0
  6
CONTINUOUS
 10
109.845871
 20
67.560013
 11
109.845871
 21
73.360031
  0
LINE
  8
0
  6
CONTINUOUS
 10
87.845871
 20
83.160019
 11
109.845871
 21
83.160019
  0
LINE
  8
0
  6
CONTINUOUS
 10
87.845871
 20
81.160019
 11
109.845871
 21
81.160019
  0
LINE
  8
0
  6
CONTINUOUS
 10
109.845871
 20
75.360031
 11
109.845871
 21
81.160019
  0
LINE
  8
0
  6
CONTINUOUS
 10
109.845871
 20
83.160019
 11
109.845871
 21
88.960037
  0
LINE
  8
0
  6
CONTINUOUS
 10
109.845871
 20
90.960007
 11
109.845871
 21
96.760025
  0
LINE
  8
0
  6
CONTINUOUS
 10
109.845871
 20
98.760025
 11
109.845871
 21
104.560020
  0
LINE
  8
0
  6
CONTINUOUS
 10
109.845871
 20
106.560020
 11
109.845871
 21
112.660019
  0
LINE
  8
0
  6
CONTINUOUS
 10
109.845871
 20
114.660019
 11
109.845871
 21
120.160019
  0
LINE
  8
0
  6
CONTINUOUS
 10
109.845871
 20
122.160019
 11
109.845871
 21
127.160019
  0
ARC
  8
0
  6
CONTINUOUS
 10
85.845871
 20
107.160019
 40
2.000000
 50
0.000000
 51
90.000000
  0
ARC
  8
0
  6
CONTINUOUS
 10
85.845871
 20
57.160019
 40
2.000000
 50
-90.000000
 51
0.000000
  0
ARC
  8
0
  6
CONTINUOUS
 10
22.845875
 20
107.160019
 40
2.000000
 50
90.000000
 51
180.000000
  0
ARC
  8
0
  6
CONTINUOUS
 10
22.845875
 20
57.160019
 40
2.000000
 50
180.000000
 51
270.000000
  0
LINE
  8
0
  6
CONTINUOUS
 10
20.845875
 20
51.660019
 11
20.845875
 21
55.160019
  0
LINE
  8
0
  6
CONTINUOUS
 10
20.845865
 20
107.160057
 11
20.845865
 21
57.160019
  0
ARC
  8
0
  6
CONTINUOUS
 10
37.845875
 20
82.160019
 40
12.000000
 50
259.508698
 51
263.708496
  0
ARC
  8
0
  6
CONTINUOUS
 10
37.845875
 20
86.160019
 40
1.500000
 50
-28.757320
 51
208.757202
  0
LINE
  8
0
  6
CONTINUOUS
 10
36.530872
 20
86.160019
 11
36.530872
 21
21.785021
  0
LINE
  8
0
  6
CONTINUOUS
 10
39.160873
 20
86.160019
 11
39.160873
 21
21.785021
  0
CIRCLE
  8
0
  6
CONTINUOUS
 10
37.845875
 20
8.785020
 40
2.150000
  0
ARC
  8
0
  6
CONTINUOUS
 10
37.845875
 20
8.785020
 40
3.750000
 50
-230.263107
 51
50.263371
  0
LINE
  8
0
  6
CONTINUOUS
 10
36.030872
 20
21.785021
 11
39.660873
 21
21.785021
  0
LINE
  8
0
  6
CONTINUOUS
 10
36.530872
 20
14.585000
 11
39.160873
 21
14.585000
  0
ARC
  8
0
  6
CONTINUOUS
 10
33.530872
 20
13.975700
 40
3.000000
 50
-50.263611
 51
0.000000
  0
ARC
  8
0
  6
CONTINUOUS
 10
42.160873
 20
13.975700
 40
3.000000
 50
180.000000
 51
230.263306
  0
LINE
  8
0
  6
CONTINUOUS
 10
36.030872
 20
18.785021
 11
39.660873
 21
18.785021
  0
LINE
  8
0
  6
CONTINUOUS
 10
36.030872
 20
21.785021
 11
36.030872
 21
18.785021
  0
LINE
  8
0
  6
CONTINUOUS
 10
39.660873
 20
21.785021
 11
39.660873
 21
18.785021
  0
LINE
  8
0
  6
CONTINUOUS
 10
36.530872
 20
13.975700
 11
36.530872
 21
18.785021
  0
LINE
  8
0
  6
CONTINUOUS
 10
39.160873
 20
13.975700
 11
39.160873
 21
18.785021
  0
ARC
  8
0
  6
CONTINUOUS
 10
37.845875
 20
86.160019
 40
1.315000
 50
0.000000
 51
180.000000
  0
ARC
  8
0
  6
CONTINUOUS
 10
41.345875
 20
80.160019
 40
1.500000
 50
-28.757320
 51
208.757202
  0
LINE
  8
0
  6
CONTINUOUS
 10
40.030872
 20
80.160019
 11
40.030872
 21
15.785020
  0
LINE
  8
0
  6
CONTINUOUS
 10
42.660873
 20
80.160019
 11
42.660873
 21
15.785020
  0
CIRCLE
  8
0
  6
CONTINUOUS
 10
41.345875
 20
2.785020
 40
2.150000
  0
ARC
  8
0
  6
CONTINUOUS
 10
41.345875
 20
2.785020
 40
3.750000
 50
142.411804
 51
158.967697
  0
LINE
  8
0
  6
CONTINUOUS
 10
39.530872
 20
15.785020
 11
43.160873
 21
15.785020
  0
LINE
  8
0
  6
CONTINUOUS
 10
41.590534
 20
8.585000
 11
42.660873
 21
8.585000
  0
ARC
  8
0
  6
CONTINUOUS
 10
45.660873
 20
7.975700
 40
3.000000
 50
180.000000
 51
230.263306
  0
LINE
  8
0
  6
CONTINUOUS
 10
39.530872
 20
12.785020
 11
43.160873
 21
12.785020
  0
LINE
  8
0
  6
CONTINUOUS
 10
39.530872
 20
15.785020
 11
39.530872
 21
12.785020
  0
LINE
  8
0
  6
CONTINUOUS
 10
43.160873
 20
15.785020
 11
43.160873
 21
12.785020
  0
LINE
  8
0
  6
CONTINUOUS
 10
40.030872
 20
11.863080
 11
40.030872
 21
12.785020
  0
LINE
  8
0
  6
CONTINUOUS
 10
42.660873
 20
7.975700
 11
42.660873
 21
12.785020
  0
ARC
  8
0
  6
CONTINUOUS
 10
41.345875
 20
80.160019
 40
1.315000
 50
0.000000
 51
180.000000
  0
ARC
  8
0
  6
CONTINUOUS
 10
34.345875
 20
80.160019
 40
1.500000
 50
-28.757320
 51
208.757202
  0
LINE
  8
0
  6
CONTINUOUS
 10
33.030872
 20
80.160019
 11
33.030872
 21
15.785020
  0
LINE
  8
0
  6
CONTINUOUS
 10
35.660873
 20
80.160019
 11
35.660873
 21
15.785020
  0
CIRCLE
  8
0
  6
CONTINUOUS
 10
34.345875
 20
2.785020
 40
2.150000
  0
ARC
  8
0
  6
CONTINUOUS
 10
34.345875
 20
2.785020
 40
3.750000
 50
-230.263107
 51
37.587730
  0
LINE
  8
0
  6
CONTINUOUS
 10
32.530872
 20
15.785020
 11
36.160873
 21
15.785020
  0
LINE
  8
0
  6
CONTINUOUS
 10
33.030872
 20
8.585000
 11
34.095875
 21
8.585000
  0
ARC
  8
0
  6
CONTINUOUS
 10
30.030874
 20
7.975700
 40
3.000000
 50
-50.263611
 51
0.000000
  0
LINE
  8
0
  6
CONTINUOUS
 10
32.530872
 20
12.785020
 11
36.160873
 21
12.785020
  0
LINE
  8
0
  6
CONTINUOUS
 10
32.530872
 20
15.785020
 11
32.530872
 21
12.785020
  0
LINE
  8
0
  6
CONTINUOUS
 10
36.160873
 20
15.785020
 11
36.160873
 21
12.785020
  0
LINE
  8
0
  6
CONTINUOUS
 10
33.030872
 20
7.975700
 11
33.030872
 21
12.785020
  0
LINE
  8
0
  6
CONTINUOUS
 10
35.660873
 20
11.863080
 11
35.660873
 21
12.785020
  0
ARC
  8
0
  6
CONTINUOUS
 10
34.345875
 20
80.160019
 40
1.315000
 50
0.000000
 51
180.000000
  0
ARC
  8
0
  6
CONTINUOUS
 10
41.345875
 20
2.785020
 40
3.750000
 50
-158.968201
 51
50.263371
  0
ARC
  8
0
  6
CONTINUOUS
 10
37.845875
 20
82.160019
 40
12.000000
 50
276.291290
 51
280.491211
  0
ARC
  8
0
  6
CONTINUOUS
 10
37.845875
 20
82.160019
 40
12.000000
 50
-66.343658
 51
246.343506
  0
LINE
  8
0
  6
CONTINUOUS
 10
20.845875
 20
55.160019
 11
33.030872
 21
55.160019
  0
LINE
  8
0
  6
CONTINUOUS
 10
35.660873
 20
55.160019
 11
36.530872
 21
55.160019
  0
LINE
  8
0
  6
CONTINUOUS
 10
39.160873
 20
55.160019
 11
40.030872
 21
55.160019
  0
LINE
  8
0
  6
CONTINUOUS
 10
109.845871
 20
51.660019
 11
42.660873
 21
51.660019
  0
LINE
  8
0
  6
CONTINUOUS
 10
35.660873
 20
51.660019
 11
36.530872
 21
51.660019
  0
LINE
  8
0
  6
CONTINUOUS
 10
39.160873
 20
51.660019
 11
40.030872
 21
51.660019
  0
LINE
  8
0
  6
CONTINUOUS
 10
109.845871
 20
49.660019
 11
42.660873
 21
49.660019
  0
LINE
  8
0
  6
CONTINUOUS
 10
35.660873
 20
49.660019
 11
36.530872
 21
49.660019
  0
LINE
  8
0
  6
CONTINUOUS
 10
39.160873
 20
49.660019
 11
40.030872
 21
49.660019
  0
LINE
  8
0
  6
CONTINUOUS
 10
109.845871
 20
44.160019
 11
42.660873
 21
44.160019
  0
LINE
  8
0
  6
CONTINUOUS
 10
35.660873
 20
44.160019
 11
36.530872
 21
44.160019
  0
LINE
  8
0
  6
CONTINUOUS
 10
39.160873
 20
44.160019
 11
40.030872
 21
44.160019
  0
LINE
  8
0
  6
CONTINUOUS
 10
109.845871
 20
42.160019
 11
42.660873
 21
42.160019
  0
LINE
  8
0
  6
CONTINUOUS
 10
35.660873
 20
42.160019
 11
36.530872
 21
42.160019
  0
LINE
  8
0
  6
CONTINUOUS
 10
39.160873
 20
42.160019
 11
40.030872
 21
42.160019
  0
LINE
  8
0
  6
CONTINUOUS
 10
109.845871
 20
37.160019
 11
42.660873
 21
37.160019
  0
LINE
  8
0
  6
CONTINUOUS
 10
35.660873
 20
37.160019
 11
36.530872
 21
37.160019
  0
LINE
  8
0
  6
CONTINUOUS
 10
39.160873
 20
37.160019
 11
40.030872
 21
37.160019
  0
LINE
  8
0
  6
CONTINUOUS
 10
109.845871
 20
35.160019
 11
42.660873
 21
35.160019
  0
LINE
  8
0
  6
CONTINUOUS
 10
35.660873
 20
35.160019
 11
36.530872
 21
35.160019
  0
LINE
  8
0
  6
CONTINUOUS
 10
39.160873
 20
35.160019
 11
40.030872
 21
35.160019
  0
LINE
  8
0
  6
CONTINUOUS
 10
109.845871
 20
30.874001
 11
42.660873
 21
30.874001
  0
LINE
  8
0
  6
CONTINUOUS
 10
35.660873
 20
30.874001
 11
36.530872
 21
30.874001
  0
LINE
  8
0
  6
CONTINUOUS
 10
39.160873
 20
30.874001
 11
40.030872
 21
30.874001
  0
LINE
  8
0
  6
CONTINUOUS
 10
117.845871
 20
24.660021
 11
42.660873
 21
24.660021
  0
LINE
  8
0
  6
CONTINUOUS
 10
35.660873
 20
24.660021
 11
36.530872
 21
24.660021
  0
LINE
  8
0
  6
CONTINUOUS
 10
39.160873
 20
24.660021
 11
40.030872
 21
24.660021
  0
LINE
  8
0
  6
CONTINUOUS
 10
205.845871
 20
139.660019
 11
205.845871
 21
24.660021
  0
LINE
  8
0
  6
CONTINUOUS
 10
33.031254
 20
272.153442
 11
33.031254
 21
264.436432
  0
LINE
  8
0
  6
CONTINUOUS
 10
35.661255
 20
272.153442
 11
35.661255
 21
264.625244
  0
LINE
  8
0
  6
CONTINUOUS
 10
36.531254
 20
272.153442
 11
36.531254
 21
264.373901
  0
LINE
  8
0
  6
CONTINUOUS
 10
39.161255
 20
272.153442
 11
39.161255
 21
264.105225
  0
LINE
  8
0
  6
CONTINUOUS
 10
40.031254
 20
272.153442
 11
40.031254
 21
264.221222
  0
LINE
  8
0
  6
CONTINUOUS
 10
42.661255
 20
272.153442
 11
42.661255
 21
263.831482
  0
LINE
  8
0
  6
CONTINUOUS
 10
33.031254
 20
264.436432
 11
34.770805
 21
264.882477
  0
LINE
  8
0
  6
CONTINUOUS
 10
34.770805
 20
264.882477
 11
35.661255
 21
264.625244
  0
LINE
  8
0
  6
CONTINUOUS
 10
37.998150
 20
263.950134
 11
39.161255
 21
264.105225
  0
LINE
  8
0
  6
CONTINUOUS
 10
41.225494
 20
264.380463
 11
42.661255
 21
263.831482
  0
LINE
  8
0
  6
CONTINUOUS
 10
36.531254
 20
264.373901
 11
37.998150
 21
263.950134
  0
LINE
  8
0
  6
CONTINUOUS
 10
40.031254
 20
264.221222
 11
41.225494
 21
264.380463
  0
LINE
  8
0
  6
CONTINUOUS
 10
126.346252
 20
269.944366
 11
127.846252
 21
270.372955
  0
LINE
  8
0
  6
CONTINUOUS
 10
127.846252
 20
269.386414
 11
129.346252
 21
269.902802
  0
LINE
  8
0
  6
CONTINUOUS
 10
126.346252
 20
276.088531
 11
126.346252
 21
269.944366
  0
LINE
  8
0
  6
CONTINUOUS
 10
127.846252
 20
276.196106
 11
127.846252
 21
269.386414
  0
LINE
  8
0
  6
CONTINUOUS
 10
129.346252
 20
276.034760
 11
129.346252
 21
269.902802
  0
LINE
  8
0
  6
CONTINUOUS
 10
176.346252
 20
276.652496
 11
176.346252
 21
271.701477
  0
LINE
  8
0
  6
CONTINUOUS
 10
176.346252
 20
271.701477
 11
177.846252
 21
272.130066
  0
LINE
  8
0
  6
CONTINUOUS
 10
177.846252
 20
276.652496
 11
177.846252
 21
271.143494
  0
LINE
  8
0
  6
CONTINUOUS
 10
177.846252
 20
271.143494
 11
179.346252
 21
271.659912
  0
LINE
  8
0
  6
CONTINUOUS
 10
179.346252
 20
276.652496
 11
179.346252
 21
271.659912
  0
LINE
  8
0
  6
CONTINUOUS
 10
179.346252
 20
276.152496
 11
196.249252
 21
276.152496
  0
LINE
  8
0
  6
CONTINUOUS
 10
129.346252
 20
273.902496
 11
140.846130
 21
273.902496
  0
LINE
  8
0
  6
CONTINUOUS
 10
142.845871
 20
26.910000
 11
142.845871
 21
137.410004
  0
LINE
  8
0
  6
CONTINUOUS
 10
197.845871
 20
26.910000
 11
197.845871
 21
137.410004
  0
LINE
  8
0
  6
CONTINUOUS
 10
144.845871
 20
126.160004
 11
195.845871
 21
126.160004
  0
LINE
  8
0
  6
CONTINUOUS
 10
144.845871
 20
34.160000
 11
195.845871
 21
34.160000
  0
LINE
  8
0
  6
CONTINUOUS
 10
134.845871
 20
139.410004
 11
140.845871
 21
139.410004
  0
LINE
  8
0
  6
CONTINUOUS
 10
134.845871
 20
24.910000
 11
140.845871
 21
24.910000
  0
ARC
  8
0
  6
CONTINUOUS
 10
144.845871
 20
128.160004
 40
2.000000
 50
180.000000
 51
270.000000
  0
ARC
  8
0
  6
CONTINUOUS
 10
195.845871
 20
128.160004
 40
2.000000
 50
-90.000000
 51
0.000000
  0
ARC
  8
0
  6
CONTINUOUS
 10
144.845871
 20
32.160019
 40
2.000000
 50
90.000000
 51
180.000000
  0
ARC
  8
0
  6
CONTINUOUS
 10
195.845871
 20
32.160000
 40
2.000000
 50
0.000000
 51
90.000000
  0
ARC
  8
0
  6
CONTINUOUS
 10
140.845871
 20
137.410004
 40
2.000000
 50
0.000000
 51
90.000000
  0
ARC
  8
0
  6
CONTINUOUS
 10
199.845871
 20
137.410019
 40
2.000000
 50
90.000000
 51
180.000000
  0
ARC
  8
0
  6
CONTINUOUS
 10
199.845871
 20
26.910000
 40
2.000000
 50
180.000000
 51
270.000000
  0
ARC
  8
0
  6
CONTINUOUS
 10
140.845871
 20
26.910000
 40
2.000000
 50
-90.000000
 51
0.000000
  0
LINE
  8
0
  6
CONTINUOUS
 10
143.845871
 20
73.160004
 11
143.845871
 21
86.160004
  0
LINE
  8
0
  6
CONTINUOUS
 10
165.845871
 20
86.160004
 11
165.845871
 21
73.160004
  0
LINE
  8
0
  6
CONTINUOUS
 10
196.845871
 20
73.160004
 11
196.845871
 21
86.160004
  0
LINE
  8
0
  6
CONTINUOUS
 10
174.845871
 20
73.160004
 11
174.845871
 21
86.160004
  0
LINE
  8
0
  6
CONTINUOUS
 10
164.845871
 20
87.160004
 11
144.845871
 21
87.160004
  0
LINE
  8
0
  6
CONTINUOUS
 10
164.845871
 20
72.160004
 11
144.845871
 21
72.160004
  0
ARC
  8
0
  6
CONTINUOUS
 10
144.845871
 20
86.160004
 40
1.000000
 50
90.000000
 51
180.000000
  0
ARC
  8
0
  6
CONTINUOUS
 10
144.845871
 20
73.160004
 40
1.000000
 50
180.000000
 51
270.000000
  0
ARC
  8
0
  6
CONTINUOUS
 10
164.845871
 20
73.160004
 40
1.000000
 50
-90.000000
 51
0.000000
  0
ARC
  8
0
  6
CONTINUOUS
 10
164.845871
 20
86.160004
 40
1.000000
 50
0.000000
 51
90.000000
  0
ARC
  8
0
  6
CONTINUOUS
 10
175.845871
 20
86.160004
 40
1.000000
 50
90.000000
 51
180.000000
  0
ARC
  8
0
  6
CONTINUOUS
 10
175.845871
 20
73.160004
 40
1.000000
 50
180.000000
 51
270.000000
  0
ARC
  8
0
  6
CONTINUOUS
 10
195.845871
 20
86.160004
 40
1.000000
 50
0.000000
 51
90.000000
  0
ARC
  8
0
  6
CONTINUOUS
 10
195.845871
 20
73.160004
 40
1.000000
 50
-90.000000
 51
0.000000
  0
LINE
  8
0
  6
CONTINUOUS
 10
177.845871
 20
96.160004
 11
177.845871
 21
70.216057
  0
LINE
  8
0
  6
CONTINUOUS
 10
179.345871
 20
96.160004
 11
179.345871
 21
69.358910
  0
LINE
  8
0
  6
CONTINUOUS
 10
176.345871
 20
96.160004
 11
176.345871
 21
70.100975
  0
LINE
  8
0
  6
CONTINUOUS
 10
176.345871
 20
70.100975
 11
177.845871
 21
71.338463
  0
LINE
  8
0
  6
CONTINUOUS
 10
177.845871
 20
70.216057
 11
179.345871
 21
69.358910
  0
ARC
  8
0
  6
CONTINUOUS
 10
178.595871
 20
96.160004
 40
0.750000
 50
0.000000
 51
180.000000
  0
ARC
  8
0
  6
CONTINUOUS
 10
177.095871
 20
96.160004
 40
0.750000
 50
0.000000
 51
180.000000
  0
LINE
  8
0
  6
CONTINUOUS
 10
175.845871
 20
87.160004
 11
176.345871
 21
87.160004
  0
LINE
  8
0
  6
CONTINUOUS
 10
175.845871
 20
72.160004
 11
176.345871
 21
72.160004
  0
LINE
  8
0
  6
CONTINUOUS
 10
144.738937
 20
68.565758
 11
196.189667
 21
68.565758
  0
LINE
  8
0
  6
CONTINUOUS
 10
199.845871
 20
139.410004
 11
205.845871
 21
139.410004
  0
LINE
  8
0
  6
CONTINUOUS
 10
199.845871
 20
24.910000
 11
205.845871
 21
24.910000
  0
LINE
  8
0
  6
CONTINUOUS
 10
195.845871
 20
72.160004
 11
179.345871
 21
72.160004
  0
LINE
  8
0
  6
CONTINUOUS
 10
195.845871
 20
87.160004
 11
179.345871
 21
87.160004
  0
LINE
  8
0
  6
CONTINUOUS
 10
144.738937
 20
65.160065
 11
196.189667
 21
65.160065
  0
LINE
  8
0
  6
CONTINUOUS
 10
185.845871
 20
51.764061
 11
185.845871
 21
36.160000
  0
LINE
  8
0
  6
CONTINUOUS
 10
154.845871
 20
51.764061
 11
154.845871
 21
36.160000
  0
LINE
  8
0
  6
CONTINUOUS
 10
144.738937
 20
55.495480
 11
153.410248
 21
55.495480
  0
LINE
  8
0
  6
CONTINUOUS
 10
187.304001
 20
55.495480
 11
196.189667
 21
55.495480
  0
ARC
  8
0
  6
CONTINUOUS
 10
152.845871
 20
36.160000
 40
2.000000
 50
-90.000000
 51
0.000000
  0
ARC
  8
0
  6
CONTINUOUS
 10
187.845871
 20
36.160000
 40
2.000000
 50
180.000000
 51
270.000000
  0
LINE
  8
0
  6
CONTINUOUS
 10
155.503693
 20
45.281883
 11
185.011185
 21
45.281883
  0
ARC
  8
0
  6
CONTINUOUS
 10
177.845871
 20
96.160263
 40
4.000000
 50
-67.975685
 51
247.975693
  0
TEXT
  8
0
 10
-9.000000
 20
-14.000000
 40
4.000000
 41
1.000000
  1
G3FE-18-5~50-T010
 50
0.000000
  0
ENDSEC
  0
EOF
