  0
SECTION
  2
HEADER
  9
$CLAYER
  8
1
  9
$LTSCALE
 40
3.0
  0
ENDSEC
  0
SECTION
  2
TABLES
  0
TABLE
  2
LTYPE
 70
     4
  0
LTYPE
  2
CONTINUOUS
  3
solid line
 70
    64
 72
    65
 73
     0
 40
0.0
  0
LTYPE
  2
DASHED
  3
__ __ __ __ __ __ __ __ __ __ __ __ __ __ __
 70
    64
 72
    65
 73
     2
 40
0.75
 49
0.5
 49
-0.25
  0
LTYPE
  2
CENTER
  3
____ _ ____ _ ____ _ ____ _ ____ _ ____ _ ____
 70
    64
 72
    65
 73
     4
 40
2.0
 49
1.25
 49
-0.25
 49
0.25
 49
-0.25
  0
LTYPE
  2
PHANTOM
  3
_____ _ _ _____ _ _ _____ _ _ _____ _ _ ____
 70
    64
 72
    65
 73
     6
 40
2.5
 49
1.25
 49
-0.25
 49
0.25
 49
-0.25
 49
0.25
 49
-0.25
  0
ENDTAB
  0
TABLE
  2
LAYER
 70
     1
  0
LAYER
  2
0
 70
    64
 62
     7
  6
CONTINUOUS
  0
ENDTAB
  0
TABLE
  2
STYLE
 70
     1
  0
STYLE
  2
STANDARD
 70
     0
 40
0.000000
 41
1.000000
 50
0.000000
 71
     0
 42
3.000000
  3
txt
  4
BIGFONT
  0
ENDTAB
  0
ENDSEC
  0
SECTION
  2
BLOCKS
  0
ENDSEC
  0
SECTION
  2
ENTITIES
  0
LINE
  8
0
  6
CENTER
 10
-9.618750
 20
328.932526
 11
328.206543
 21
328.932526
  0
ARC
  8
0
  6
CONTINUOUS
 10
270.367279
 20
-110.038277
 40
500.000000
 50
91.999352
 51
95.163734
  0
LINE
  8
0
  6
CONTINUOUS
 10
267.420166
 20
389.910553
 11
252.922348
 21
389.657318
  0
ARC
  8
0
  6
CONTINUOUS
 10
267.367767
 20
392.910126
 40
3.000000
 50
-88.999023
 51
0.000000
  0
LINE
  8
0
  6
CONTINUOUS
 10
280.366180
 20
405.432526
 11
280.366302
 21
252.432526
  0
LINE
  8
0
  6
CONTINUOUS
 10
273.366180
 20
405.932526
 11
279.866180
 21
405.932526
  0
LINE
  8
0
  6
CONTINUOUS
 10
273.366180
 20
251.932526
 11
279.866302
 21
251.932526
  0
LINE
  8
0
  6
CONTINUOUS
 10
280.366180
 20
401.432526
 11
282.866089
 21
401.432526
  0
LINE
  8
0
  6
CONTINUOUS
 10
280.366302
 20
256.432526
 11
282.866089
 21
256.432526
  0
LINE
  8
0
  6
CONTINUOUS
 10
283.366089
 20
400.932526
 11
283.366180
 21
256.932526
  0
LINE
  8
0
  6
CONTINUOUS
 10
270.366180
 20
402.932526
 11
270.365967
 21
254.932526
  0
LINE
  8
0
  6
CONTINUOUS
 10
282.866089
 20
256.432526
 11
283.366180
 21
256.932526
  0
LINE
  8
0
  6
CONTINUOUS
 10
279.866302
 20
251.932526
 11
280.366302
 21
252.432526
  0
LINE
  8
0
  6
CONTINUOUS
 10
279.866180
 20
405.932526
 11
280.366180
 21
405.432526
  0
LINE
  8
0
  6
CONTINUOUS
 10
282.866089
 20
401.432526
 11
283.366089
 21
400.932526
  0
LINE
  8
0
  6
CONTINUOUS
 10
225.366196
 20
387.932526
 11
225.366196
 21
269.932526
  0
ARC
  8
0
  6
CONTINUOUS
 10
270.367279
 20
767.903320
 40
500.000000
 50
-95.163734
 51
-91.999352
  0
LINE
  8
0
  6
CONTINUOUS
 10
267.420166
 20
267.954437
 11
252.922348
 21
268.207672
  0
ARC
  8
0
  6
CONTINUOUS
 10
267.367767
 20
264.954865
 40
3.000000
 50
0.000000
 51
88.999023
  0
LINE
  8
0
  6
CONTINUOUS
 10
285.366089
 20
338.932526
 11
285.366089
 21
318.932526
  0
LINE
  8
0
  6
CONTINUOUS
 10
283.366089
 20
338.932526
 11
285.366089
 21
338.932526
  0
LINE
  8
0
  6
CONTINUOUS
 10
283.366089
 20
318.932526
 11
285.366089
 21
318.932526
  0
LINE
  8
0
  6
CONTINUOUS
 10
285.366089
 20
337.932526
 11
315.366089
 21
337.932526
  0
LINE
  8
0
  6
CONTINUOUS
 10
315.366089
 20
337.932526
 11
315.366089
 21
317.432526
  0
LINE
  8
0
  6
CONTINUOUS
 10
288.366089
 20
320.447510
 11
288.366089
 21
317.432526
  0
LINE
  8
0
  6
CONTINUOUS
 10
288.366089
 20
317.432526
 11
315.366089
 21
317.432526
  0
LINE
  8
0
  6
CONTINUOUS
 10
285.366089
 20
319.932526
 11
288.366089
 21
319.932526
  0
ARC
  8
0
  6
CONTINUOUS
 10
273.366180
 20
254.932526
 40
3.000000
 50
180.000000
 51
270.000000
  0
ARC
  8
0
  6
CONTINUOUS
 10
273.366180
 20
402.932526
 40
3.000000
 50
90.000000
 51
180.000000
  0
LINE
  8
0
  6
CONTINUOUS
 10
218.401108
 20
386.695770
 11
210.866074
 21
386.432587
  0
ARC
  8
0
  6
CONTINUOUS
 10
218.366196
 20
387.695160
 40
1.000000
 50
271.999207
 51
321.059448
  0
LINE
  8
0
  6
CONTINUOUS
 10
219.366135
 20
387.288239
 11
219.366135
 21
270.564819
  0
LINE
  8
0
  6
CONTINUOUS
 10
218.401108
 20
271.169281
 11
210.866074
 21
271.432465
  0
ARC
  8
0
  6
CONTINUOUS
 10
218.366196
 20
270.169891
 40
1.000000
 50
-320.003998
 51
-271.999207
  0
LINE
  8
0
  6
CONTINUOUS
 10
282.866089
 20
16.947519
 11
280.366089
 21
16.947519
  0
LINE
  8
0
  6
CONTINUOUS
 10
283.366089
 20
17.447519
 11
282.866089
 21
16.947519
  0
LINE
  8
0
  6
CONTINUOUS
 10
282.866089
 20
161.947525
 11
283.366089
 21
161.447525
  0
LINE
  8
0
  6
CENTER
 10
251.223373
 20
89.447517
 11
326.039062
 21
89.447517
  0
LINE
  8
0
  6
CONTINUOUS
 10
283.366089
 20
17.447519
 11
283.366089
 21
161.447525
  0
LINE
  8
0
  6
CONTINUOUS
 10
225.366058
 20
135.447235
 11
225.365814
 21
11.447400
  0
LINE
  8
0
  6
CONTINUOUS
 10
280.366089
 20
161.947525
 11
282.866089
 21
161.947525
  0
LINE
  8
0
  6
CONTINUOUS
 10
280.366089
 20
16.947519
 11
282.866089
 21
16.947519
  0
LINE
  8
0
  6
CONTINUOUS
 10
280.366089
 20
9.947720
 11
280.366089
 21
165.947525
  0
LINE
  8
0
  6
CONTINUOUS
 10
270.365875
 20
163.447525
 11
270.365875
 21
12.570372
  0
LINE
  8
0
  6
CONTINUOUS
 10
279.866089
 20
166.447525
 11
273.366089
 21
166.447525
  0
ARC
  8
0
  6
CONTINUOUS
 10
270.365479
 20
-362.523468
 40
500.000000
 50
91.999352
 51
95.163643
  0
ARC
  8
0
  6
CONTINUOUS
 10
269.452087
 20
509.499939
 40
500.000000
 50
264.941071
 51
267.321899
  0
ARC
  8
0
  6
CONTINUOUS
 10
273.366089
 20
163.447525
 40
3.000000
 50
90.000000
 51
180.000000
  0
LINE
  8
0
  6
CONTINUOUS
 10
225.365860
 20
33.447521
 11
267.613464
 21
34.553719
  0
LINE
  8
0
  6
CONTINUOUS
 10
225.365829
 20
19.447500
 11
267.613464
 21
18.341539
  0
LINE
  8
0
  6
CONTINUOUS
 10
279.866089
 20
166.447525
 11
280.366089
 21
165.947525
  0
LINE
  8
0
  6
CONTINUOUS
 10
267.418274
 20
137.425186
 11
252.920471
 21
137.171997
  0
ARC
  8
0
  6
CONTINUOUS
 10
267.365875
 20
140.424835
 40
3.000000
 50
-88.999023
 51
0.000000
  0
LINE
  8
0
  6
CONTINUOUS
 10
279.866150
 20
9.456447
 11
246.090469
 21
10.046048
  0
LINE
  8
0
  6
CONTINUOUS
 10
285.366089
 20
99.447517
 11
285.366089
 21
79.447517
  0
LINE
  8
0
  6
CONTINUOUS
 10
285.366089
 20
98.447456
 11
315.366089
 21
98.447517
  0
LINE
  8
0
  6
CONTINUOUS
 10
285.366089
 20
80.447517
 11
315.366089
 21
80.447517
  0
LINE
  8
0
  6
CONTINUOUS
 10
315.366089
 20
98.447517
 11
315.366089
 21
80.447517
  0
LINE
  8
0
  6
CONTINUOUS
 10
291.366089
 20
92.447517
 11
315.366089
 21
92.447517
  0
LINE
  8
0
  6
CONTINUOUS
 10
291.366089
 20
86.447517
 11
315.366089
 21
86.447517
  0
ARC
  8
0
  6
CONTINUOUS
 10
291.366089
 20
89.447517
 40
3.000000
 50
90.000000
 51
270.000000
  0
LINE
  8
0
  6
CONTINUOUS
 10
283.366089
 20
79.447517
 11
285.366089
 21
79.447517
  0
LINE
  8
0
  6
CONTINUOUS
 10
283.366089
 20
99.447517
 11
285.366089
 21
99.447517
  0
LINE
  8
0
  6
CONTINUOUS
 10
219.365875
 20
133.341812
 11
219.365875
 21
13.552833
  0
LINE
  8
0
  6
CONTINUOUS
 10
224.490875
 20
33.447399
 11
220.740875
 21
33.447399
  0
LINE
  8
0
  6
CONTINUOUS
 10
224.490875
 20
19.447399
 11
220.740875
 21
19.447399
  0
LINE
  8
0
  6
CONTINUOUS
 10
210.865875
 20
130.447525
 11
210.865875
 21
15.447520
  0
LINE
  8
0
  6
CONTINUOUS
 10
210.865875
 20
130.447525
 11
218.397552
 21
130.710526
  0
LINE
  8
0
  6
CONTINUOUS
 10
210.865875
 20
15.447520
 11
218.398575
 21
15.184472
  0
LINE
  8
0
  6
CENTER
 10
-20.863129
 20
72.949471
 11
259.198120
 21
72.947113
  0
LINE
  8
0
  6
CONTINUOUS
 10
210.866074
 20
386.432587
 11
210.866196
 21
271.432526
  0
LINE
  8
0
  6
CENTER
 10
284.824463
 20
149.551697
 11
265.586700
 21
149.551697
  0
LINE
  8
0
  6
CENTER
 10
284.824463
 20
29.343340
 11
265.586700
 21
29.343340
  0
LINE
  8
0
  6
CENTER
 10
284.824463
 20
389.036713
 11
265.586700
 21
389.036713
  0
LINE
  8
0
  6
CENTER
 10
284.824463
 20
268.828339
 11
265.586700
 21
268.828339
  0
ARC
  8
0
  6
CONTINUOUS
 10
218.362640
 20
131.709930
 40
1.000000
 50
272.000000
 51
359.884216
  0
ARC
  8
0
  6
CONTINUOUS
 10
218.363678
 20
14.185082
 40
1.000000
 50
0.189867
 51
88.000000
  0
ARC
  8
0
  6
CONTINUOUS
 10
273.366089
 20
12.570372
 40
3.000000
 50
180.000000
 51
268.999939
  0
LINE
  8
0
  6
CONTINUOUS
 10
279.866150
 20
9.456447
 11
280.366089
 21
9.947720
  0
LINE
  8
0
  6
CONTINUOUS
 10
225.366196
 20
387.932495
 11
220.647232
 21
387.808929
  0
ARC
  8
0
  6
CONTINUOUS
 10
220.699585
 20
385.809631
 40
2.000000
 50
91.500000
 51
141.059448
  0
ARC
  8
0
  6
CONTINUOUS
 10
218.366196
 20
270.169891
 40
1.000000
 50
-321.059448
 51
-271.999207
  0
LINE
  8
0
  6
CONTINUOUS
 10
225.366196
 20
269.932526
 11
220.647232
 21
270.056122
  0
ARC
  8
0
  6
CONTINUOUS
 10
220.699585
 20
272.055420
 40
2.000000
 50
-141.059448
 51
-91.500000
  0
LINE
  8
0
  6
CONTINUOUS
 10
221.313522
 20
135.341125
 11
225.366058
 21
135.447235
  0
ARC
  8
0
  6
CONTINUOUS
 10
221.365875
 20
133.341812
 40
2.000000
 50
91.500000
 51
180.000000
  0
LINE
  8
0
  6
CONTINUOUS
 10
225.365814
 20
11.447400
 11
221.313293
 21
11.553519
  0
ARC
  8
0
  6
CONTINUOUS
 10
221.365662
 20
13.552833
 40
2.000000
 50
180.000000
 51
268.500000
  0
LINE
  8
0
  6
CONTINUOUS
 10
288.366089
 20
320.447510
 11
315.366089
 21
320.447510
  0
LINE
  8
0
  6
DASHED
 10
280.366089
 20
394.536713
 11
270.366058
 21
394.536713
  0
LINE
  8
0
  6
DASHED
 10
280.366089
 20
383.536713
 11
270.366058
 21
383.536713
  0
LINE
  8
0
  6
DASHED
 10
280.366089
 20
274.328339
 11
270.366058
 21
274.328339
  0
LINE
  8
0
  6
DASHED
 10
280.366089
 20
263.328339
 11
270.366058
 21
263.328339
  0
LINE
  8
0
  6
DASHED
 10
280.366089
 20
155.051697
 11
270.366058
 21
155.051697
  0
LINE
  8
0
  6
DASHED
 10
280.366089
 20
144.051697
 11
270.366058
 21
144.051697
  0
LINE
  8
0
  6
DASHED
 10
280.366089
 20
34.843342
 11
270.366058
 21
34.843342
  0
LINE
  8
0
  6
DASHED
 10
280.366089
 20
23.843340
 11
270.366058
 21
23.843340
  0
LINE
  8
0
  6
CONTINUOUS
 10
117.866013
 20
386.432587
 11
117.866135
 21
271.432526
  0
LINE
  8
0
  6
CONTINUOUS
 10
205.866135
 20
386.432526
 11
210.866135
 21
386.432526
  0
LINE
  8
0
  6
CONTINUOUS
 10
205.866135
 20
271.432526
 11
210.866135
 21
271.432526
  0
LINE
  8
0
  6
CONTINUOUS
 10
205.866135
 20
386.432526
 11
205.866135
 21
271.432526
  0
LINE
  8
0
  6
CONTINUOUS
 10
197.866135
 20
273.682526
 11
197.866135
 21
384.182526
  0
LINE
  8
0
  6
CONTINUOUS
 10
134.866135
 20
271.682526
 11
134.866135
 21
386.182526
  0
LINE
  8
0
  6
CONTINUOUS
 10
142.866135
 20
273.682526
 11
142.866135
 21
384.182526
  0
LINE
  8
0
  6
CONTINUOUS
 10
117.866135
 20
386.182526
 11
140.866135
 21
386.182526
  0
LINE
  8
0
  6
CONTINUOUS
 10
117.866135
 20
271.682526
 11
126.366257
 21
271.682526
  0
LINE
  8
0
  6
CONTINUOUS
 10
199.866135
 20
271.682526
 11
205.866135
 21
271.682526
  0
LINE
  8
0
  6
CONTINUOUS
 10
199.866135
 20
386.182526
 11
205.866135
 21
386.182526
  0
ARC
  8
0
  6
CONTINUOUS
 10
140.866135
 20
384.182526
 40
2.000000
 50
0.000000
 51
90.000000
  0
ARC
  8
0
  6
CONTINUOUS
 10
199.866135
 20
384.182526
 40
2.000000
 50
90.000000
 51
180.000000
  0
LINE
  8
0
  6
CONTINUOUS
 10
144.463013
 20
383.932526
 11
196.269257
 21
383.932526
  0
ARC
  8
0
  6
CONTINUOUS
 10
196.269257
 20
385.932526
 40
2.000000
 50
270.000000
 51
334.055511
  0
ARC
  8
0
  6
CONTINUOUS
 10
144.463013
 20
385.932526
 40
2.000000
 50
205.944473
 51
270.000000
  0
ARC
  8
0
  6
CONTINUOUS
 10
140.866135
 20
273.682526
 40
2.000000
 50
-90.000000
 51
0.000000
  0
ARC
  8
0
  6
CONTINUOUS
 10
199.866135
 20
273.682526
 40
2.000000
 50
-180.000000
 51
-90.000000
  0
LINE
  8
0
  6
CONTINUOUS
 10
144.463013
 20
273.932526
 11
176.366257
 21
273.932526
  0
ARC
  8
0
  6
CONTINUOUS
 10
196.269257
 20
271.932526
 40
2.000000
 50
-334.055511
 51
-270.000000
  0
ARC
  8
0
  6
CONTINUOUS
 10
144.463013
 20
271.932526
 40
2.000000
 50
-270.000000
 51
-205.944473
  0
LINE
  8
0
  6
CONTINUOUS
 10
144.463013
 20
295.932526
 11
196.269257
 21
295.932526
  0
LINE
  8
0
  6
CONTINUOUS
 10
144.463013
 20
361.932526
 11
196.269257
 21
361.932526
  0
LINE
  8
0
  6
CONTINUOUS
 10
173.866135
 20
274.432526
 11
181.866135
 21
274.432526
  0
LINE
  8
0
  6
CONTINUOUS
 10
181.866135
 20
276.961365
 11
181.866135
 21
274.432526
  0
LINE
  8
0
  6
CONTINUOUS
 10
173.866135
 20
276.961365
 11
173.866135
 21
274.432526
  0
LINE
  8
0
  6
CONTINUOUS
 10
127.177246
 20
274.069122
 11
126.364449
 21
273.989807
  0
LINE
  8
0
  6
CONTINUOUS
 10
126.365074
 20
273.988159
 11
125.744652
 21
273.752838
  0
LINE
  8
0
  6
CONTINUOUS
 10
125.729973
 20
273.769623
 11
125.496384
 21
273.565216
  0
LINE
  8
0
  6
CONTINUOUS
 10
125.507675
 20
273.552307
 11
125.529175
 21
273.294342
  0
LINE
  8
0
  6
CONTINUOUS
 10
125.562363
 20
273.297089
 11
125.726425
 21
273.151276
  0
LINE
  8
0
  6
CONTINUOUS
 10
125.719818
 20
273.113831
 11
126.127464
 21
273.041901
  0
LINE
  8
0
  6
CONTINUOUS
 10
126.130272
 20
273.064331
 11
126.366257
 21
273.034821
  0
LINE
  8
0
  6
CONTINUOUS
 10
128.515488
 20
274.099182
 11
128.898300
 21
274.008026
  0
LINE
  8
0
  6
CONTINUOUS
 10
128.898300
 20
274.008026
 11
129.426941
 21
273.916901
  0
LINE
  8
0
  6
CONTINUOUS
 10
129.426941
 20
273.916901
 11
129.773300
 21
273.843964
  0
LINE
  8
0
  6
CONTINUOUS
 10
129.773300
 20
273.843964
 11
129.955597
 21
273.771057
  0
LINE
  8
0
  6
CONTINUOUS
 10
129.987015
 20
273.801239
 11
130.137878
 21
273.625244
  0
LINE
  8
0
  6
CONTINUOUS
 10
130.137878
 20
273.606995
 11
130.223557
 21
273.435638
  0
LINE
  8
0
  6
CONTINUOUS
 10
130.174347
 20
273.388245
 11
130.028503
 21
273.242401
  0
LINE
  8
0
  6
CONTINUOUS
 10
130.016769
 20
273.208435
 11
129.518097
 21
273.078339
  0
LINE
  8
0
  6
CONTINUOUS
 10
129.509308
 20
273.062317
 11
129.366257
 21
273.055511
  0
LINE
  8
0
  6
CONTINUOUS
 10
127.177246
 20
274.069122
 11
127.458199
 21
274.076385
  0
LINE
  8
0
  6
CONTINUOUS
 10
127.458199
 20
274.076385
 11
128.041534
 21
274.085510
  0
LINE
  8
0
  6
CONTINUOUS
 10
128.041534
 20
274.085510
 11
128.515488
 21
274.099182
  0
ARC
  8
0
  6
CONTINUOUS
 10
177.866135
 20
267.796234
 40
10.000000
 50
66.421822
 51
113.578178
  0
LINE
  8
0
  6
CONTINUOUS
 10
134.865875
 20
130.197525
 11
134.865875
 21
15.697520
  0
LINE
  8
0
  6
CONTINUOUS
 10
134.865875
 20
130.197525
 11
117.865875
 21
130.197525
  0
LINE
  8
0
  6
CONTINUOUS
 10
134.865875
 20
15.697520
 11
117.865875
 21
15.697520
  0
LINE
  8
0
  6
CONTINUOUS
 10
127.865875
 20
86.947517
 11
127.865875
 21
61.197521
  0
LINE
  8
0
  6
CONTINUOUS
 10
129.365875
 20
86.947517
 11
129.365875
 21
60.260021
  0
LINE
  8
0
  6
CONTINUOUS
 10
126.365875
 20
86.947517
 11
126.365875
 21
60.657524
  0
LINE
  8
0
  6
CONTINUOUS
 10
126.365875
 20
60.657524
 11
127.840874
 21
62.353771
  0
LINE
  8
0
  6
CONTINUOUS
 10
127.870293
 20
61.204872
 11
129.386841
 21
60.294949
  0
ARC
  8
0
  6
CONTINUOUS
 10
128.615875
 20
86.947517
 40
0.750000
 50
0.000000
 51
180.000000
  0
ARC
  8
0
  6
CONTINUOUS
 10
127.115875
 20
86.947517
 40
0.750000
 50
0.000000
 51
180.000000
  0
ARC
  8
0
  6
CONTINUOUS
 10
127.865875
 20
86.947517
 40
3.000000
 50
-59.999939
 51
239.999893
  0
LINE
  8
0
  6
CONTINUOUS
 10
117.865875
 20
130.197525
 11
117.865875
 21
15.697520
  0
LINE
  8
0
  6
CONTINUOUS
 10
205.865875
 20
130.447525
 11
210.865875
 21
130.447525
  0
LINE
  8
0
  6
CONTINUOUS
 10
205.865875
 20
15.447520
 11
210.865875
 21
15.447520
  0
LINE
  8
0
  6
CONTINUOUS
 10
205.865875
 20
130.447525
 11
205.865875
 21
15.447520
  0
LINE
  8
0
  6
CONTINUOUS
 10
12.866173
 20
386.432526
 11
117.866135
 21
386.432526
  0
LINE
  8
0
  6
CONTINUOUS
 10
12.866173
 20
271.432526
 11
20.866173
 21
271.432526
  0
LINE
  8
0
  6
CONTINUOUS
 10
12.866173
 20
386.432526
 11
12.866173
 21
271.432526
  0
LINE
  8
0
  6
CONTINUOUS
 10
20.866173
 20
386.432526
 11
20.866173
 21
354.932434
  0
LINE
  8
0
  6
CONTINUOUS
 10
20.866173
 20
354.932434
 11
109.866196
 21
354.932434
  0
LINE
  8
0
  6
CONTINUOUS
 10
20.866173
 20
362.703064
 11
109.866196
 21
362.703064
  0
LINE
  8
0
  6
CONTINUOUS
 10
21.866173
 20
365.982513
 11
108.866196
 21
365.982513
  0
LINE
  8
0
  6
CONTINUOUS
 10
20.866173
 20
370.797546
 11
109.866196
 21
370.797546
  0
LINE
  8
0
  6
CONTINUOUS
 10
21.866173
 20
372.785400
 11
108.866196
 21
372.785400
  0
LINE
  8
0
  6
CONTINUOUS
 10
20.866173
 20
376.828125
 11
109.866196
 21
376.828125
  0
LINE
  8
0
  6
CONTINUOUS
 10
20.866173
 20
381.359039
 11
109.866196
 21
381.359039
  0
LINE
  8
0
  6
CONTINUOUS
 10
20.866173
 20
384.236145
 11
109.866196
 21
384.236145
  0
LINE
  8
0
  6
CONTINUOUS
 10
20.866173
 20
385.891479
 11
109.866196
 21
385.891479
  0
LINE
  8
0
  6
CONTINUOUS
 10
109.866196
 20
386.432526
 11
109.866196
 21
354.932434
  0
LINE
  8
0
  6
CONTINUOUS
 10
20.866173
 20
271.432526
 11
20.866173
 21
302.932648
  0
LINE
  8
0
  6
CONTINUOUS
 10
20.866173
 20
302.932648
 11
109.866196
 21
302.932648
  0
LINE
  8
0
  6
CONTINUOUS
 10
20.866173
 20
295.162018
 11
109.866196
 21
295.162018
  0
LINE
  8
0
  6
CONTINUOUS
 10
21.866173
 20
291.882568
 11
108.866196
 21
291.882568
  0
LINE
  8
0
  6
CONTINUOUS
 10
20.866173
 20
287.067505
 11
109.866196
 21
287.067505
  0
LINE
  8
0
  6
CONTINUOUS
 10
21.866173
 20
285.079651
 11
108.866196
 21
285.079651
  0
LINE
  8
0
  6
CONTINUOUS
 10
20.866173
 20
281.036957
 11
109.866196
 21
281.036957
  0
LINE
  8
0
  6
CONTINUOUS
 10
87.866135
 20
276.506042
 11
109.866196
 21
276.506042
  0
LINE
  8
0
  6
CONTINUOUS
 10
87.866135
 20
273.628906
 11
109.866196
 21
273.628906
  0
LINE
  8
0
  6
CONTINUOUS
 10
88.366135
 20
271.973572
 11
109.866196
 21
271.973572
  0
LINE
  8
0
  6
CONTINUOUS
 10
109.866196
 20
271.432526
 11
109.866196
 21
302.932648
  0
LINE
  8
0
  6
CONTINUOUS
 10
21.866173
 20
272.932526
 11
86.866196
 21
272.932526
  0
LINE
  8
0
  6
CONTINUOUS
 10
88.366135
 20
271.432526
 11
117.866135
 21
271.432526
  0
LINE
  8
0
  6
CONTINUOUS
 10
87.866135
 20
271.932556
 11
87.866135
 21
278.131165
  0
ARC
  8
0
  6
CONTINUOUS
 10
88.366135
 20
271.932556
 40
0.500000
 50
-180.000000
 51
-90.000000
  0
ARC
  8
0
  6
CONTINUOUS
 10
88.366135
 20
272.473602
 40
0.500000
 50
-180.000000
 51
-90.000000
  0
LINE
  8
0
  6
CONTINUOUS
 10
20.866173
 20
278.131165
 11
87.866135
 21
278.131165
  0
ARC
  8
0
  6
CONTINUOUS
 10
86.866196
 20
273.932526
 40
1.000000
 50
-90.000000
 51
0.000000
  0
ARC
  8
0
  6
CONTINUOUS
 10
21.866173
 20
273.932526
 40
1.000000
 50
-180.000000
 51
-90.000000
  0
LINE
  8
0
  6
CONTINUOUS
 10
1.366173
 20
350.092743
 11
1.366173
 21
307.772308
  0
LINE
  8
0
  6
CONTINUOUS
 10
9.536173
 20
271.682526
 11
12.866173
 21
271.682526
  0
LINE
  8
0
  6
CONTINUOUS
 10
9.536173
 20
386.182495
 11
12.866173
 21
386.182495
  0
LINE
  8
0
  6
CONTINUOUS
 10
2.035973
 20
352.592743
 11
3.299173
 21
354.780548
  0
ARC
  8
0
  6
CONTINUOUS
 10
205.306137
 20
361.202515
 40
199.999985
 50
-186.406006
 51
-180.287292
  0
ARC
  8
0
  6
CONTINUOUS
 10
6.366173
 20
350.092743
 40
5.000000
 50
-210.000305
 51
-180.000000
  0
ARC
  8
0
  6
CONTINUOUS
 10
9.536173
 20
383.182556
 40
3.000000
 50
-270.000000
 51
-186.406006
  0
LINE
  8
0
  6
CONTINUOUS
 10
6.872373
 20
382.620087
 11
6.872373
 21
275.807465
  0
LINE
  8
0
  6
CONTINUOUS
 10
2.035973
 20
305.272308
 11
3.299373
 21
303.084290
  0
ARC
  8
0
  6
CONTINUOUS
 10
205.306137
 20
296.662567
 40
199.999985
 50
-179.712601
 51
-173.593994
  0
ARC
  8
0
  6
CONTINUOUS
 10
6.366173
 20
307.772308
 40
5.000000
 50
-180.000000
 51
-149.999695
  0
ARC
  8
0
  6
CONTINUOUS
 10
9.536173
 20
274.682495
 40
3.000000
 50
-173.593994
 51
-90.000000
  0
ARC
  8
0
  6
CONTINUOUS
 10
-9.691227
 20
362.280731
 40
15.000000
 50
-30.000500
 51
-0.287300
  0
ARC
  8
0
  6
CONTINUOUS
 10
-9.691227
 20
295.584290
 40
15.000000
 50
-359.713104
 51
-329.999908
  0
LINE
  8
0
  6
CONTINUOUS
 10
14.928518
 20
258.510681
 11
13.866072
 21
218.432510
  0
LINE
  8
0
  6
CONTINUOUS
 10
82.803123
 20
258.510681
 11
83.866074
 21
218.432510
  0
LINE
  8
0
  6
CONTINUOUS
 10
72.891869
 20
271.432526
 11
24.840172
 21
271.432526
  0
LINE
  8
0
  6
CONTINUOUS
 10
79.817375
 20
261.432526
 11
62.177345
 21
261.432526
  0
ARC
  8
0
  6
CONTINUOUS
 10
17.914171
 20
258.432526
 40
3.000000
 50
90.000000
 51
178.500275
  0
ARC
  8
0
  6
CONTINUOUS
 10
79.817375
 20
258.432526
 40
3.000000
 50
1.499900
 51
90.000000
  0
LINE
  8
0
  6
CONTINUOUS
 10
23.840511
 20
270.458710
 11
23.655167
 21
263.380157
  0
LINE
  8
0
  6
CONTINUOUS
 10
73.891525
 20
270.458710
 11
74.076881
 21
263.380157
  0
ARC
  8
0
  6
CONTINUOUS
 10
72.891869
 20
270.432526
 40
1.000000
 50
1.499300
 51
90.000000
  0
ARC
  8
0
  6
CONTINUOUS
 10
24.840172
 20
270.432526
 40
1.000000
 50
90.000000
 51
178.499405
  0
LINE
  8
0
  6
CONTINUOUS
 10
17.914272
 20
261.432526
 11
35.554798
 21
261.432526
  0
ARC
  8
0
  6
CONTINUOUS
 10
48.866074
 20
328.932526
 40
68.800003
 50
-101.155815
 51
-78.844185
  0
LINE
  8
0
  6
CONTINUOUS
 10
16.366072
 20
212.432510
 11
81.366074
 21
212.432510
  0
LINE
  8
0
  6
CONTINUOUS
 10
83.866074
 20
214.932510
 11
83.866074
 21
217.432510
  0
LINE
  8
0
  6
CONTINUOUS
 10
13.866072
 20
214.932510
 11
13.866072
 21
217.432510
  0
LINE
  8
0
  6
CONTINUOUS
 10
83.866074
 20
217.432510
 11
13.866072
 21
217.432510
  0
LINE
  8
0
  6
CONTINUOUS
 10
83.866074
 20
218.432510
 11
13.866072
 21
218.432510
  0
LINE
  8
0
  6
CONTINUOUS
 10
83.866074
 20
217.432510
 11
83.866074
 21
218.432510
  0
LINE
  8
0
  6
CONTINUOUS
 10
13.866072
 20
217.432510
 11
13.866072
 21
218.432510
  0
LINE
  8
0
  6
CONTINUOUS
 10
75.353172
 20
215.432510
 11
82.866074
 21
215.432510
  0
LINE
  8
0
  6
CONTINUOUS
 10
22.379011
 20
215.432510
 11
14.866072
 21
215.432510
  0
LINE
  8
0
  6
CONTINUOUS
 10
74.853371
 20
214.945618
 11
74.813072
 21
213.406311
  0
ARC
  8
0
  6
CONTINUOUS
 10
75.353172
 20
214.932510
 40
0.500000
 50
90.000000
 51
178.500000
  0
ARC
  8
0
  6
CONTINUOUS
 10
73.813370
 20
213.432510
 40
1.000000
 50
-90.000000
 51
-1.499802
  0
ARC
  8
0
  6
CONTINUOUS
 10
82.866074
 20
216.432510
 40
1.000000
 50
-90.000000
 51
0.000000
  0
ARC
  8
0
  6
CONTINUOUS
 10
81.366074
 20
214.932510
 40
2.500000
 50
-90.000000
 51
0.000000
  0
LINE
  8
0
  6
CONTINUOUS
 10
22.878893
 20
214.945618
 11
22.919172
 21
213.406311
  0
ARC
  8
0
  6
CONTINUOUS
 10
23.918802
 20
213.432510
 40
1.000000
 50
-178.499603
 51
-90.000000
  0
ARC
  8
0
  6
CONTINUOUS
 10
22.379011
 20
214.932510
 40
0.500000
 50
1.500198
 51
90.000000
  0
ARC
  8
0
  6
CONTINUOUS
 10
14.866072
 20
216.432510
 40
1.000000
 50
180.000000
 51
270.000000
  0
ARC
  8
0
  6
CONTINUOUS
 10
16.366072
 20
214.932510
 40
2.500000
 50
180.000000
 51
270.000000
  0
ARC
  8
0
  6
CONTINUOUS
 10
78.866074
 20
215.432510
 40
3.000000
 50
-180.000000
 51
0.000000
  0
LINE
  8
0
  6
CONTINUOUS
 10
81.824074
 20
214.932510
 11
75.908073
 21
214.932510
  0
LINE
  8
0
  6
CONTINUOUS
 10
78.866074
 20
212.932510
 11
78.584969
 21
212.445724
  0
LINE
  8
0
  6
CONTINUOUS
 10
78.866074
 20
212.932510
 11
79.147171
 21
212.445724
  0
ARC
  8
0
  6
CONTINUOUS
 10
18.866072
 20
215.432510
 40
3.000000
 50
-180.000000
 51
0.000000
  0
LINE
  8
0
  6
CONTINUOUS
 10
21.824081
 20
214.932510
 11
15.908062
 21
214.932510
  0
LINE
  8
0
  6
CONTINUOUS
 10
18.866072
 20
212.932510
 11
18.585003
 21
212.445724
  0
LINE
  8
0
  6
CONTINUOUS
 10
18.866072
 20
212.932510
 11
19.147200
 21
212.445724
  0
LINE
  8
0
  6
CONTINUOUS
 10
71.866074
 20
271.432526
 11
71.866074
 21
272.932526
  0
LINE
  8
0
  6
CONTINUOUS
 10
25.866072
 20
271.432526
 11
25.866072
 21
272.932526
  0
LINE
  8
0
  6
CONTINUOUS
 10
-14.133878
 20
248.932663
 11
-14.133878
 21
219.932571
  0
LINE
  8
0
  6
CONTINUOUS
 10
-6.133878
 20
248.932663
 11
-6.133878
 21
219.932571
  0
LINE
  8
0
  6
CONTINUOUS
 10
-14.133878
 20
248.932663
 11
-6.133878
 21
248.932663
  0
LINE
  8
0
  6
CONTINUOUS
 10
-14.133878
 20
219.932571
 11
-6.133878
 21
219.932571
  0
LINE
  8
0
  6
CONTINUOUS
 10
2.866122
 20
247.432663
 11
2.866122
 21
221.432571
  0
LINE
  8
0
  6
CONTINUOUS
 10
-6.133878
 20
247.432663
 11
2.866122
 21
247.432663
  0
LINE
  8
0
  6
CONTINUOUS
 10
-6.133878
 20
221.432571
 11
2.866122
 21
221.432571
  0
LINE
  8
0
  6
CONTINUOUS
 10
2.866122
 20
245.932663
 11
7.866122
 21
245.932663
  0
LINE
  8
0
  6
CONTINUOUS
 10
2.866122
 20
222.932571
 11
7.866122
 21
222.932571
  0
LINE
  8
0
  6
CONTINUOUS
 10
7.866122
 20
247.932663
 11
7.866122
 21
220.932571
  0
LINE
  8
0
  6
CONTINUOUS
 10
12.366122
 20
248.932663
 11
12.366122
 21
219.932571
  0
LINE
  8
0
  6
CONTINUOUS
 10
7.866122
 20
247.932663
 11
12.366122
 21
247.932663
  0
LINE
  8
0
  6
CONTINUOUS
 10
7.866122
 20
220.932571
 11
12.366122
 21
220.932571
  0
LINE
  8
0
  6
CONTINUOUS
 10
12.366122
 20
248.932663
 11
14.674612
 21
248.932663
  0
LINE
  8
0
  6
CONTINUOUS
 10
12.366122
 20
219.932571
 11
13.905838
 21
219.932571
  0
LINE
  8
0
  6
CONTINUOUS
 10
-14.133878
 20
242.432663
 11
-6.133878
 21
242.432663
  0
LINE
  8
0
  6
CONTINUOUS
 10
-14.133878
 20
226.432571
 11
-6.133878
 21
226.432571
  0
ARC
  8
0
  6
CONTINUOUS
 10
21.655849
 20
263.432526
 40
2.000000
 50
-90.000000
 51
-1.499917
  0
ARC
  8
0
  6
CONTINUOUS
 10
76.076195
 20
263.432526
 40
2.000000
 50
-178.500046
 51
-90.000000
  0
LINE
  8
0
  6
CONTINUOUS
 10
1.365874
 20
51.788193
 11
1.365874
 21
59.948261
  0
LINE
  8
0
  6
CONTINUOUS
 10
9.535934
 20
130.198410
 11
12.865874
 21
130.198410
  0
LINE
  8
0
  6
CONTINUOUS
 10
9.535934
 20
15.698453
 11
12.865874
 21
15.698453
  0
LINE
  8
0
  6
CONTINUOUS
 10
2.035734
 20
49.288193
 11
3.298888
 21
47.100391
  0
ARC
  8
0
  6
CONTINUOUS
 10
205.305878
 20
40.678432
 40
199.999985
 50
180.287292
 51
186.406006
  0
ARC
  8
0
  6
CONTINUOUS
 10
6.365858
 20
51.788193
 40
5.000000
 50
180.000000
 51
210.000305
  0
ARC
  8
0
  6
CONTINUOUS
 10
9.535918
 20
18.698414
 40
3.000000
 50
186.406006
 51
270.000000
  0
LINE
  8
0
  6
CONTINUOUS
 10
6.872008
 20
19.260874
 11
6.872008
 21
61.448261
  0
LINE
  8
0
  6
CONTINUOUS
 10
2.035734
 20
96.608635
 11
3.298994
 21
98.796654
  0
ARC
  8
0
  6
CONTINUOUS
 10
205.305878
 20
105.218391
 40
199.999985
 50
173.593994
 51
179.712601
  0
ARC
  8
0
  6
CONTINUOUS
 10
6.365858
 20
94.108635
 40
5.000000
 50
-210.000305
 51
-180.000000
  0
ARC
  8
0
  6
CONTINUOUS
 10
9.535918
 20
127.198456
 40
3.000000
 50
-270.000000
 51
-186.406006
  0
ARC
  8
0
  6
CONTINUOUS
 10
-9.691408
 20
39.600212
 40
15.000000
 50
0.287328
 51
30.000481
  0
ARC
  8
0
  6
CONTINUOUS
 10
-9.691408
 20
106.296654
 40
15.000000
 50
329.999908
 51
359.713104
  0
LINE
  8
0
  6
CONTINUOUS
 10
12.865874
 20
130.448410
 11
12.865874
 21
87.448364
  0
LINE
  8
0
  6
CONTINUOUS
 10
12.865874
 20
130.448410
 11
117.865875
 21
130.448410
  0
LINE
  8
0
  6
CONTINUOUS
 10
12.865874
 20
15.448413
 11
34.365925
 21
15.448413
  0
LINE
  8
0
  6
CONTINUOUS
 10
20.865873
 20
124.234413
 11
20.865873
 21
119.948410
  0
LINE
  8
0
  6
CONTINUOUS
 10
109.865875
 20
124.234413
 11
109.865875
 21
119.948410
  0
LINE
  8
0
  6
CONTINUOUS
 10
85.865875
 20
99.948410
 11
83.865921
 21
99.948410
  0
LINE
  8
0
  6
CONTINUOUS
 10
85.865875
 20
45.948414
 11
83.865921
 21
45.948414
  0
LINE
  8
0
  6
CONTINUOUS
 10
87.865875
 20
47.948414
 11
87.865875
 21
97.948410
  0
LINE
  8
0
  6
CONTINUOUS
 10
87.865875
 20
79.748413
 11
109.865875
 21
79.748413
  0
LINE
  8
0
  6
CONTINUOUS
 10
87.865875
 20
66.148415
 11
109.865875
 21
66.148415
  0
LINE
  8
0
  6
CONTINUOUS
 10
87.865875
 20
81.748413
 11
109.865875
 21
81.748413
  0
LINE
  8
0
  6
CONTINUOUS
 10
87.865875
 20
64.148415
 11
109.865875
 21
64.148415
  0
LINE
  8
0
  6
CONTINUOUS
 10
87.865875
 20
87.548416
 11
109.865875
 21
87.548416
  0
LINE
  8
0
  6
CONTINUOUS
 10
87.865875
 20
89.548409
 11
109.865875
 21
89.548409
  0
LINE
  8
0
  6
CONTINUOUS
 10
87.865875
 20
58.348412
 11
109.865875
 21
58.348412
  0
LINE
  8
0
  6
CONTINUOUS
 10
87.865875
 20
56.348415
 11
109.865875
 21
56.348415
  0
LINE
  8
0
  6
CONTINUOUS
 10
87.865875
 20
95.348412
 11
109.865875
 21
95.348412
  0
LINE
  8
0
  6
CONTINUOUS
 10
87.865875
 20
50.548412
 11
109.865875
 21
50.548412
  0
LINE
  8
0
  6
CONTINUOUS
 10
87.865875
 20
97.348412
 11
109.865875
 21
97.348412
  0
LINE
  8
0
  6
CONTINUOUS
 10
87.865875
 20
48.548412
 11
109.865875
 21
48.548412
  0
LINE
  8
0
  6
CONTINUOUS
 10
20.865873
 20
110.948410
 11
109.865875
 21
110.948410
  0
LINE
  8
0
  6
CONTINUOUS
 10
20.865873
 20
34.948414
 11
62.366024
 21
34.948414
  0
LINE
  8
0
  6
CONTINUOUS
 10
20.865873
 20
112.948410
 11
109.865875
 21
112.948410
  0
LINE
  8
0
  6
CONTINUOUS
 10
20.865873
 20
32.948414
 11
35.365925
 21
32.948414
  0
LINE
  8
0
  6
CONTINUOUS
 10
20.865873
 20
117.948410
 11
109.865875
 21
117.948410
  0
LINE
  8
0
  6
CONTINUOUS
 10
20.865873
 20
27.948414
 11
60.366024
 21
27.948414
  0
LINE
  8
0
  6
CONTINUOUS
 10
20.865873
 20
119.948410
 11
109.865875
 21
119.948410
  0
LINE
  8
0
  6
CONTINUOUS
 10
20.865873
 20
25.948414
 11
35.865925
 21
25.948414
  0
LINE
  8
0
  6
CONTINUOUS
 10
20.865873
 20
124.234413
 11
109.865875
 21
124.234413
  0
LINE
  8
0
  6
CONTINUOUS
 10
20.865873
 20
21.662413
 11
61.866024
 21
21.662413
  0
LINE
  8
0
  6
CONTINUOUS
 10
20.865873
 20
21.662413
 11
20.865873
 21
25.948414
  0
LINE
  8
0
  6
CONTINUOUS
 10
20.865873
 20
117.948410
 11
20.865873
 21
112.948410
  0
LINE
  8
0
  6
CONTINUOUS
 10
20.865873
 20
110.948410
 11
20.865873
 21
107.948410
  0
LINE
  8
0
  6
CONTINUOUS
 10
20.865873
 20
37.948414
 11
20.865873
 21
34.948414
  0
LINE
  8
0
  6
CONTINUOUS
 10
20.865873
 20
32.948414
 11
20.865873
 21
27.948414
  0
LINE
  8
0
  6
CONTINUOUS
 10
109.865875
 20
21.662413
 11
109.865875
 21
25.948414
  0
LINE
  8
0
  6
CONTINUOUS
 10
109.865875
 20
27.948414
 11
109.865875
 21
32.948414
  0
LINE
  8
0
  6
CONTINUOUS
 10
109.865875
 20
34.948414
 11
109.865875
 21
40.448414
  0
LINE
  8
0
  6
CONTINUOUS
 10
109.865875
 20
42.448414
 11
109.865875
 21
48.548412
  0
LINE
  8
0
  6
CONTINUOUS
 10
109.865875
 20
50.548412
 11
109.865875
 21
56.348404
  0
LINE
  8
0
  6
CONTINUOUS
 10
109.865875
 20
58.348408
 11
109.865875
 21
64.148415
  0
LINE
  8
0
  6
CONTINUOUS
 10
87.865875
 20
73.948410
 11
109.865875
 21
73.948410
  0
LINE
  8
0
  6
CONTINUOUS
 10
87.865875
 20
71.948410
 11
109.865875
 21
71.948410
  0
LINE
  8
0
  6
CONTINUOUS
 10
109.865875
 20
66.148415
 11
109.865875
 21
71.948418
  0
LINE
  8
0
  6
CONTINUOUS
 10
109.865875
 20
73.948410
 11
109.865875
 21
79.748421
  0
LINE
  8
0
  6
CONTINUOUS
 10
109.865875
 20
81.748413
 11
109.865875
 21
87.548416
  0
LINE
  8
0
  6
CONTINUOUS
 10
109.865875
 20
89.548409
 11
109.865875
 21
95.348412
  0
LINE
  8
0
  6
CONTINUOUS
 10
109.865875
 20
97.348412
 11
109.865875
 21
103.448410
  0
LINE
  8
0
  6
CONTINUOUS
 10
109.865875
 20
105.448410
 11
109.865875
 21
110.948410
  0
LINE
  8
0
  6
CONTINUOUS
 10
109.865875
 20
112.948410
 11
109.865875
 21
117.948410
  0
ARC
  8
0
  6
CONTINUOUS
 10
85.865875
 20
97.948410
 40
2.000000
 50
0.000000
 51
90.000000
  0
ARC
  8
0
  6
CONTINUOUS
 10
85.865875
 20
47.948414
 40
2.000000
 50
-90.000000
 51
0.000000
  0
LINE
  8
0
  6
CONTINUOUS
 10
109.865875
 20
42.448414
 11
83.865921
 21
42.448414
  0
LINE
  8
0
  6
CONTINUOUS
 10
109.865875
 20
40.448414
 11
83.865921
 21
40.448414
  0
LINE
  8
0
  6
CONTINUOUS
 10
109.865875
 20
34.948414
 11
62.366024
 21
34.948414
  0
LINE
  8
0
  6
CONTINUOUS
 10
109.865875
 20
32.948414
 11
35.365925
 21
32.948414
  0
LINE
  8
0
  6
CONTINUOUS
 10
109.865875
 20
27.948414
 11
60.366024
 21
27.948414
  0
LINE
  8
0
  6
CONTINUOUS
 10
109.865875
 20
25.948414
 11
35.865925
 21
25.948414
  0
LINE
  8
0
  6
CONTINUOUS
 10
109.865875
 20
21.662413
 11
61.866024
 21
21.662413
  0
LINE
  8
0
  6
CONTINUOUS
 10
117.865875
 20
15.448413
 11
34.365925
 21
15.448413
  0
LINE
  8
0
  6
CONTINUOUS
 10
16.365885
 20
107.948410
 11
81.365822
 21
107.948410
  0
LINE
  8
0
  6
CONTINUOUS
 10
81.365921
 20
37.948414
 11
16.365873
 21
37.948414
  0
LINE
  8
0
  6
CONTINUOUS
 10
13.865874
 20
65.221809
 11
13.865874
 21
105.448410
  0
LINE
  8
0
  6
CONTINUOUS
 10
83.865921
 20
65.221809
 11
83.865921
 21
105.448410
  0
ARC
  8
0
  6
CONTINUOUS
 10
81.365921
 20
105.448410
 40
2.500000
 50
0.000000
 51
90.000000
  0
ARC
  8
0
  6
CONTINUOUS
 10
16.365904
 20
105.448410
 40
2.500000
 50
90.000000
 51
180.000000
  0
ARC
  8
0
  6
CONTINUOUS
 10
16.365885
 20
40.448414
 40
2.500000
 50
180.000000
 51
270.000000
  0
ARC
  8
0
  6
CONTINUOUS
 10
81.365921
 20
40.448402
 40
2.500000
 50
-90.000000
 51
0.000000
  0
ARC
  8
0
  6
CONTINUOUS
 10
18.865885
 20
102.948410
 40
4.000000
 50
-90.000000
 51
0.000000
  0
ARC
  8
0
  6
CONTINUOUS
 10
78.865921
 20
102.948410
 40
4.000000
 50
180.000000
 51
270.000000
  0
ARC
  8
0
  6
CONTINUOUS
 10
78.865921
 20
42.948414
 40
4.000000
 50
90.000000
 51
180.000000
  0
ARC
  8
0
  6
CONTINUOUS
 10
18.865885
 20
42.948414
 40
4.000000
 50
0.000000
 51
90.000000
  0
LINE
  8
0
  6
CONTINUOUS
 10
78.865921
 20
98.948410
 11
81.365921
 21
98.948410
  0
LINE
  8
0
  6
CONTINUOUS
 10
18.865873
 20
98.948410
 11
16.365873
 21
98.948410
  0
LINE
  8
0
  6
CONTINUOUS
 10
18.865873
 20
46.948414
 11
16.365904
 21
46.948414
  0
LINE
  8
0
  6
CONTINUOUS
 10
78.865921
 20
46.948414
 11
81.365921
 21
46.948414
  0
LINE
  8
0
  6
CONTINUOUS
 10
74.865921
 20
102.948410
 11
74.865921
 21
105.448410
  0
LINE
  8
0
  6
CONTINUOUS
 10
22.865885
 20
102.948410
 11
22.865885
 21
105.448410
  0
LINE
  8
0
  6
CONTINUOUS
 10
22.865885
 20
42.948414
 11
22.865885
 21
40.448402
  0
LINE
  8
0
  6
CONTINUOUS
 10
74.865921
 20
42.948395
 11
74.865921
 21
40.448402
  0
ARC
  8
0
  6
CONTINUOUS
 10
16.365885
 20
96.448410
 40
2.500000
 50
90.000000
 51
180.000000
  0
ARC
  8
0
  6
CONTINUOUS
 10
25.365904
 20
105.448410
 40
2.500000
 50
90.000000
 51
180.000000
  0
ARC
  8
0
  6
CONTINUOUS
 10
72.365921
 20
105.448410
 40
2.500000
 50
0.000000
 51
90.000000
  0
ARC
  8
0
  6
CONTINUOUS
 10
81.365921
 20
96.448410
 40
2.500000
 50
0.000000
 51
90.000000
  0
ARC
  8
0
  6
CONTINUOUS
 10
16.365885
 20
49.448414
 40
2.500000
 50
180.000000
 51
270.000000
  0
ARC
  8
0
  6
CONTINUOUS
 10
25.365885
 20
40.448414
 40
2.500000
 50
180.000000
 51
270.000000
  0
ARC
  8
0
  6
CONTINUOUS
 10
81.365921
 20
49.448402
 40
2.500000
 50
-90.000000
 51
0.000000
  0
ARC
  8
0
  6
CONTINUOUS
 10
72.365921
 20
40.448402
 40
2.500000
 50
-90.000000
 51
0.000000
  0
LINE
  8
0
  6
CONTINUOUS
 10
83.865921
 20
40.448414
 11
83.865921
 21
65.221809
  0
LINE
  8
0
  6
CONTINUOUS
 10
13.865884
 20
40.448414
 11
13.865874
 21
65.221809
  0
LINE
  8
0
  6
CONTINUOUS
 10
-14.134076
 20
58.448261
 11
-14.134076
 21
87.448364
  0
LINE
  8
0
  6
CONTINUOUS
 10
-6.134076
 20
58.448261
 11
-6.134076
 21
87.448364
  0
LINE
  8
0
  6
CONTINUOUS
 10
-14.134076
 20
58.448261
 11
-6.134076
 21
58.448261
  0
LINE
  8
0
  6
CONTINUOUS
 10
-14.134076
 20
87.448364
 11
-6.134076
 21
87.448364
  0
LINE
  8
0
  6
CONTINUOUS
 10
2.865924
 20
59.948261
 11
2.865924
 21
85.948364
  0
LINE
  8
0
  6
CONTINUOUS
 10
-6.134076
 20
59.948261
 11
2.865924
 21
59.948261
  0
LINE
  8
0
  6
CONTINUOUS
 10
-6.134076
 20
85.948364
 11
2.865924
 21
85.948364
  0
LINE
  8
0
  6
CONTINUOUS
 10
2.865924
 20
61.448261
 11
7.865924
 21
61.448261
  0
LINE
  8
0
  6
CONTINUOUS
 10
2.865924
 20
84.448364
 11
7.865924
 21
84.448364
  0
LINE
  8
0
  6
CONTINUOUS
 10
7.865924
 20
59.448261
 11
7.865924
 21
86.448364
  0
LINE
  8
0
  6
CONTINUOUS
 10
12.365924
 20
58.448261
 11
12.365924
 21
87.448364
  0
LINE
  8
0
  6
CONTINUOUS
 10
7.865924
 20
59.448261
 11
12.365924
 21
59.448261
  0
LINE
  8
0
  6
CONTINUOUS
 10
7.865924
 20
86.448364
 11
12.365924
 21
86.448364
  0
LINE
  8
0
  6
CONTINUOUS
 10
12.365924
 20
58.448261
 11
13.905224
 21
58.448261
  0
LINE
  8
0
  6
CONTINUOUS
 10
12.365924
 20
87.448364
 11
13.865874
 21
87.448364
  0
LINE
  8
0
  6
CONTINUOUS
 10
-14.134076
 20
64.948265
 11
-6.134076
 21
64.948265
  0
LINE
  8
0
  6
CONTINUOUS
 10
-14.134076
 20
80.948364
 11
-6.134076
 21
80.948364
  0
LINE
  8
0
  6
CONTINUOUS
 10
83.865921
 20
103.448410
 11
109.865875
 21
103.448410
  0
LINE
  8
0
  6
CONTINUOUS
 10
83.865921
 20
105.448410
 11
109.865875
 21
105.448410
  0
LINE
  8
0
  6
CONTINUOUS
 10
1.365874
 20
85.948364
 11
1.365874
 21
94.108635
  0
LINE
  8
0
  6
CONTINUOUS
 10
6.872008
 20
84.448364
 11
6.872008
 21
126.073509
  0
LINE
  8
0
  6
CONTINUOUS
 10
12.865874
 20
58.448261
 11
12.865874
 21
15.448413
  0
LINE
  8
0
  6
CENTER
 10
381.452515
 20
72.947113
 11
599.021057
 21
72.947113
  0
LINE
  8
0
  6
CENTER
 10
507.761688
 20
184.637115
 11
507.761688
 21
-11.782887
  0
CIRCLE
  8
0
  6
CONTINUOUS
 10
567.865723
 20
149.551300
 40
5.500000
  0
CIRCLE
  8
0
  6
CONTINUOUS
 10
447.657501
 20
29.342993
 40
5.500000
  0
CIRCLE
  8
0
  6
CONTINUOUS
 10
447.657501
 20
149.551300
 40
5.500000
  0
LINE
  8
0
  6
CENTER
 10
433.046509
 20
164.161957
 11
581.971924
 21
15.237213
  0
CIRCLE
  8
0
  6
CONTINUOUS
 10
567.865906
 20
29.342993
 40
5.500000
  0
CIRCLE
  8
0
  6
CONTINUOUS
 10
507.761688
 20
89.447113
 40
72.500000
  0
CIRCLE
  8
0
  6
CONTINUOUS
 10
507.761688
 20
89.447113
 40
67.500000
  0
LINE
  8
0
  6
CONTINUOUS
 10
510.261688
 20
153.712311
 11
510.261505
 21
134.200714
  0
LINE
  8
0
  6
CONTINUOUS
 10
505.261688
 20
153.712311
 11
505.261505
 21
134.200714
  0
ARC
  8
0
  6
CONTINUOUS
 10
502.261688
 20
153.712311
 40
3.000000
 50
0.000000
 51
94.896111
  0
ARC
  8
0
  6
CONTINUOUS
 10
513.261902
 20
153.712311
 40
3.000000
 50
85.108582
 51
180.000000
  0
CIRCLE
  8
0
  6
CONTINUOUS
 10
567.865723
 20
149.550919
 40
5.500000
  0
LINE
  8
0
  6
CENTER
 10
414.492950
 20
89.446869
 11
601.805420
 21
89.446869
  0
CIRCLE
  8
0
  6
CONTINUOUS
 10
567.865906
 20
29.342934
 40
5.500000
  0
CIRCLE
  8
0
  6
CONTINUOUS
 10
447.657684
 20
149.550919
 40
5.500000
  0
CIRCLE
  8
0
  6
CONTINUOUS
 10
447.657501
 20
29.342934
 40
5.500000
  0
LINE
  8
0
  6
CENTER
 10
433.591705
 20
15.277133
 11
581.366699
 21
163.052200
  0
LINE
  8
0
  6
CONTINUOUS
 10
551.436096
 20
136.657120
 11
539.502502
 21
124.723312
  0
LINE
  8
0
  6
CONTINUOUS
 10
554.971680
 20
133.121719
 11
544.547302
 21
122.697113
  0
LINE
  8
0
  6
CONTINUOUS
 10
464.087311
 20
136.656906
 11
476.021088
 21
124.723511
  0
LINE
  8
0
  6
CONTINUOUS
 10
460.551514
 20
133.121506
 11
470.976105
 21
122.697311
  0
ARC
  8
0
  6
CONTINUOUS
 10
458.430298
 20
131.000320
 40
3.000000
 50
45.000370
 51
139.895996
  0
ARC
  8
0
  6
CONTINUOUS
 10
466.208496
 20
138.778717
 40
3.000000
 50
130.112000
 51
225.000397
  0
ARC
  8
0
  6
CONTINUOUS
 10
549.314514
 20
138.778717
 40
3.000000
 50
-44.999939
 51
49.892139
  0
ARC
  8
0
  6
CONTINUOUS
 10
557.092529
 20
131.000916
 40
3.000000
 50
40.109409
 51
135.000504
  0
CIRCLE
  8
0
  6
CONTINUOUS
 10
507.761688
 20
89.447113
 40
25.000000
  0
ARC
  8
0
  6
CONTINUOUS
 10
507.761688
 20
-333.552887
 40
500.000000
 50
90.000000
 51
97.015846
  0
ARC
  8
0
  6
CONTINUOUS
 10
930.761902
 20
89.447113
 40
500.000000
 50
172.984299
 51
187.065796
  0
ARC
  8
0
  6
CONTINUOUS
 10
507.761688
 20
309.447327
 40
300.000000
 50
258.031403
 51
270.000000
  0
ARC
  8
0
  6
CONTINUOUS
 10
507.761688
 20
-333.552887
 40
500.000000
 50
82.984154
 51
90.000000
  0
ARC
  8
0
  6
CONTINUOUS
 10
84.761688
 20
89.447113
 40
500.000000
 50
-7.065796
 51
7.015738
  0
ARC
  8
0
  6
CONTINUOUS
 10
507.761688
 20
309.447327
 40
300.000000
 50
270.000000
 51
281.968597
  0
ARC
  8
0
  6
CONTINUOUS
 10
448.400696
 20
148.808105
 40
14.000000
 50
97.016220
 51
172.984604
  0
ARC
  8
0
  6
CONTINUOUS
 10
448.452698
 20
29.664392
 40
14.000000
 50
187.065796
 51
258.031311
  0
ARC
  8
0
  6
CONTINUOUS
 10
567.070923
 20
29.664392
 40
14.000000
 50
281.968689
 51
352.934387
  0
ARC
  8
0
  6
CONTINUOUS
 10
567.122925
 20
148.808105
 40
14.000000
 50
7.015888
 51
82.984283
  0
ARC
  8
0
  6
CONTINUOUS
 10
507.761688
 20
72.947113
 40
58.500000
 50
10.479610
 51
50.755550
  0
ARC
  8
0
  6
CONTINUOUS
 10
445.413513
 20
84.954926
 40
5.000000
 50
180.375198
 51
351.783203
  0
ARC
  8
0
  6
CONTINUOUS
 10
570.121521
 20
84.859528
 40
5.000000
 50
-173.108902
 51
2.124938
  0
ARC
  8
0
  6
CONTINUOUS
 10
468.854889
 20
120.576111
 40
3.000000
 50
-50.755192
 51
45.001190
  0
ARC
  8
0
  6
CONTINUOUS
 10
478.142090
 20
126.844513
 40
3.000000
 50
217.102707
 51
298.791687
  0
ARC
  8
0
  6
CONTINUOUS
 10
502.261505
 20
134.200714
 40
3.000000
 50
-84.868713
 51
0.000000
  0
ARC
  8
0
  6
CONTINUOUS
 10
513.261108
 20
134.200714
 40
3.000000
 50
180.000000
 51
264.869904
  0
ARC
  8
0
  6
CONTINUOUS
 10
537.381470
 20
126.844513
 40
3.000000
 50
241.208298
 51
315.000488
  0
ARC
  8
0
  6
CONTINUOUS
 10
546.668518
 20
120.576111
 40
3.000000
 50
135.000000
 51
230.755600
  0
ARC
  8
0
  6
CONTINUOUS
 10
507.761688
 20
72.947113
 40
58.500000
 50
61.208549
 51
84.869537
  0
ARC
  8
0
  6
CONTINUOUS
 10
507.761688
 20
72.947113
 40
58.500000
 50
95.130997
 51
118.791100
  0
ARC
  8
0
  6
CONTINUOUS
 10
507.761688
 20
72.947113
 40
58.500000
 50
129.244507
 51
169.327896
  0
CIRCLE
  8
0
  6
CENTER
 10
507.761688
 20
89.447113
 40
85.000000
  0
ARC
  8
0
  6
CONTINUOUS
 10
507.761688
 20
89.447113
 40
9.000000
 50
-160.527100
 51
160.530396
  0
LINE
  8
0
  6
CONTINUOUS
 10
502.261688
 20
92.446869
 11
502.261688
 21
86.446869
  0
LINE
  8
0
  6
CONTINUOUS
 10
496.261505
 20
92.446869
 11
496.261505
 21
86.446869
  0
LINE
  8
0
  6
CONTINUOUS
 10
496.261505
 20
92.446869
 11
502.261688
 21
92.446869
  0
LINE
  8
0
  6
CONTINUOUS
 10
496.261505
 20
86.446869
 11
502.261688
 21
86.446869
  0
LINE
  8
0
  6
CONTINUOUS
 10
433.323151
 20
38.903080
 11
397.261688
 21
37.947113
  0
LINE
  8
0
  6
CONTINUOUS
 10
431.071869
 20
107.050400
 11
397.261688
 21
107.947113
  0
LINE
  8
0
  6
CONTINUOUS
 10
391.261688
 20
40.447113
 11
391.261688
 21
105.447113
  0
LINE
  8
0
  6
CONTINUOUS
 10
393.761688
 20
107.947113
 11
396.261688
 21
107.947113
  0
LINE
  8
0
  6
CONTINUOUS
 10
393.761688
 20
37.947113
 11
396.261688
 21
37.947113
  0
LINE
  8
0
  6
CONTINUOUS
 10
396.261688
 20
107.947113
 11
396.261688
 21
37.947113
  0
LINE
  8
0
  6
CONTINUOUS
 10
397.261688
 20
107.947113
 11
397.261688
 21
37.947113
  0
LINE
  8
0
  6
CONTINUOUS
 10
396.261688
 20
107.947113
 11
397.261688
 21
107.947113
  0
LINE
  8
0
  6
CONTINUOUS
 10
396.261688
 20
37.947113
 11
397.261688
 21
37.947113
  0
LINE
  8
0
  6
CONTINUOUS
 10
394.261688
 20
99.434212
 11
394.261688
 21
106.947113
  0
LINE
  8
0
  6
CONTINUOUS
 10
394.261688
 20
46.460052
 11
394.261688
 21
38.947113
  0
LINE
  8
0
  6
CONTINUOUS
 10
393.774811
 20
98.934410
 11
392.235504
 21
98.894112
  0
ARC
  8
0
  6
CONTINUOUS
 10
393.761688
 20
99.434212
 40
0.500000
 50
-88.500000
 51
0.000000
  0
ARC
  8
0
  6
CONTINUOUS
 10
392.261688
 20
97.894417
 40
1.000000
 50
91.499802
 51
180.000000
  0
ARC
  8
0
  6
CONTINUOUS
 10
395.261688
 20
106.947113
 40
1.000000
 50
90.000000
 51
180.000000
  0
ARC
  8
0
  6
CONTINUOUS
 10
393.761688
 20
105.447113
 40
2.500000
 50
90.000000
 51
180.000000
  0
LINE
  8
0
  6
CONTINUOUS
 10
393.774811
 20
46.959934
 11
392.235504
 21
47.000214
  0
ARC
  8
0
  6
CONTINUOUS
 10
392.261688
 20
47.999844
 40
1.000000
 50
180.000000
 51
268.499603
  0
ARC
  8
0
  6
CONTINUOUS
 10
393.761688
 20
46.460052
 40
0.500000
 50
0.000000
 51
88.499802
  0
ARC
  8
0
  6
CONTINUOUS
 10
395.261688
 20
38.947113
 40
1.000000
 50
180.000000
 51
270.000000
  0
ARC
  8
0
  6
CONTINUOUS
 10
393.761688
 20
40.447113
 40
2.500000
 50
180.000000
 51
270.000000
  0
ARC
  8
0
  6
CONTINUOUS
 10
394.261688
 20
102.947113
 40
3.000000
 50
90.000000
 51
270.000000
  0
LINE
  8
0
  6
CONTINUOUS
 10
393.761688
 20
105.905113
 11
393.761688
 21
99.989113
  0
LINE
  8
0
  6
CONTINUOUS
 10
391.761688
 20
102.947113
 11
391.274902
 21
102.666008
  0
LINE
  8
0
  6
CONTINUOUS
 10
391.761688
 20
102.947113
 11
391.274902
 21
103.228210
  0
ARC
  8
0
  6
CONTINUOUS
 10
394.261688
 20
42.947113
 40
3.000000
 50
90.000000
 51
270.000000
  0
LINE
  8
0
  6
CONTINUOUS
 10
393.761688
 20
45.905125
 11
393.761688
 21
39.989101
  0
LINE
  8
0
  6
CONTINUOUS
 10
391.761688
 20
42.947113
 11
391.274902
 21
42.666042
  0
LINE
  8
0
  6
CONTINUOUS
 10
391.761688
 20
42.947113
 11
391.274902
 21
43.228241
  0
LINE
  8
0
  6
CONTINUOUS
 10
126.366257
 20
267.724396
 11
127.866257
 21
268.152954
  0
LINE
  8
0
  6
CONTINUOUS
 10
127.866257
 20
267.166412
 11
129.366257
 21
267.682800
  0
LINE
  8
0
  6
CONTINUOUS
 10
126.366257
 20
273.868561
 11
126.366257
 21
267.724396
  0
LINE
  8
0
  6
CONTINUOUS
 10
127.866257
 20
273.976135
 11
127.866257
 21
267.166412
  0
LINE
  8
0
  6
CONTINUOUS
 10
129.366257
 20
273.814758
 11
129.366257
 21
267.682800
  0
LINE
  8
0
  6
CONTINUOUS
 10
176.366257
 20
274.432526
 11
176.366257
 21
269.481506
  0
LINE
  8
0
  6
CONTINUOUS
 10
176.366257
 20
269.481506
 11
177.866257
 21
269.910065
  0
LINE
  8
0
  6
CONTINUOUS
 10
177.866257
 20
274.432526
 11
177.866257
 21
268.923523
  0
LINE
  8
0
  6
CONTINUOUS
 10
177.866257
 20
268.923523
 11
179.366257
 21
269.439911
  0
LINE
  8
0
  6
CONTINUOUS
 10
179.366257
 20
274.432526
 11
179.366257
 21
269.439911
  0
LINE
  8
0
  6
CONTINUOUS
 10
129.366257
 20
271.682526
 11
140.866135
 21
271.682526
  0
LINE
  8
0
  6
CONTINUOUS
 10
179.366257
 20
273.932526
 11
196.269257
 21
273.932526
  0
LINE
  8
0
  6
CONTINUOUS
 10
80.615921
 20
103.348404
 11
80.615921
 21
102.548386
  0
LINE
  8
0
  6
CONTINUOUS
 10
78.465897
 20
104.698410
 11
79.265915
 21
104.698410
  0
LINE
  8
0
  6
CONTINUOUS
 10
78.465897
 20
101.198410
 11
79.265915
 21
101.198410
  0
LINE
  8
0
  6
CONTINUOUS
 10
77.115921
 20
103.348404
 11
77.115921
 21
102.548386
  0
CIRCLE
  8
0
  6
CONTINUOUS
 10
78.865921
 20
102.948410
 40
2.750000
  0
ARC
  8
0
  6
CONTINUOUS
 10
77.115921
 20
104.698410
 40
1.350000
 50
-90.000000
 51
0.000000
  0
ARC
  8
0
  6
CONTINUOUS
 10
77.115921
 20
101.198410
 40
1.350000
 50
0.000000
 51
90.000000
  0
ARC
  8
0
  6
CONTINUOUS
 10
80.615921
 20
104.698410
 40
1.350000
 50
180.000000
 51
270.000000
  0
ARC
  8
0
  6
CONTINUOUS
 10
80.615921
 20
101.198410
 40
1.350000
 50
90.000000
 51
180.000000
  0
LINE
  8
0
  6
CONTINUOUS
 10
20.615885
 20
103.348404
 11
20.615885
 21
102.548386
  0
LINE
  8
0
  6
CONTINUOUS
 10
18.465860
 20
104.698410
 11
19.265879
 21
104.698410
  0
LINE
  8
0
  6
CONTINUOUS
 10
18.465860
 20
101.198410
 11
19.265879
 21
101.198410
  0
LINE
  8
0
  6
CONTINUOUS
 10
17.115885
 20
103.348404
 11
17.115885
 21
102.548386
  0
CIRCLE
  8
0
  6
CONTINUOUS
 10
18.865885
 20
102.948410
 40
2.750000
  0
ARC
  8
0
  6
CONTINUOUS
 10
17.115885
 20
104.698410
 40
1.350000
 50
-90.000000
 51
0.000000
  0
ARC
  8
0
  6
CONTINUOUS
 10
17.115885
 20
101.198410
 40
1.350000
 50
0.000000
 51
90.000000
  0
ARC
  8
0
  6
CONTINUOUS
 10
20.615885
 20
104.698410
 40
1.350000
 50
180.000000
 51
270.000000
  0
ARC
  8
0
  6
CONTINUOUS
 10
20.615885
 20
101.198410
 40
1.350000
 50
90.000000
 51
180.000000
  0
LINE
  8
0
  6
CONTINUOUS
 10
20.615885
 20
43.348408
 11
20.615885
 21
42.548389
  0
LINE
  8
0
  6
CONTINUOUS
 10
18.465860
 20
44.698414
 11
19.265879
 21
44.698414
  0
LINE
  8
0
  6
CONTINUOUS
 10
18.465860
 20
41.198414
 11
19.265879
 21
41.198414
  0
LINE
  8
0
  6
CONTINUOUS
 10
17.115885
 20
43.348408
 11
17.115885
 21
42.548389
  0
CIRCLE
  8
0
  6
CONTINUOUS
 10
18.865885
 20
42.948414
 40
2.750000
  0
ARC
  8
0
  6
CONTINUOUS
 10
17.115885
 20
44.698414
 40
1.350000
 50
-90.000000
 51
0.000000
  0
ARC
  8
0
  6
CONTINUOUS
 10
17.115885
 20
41.198414
 40
1.350000
 50
0.000000
 51
90.000000
  0
ARC
  8
0
  6
CONTINUOUS
 10
20.615885
 20
44.698414
 40
1.350000
 50
180.000000
 51
270.000000
  0
ARC
  8
0
  6
CONTINUOUS
 10
20.615885
 20
41.198414
 40
1.350000
 50
90.000000
 51
180.000000
  0
LINE
  8
0
  6
CONTINUOUS
 10
80.615921
 20
43.348408
 11
80.615921
 21
42.548389
  0
LINE
  8
0
  6
CONTINUOUS
 10
78.465897
 20
44.698414
 11
79.265915
 21
44.698414
  0
LINE
  8
0
  6
CONTINUOUS
 10
78.465897
 20
41.198414
 11
79.265915
 21
41.198414
  0
LINE
  8
0
  6
CONTINUOUS
 10
77.115921
 20
43.348408
 11
77.115921
 21
42.548389
  0
CIRCLE
  8
0
  6
CONTINUOUS
 10
78.865921
 20
42.948414
 40
2.750000
  0
ARC
  8
0
  6
CONTINUOUS
 10
77.115921
 20
44.698414
 40
1.350000
 50
-90.000000
 51
0.000000
  0
ARC
  8
0
  6
CONTINUOUS
 10
77.115921
 20
41.198414
 40
1.350000
 50
0.000000
 51
90.000000
  0
ARC
  8
0
  6
CONTINUOUS
 10
80.615921
 20
44.698414
 40
1.350000
 50
180.000000
 51
270.000000
  0
ARC
  8
0
  6
CONTINUOUS
 10
80.615921
 20
41.198414
 40
1.350000
 50
90.000000
 51
180.000000
  0
LINE
  8
0
  6
CENTER
 10
-19.594999
 20
234.432571
 11
21.779688
 21
234.432571
  0
LINE
  8
0
  6
CENTER
 10
48.866123
 20
278.286560
 11
48.866123
 21
206.100937
  0
LINE
  8
0
  6
CENTER
 10
48.865925
 20
112.494377
 11
48.865925
 21
32.679375
  0
LINE
  8
0
  6
CONTINUOUS
 10
142.865875
 20
17.697500
 11
142.865875
 21
128.197495
  0
LINE
  8
0
  6
CONTINUOUS
 10
197.865875
 20
17.697500
 11
197.865875
 21
128.197495
  0
LINE
  8
0
  6
CONTINUOUS
 10
144.865875
 20
116.947502
 11
195.865875
 21
116.947502
  0
LINE
  8
0
  6
CONTINUOUS
 10
144.865875
 20
24.947500
 11
195.865875
 21
24.947500
  0
LINE
  8
0
  6
CONTINUOUS
 10
134.865875
 20
130.197495
 11
140.865875
 21
130.197495
  0
LINE
  8
0
  6
CONTINUOUS
 10
134.865875
 20
15.697500
 11
140.865875
 21
15.697500
  0
ARC
  8
0
  6
CONTINUOUS
 10
144.865875
 20
118.947502
 40
2.000000
 50
180.000000
 51
270.000000
  0
ARC
  8
0
  6
CONTINUOUS
 10
195.865875
 20
118.947502
 40
2.000000
 50
-90.000000
 51
0.000000
  0
ARC
  8
0
  6
CONTINUOUS
 10
144.865875
 20
22.947519
 40
2.000000
 50
90.000000
 51
180.000000
  0
ARC
  8
0
  6
CONTINUOUS
 10
195.865875
 20
22.947500
 40
2.000000
 50
0.000000
 51
90.000000
  0
ARC
  8
0
  6
CONTINUOUS
 10
140.865875
 20
128.197495
 40
2.000000
 50
0.000000
 51
90.000000
  0
ARC
  8
0
  6
CONTINUOUS
 10
199.865875
 20
128.197525
 40
2.000000
 50
90.000000
 51
180.000000
  0
ARC
  8
0
  6
CONTINUOUS
 10
199.865875
 20
17.697500
 40
2.000000
 50
180.000000
 51
270.000000
  0
ARC
  8
0
  6
CONTINUOUS
 10
140.865875
 20
17.697500
 40
2.000000
 50
-90.000000
 51
0.000000
  0
LINE
  8
0
  6
CONTINUOUS
 10
143.865875
 20
63.947498
 11
143.865875
 21
76.947502
  0
LINE
  8
0
  6
CONTINUOUS
 10
165.865875
 20
76.947502
 11
165.865875
 21
63.947498
  0
LINE
  8
0
  6
CONTINUOUS
 10
196.865875
 20
63.947498
 11
196.865875
 21
76.947502
  0
LINE
  8
0
  6
CONTINUOUS
 10
174.865875
 20
63.947498
 11
174.865875
 21
76.947502
  0
LINE
  8
0
  6
CONTINUOUS
 10
164.865875
 20
77.947502
 11
144.865875
 21
77.947502
  0
LINE
  8
0
  6
CONTINUOUS
 10
164.865875
 20
62.947498
 11
144.865875
 21
62.947498
  0
ARC
  8
0
  6
CONTINUOUS
 10
144.865875
 20
76.947502
 40
1.000000
 50
90.000000
 51
180.000000
  0
ARC
  8
0
  6
CONTINUOUS
 10
144.865875
 20
63.947498
 40
1.000000
 50
180.000000
 51
270.000000
  0
ARC
  8
0
  6
CONTINUOUS
 10
164.865875
 20
63.947498
 40
1.000000
 50
-90.000000
 51
0.000000
  0
ARC
  8
0
  6
CONTINUOUS
 10
164.865875
 20
76.947502
 40
1.000000
 50
0.000000
 51
90.000000
  0
ARC
  8
0
  6
CONTINUOUS
 10
175.865875
 20
76.947502
 40
1.000000
 50
90.000000
 51
180.000000
  0
ARC
  8
0
  6
CONTINUOUS
 10
175.865875
 20
63.947498
 40
1.000000
 50
180.000000
 51
270.000000
  0
ARC
  8
0
  6
CONTINUOUS
 10
195.865875
 20
76.947502
 40
1.000000
 50
0.000000
 51
90.000000
  0
ARC
  8
0
  6
CONTINUOUS
 10
195.865875
 20
63.947498
 40
1.000000
 50
-90.000000
 51
0.000000
  0
LINE
  8
0
  6
CONTINUOUS
 10
177.865875
 20
86.947502
 11
177.865875
 21
61.003555
  0
LINE
  8
0
  6
CONTINUOUS
 10
179.365875
 20
86.947502
 11
179.365875
 21
60.146404
  0
LINE
  8
0
  6
CONTINUOUS
 10
176.365875
 20
86.947502
 11
176.365875
 21
60.888474
  0
LINE
  8
0
  6
CONTINUOUS
 10
176.365875
 20
60.888474
 11
177.865875
 21
62.125961
  0
LINE
  8
0
  6
CONTINUOUS
 10
177.865875
 20
61.003555
 11
179.365875
 21
60.146404
  0
ARC
  8
0
  6
CONTINUOUS
 10
178.615875
 20
86.947502
 40
0.750000
 50
0.000000
 51
180.000000
  0
ARC
  8
0
  6
CONTINUOUS
 10
177.115875
 20
86.947502
 40
0.750000
 50
0.000000
 51
180.000000
  0
LINE
  8
0
  6
CONTINUOUS
 10
175.865875
 20
77.947502
 11
176.365875
 21
77.947502
  0
LINE
  8
0
  6
CONTINUOUS
 10
175.865875
 20
62.947498
 11
176.365875
 21
62.947498
  0
LINE
  8
0
  6
CONTINUOUS
 10
144.758926
 20
59.353256
 11
196.209671
 21
59.353256
  0
LINE
  8
0
  6
CONTINUOUS
 10
199.865875
 20
130.197495
 11
205.865875
 21
130.197495
  0
LINE
  8
0
  6
CONTINUOUS
 10
199.865875
 20
15.697500
 11
205.865875
 21
15.697500
  0
LINE
  8
0
  6
CONTINUOUS
 10
195.865875
 20
62.947498
 11
179.365875
 21
62.947498
  0
LINE
  8
0
  6
CONTINUOUS
 10
195.865875
 20
77.947502
 11
179.365875
 21
77.947502
  0
LINE
  8
0
  6
CONTINUOUS
 10
144.758926
 20
55.947563
 11
196.209671
 21
55.947563
  0
LINE
  8
0
  6
CONTINUOUS
 10
185.865875
 20
42.551563
 11
185.865875
 21
26.947500
  0
LINE
  8
0
  6
CONTINUOUS
 10
154.865875
 20
42.551563
 11
154.865875
 21
26.947500
  0
LINE
  8
0
  6
CONTINUOUS
 10
144.758926
 20
46.282978
 11
153.430252
 21
46.282978
  0
LINE
  8
0
  6
CONTINUOUS
 10
187.324005
 20
46.282978
 11
196.209671
 21
46.282978
  0
ARC
  8
0
  6
CONTINUOUS
 10
152.865875
 20
26.947500
 40
2.000000
 50
-90.000000
 51
0.000000
  0
ARC
  8
0
  6
CONTINUOUS
 10
187.865875
 20
26.947500
 40
2.000000
 50
180.000000
 51
270.000000
  0
LINE
  8
0
  6
CONTINUOUS
 10
155.523682
 20
36.069386
 11
185.031189
 21
36.069386
  0
ARC
  8
0
  6
CONTINUOUS
 10
177.865875
 20
86.947762
 40
4.000000
 50
-67.975685
 51
247.975693
  0
LINE
  8
0
  6
CENTER
 10
413.261688
 20
113.000000
 11
413.261688
 21
33.500000
  0
TEXT
  8
0
 10
-20.000000
 20
-20.000000
 40
4.000000
 41
1.000000
  1
G3FE-18-5~50-T010A
 50
0.000000
  0
ENDSEC
  0
EOF
