  0
SECTION
  2
HEADER
  9
$ACADVER
  1
AC1014
  9
$ACADMAINTVER
 70
     9
  9
$DWGCODEPAGE
  3
ANSI_932
  9
$INSBASE
 10
0.0
 20
0.0
 30
0.0
  9
$EXTMIN
 10
-12.562188
 20
-16.0
 30
0.0
  9
$EXTMAX
 10
617.0549929999999
 20
400.785004
 30
0.0
  9
$LIMMIN
 10
0.0
 20
0.0
  9
$LIMMAX
 10
12.0
 20
9.0
  9
$ORTHOMODE
 70
     0
  9
$REGENMODE
 70
     1
  9
$FILLMODE
 70
     1
  9
$QTEXTMODE
 70
     0
  9
$MIRRTEXT
 70
     1
  9
$DRAGMODE
 70
     2
  9
$LTSCALE
 40
3.0
  9
$OSMODE
 70
    45
  9
$ATTMODE
 70
     1
  9
$TEXTSIZE
 40
3.0
  9
$TRACEWID
 40
0.05
  9
$TEXTSTYLE
  7
STANDARD
  9
$CLAYER
  8
1
  9
$CELTYPE
  6
CONTINUOUS
  9
$CECOLOR
 62
   256
  9
$CELTSCALE
 40
1.0
  9
$DELOBJ
 70
     1
  9
$DISPSILH
 70
     0
  9
$DIMSCALE
 40
1.0
  9
$DIMASZ
 40
0.18
  9
$DIMEXO
 40
0.0625
  9
$DIMDLI
 40
0.38
  9
$DIMRND
 40
0.0
  9
$DIMDLE
 40
0.0
  9
$DIMEXE
 40
0.18
  9
$DIMTP
 40
0.0
  9
$DIMTM
 40
0.0
  9
$DIMTXT
 40
0.18
  9
$DIMCEN
 40
0.09
  9
$DIMTSZ
 40
0.0
  9
$DIMTOL
 70
     0
  9
$DIMLIM
 70
     0
  9
$DIMTIH
 70
     1
  9
$DIMTOH
 70
     1
  9
$DIMSE1
 70
     0
  9
$DIMSE2
 70
     0
  9
$DIMTAD
 70
     0
  9
$DIMZIN
 70
     0
  9
$DIMBLK
  1

  9
$DIMASO
 70
     1
  9
$DIMSHO
 70
     1
  9
$DIMPOST
  1

  9
$DIMAPOST
  1

  9
$DIMALT
 70
     0
  9
$DIMALTD
 70
     2
  9
$DIMALTF
 40
25.4
  9
$DIMLFAC
 40
1.0
  9
$DIMTOFL
 70
     0
  9
$DIMTVP
 40
0.0
  9
$DIMTIX
 70
     0
  9
$DIMSOXD
 70
     0
  9
$DIMSAH
 70
     0
  9
$DIMBLK1
  1

  9
$DIMBLK2
  1

  9
$DIMSTYLE
  2
STANDARD
  9
$DIMCLRD
 70
     0
  9
$DIMCLRE
 70
     0
  9
$DIMCLRT
 70
     0
  9
$DIMTFAC
 40
1.0
  9
$DIMGAP
 40
0.09
  9
$DIMJUST
 70
     0
  9
$DIMSD1
 70
     0
  9
$DIMSD2
 70
     0
  9
$DIMTOLJ
 70
     1
  9
$DIMTZIN
 70
     0
  9
$DIMALTZ
 70
     0
  9
$DIMALTTZ
 70
     0
  9
$DIMFIT
 70
     3
  9
$DIMUPT
 70
     0
  9
$DIMUNIT
 70
     2
  9
$DIMDEC
 70
     4
  9
$DIMTDEC
 70
     4
  9
$DIMALTU
 70
     2
  9
$DIMALTTD
 70
     2
  9
$DIMTXSTY
  7
STANDARD
  9
$DIMAUNIT
 70
     0
  9
$LUNITS
 70
     2
  9
$LUPREC
 70
     4
  9
$SKETCHINC
 40
0.1
  9
$FILLETRAD
 40
0.0
  9
$AUNITS
 70
     0
  9
$AUPREC
 70
     0
  9
$MENU
  1
.
  9
$ELEVATION
 40
0.0
  9
$PELEVATION
 40
0.0
  9
$THICKNESS
 40
0.0
  9
$LIMCHECK
 70
     0
  9
$BLIPMODE
 70
     0
  9
$CHAMFERA
 40
0.0
  9
$CHAMFERB
 40
0.0
  9
$CHAMFERC
 40
0.0
  9
$CHAMFERD
 40
0.0
  9
$SKPOLY
 70
     0
  9
$TDCREATE
 40
2453349.574093241
  9
$TDUPDATE
 40
2453349.759426689
  9
$TDINDWG
 40
0.0012333681
  9
$TDUSRTIMER
 40
0.0012333681
  9
$USRTIMER
 70
     1
  9
$ANGBASE
 50
0.0
  9
$ANGDIR
 70
     0
  9
$PDMODE
 70
     0
  9
$PDSIZE
 40
0.0
  9
$PLINEWID
 40
0.0
  9
$COORDS
 70
     1
  9
$SPLFRAME
 70
     0
  9
$SPLINETYPE
 70
     6
  9
$SPLINESEGS
 70
     8
  9
$ATTDIA
 70
     0
  9
$ATTREQ
 70
     1
  9
$HANDLING
 70
 22529
  9
$HANDSEED
  5
30B
  9
$SURFTAB1
 70
     6
  9
$SURFTAB2
 70
     6
  9
$SURFTYPE
 70
     6
  9
$SURFU
 70
     6
  9
$SURFV
 70
     6
  9
$UCSNAME
  2

  9
$UCSORG
 10
0.0
 20
0.0
 30
0.0
  9
$UCSXDIR
 10
1.0
 20
0.0
 30
0.0
  9
$UCSYDIR
 10
0.0
 20
1.0
 30
0.0
  9
$PUCSNAME
  2

  9
$PUCSORG
 10
0.0
 20
0.0
 30
0.0
  9
$PUCSXDIR
 10
1.0
 20
0.0
 30
0.0
  9
$PUCSYDIR
 10
0.0
 20
1.0
 30
0.0
  9
$USERI1
 70
     0
  9
$USERI2
 70
     0
  9
$USERI3
 70
     0
  9
$USERI4
 70
     0
  9
$USERI5
 70
     0
  9
$USERR1
 40
0.0
  9
$USERR2
 40
0.0
  9
$USERR3
 40
0.0
  9
$USERR4
 40
0.0
  9
$USERR5
 40
0.0
  9
$WORLDVIEW
 70
     1
  9
$SHADEDGE
 70
     3
  9
$SHADEDIF
 70
    70
  9
$TILEMODE
 70
     1
  9
$MAXACTVP
 70
    64
  9
$PINSBASE
 10
0.0
 20
0.0
 30
0.0
  9
$PLIMCHECK
 70
     0
  9
$PEXTMIN
 10
1.000000000000000E+20
 20
1.000000000000000E+20
 30
1.000000000000000E+20
  9
$PEXTMAX
 10
-1.000000000000000E+20
 20
-1.000000000000000E+20
 30
-1.000000000000000E+20
  9
$PLIMMIN
 10
0.0
 20
0.0
  9
$PLIMMAX
 10
12.0
 20
9.0
  9
$UNITMODE
 70
     0
  9
$VISRETAIN
 70
     1
  9
$PLINEGEN
 70
     0
  9
$PSLTSCALE
 70
     1
  9
$TREEDEPTH
 70
  3020
  9
$PICKSTYLE
 70
     1
  9
$CMLSTYLE
  2
STANDARD
  9
$CMLJUST
 70
     0
  9
$CMLSCALE
 40
1.0
  9
$PROXYGRAPHICS
 70
     1
  9
$MEASUREMENT
 70
     0
  0
ENDSEC
  0
SECTION
  2
CLASSES
  0
CLASS
  1
ACDBDICTIONARYWDFLT
  2
AcDbDictionaryWithDefault
  3
AutoCAD 2000
 90
        0
280
     0
281
     0
  0
CLASS
  1
ACDBPLACEHOLDER
  2
AcDbPlaceHolder
  3
AutoCAD 2000
 90
        0
280
     0
281
     0
  0
CLASS
  1
LAYOUT
  2
AcDbLayout
  3
AutoCAD 2000
 90
        0
280
     0
281
     0
  0
CLASS
  1
DICTIONARYVAR
  2
AcDbDictionaryVar
  3
AutoCAD 2000
 90
        0
280
     0
281
     0
  0
CLASS
  1
LONG_TRANSACTION
  2
AcDbLongTransaction
  3
AutoCAD 2000
 90
        0
280
     0
281
     0
  0
CLASS
  1
LWPOLYLINE
  2
AcDbPolyline
  3
AutoCAD 2000
 90
        0
280
     0
281
     1
  0
CLASS
  1
HATCH
  2
AcDbHatch
  3
AutoCAD 2000
 90
        0
280
     0
281
     1
  0
CLASS
  1
XRECORD
  2
AcDbXrecord
  3
AutoCAD 2000
 90
        0
280
     0
281
     0
  0
ENDSEC
  0
SECTION
  2
TABLES
  0
TABLE
  2
VPORT
  5
8
330
0
100
AcDbSymbolTable
 70
     2
  0
VPORT
  5
2E6
330
8
100
AcDbSymbolTableRecord
100
AcDbViewportTableRecord
  2
*ACTIVE
 70
     0
 10
0.0
 20
0.0
 11
1.0
 21
1.0
 12
420.5708078494364
 22
193.8209082367104
 13
0.0
 23
0.0
 14
1.0
 24
1.0
 15
0.0
 25
0.0
 16
0.0
 26
0.0
 36
1.0
 17
0.0
 27
0.0
 37
0.0
 40
588.1046273721914
 41
1.976793248945147
 42
50.0
 43
0.0
 44
0.0
 50
0.0
 51
0.0
 71
     0
 72
   100
 73
     1
 74
     1
 75
     0
 76
     0
 77
     0
 78
     0
  0
ENDTAB
  0
TABLE
  2
LTYPE
  5
5
330
0
100
AcDbSymbolTable
 70
     3
  0
LTYPE
  5
13
330
5
100
AcDbSymbolTableRecord
100
AcDbLinetypeTableRecord
  2
BYBLOCK
 70
     0
  3

 72
    65
 73
     0
 40
0.0
  0
LTYPE
  5
14
330
5
100
AcDbSymbolTableRecord
100
AcDbLinetypeTableRecord
  2
BYLAYER
 70
     0
  3

 72
    65
 73
     0
 40
0.0
  0
LTYPE
  5
15
330
5
100
AcDbSymbolTableRecord
100
AcDbLinetypeTableRecord
  2
CONTINUOUS
 70
     0
  3
solid line
 72
    65
 73
     0
 40
0.0
  0
LTYPE
  5
23
330
5
100
AcDbSymbolTableRecord
100
AcDbLinetypeTableRecord
  2
DASHED
 70
     0
  3
__ __ __ __ __ __ __ __ __ __ __ __ __ __ __
 72
    65
 73
     2
 40
0.75
 49
0.5
 74
     0
 49
-0.25
 74
     0
  0
LTYPE
  5
24
330
5
100
AcDbSymbolTableRecord
100
AcDbLinetypeTableRecord
  2
CENTER
 70
     0
  3
____ _ ____ _ ____ _ ____ _ ____ _ ____ _ ____
 72
    65
 73
     4
 40
2.0
 49
1.25
 74
     0
 49
-0.25
 74
     0
 49
0.25
 74
     0
 49
-0.25
 74
     0
  0
ENDTAB
  0
TABLE
  2
LAYER
  5
2
330
0
100
AcDbSymbolTable
 70
     3
  0
LAYER
  5
10
330
2
100
AcDbSymbolTableRecord
100
AcDbLayerTableRecord
  2
0
 70
     0
 62
     7
  6
CONTINUOUS
  0
LAYER
  5
22
330
2
100
AcDbSymbolTableRecord
100
AcDbLayerTableRecord
  2
1
 70
     0
 62
     7
  6
CONTINUOUS
  0
LAYER
  5
207
330
2
100
AcDbSymbolTableRecord
100
AcDbLayerTableRecord
  2
TOP
 70
     0
 62
     7
  6
CONTINUOUS
  0
ENDTAB
  0
TABLE
  2
STYLE
  5
3
330
0
100
AcDbSymbolTable
 70
     1
  0
STYLE
  5
11
330
3
100
AcDbSymbolTableRecord
100
AcDbTextStyleTableRecord
  2
STANDARD
 70
     0
 40
0.0
 41
1.0
 50
0.0
 71
     0
 42
3.0
  3
txt
  4
BIGFONT
  0
ENDTAB
  0
TABLE
  2
VIEW
  5
6
330
0
100
AcDbSymbolTable
 70
     0
  0
ENDTAB
  0
TABLE
  2
UCS
  5
7
330
0
100
AcDbSymbolTable
 70
     0
  0
ENDTAB
  0
TABLE
  2
APPID
  5
9
330
0
100
AcDbSymbolTable
 70
     1
  0
APPID
  5
12
330
9
100
AcDbSymbolTableRecord
100
AcDbRegAppTableRecord
  2
ACAD
 70
     0
  0
ENDTAB
  0
TABLE
  2
DIMSTYLE
  5
A
330
0
100
AcDbSymbolTable
 70
     1
  0
DIMSTYLE
105
205
330
A
100
AcDbSymbolTableRecord
100
AcDbDimStyleTableRecord
  2
STANDARD
 70
     0
  3

  4

  5

  6

  7

 40
1.0
 41
0.18
 42
0.0625
 43
0.38
 44
0.18
 45
0.0
 46
0.0
 47
0.0
 48
0.0
140
0.18
141
0.09
142
0.0
143
25.4
144
1.0
145
0.0
146
1.0
147
0.09
 71
     0
 72
     0
 73
     1
 74
     1
 75
     0
 76
     0
 77
     0
 78
     0
170
     0
171
     2
172
     0
173
     0
174
     0
175
     0
176
     0
177
     0
178
     0
270
     2
271
     4
272
     4
273
     2
274
     2
340
11
275
     0
280
     0
281
     0
282
     0
283
     1
284
     0
285
     0
286
     0
287
     3
288
     0
  0
ENDTAB
  0
TABLE
  2
BLOCK_RECORD
  5
1
330
0
100
AcDbSymbolTable
 70
     0
  0
BLOCK_RECORD
  5
1E
102
{ACAD_XDICTIONARY
360
309
102
}
330
1
100
AcDbSymbolTableRecord
100
AcDbBlockTableRecord
  2
*MODEL_SPACE
  0
BLOCK_RECORD
  5
1A
102
{ACAD_XDICTIONARY
360
307
102
}
330
1
100
AcDbSymbolTableRecord
100
AcDbBlockTableRecord
  2
*PAPER_SPACE
  0
ENDTAB
  0
ENDSEC
  0
SECTION
  2
BLOCKS
  0
BLOCK
  5
1F
330
1E
100
AcDbEntity
  8
0
100
AcDbBlockBegin
  2
*MODEL_SPACE
 70
     0
 10
0.0
 20
0.0
 30
0.0
  3
*MODEL_SPACE
  1

  0
ENDBLK
  5
20
330
1E
100
AcDbEntity
  8
0
100
AcDbBlockEnd
  0
BLOCK
  5
1B
330
1A
100
AcDbEntity
 67
     1
  8
0
100
AcDbBlockBegin
  2
*PAPER_SPACE
 70
     0
 10
0.0
 20
0.0
 30
0.0
  3
*PAPER_SPACE
  1

  0
ENDBLK
  5
1C
330
1A
100
AcDbEntity
 67
     1
  8
0
100
AcDbBlockEnd
  0
ENDSEC
  0
SECTION
  2
ENTITIES
  0
LINE
  5
29
330
1E
100
AcDbEntity
  8
0
  6
CENTER
100
AcDbLine
 10
-8.259062
 20
323.785004
 30
0.0
 11
374.813171
 21
323.785004
 31
0.0
  0
ARC
  5
2A
330
1E
100
AcDbEntity
  8
0
  6
CONTINUOUS
100
AcDbCircle
 10
316.9739069999999
 20
-115.185799
 30
0.0
 40
500.0
100
AcDbArc
 50
91.999352
 51
95.16373399999999
  0
LINE
  5
2B
330
1E
100
AcDbEntity
  8
0
  6
CONTINUOUS
100
AcDbLine
 10
314.026794
 20
384.7630309999999
 30
0.0
 11
299.528992
 21
384.509796
 31
0.0
  0
ARC
  5
2C
330
1E
100
AcDbEntity
  8
0
  6
CONTINUOUS
100
AcDbCircle
 10
313.974396
 20
387.7626039999999
 30
0.0
 40
3.0
100
AcDbArc
 50
271.000977
 51
0.0
  0
LINE
  5
2D
330
1E
100
AcDbEntity
  8
0
  6
CONTINUOUS
100
AcDbLine
 10
326.972809
 20
400.285004
 30
0.0
 11
326.972931
 21
247.285004
 31
0.0
  0
LINE
  5
2E
330
1E
100
AcDbEntity
  8
0
  6
CONTINUOUS
100
AcDbLine
 10
319.9728089999999
 20
400.785004
 30
0.0
 11
326.4728089999999
 21
400.785004
 31
0.0
  0
LINE
  5
2F
330
1E
100
AcDbEntity
  8
0
  6
CONTINUOUS
100
AcDbLine
 10
319.9728089999999
 20
246.785004
 30
0.0
 11
326.472931
 21
246.785004
 31
0.0
  0
LINE
  5
30
330
1E
100
AcDbEntity
  8
0
  6
CONTINUOUS
100
AcDbLine
 10
326.972809
 20
396.285004
 30
0.0
 11
329.472687
 21
396.285004
 31
0.0
  0
LINE
  5
31
330
1E
100
AcDbEntity
  8
0
  6
CONTINUOUS
100
AcDbLine
 10
326.972931
 20
251.285004
 30
0.0
 11
329.472687
 21
251.285004
 31
0.0
  0
LINE
  5
32
330
1E
100
AcDbEntity
  8
0
  6
CONTINUOUS
100
AcDbLine
 10
329.972687
 20
395.785004
 30
0.0
 11
329.9728089999999
 21
251.785004
 31
0.0
  0
LINE
  5
33
330
1E
100
AcDbEntity
  8
0
  6
CONTINUOUS
100
AcDbLine
 10
316.9728089999999
 20
397.785004
 30
0.0
 11
316.972595
 21
249.785004
 31
0.0
  0
LINE
  5
34
330
1E
100
AcDbEntity
  8
0
  6
CONTINUOUS
100
AcDbLine
 10
329.472687
 20
251.285004
 30
0.0
 11
329.9728089999999
 21
251.785004
 31
0.0
  0
LINE
  5
35
330
1E
100
AcDbEntity
  8
0
  6
CONTINUOUS
100
AcDbLine
 10
326.472931
 20
246.785004
 30
0.0
 11
326.972931
 21
247.285004
 31
0.0
  0
LINE
  5
36
330
1E
100
AcDbEntity
  8
0
  6
CONTINUOUS
100
AcDbLine
 10
326.4728089999999
 20
400.785004
 30
0.0
 11
326.972809
 21
400.285004
 31
0.0
  0
LINE
  5
37
330
1E
100
AcDbEntity
  8
0
  6
CONTINUOUS
100
AcDbLine
 10
329.472687
 20
396.285004
 30
0.0
 11
329.972687
 21
395.785004
 31
0.0
  0
LINE
  5
38
330
1E
100
AcDbEntity
  8
0
  6
CONTINUOUS
100
AcDbLine
 10
271.9728089999999
 20
382.785004
 30
0.0
 11
271.9728089999999
 21
264.785004
 31
0.0
  0
ARC
  5
39
330
1E
100
AcDbEntity
  8
0
  6
CONTINUOUS
100
AcDbCircle
 10
316.9739069999999
 20
762.755798
 30
0.0
 40
500.0
100
AcDbArc
 50
264.836266
 51
268.000648
  0
LINE
  5
3A
330
1E
100
AcDbEntity
  8
0
  6
CONTINUOUS
100
AcDbLine
 10
314.026794
 20
262.8069149999999
 30
0.0
 11
299.528992
 21
263.06015
 31
0.0
  0
ARC
  5
3B
330
1E
100
AcDbEntity
  8
0
  6
CONTINUOUS
100
AcDbCircle
 10
313.974396
 20
259.8073429999999
 30
0.0
 40
3.0
100
AcDbArc
 50
0.0
 51
88.99902299999999
  0
LINE
  5
3C
330
1E
100
AcDbEntity
  8
0
  6
CONTINUOUS
100
AcDbLine
 10
331.972687
 20
333.785004
 30
0.0
 11
331.972687
 21
313.785004
 31
0.0
  0
LINE
  5
3D
330
1E
100
AcDbEntity
  8
0
  6
CONTINUOUS
100
AcDbLine
 10
329.972687
 20
333.785004
 30
0.0
 11
331.972687
 21
333.785004
 31
0.0
  0
LINE
  5
3E
330
1E
100
AcDbEntity
  8
0
  6
CONTINUOUS
100
AcDbLine
 10
329.972687
 20
313.785004
 30
0.0
 11
331.972687
 21
313.785004
 31
0.0
  0
LINE
  5
3F
330
1E
100
AcDbEntity
  8
0
  6
CONTINUOUS
100
AcDbLine
 10
331.972687
 20
332.785004
 30
0.0
 11
361.972687
 21
332.785004
 31
0.0
  0
LINE
  5
40
330
1E
100
AcDbEntity
  8
0
  6
CONTINUOUS
100
AcDbLine
 10
361.972687
 20
332.785004
 30
0.0
 11
361.972687
 21
312.285004
 31
0.0
  0
LINE
  5
41
330
1E
100
AcDbEntity
  8
0
  6
CONTINUOUS
100
AcDbLine
 10
334.972687
 20
315.2999879999999
 30
0.0
 11
334.972687
 21
312.285004
 31
0.0
  0
LINE
  5
42
330
1E
100
AcDbEntity
  8
0
  6
CONTINUOUS
100
AcDbLine
 10
334.972687
 20
312.285004
 30
0.0
 11
361.972687
 21
312.285004
 31
0.0
  0
LINE
  5
43
330
1E
100
AcDbEntity
  8
0
  6
CONTINUOUS
100
AcDbLine
 10
331.972687
 20
314.785004
 30
0.0
 11
334.972687
 21
314.785004
 31
0.0
  0
ARC
  5
44
330
1E
100
AcDbEntity
  8
0
  6
CONTINUOUS
100
AcDbCircle
 10
319.9728089999999
 20
249.785004
 30
0.0
 40
3.0
100
AcDbArc
 50
180.0
 51
270.0
  0
ARC
  5
45
330
1E
100
AcDbEntity
  8
0
  6
CONTINUOUS
100
AcDbCircle
 10
319.9728089999999
 20
397.785004
 30
0.0
 40
3.0
100
AcDbArc
 50
90.0
 51
180.0
  0
LINE
  5
46
330
1E
100
AcDbEntity
  8
0
  6
CONTINUOUS
100
AcDbLine
 10
265.007721
 20
381.548248
 30
0.0
 11
257.472687
 21
381.2850649999999
 31
0.0
  0
ARC
  5
47
330
1E
100
AcDbEntity
  8
0
  6
CONTINUOUS
100
AcDbCircle
 10
264.9728089999999
 20
382.5476379999999
 30
0.0
 40
1.0
100
AcDbArc
 50
271.9992069999999
 51
321.0594479999999
  0
LINE
  5
48
330
1E
100
AcDbEntity
  8
0
  6
CONTINUOUS
100
AcDbLine
 10
265.972748
 20
382.140717
 30
0.0
 11
265.9725649999999
 21
265.429474
 31
0.0
  0
LINE
  5
49
330
1E
100
AcDbEntity
  8
0
  6
CONTINUOUS
100
AcDbLine
 10
265.007721
 20
266.0217589999999
 30
0.0
 11
257.472687
 21
266.284943
 31
0.0
  0
LINE
  5
4A
330
1E
100
AcDbEntity
  8
0
  6
CENTER
100
AcDbLine
 10
331.431091
 20
383.889191
 30
0.0
 11
312.193329
 21
383.889191
 31
0.0
  0
LINE
  5
4B
330
1E
100
AcDbEntity
  8
0
  6
CENTER
100
AcDbLine
 10
331.431091
 20
263.680817
 30
0.0
 11
312.193329
 21
263.680817
 31
0.0
  0
LINE
  5
4C
330
1E
100
AcDbEntity
  8
0
  6
CONTINUOUS
100
AcDbLine
 10
329.472687
 20
21.826719
 30
0.0
 11
326.9726869999999
 21
21.826719
 31
0.0
  0
LINE
  5
4D
330
1E
100
AcDbEntity
  8
0
  6
CENTER
100
AcDbLine
 10
-12.562188
 20
77.82672099999999
 30
0.0
 11
308.858704
 21
77.82672099999999
 31
0.0
  0
LINE
  5
4E
330
1E
100
AcDbEntity
  8
0
  6
CONTINUOUS
100
AcDbLine
 10
329.972687
 20
22.326719
 30
0.0
 11
329.472687
 21
21.826719
 31
0.0
  0
LINE
  5
4F
330
1E
100
AcDbEntity
  8
0
  6
CONTINUOUS
100
AcDbLine
 10
329.472687
 20
166.8267209999999
 30
0.0
 11
329.972687
 21
166.3267209999999
 31
0.0
  0
LINE
  5
50
330
1E
100
AcDbEntity
  8
0
  6
CENTER
100
AcDbLine
 10
297.829895
 20
94.32672099999999
 30
0.0
 11
372.645691
 21
94.32672099999999
 31
0.0
  0
LINE
  5
51
330
1E
100
AcDbEntity
  8
0
  6
CONTINUOUS
100
AcDbLine
 10
329.972687
 20
22.326719
 30
0.0
 11
329.972687
 21
166.3267209999999
 31
0.0
  0
LINE
  5
52
330
1E
100
AcDbEntity
  8
0
  6
CONTINUOUS
100
AcDbLine
 10
271.972687
 20
140.326447
 30
0.0
 11
271.9724429999999
 21
16.32659899999999
 31
0.0
  0
LINE
  5
53
330
1E
100
AcDbEntity
  8
0
  6
CONTINUOUS
100
AcDbLine
 10
326.9726869999999
 20
166.8267209999999
 30
0.0
 11
329.472687
 21
166.8267209999999
 31
0.0
  0
LINE
  5
54
330
1E
100
AcDbEntity
  8
0
  6
CONTINUOUS
100
AcDbLine
 10
326.9726869999999
 20
21.826719
 30
0.0
 11
329.472687
 21
21.826719
 31
0.0
  0
LINE
  5
55
330
1E
100
AcDbEntity
  8
0
  6
CONTINUOUS
100
AcDbLine
 10
326.9726869999999
 20
14.826919
 30
0.0
 11
326.9726869999999
 21
170.8267209999999
 31
0.0
  0
LINE
  5
56
330
1E
100
AcDbEntity
  8
0
  6
CONTINUOUS
100
AcDbLine
 10
316.972504
 20
168.3267209999999
 30
0.0
 11
316.972504
 21
17.44957199999999
 31
0.0
  0
LINE
  5
57
330
1E
100
AcDbEntity
  8
0
  6
CONTINUOUS
100
AcDbLine
 10
326.472687
 20
171.3267209999999
 30
0.0
 11
319.972687
 21
171.3267209999999
 31
0.0
  0
ARC
  5
58
330
1E
100
AcDbEntity
  8
0
  6
CONTINUOUS
100
AcDbCircle
 10
316.972107
 20
-357.644287
 30
0.0
 40
500.0
100
AcDbArc
 50
91.999352
 51
95.16364300000001
  0
ARC
  5
59
330
1E
100
AcDbEntity
  8
0
  6
CONTINUOUS
100
AcDbCircle
 10
316.972107
 20
514.3355709999999
 30
0.0
 40
500.0
100
AcDbArc
 50
264.836304
 51
267.2171019999999
  0
ARC
  5
5A
330
1E
100
AcDbEntity
  8
0
  6
CONTINUOUS
100
AcDbCircle
 10
319.972687
 20
168.3267209999999
 30
0.0
 40
3.0
100
AcDbArc
 50
90.0
 51
180.0
  0
LINE
  5
5B
330
1E
100
AcDbEntity
  8
0
  6
CONTINUOUS
100
AcDbLine
 10
271.9724729999999
 20
38.32671699999999
 30
0.0
 11
314.220093
 21
39.432919
 31
0.0
  0
LINE
  5
5C
330
1E
100
AcDbEntity
  8
0
  6
CONTINUOUS
100
AcDbLine
 10
271.9724729999999
 20
24.326698
 30
0.0
 11
314.220093
 21
23.220739
 31
0.0
  0
LINE
  5
5D
330
1E
100
AcDbEntity
  8
0
  6
CONTINUOUS
100
AcDbLine
 10
326.472687
 20
171.3267209999999
 30
0.0
 11
326.9726869999999
 21
170.8267209999999
 31
0.0
  0
LINE
  5
5E
330
1E
100
AcDbEntity
  8
0
  6
CONTINUOUS
100
AcDbLine
 10
314.024902
 20
142.304382
 30
0.0
 11
299.5271
 21
142.0511929999999
 31
0.0
  0
ARC
  5
5F
330
1E
100
AcDbEntity
  8
0
  6
CONTINUOUS
100
AcDbCircle
 10
313.972504
 20
145.304031
 30
0.0
 40
3.0
100
AcDbArc
 50
271.000977
 51
0.0
  0
LINE
  5
60
330
1E
100
AcDbEntity
  8
0
  6
CONTINUOUS
100
AcDbLine
 10
326.472778
 20
14.33564599999999
 30
0.0
 11
292.697113
 21
14.925247
 31
0.0
  0
LINE
  5
61
330
1E
100
AcDbEntity
  8
0
  6
CONTINUOUS
100
AcDbLine
 10
331.972687
 20
104.326721
 30
0.0
 11
331.972687
 21
84.32672099999999
 31
0.0
  0
LINE
  5
62
330
1E
100
AcDbEntity
  8
0
  6
CONTINUOUS
100
AcDbLine
 10
331.972687
 20
103.32666
 30
0.0
 11
361.972687
 21
103.3267209999999
 31
0.0
  0
LINE
  5
63
330
1E
100
AcDbEntity
  8
0
  6
CONTINUOUS
100
AcDbLine
 10
331.972687
 20
85.32672099999999
 30
0.0
 11
361.972687
 21
85.32672099999999
 31
0.0
  0
LINE
  5
64
330
1E
100
AcDbEntity
  8
0
  6
CONTINUOUS
100
AcDbLine
 10
361.972687
 20
103.3267209999999
 30
0.0
 11
361.972687
 21
85.32672099999999
 31
0.0
  0
LINE
  5
65
330
1E
100
AcDbEntity
  8
0
  6
CONTINUOUS
100
AcDbLine
 10
337.972687
 20
97.326721
 30
0.0
 11
361.972687
 21
97.326721
 31
0.0
  0
LINE
  5
66
330
1E
100
AcDbEntity
  8
0
  6
CONTINUOUS
100
AcDbLine
 10
337.972687
 20
91.32672099999998
 30
0.0
 11
361.972687
 21
91.32672099999998
 31
0.0
  0
ARC
  5
67
330
1E
100
AcDbEntity
  8
0
  6
CONTINUOUS
100
AcDbCircle
 10
337.972687
 20
94.32672099999999
 30
0.0
 40
3.0
100
AcDbArc
 50
90.0
 51
270.0
  0
LINE
  5
68
330
1E
100
AcDbEntity
  8
0
  6
CONTINUOUS
100
AcDbLine
 10
329.972687
 20
84.32672099999999
 30
0.0
 11
331.972687
 21
84.32672099999999
 31
0.0
  0
LINE
  5
69
330
1E
100
AcDbEntity
  8
0
  6
CONTINUOUS
100
AcDbLine
 10
329.972687
 20
104.326721
 30
0.0
 11
331.972687
 21
104.326721
 31
0.0
  0
LINE
  5
6A
330
1E
100
AcDbEntity
  8
0
  6
CONTINUOUS
100
AcDbLine
 10
265.9722899999999
 20
18.32660299999999
 30
0.0
 11
265.972504
 21
138.221008
 31
0.0
  0
LINE
  5
6B
330
1E
100
AcDbEntity
  8
0
  6
CONTINUOUS
100
AcDbLine
 10
271.097504
 20
38.326599
 30
0.0
 11
267.347504
 21
38.326599
 31
0.0
  0
LINE
  5
6C
330
1E
100
AcDbEntity
  8
0
  6
CONTINUOUS
100
AcDbLine
 10
271.097504
 20
24.32659899999999
 30
0.0
 11
267.347504
 21
24.32659899999999
 31
0.0
  0
LINE
  5
6D
330
1E
100
AcDbEntity
  8
0
  6
CONTINUOUS
100
AcDbLine
 10
257.472504
 20
135.326721
 30
0.0
 11
257.472504
 21
20.32671899999999
 31
0.0
  0
LINE
  5
6E
330
1E
100
AcDbEntity
  8
0
  6
CONTINUOUS
100
AcDbLine
 10
257.472504
 20
135.326721
 30
0.0
 11
265.004181
 21
135.589737
 31
0.0
  0
LINE
  5
6F
330
1E
100
AcDbEntity
  8
0
  6
CENTER
100
AcDbLine
 10
419.4849849999999
 20
77.82672099999999
 30
0.0
 11
617.0549929999999
 21
77.82672099999999
 31
0.0
  0
LINE
  5
70
330
1E
100
AcDbEntity
  8
0
  6
CENTER
100
AcDbLine
 10
518.11499
 20
189.516724
 30
0.0
 11
518.11499
 21
-6.903280999999999
 31
0.0
  0
CIRCLE
  5
71
330
1E
100
AcDbEntity
  8
0
  6
CONTINUOUS
100
AcDbCircle
 10
578.2189940000001
 20
154.4308929999999
 30
0.0
 40
5.5
  0
CIRCLE
  5
72
330
1E
100
AcDbEntity
  8
0
  6
CONTINUOUS
100
AcDbCircle
 10
458.0108029999999
 20
34.222599
 30
0.0
 40
5.5
  0
CIRCLE
  5
73
330
1E
100
AcDbEntity
  8
0
  6
CONTINUOUS
100
AcDbCircle
 10
458.0108029999999
 20
154.4308929999999
 30
0.0
 40
5.5
  0
LINE
  5
74
330
1E
100
AcDbEntity
  8
0
  6
CENTER
100
AcDbLine
 10
443.399811
 20
169.041565
 30
0.0
 11
592.325195
 21
20.116819
 31
0.0
  0
CIRCLE
  5
75
330
1E
100
AcDbEntity
  8
0
  6
CONTINUOUS
100
AcDbCircle
 10
578.2191769999999
 20
34.222599
 30
0.0
 40
5.5
  0
CIRCLE
  5
76
330
1E
100
AcDbEntity
  8
0
  6
CONTINUOUS
100
AcDbCircle
 10
518.11499
 20
94.32672099999999
 30
0.0
 40
72.5
  0
CIRCLE
  5
77
330
1E
100
AcDbEntity
  8
0
  6
CONTINUOUS
100
AcDbCircle
 10
518.11499
 20
94.32672099999999
 30
0.0
 40
67.5
  0
LINE
  5
78
330
1E
100
AcDbEntity
  8
0
  6
CONTINUOUS
100
AcDbLine
 10
520.61499
 20
158.591919
 30
0.0
 11
520.614807
 21
139.080322
 31
0.0
  0
LINE
  5
79
330
1E
100
AcDbEntity
  8
0
  6
CONTINUOUS
100
AcDbLine
 10
515.61499
 20
158.591919
 30
0.0
 11
515.614807
 21
139.080322
 31
0.0
  0
ARC
  5
7A
330
1E
100
AcDbEntity
  8
0
  6
CONTINUOUS
100
AcDbCircle
 10
512.61499
 20
158.591919
 30
0.0
 40
3.0
100
AcDbArc
 50
0.0
 51
94.89611100000002
  0
ARC
  5
7B
330
1E
100
AcDbEntity
  8
0
  6
CONTINUOUS
100
AcDbCircle
 10
523.615173
 20
158.591919
 30
0.0
 40
3.0
100
AcDbArc
 50
85.10858199999999
 51
180.0
  0
CIRCLE
  5
7C
330
1E
100
AcDbEntity
  8
0
  6
CONTINUOUS
100
AcDbCircle
 10
578.2189940000001
 20
154.430511
 30
0.0
 40
5.5
  0
LINE
  5
7D
330
1E
100
AcDbEntity
  8
0
  6
CENTER
100
AcDbLine
 10
419.4849849999999
 20
94.326477
 30
0.0
 11
617.0549929999999
 21
94.326477
 31
0.0
  0
CIRCLE
  5
7E
330
1E
100
AcDbEntity
  8
0
  6
CONTINUOUS
100
AcDbCircle
 10
578.2191769999999
 20
34.222538
 30
0.0
 40
5.5
  0
CIRCLE
  5
7F
330
1E
100
AcDbEntity
  8
0
  6
CONTINUOUS
100
AcDbCircle
 10
458.010986
 20
154.430511
 30
0.0
 40
5.5
  0
CIRCLE
  5
80
330
1E
100
AcDbEntity
  8
0
  6
CONTINUOUS
100
AcDbCircle
 10
458.0108029999999
 20
34.222538
 30
0.0
 40
5.5
  0
LINE
  5
81
330
1E
100
AcDbEntity
  8
0
  6
CENTER
100
AcDbLine
 10
443.945007
 20
20.156738
 30
0.0
 11
591.719971
 21
167.931793
 31
0.0
  0
LINE
  5
82
330
1E
100
AcDbEntity
  8
0
  6
CONTINUOUS
100
AcDbLine
 10
561.789429
 20
141.5367129999999
 30
0.0
 11
549.8557739999999
 21
129.602921
 31
0.0
  0
LINE
  5
83
330
1E
100
AcDbEntity
  8
0
  6
CONTINUOUS
100
AcDbLine
 10
565.325012
 20
138.001312
 30
0.0
 11
554.900574
 21
127.5767209999999
 31
0.0
  0
LINE
  5
84
330
1E
100
AcDbEntity
  8
0
  6
CONTINUOUS
100
AcDbLine
 10
474.4406129999999
 20
141.5365139999999
 30
0.0
 11
486.3743900000001
 21
129.6031189999999
 31
0.0
  0
LINE
  5
85
330
1E
100
AcDbEntity
  8
0
  6
CONTINUOUS
100
AcDbLine
 10
470.9047849999999
 20
138.001114
 30
0.0
 11
481.329407
 21
127.57692
 31
0.0
  0
ARC
  5
86
330
1E
100
AcDbEntity
  8
0
  6
CONTINUOUS
100
AcDbCircle
 10
468.7835999999999
 20
135.8799129999999
 30
0.0
 40
3.0
100
AcDbArc
 50
45.00037
 51
139.895996
  0
ARC
  5
87
330
1E
100
AcDbEntity
  8
0
  6
CONTINUOUS
100
AcDbCircle
 10
476.561798
 20
143.6583249999999
 30
0.0
 40
3.0
100
AcDbArc
 50
130.112
 51
225.000397
  0
ARC
  5
88
330
1E
100
AcDbEntity
  8
0
  6
CONTINUOUS
100
AcDbCircle
 10
559.6677859999999
 20
143.6583249999999
 30
0.0
 40
3.0
100
AcDbArc
 50
315.000061
 51
49.89213899999999
  0
ARC
  5
89
330
1E
100
AcDbEntity
  8
0
  6
CONTINUOUS
100
AcDbCircle
 10
567.4458009999999
 20
135.880524
 30
0.0
 40
3.0
100
AcDbArc
 50
40.109409
 51
135.000504
  0
CIRCLE
  5
8A
330
1E
100
AcDbEntity
  8
0
  6
CONTINUOUS
100
AcDbCircle
 10
518.11499
 20
94.32672099999999
 30
0.0
 40
25.0
  0
ARC
  5
8B
330
1E
100
AcDbEntity
  8
0
  6
CONTINUOUS
100
AcDbCircle
 10
518.11499
 20
-328.6732789999999
 30
0.0
 40
500.0
100
AcDbArc
 50
90.0
 51
97.01584599999998
  0
ARC
  5
8C
330
1E
100
AcDbEntity
  8
0
  6
CONTINUOUS
100
AcDbCircle
 10
941.115173
 20
94.32672099999999
 30
0.0
 40
500.0
100
AcDbArc
 50
172.9842989999999
 51
187.0657959999999
  0
ARC
  5
8D
330
1E
100
AcDbEntity
  8
0
  6
CONTINUOUS
100
AcDbCircle
 10
518.11499
 20
314.326904
 30
0.0
 40
300.0
100
AcDbArc
 50
258.0314029999999
 51
270.0
  0
ARC
  5
8E
330
1E
100
AcDbEntity
  8
0
  6
CONTINUOUS
100
AcDbCircle
 10
518.11499
 20
-328.6732789999999
 30
0.0
 40
500.0
100
AcDbArc
 50
82.98415400000001
 51
90.0
  0
ARC
  5
8F
330
1E
100
AcDbEntity
  8
0
  6
CONTINUOUS
100
AcDbCircle
 10
95.11499800000001
 20
94.32672099999999
 30
0.0
 40
500.0
100
AcDbArc
 50
352.934204
 51
7.015738
  0
ARC
  5
90
330
1E
100
AcDbEntity
  8
0
  6
CONTINUOUS
100
AcDbCircle
 10
518.11499
 20
314.326904
 30
0.0
 40
300.0
100
AcDbArc
 50
270.0
 51
281.968597
  0
ARC
  5
91
330
1E
100
AcDbEntity
  8
0
  6
CONTINUOUS
100
AcDbCircle
 10
458.753998
 20
153.687714
 30
0.0
 40
14.0
100
AcDbArc
 50
97.01622
 51
172.9846039999999
  0
ARC
  5
92
330
1E
100
AcDbEntity
  8
0
  6
CONTINUOUS
100
AcDbCircle
 10
458.8059999999999
 20
34.543999
 30
0.0
 40
14.0
100
AcDbArc
 50
187.0657959999999
 51
258.0313109999999
  0
ARC
  5
93
330
1E
100
AcDbEntity
  8
0
  6
CONTINUOUS
100
AcDbCircle
 10
577.424194
 20
34.543999
 30
0.0
 40
14.0
100
AcDbArc
 50
281.968689
 51
352.934387
  0
ARC
  5
94
330
1E
100
AcDbEntity
  8
0
  6
CONTINUOUS
100
AcDbCircle
 10
577.4761959999999
 20
153.687714
 30
0.0
 40
14.0
100
AcDbArc
 50
7.015888000000001
 51
82.98428299999999
  0
ARC
  5
95
330
1E
100
AcDbEntity
  8
0
  6
CONTINUOUS
100
AcDbCircle
 10
518.11499
 20
77.82672099999999
 30
0.0
 40
58.5
100
AcDbArc
 50
10.47961
 51
50.75555
  0
ARC
  5
96
330
1E
100
AcDbEntity
  8
0
  6
CONTINUOUS
100
AcDbCircle
 10
455.766815
 20
89.834534
 30
0.0
 40
5.0
100
AcDbArc
 50
180.375198
 51
351.7832029999999
  0
ARC
  5
97
330
1E
100
AcDbEntity
  8
0
  6
CONTINUOUS
100
AcDbCircle
 10
580.4747919999999
 20
89.73913600000001
 30
0.0
 40
5.0
100
AcDbArc
 50
186.891098
 51
2.124938
  0
ARC
  5
98
330
1E
100
AcDbEntity
  8
0
  6
CONTINUOUS
100
AcDbCircle
 10
479.208191
 20
125.4557189999999
 30
0.0
 40
3.0
100
AcDbArc
 50
309.244808
 51
45.00119
  0
ARC
  5
99
330
1E
100
AcDbEntity
  8
0
  6
CONTINUOUS
100
AcDbCircle
 10
488.495392
 20
131.7241209999999
 30
0.0
 40
3.0
100
AcDbArc
 50
217.102707
 51
298.791687
  0
ARC
  5
9A
330
1E
100
AcDbEntity
  8
0
  6
CONTINUOUS
100
AcDbCircle
 10
512.614807
 20
139.080322
 30
0.0
 40
3.0
100
AcDbArc
 50
275.131287
 51
0.0
  0
ARC
  5
9B
330
1E
100
AcDbEntity
  8
0
  6
CONTINUOUS
100
AcDbCircle
 10
523.6143799999999
 20
139.080322
 30
0.0
 40
3.0
100
AcDbArc
 50
180.0
 51
264.869904
  0
ARC
  5
9C
330
1E
100
AcDbEntity
  8
0
  6
CONTINUOUS
100
AcDbCircle
 10
547.7348019999999
 20
131.7241209999999
 30
0.0
 40
3.0
100
AcDbArc
 50
241.208298
 51
315.0004879999999
  0
ARC
  5
9D
330
1E
100
AcDbEntity
  8
0
  6
CONTINUOUS
100
AcDbCircle
 10
557.02179
 20
125.4557189999999
 30
0.0
 40
3.0
100
AcDbArc
 50
135.0
 51
230.7556
  0
ARC
  5
9E
330
1E
100
AcDbEntity
  8
0
  6
CONTINUOUS
100
AcDbCircle
 10
518.11499
 20
77.82672099999999
 30
0.0
 40
58.5
100
AcDbArc
 50
61.208549
 51
84.86953699999999
  0
ARC
  5
9F
330
1E
100
AcDbEntity
  8
0
  6
CONTINUOUS
100
AcDbCircle
 10
518.11499
 20
77.82672099999999
 30
0.0
 40
58.5
100
AcDbArc
 50
95.13099699999999
 51
118.7911
  0
ARC
  5
A0
330
1E
100
AcDbEntity
  8
0
  6
CONTINUOUS
100
AcDbCircle
 10
518.11499
 20
77.82672099999999
 30
0.0
 40
58.5
100
AcDbArc
 50
129.244507
 51
169.327896
  0
CIRCLE
  5
A1
330
1E
100
AcDbEntity
  8
0
  6
CENTER
100
AcDbCircle
 10
518.11499
 20
94.32672099999999
 30
0.0
 40
85.0
  0
ARC
  5
A2
330
1E
100
AcDbEntity
  8
0
  6
CONTINUOUS
100
AcDbCircle
 10
518.11499
 20
94.32672099999999
 30
0.0
 40
9.0
100
AcDbArc
 50
199.4729
 51
160.530396
  0
LINE
  5
A3
330
1E
100
AcDbEntity
  8
0
  6
CONTINUOUS
100
AcDbLine
 10
512.61499
 20
97.32647700000001
 30
0.0
 11
512.61499
 21
91.32647699999999
 31
0.0
  0
LINE
  5
A4
330
1E
100
AcDbEntity
  8
0
  6
CONTINUOUS
100
AcDbLine
 10
506.614807
 20
97.32647700000001
 30
0.0
 11
506.614807
 21
91.32647699999999
 31
0.0
  0
LINE
  5
A5
330
1E
100
AcDbEntity
  8
0
  6
CONTINUOUS
100
AcDbLine
 10
506.614807
 20
97.32647700000001
 30
0.0
 11
512.61499
 21
97.32647700000001
 31
0.0
  0
LINE
  5
A6
330
1E
100
AcDbEntity
  8
0
  6
CONTINUOUS
100
AcDbLine
 10
506.614807
 20
91.32647699999999
 30
0.0
 11
512.61499
 21
91.32647699999999
 31
0.0
  0
LINE
  5
A7
330
1E
100
AcDbEntity
  8
0
  6
CONTINUOUS
100
AcDbLine
 10
537.246216
 20
13.326719
 30
0.0
 11
498.983795
 21
13.326719
 31
0.0
  0
ARC
  5
A8
330
1E
100
AcDbEntity
  8
0
  6
CONTINUOUS
100
AcDbCircle
 10
518.11499
 20
77.82672099999999
 30
0.0
 40
67.5
100
AcDbArc
 50
287.824188
 51
292.4334109999999
  0
ARC
  5
A9
330
1E
100
AcDbEntity
  8
0
  6
CONTINUOUS
100
AcDbCircle
 10
498.983795
 20
18.326719
 30
0.0
 40
5.0
100
AcDbArc
 50
252.1757969999999
 51
270.0
  0
ARC
  5
AA
330
1E
100
AcDbEntity
  8
0
  6
CONTINUOUS
100
AcDbCircle
 10
537.246216
 20
18.326719
 30
0.0
 40
5.0
100
AcDbArc
 50
270.0
 51
287.8242259999999
  0
ARC
  5
AB
330
1E
100
AcDbEntity
  8
0
  6
CONTINUOUS
100
AcDbCircle
 10
518.11499
 20
77.82672099999999
 30
0.0
 40
67.5
100
AcDbArc
 50
247.5668029999999
 51
252.175797
  0
LINE
  5
AC
330
1E
100
AcDbEntity
  8
0
  6
CENTER
100
AcDbLine
 10
331.4309689999999
 20
154.4308929999999
 30
0.0
 11
312.193237
 21
154.4308929999999
 31
0.0
  0
LINE
  5
AD
330
1E
100
AcDbEntity
  8
0
  6
CENTER
100
AcDbLine
 10
331.4309689999999
 20
34.222538
 30
0.0
 11
312.193237
 21
34.222538
 31
0.0
  0
LINE
  5
AE
330
1E
100
AcDbEntity
  8
0
  6
CONTINUOUS
100
AcDbLine
 10
257.472504
 20
381.285004
 30
0.0
 11
257.472504
 21
266.285004
 31
0.0
  0
ARC
  5
AF
330
1E
100
AcDbEntity
  8
0
  6
CONTINUOUS
100
AcDbCircle
 10
264.969269
 20
136.5891269999999
 30
0.0
 40
1.0
100
AcDbArc
 50
272.0
 51
359.884216
  0
LINE
  5
B0
330
1E
100
AcDbEntity
  8
0
  6
CONTINUOUS
100
AcDbLine
 10
257.472504
 20
20.32671899999999
 30
0.0
 11
265.004181
 21
20.063707
 31
0.0
  0
ARC
  5
B1
330
1E
100
AcDbEntity
  8
0
  6
CONTINUOUS
100
AcDbCircle
 10
264.969269
 20
19.064316
 30
0.0
 40
1.0
100
AcDbArc
 50
0.1157839999999631
 51
87.99999999999997
  0
ARC
  5
B2
330
1E
100
AcDbEntity
  8
0
  6
CONTINUOUS
100
AcDbCircle
 10
319.972687
 20
17.44957199999999
 30
0.0
 40
3.0
100
AcDbArc
 50
180.0
 51
268.999939
  0
LINE
  5
B3
330
1E
100
AcDbEntity
  8
0
  6
CONTINUOUS
100
AcDbLine
 10
326.472778
 20
14.33564599999999
 30
0.0
 11
326.9726869999999
 21
14.826919
 31
0.0
  0
LINE
  5
B4
330
1E
100
AcDbEntity
  8
0
  6
CONTINUOUS
100
AcDbLine
 10
271.972839
 20
382.784973
 30
0.0
 11
267.253876
 21
382.661407
 31
0.0
  0
ARC
  5
B5
330
1E
100
AcDbEntity
  8
0
  6
CONTINUOUS
100
AcDbCircle
 10
267.306213
 20
380.662109
 30
0.0
 40
2.0
100
AcDbArc
 50
91.5
 51
141.059448
  0
ARC
  5
B6
330
1E
100
AcDbEntity
  8
0
  6
CONTINUOUS
100
AcDbCircle
 10
264.9728089999999
 20
265.0223689999999
 30
0.0
 40
1.0
100
AcDbArc
 50
38.94055200000002
 51
88.00079300000003
  0
LINE
  5
B7
330
1E
100
AcDbEntity
  8
0
  6
CONTINUOUS
100
AcDbLine
 10
271.972839
 20
264.785004
 30
0.0
 11
267.253876
 21
264.9086
 31
0.0
  0
ARC
  5
B8
330
1E
100
AcDbEntity
  8
0
  6
CONTINUOUS
100
AcDbCircle
 10
267.306213
 20
266.907898
 30
0.0
 40
2.0
100
AcDbArc
 50
218.940552
 51
268.5
  0
LINE
  5
B9
330
1E
100
AcDbEntity
  8
0
  6
CONTINUOUS
100
AcDbLine
 10
267.920135
 20
140.220322
 30
0.0
 11
271.972687
 21
140.326447
 31
0.0
  0
ARC
  5
BA
330
1E
100
AcDbEntity
  8
0
  6
CONTINUOUS
100
AcDbCircle
 10
267.972504
 20
138.221008
 30
0.0
 40
2.0
100
AcDbArc
 50
91.5
 51
180.0
  0
LINE
  5
BB
330
1E
100
AcDbEntity
  8
0
  6
CONTINUOUS
100
AcDbLine
 10
271.9724429999999
 20
16.32659899999999
 30
0.0
 11
267.9722899999999
 21
16.32659899999999
 31
0.0
  0
ARC
  5
BC
330
1E
100
AcDbEntity
  8
0
  6
CONTINUOUS
100
AcDbCircle
 10
267.9722899999999
 20
18.32659899999999
 30
0.0
 40
2.0
100
AcDbArc
 50
180.0
 51
270.0
  0
LINE
  5
BD
330
1E
100
AcDbEntity
  8
0
  6
CONTINUOUS
100
AcDbLine
 10
334.972687
 20
315.2999879999999
 30
0.0
 11
361.972687
 21
315.2999879999999
 31
0.0
  0
LINE
  5
BE
330
1E
100
AcDbEntity
  8
0
  6
DASHED
100
AcDbLine
 10
326.9726869999999
 20
389.389191
 30
0.0
 11
316.972656
 21
389.389191
 31
0.0
  0
LINE
  5
BF
330
1E
100
AcDbEntity
  8
0
  6
DASHED
100
AcDbLine
 10
326.9726869999999
 20
378.389191
 30
0.0
 11
316.972656
 21
378.389191
 31
0.0
  0
LINE
  5
C0
330
1E
100
AcDbEntity
  8
0
  6
DASHED
100
AcDbLine
 10
326.972809
 20
269.1808169999999
 30
0.0
 11
316.972778
 21
269.1808169999999
 31
0.0
  0
LINE
  5
C1
330
1E
100
AcDbEntity
  8
0
  6
DASHED
100
AcDbLine
 10
326.972809
 20
258.1808169999999
 30
0.0
 11
316.972778
 21
258.1808169999999
 31
0.0
  0
LINE
  5
C2
330
1E
100
AcDbEntity
  8
0
  6
DASHED
100
AcDbLine
 10
326.9725649999999
 20
159.930893
 30
0.0
 11
316.9725339999999
 21
159.930893
 31
0.0
  0
LINE
  5
C3
330
1E
100
AcDbEntity
  8
0
  6
DASHED
100
AcDbLine
 10
326.9725649999999
 20
148.9308929999999
 30
0.0
 11
316.9725339999999
 21
148.9308929999999
 31
0.0
  0
LINE
  5
C4
330
1E
100
AcDbEntity
  8
0
  6
DASHED
100
AcDbLine
 10
326.9725649999999
 20
39.722538
 30
0.0
 11
316.9725339999999
 21
39.722538
 31
0.0
  0
LINE
  5
C5
330
1E
100
AcDbEntity
  8
0
  6
DASHED
100
AcDbLine
 10
326.9725649999999
 20
28.72254
 30
0.0
 11
316.9725339999999
 21
28.72254
 31
0.0
  0
LINE
  5
C6
330
1E
100
AcDbEntity
  8
0
  6
CONTINUOUS
100
AcDbLine
 10
164.472504
 20
381.285004
 30
0.0
 11
164.472504
 21
266.285004
 31
0.0
  0
LINE
  5
CD
330
1E
100
AcDbEntity
  8
0
  6
CONTINUOUS
100
AcDbLine
 10
52.4725
 20
381.285004
 30
0.0
 11
164.472504
 21
381.285004
 31
0.0
  0
LINE
  5
CE
330
1E
100
AcDbEntity
  8
0
  6
CONTINUOUS
100
AcDbLine
 10
164.472504
 20
266.285004
 30
0.0
 11
119.9468769999999
 21
266.285004
 31
0.0
  0
LINE
  5
CF
330
1E
100
AcDbEntity
  8
0
  6
CONTINUOUS
100
AcDbLine
 10
52.4725
 20
349.784485
 30
0.0
 11
156.4463039999999
 21
349.784485
 31
0.0
  0
LINE
  5
D0
330
1E
100
AcDbEntity
  8
0
  6
CONTINUOUS
100
AcDbLine
 10
52.4725
 20
357.555023
 30
0.0
 11
156.4463039999999
 21
357.555023
 31
0.0
  0
LINE
  5
D1
330
1E
100
AcDbEntity
  8
0
  6
CONTINUOUS
100
AcDbLine
 10
53.47249999999999
 20
360.8344119999999
 30
0.0
 11
155.4463199999999
 21
360.8344119999999
 31
0.0
  0
LINE
  5
D2
330
1E
100
AcDbEntity
  8
0
  6
CONTINUOUS
100
AcDbLine
 10
52.4725
 20
365.6493529999999
 30
0.0
 11
156.4463039999999
 21
365.6493529999999
 31
0.0
  0
LINE
  5
D3
330
1E
100
AcDbEntity
  8
0
  6
CONTINUOUS
100
AcDbLine
 10
53.47249999999999
 20
367.6372069999999
 30
0.0
 11
155.4463199999999
 21
367.6372069999999
 31
0.0
  0
LINE
  5
D4
330
1E
100
AcDbEntity
  8
0
  6
CONTINUOUS
100
AcDbLine
 10
52.4725
 20
371.67984
 30
0.0
 11
156.4463039999999
 21
371.67984
 31
0.0
  0
LINE
  5
D5
330
1E
100
AcDbEntity
  8
0
  6
CONTINUOUS
100
AcDbLine
 10
52.4725
 20
376.2106929999999
 30
0.0
 11
156.4463039999999
 21
376.2106929999999
 31
0.0
  0
LINE
  5
D6
330
1E
100
AcDbEntity
  8
0
  6
CONTINUOUS
100
AcDbLine
 10
52.4725
 20
379.0877689999999
 30
0.0
 11
156.4463039999999
 21
379.0877689999999
 31
0.0
  0
LINE
  5
D7
330
1E
100
AcDbEntity
  8
0
  6
CONTINUOUS
100
AcDbLine
 10
52.4725
 20
380.743073
 30
0.0
 11
156.4463039999999
 21
380.743073
 31
0.0
  0
LINE
  5
D8
330
1E
100
AcDbEntity
  8
0
  6
CONTINUOUS
100
AcDbLine
 10
156.4463039999999
 20
381.285004
 30
0.0
 11
156.4463039999999
 21
349.784485
 31
0.0
  0
LINE
  5
D9
330
1E
100
AcDbEntity
  8
0
  6
CONTINUOUS
100
AcDbLine
 10
52.4725
 20
297.785492
 30
0.0
 11
156.4463039999999
 21
297.785492
 31
0.0
  0
LINE
  5
DA
330
1E
100
AcDbEntity
  8
0
  6
CONTINUOUS
100
AcDbLine
 10
52.4725
 20
290.0149839999999
 30
0.0
 11
156.4463039999999
 21
290.0149839999999
 31
0.0
  0
LINE
  5
DB
330
1E
100
AcDbEntity
  8
0
  6
CONTINUOUS
100
AcDbLine
 10
52.4725
 20
281.920624
 30
0.0
 11
156.4463039999999
 21
281.920624
 31
0.0
  0
LINE
  5
DC
330
1E
100
AcDbEntity
  8
0
  6
CONTINUOUS
100
AcDbLine
 10
119.446877
 20
271.359283
 30
0.0
 11
156.4463039999999
 21
271.359283
 31
0.0
  0
LINE
  5
DD
330
1E
100
AcDbEntity
  8
0
  6
CONTINUOUS
100
AcDbLine
 10
119.446877
 20
268.4822389999999
 30
0.0
 11
156.4463039999999
 21
268.4822389999999
 31
0.0
  0
LINE
  5
DE
330
1E
100
AcDbEntity
  8
0
  6
CONTINUOUS
100
AcDbLine
 10
119.9468689999999
 20
266.826935
 30
0.0
 11
156.4463039999999
 21
266.826935
 31
0.0
  0
LINE
  5
DF
330
1E
100
AcDbEntity
  8
0
  6
CONTINUOUS
100
AcDbLine
 10
156.4463039999999
 20
266.285004
 30
0.0
 11
156.4463039999999
 21
297.785492
 31
0.0
  0
LINE
  5
E0
330
1E
100
AcDbEntity
  8
0
  6
CONTINUOUS
100
AcDbLine
 10
119.446877
 20
266.785004
 30
0.0
 11
119.446877
 21
272.9844359999999
 31
0.0
  0
ARC
  5
E1
330
1E
100
AcDbEntity
  8
0
  6
CONTINUOUS
100
AcDbCircle
 10
119.9468689999999
 20
267.3269349999999
 30
0.0
 40
0.499992
100
AcDbArc
 50
180.0
 51
270.0
  0
ARC
  5
E2
330
1E
100
AcDbEntity
  8
0
  6
CONTINUOUS
100
AcDbCircle
 10
118.446892
 20
268.785858
 30
0.0
 40
0.9999839999999998
100
AcDbArc
 50
270.0
 51
0.0
  0
LINE
  5
E3
330
1E
100
AcDbEntity
  8
0
  6
CONTINUOUS
100
AcDbLine
 10
53.47249999999999
 20
286.7355959999999
 30
0.0
 11
155.4463199999999
 21
286.7355959999999
 31
0.0
  0
LINE
  5
E4
330
1E
100
AcDbEntity
  8
0
  6
CONTINUOUS
100
AcDbLine
 10
53.47249999999999
 20
279.9328
 30
0.0
 11
155.4463199999999
 21
279.9328
 31
0.0
  0
LINE
  5
E5
330
1E
100
AcDbEntity
  8
0
  6
CONTINUOUS
100
AcDbLine
 10
52.4725
 20
275.890167
 30
0.0
 11
156.4463039999999
 21
275.890167
 31
0.0
  0
LINE
  5
E6
330
1E
100
AcDbEntity
  8
0
  6
CONTINUOUS
100
AcDbLine
 10
52.4725
 20
272.9844359999999
 30
0.0
 11
119.446877
 21
272.9844359999999
 31
0.0
  0
LINE
  5
E7
330
1E
100
AcDbEntity
  8
0
  6
CONTINUOUS
100
AcDbLine
 10
52.4725
 20
267.7858889999999
 30
0.0
 11
98.994873
 21
267.7858889999999
 31
0.0
  0
LINE
  5
E8
330
1E
100
AcDbEntity
  8
0
  6
CONTINUOUS
100
AcDbLine
 10
118.446892
 20
267.7858889999999
 30
0.0
 11
98.994873
 21
267.785797
 31
0.0
  0
LINE
  5
E9
330
1E
100
AcDbEntity
  8
0
  6
CONTINUOUS
100
AcDbLine
 10
81.447456
 20
264.7859189999999
 30
0.0
 11
81.447456
 21
267.7858889999999
 31
0.0
  0
LINE
  5
EA
330
1E
100
AcDbEntity
  8
0
  6
CONTINUOUS
100
AcDbLine
 10
57.447826
 20
264.7859189999999
 30
0.0
 11
57.447826
 21
267.7858889999999
 31
0.0
  0
LINE
  5
EB
330
1E
100
AcDbEntity
  8
0
  6
CONTINUOUS
100
AcDbLine
 10
81.447456
 20
264.7859189999999
 30
0.0
 11
57.447826
 21
264.7859189999999
 31
0.0
  0
ARC
  5
EC
330
1E
100
AcDbEntity
  8
0
  6
CONTINUOUS
100
AcDbCircle
 10
119.9468769999999
 20
266.785004
 30
0.0
 40
0.5
100
AcDbArc
 50
180.0
 51
270.0
  0
LINE
  5
F5
330
1E
100
AcDbEntity
  8
0
  6
CONTINUOUS
100
AcDbLine
 10
252.472504
 20
381.285004
 30
0.0
 11
257.472504
 21
381.285004
 31
0.0
  0
LINE
  5
F6
330
1E
100
AcDbEntity
  8
0
  6
CONTINUOUS
100
AcDbLine
 10
252.472504
 20
266.285004
 30
0.0
 11
257.472504
 21
266.285004
 31
0.0
  0
LINE
  5
F7
330
1E
100
AcDbEntity
  8
0
  6
CONTINUOUS
100
AcDbLine
 10
252.472504
 20
381.285004
 30
0.0
 11
252.472504
 21
266.285004
 31
0.0
  0
LINE
  5
F8
330
1E
100
AcDbEntity
  8
0
  6
CONTINUOUS
100
AcDbLine
 10
244.472504
 20
268.535004
 30
0.0
 11
244.472504
 21
379.035004
 31
0.0
  0
LINE
  5
F9
330
1E
100
AcDbEntity
  8
0
  6
CONTINUOUS
100
AcDbLine
 10
181.472504
 20
266.535004
 30
0.0
 11
181.472504
 21
381.035004
 31
0.0
  0
LINE
  5
FA
330
1E
100
AcDbEntity
  8
0
  6
CONTINUOUS
100
AcDbLine
 10
189.472504
 20
268.535004
 30
0.0
 11
189.472504
 21
379.035004
 31
0.0
  0
LINE
  5
FB
330
1E
100
AcDbEntity
  8
0
  6
CONTINUOUS
100
AcDbLine
 10
164.472504
 20
381.035004
 30
0.0
 11
187.472504
 21
381.035004
 31
0.0
  0
LINE
  5
FC
330
1E
100
AcDbEntity
  8
0
  6
CONTINUOUS
100
AcDbLine
 10
164.472504
 20
266.535004
 30
0.0
 11
172.972687
 21
266.535004
 31
0.0
  0
LINE
  5
FD
330
1E
100
AcDbEntity
  8
0
  6
CONTINUOUS
100
AcDbLine
 10
246.472504
 20
266.535004
 30
0.0
 11
252.472504
 21
266.535004
 31
0.0
  0
LINE
  5
FE
330
1E
100
AcDbEntity
  8
0
  6
CONTINUOUS
100
AcDbLine
 10
246.472504
 20
381.035004
 30
0.0
 11
252.472504
 21
381.035004
 31
0.0
  0
ARC
  5
FF
330
1E
100
AcDbEntity
  8
0
  6
CONTINUOUS
100
AcDbCircle
 10
187.472504
 20
379.035004
 30
0.0
 40
2.0
100
AcDbArc
 50
0.0
 51
90.0
  0
ARC
  5
100
330
1E
100
AcDbEntity
  8
0
  6
CONTINUOUS
100
AcDbCircle
 10
246.472504
 20
379.035004
 30
0.0
 40
2.0
100
AcDbArc
 50
90.0
 51
180.0
  0
LINE
  5
101
330
1E
100
AcDbEntity
  8
0
  6
CONTINUOUS
100
AcDbLine
 10
191.0693659999999
 20
378.785004
 30
0.0
 11
242.8756259999999
 21
378.785004
 31
0.0
  0
ARC
  5
102
330
1E
100
AcDbEntity
  8
0
  6
CONTINUOUS
100
AcDbCircle
 10
242.8756259999999
 20
380.785004
 30
0.0
 40
2.0
100
AcDbArc
 50
270.0
 51
334.0555109999999
  0
ARC
  5
103
330
1E
100
AcDbEntity
  8
0
  6
CONTINUOUS
100
AcDbCircle
 10
191.0693659999999
 20
380.785004
 30
0.0
 40
2.0
100
AcDbArc
 50
205.944473
 51
270.0
  0
ARC
  5
104
330
1E
100
AcDbEntity
  8
0
  6
CONTINUOUS
100
AcDbCircle
 10
187.472504
 20
268.535004
 30
0.0
 40
2.0
100
AcDbArc
 50
270.0
 51
0.0
  0
ARC
  5
105
330
1E
100
AcDbEntity
  8
0
  6
CONTINUOUS
100
AcDbCircle
 10
246.472504
 20
268.535004
 30
0.0
 40
2.0
100
AcDbArc
 50
180.0
 51
270.0
  0
LINE
  5
106
330
1E
100
AcDbEntity
  8
0
  6
CONTINUOUS
100
AcDbLine
 10
191.0693659999999
 20
268.785004
 30
0.0
 11
222.9726869999999
 21
268.785004
 31
0.0
  0
ARC
  5
107
330
1E
100
AcDbEntity
  8
0
  6
CONTINUOUS
100
AcDbCircle
 10
242.8756259999999
 20
266.785004
 30
0.0
 40
2.0
100
AcDbArc
 50
25.94448900000003
 51
90.0
  0
ARC
  5
108
330
1E
100
AcDbEntity
  8
0
  6
CONTINUOUS
100
AcDbCircle
 10
191.0693659999999
 20
266.785004
 30
0.0
 40
2.0
100
AcDbArc
 50
90.0
 51
154.055527
  0
LINE
  5
109
330
1E
100
AcDbEntity
  8
0
  6
CONTINUOUS
100
AcDbLine
 10
191.0693659999999
 20
290.7850039999999
 30
0.0
 11
242.8756259999999
 21
290.7850039999999
 31
0.0
  0
LINE
  5
10A
330
1E
100
AcDbEntity
  8
0
  6
CONTINUOUS
100
AcDbLine
 10
191.0693659999999
 20
356.785004
 30
0.0
 11
242.8756259999999
 21
356.785004
 31
0.0
  0
LINE
  5
10B
330
1E
100
AcDbEntity
  8
0
  6
CONTINUOUS
100
AcDbLine
 10
220.472504
 20
269.285004
 30
0.0
 11
228.472504
 21
269.285004
 31
0.0
  0
LINE
  5
10C
330
1E
100
AcDbEntity
  8
0
  6
CONTINUOUS
100
AcDbLine
 10
228.472504
 20
271.813843
 30
0.0
 11
228.472504
 21
269.285004
 31
0.0
  0
LINE
  5
10D
330
1E
100
AcDbEntity
  8
0
  6
CONTINUOUS
100
AcDbLine
 10
220.472504
 20
271.813843
 30
0.0
 11
220.472504
 21
269.285004
 31
0.0
  0
LINE
  5
10E
330
1E
100
AcDbEntity
  8
0
  6
CONTINUOUS
100
AcDbLine
 10
173.7836149999999
 20
268.9216
 30
0.0
 11
172.97081
 21
268.842285
 31
0.0
  0
LINE
  5
10F
330
1E
100
AcDbEntity
  8
0
  6
CONTINUOUS
100
AcDbLine
 10
172.971436
 20
268.840637
 30
0.0
 11
172.351028
 21
268.605316
 31
0.0
  0
LINE
  5
110
330
1E
100
AcDbEntity
  8
0
  6
CONTINUOUS
100
AcDbLine
 10
172.336349
 20
268.622101
 30
0.0
 11
172.102753
 21
268.4176939999999
 31
0.0
  0
LINE
  5
111
330
1E
100
AcDbEntity
  8
0
  6
CONTINUOUS
100
AcDbLine
 10
172.114044
 20
268.404785
 30
0.0
 11
172.1355439999999
 21
268.1468199999999
 31
0.0
  0
LINE
  5
112
330
1E
100
AcDbEntity
  8
0
  6
CONTINUOUS
100
AcDbLine
 10
172.168732
 20
268.149597
 30
0.0
 11
172.332794
 21
268.003754
 31
0.0
  0
LINE
  5
113
330
1E
100
AcDbEntity
  8
0
  6
CONTINUOUS
100
AcDbLine
 10
172.3261869999999
 20
267.9663089999999
 30
0.0
 11
172.7338409999999
 21
267.894379
 31
0.0
  0
LINE
  5
114
330
1E
100
AcDbEntity
  8
0
  6
CONTINUOUS
100
AcDbLine
 10
172.736633
 20
267.916809
 30
0.0
 11
172.972687
 21
267.887299
 31
0.0
  0
LINE
  5
115
330
1E
100
AcDbEntity
  8
0
  6
CONTINUOUS
100
AcDbLine
 10
175.1218569999999
 20
268.95166
 30
0.0
 11
175.504669
 21
268.860535
 31
0.0
  0
LINE
  5
116
330
1E
100
AcDbEntity
  8
0
  6
CONTINUOUS
100
AcDbLine
 10
175.504669
 20
268.860535
 30
0.0
 11
176.0333099999999
 21
268.769379
 31
0.0
  0
LINE
  5
117
330
1E
100
AcDbEntity
  8
0
  6
CONTINUOUS
100
AcDbLine
 10
176.0333099999999
 20
268.769379
 30
0.0
 11
176.379669
 21
268.696472
 31
0.0
  0
LINE
  5
118
330
1E
100
AcDbEntity
  8
0
  6
CONTINUOUS
100
AcDbLine
 10
176.379669
 20
268.696472
 30
0.0
 11
176.5619659999999
 21
268.623535
 31
0.0
  0
LINE
  5
119
330
1E
100
AcDbEntity
  8
0
  6
CONTINUOUS
100
AcDbLine
 10
176.593384
 20
268.6537169999999
 30
0.0
 11
176.7442469999999
 21
268.477722
 31
0.0
  0
LINE
  5
11A
330
1E
100
AcDbEntity
  8
0
  6
CONTINUOUS
100
AcDbLine
 10
176.7442469999999
 20
268.459473
 30
0.0
 11
176.829926
 21
268.2881159999999
 31
0.0
  0
LINE
  5
11B
330
1E
100
AcDbEntity
  8
0
  6
CONTINUOUS
100
AcDbLine
 10
176.7807159999999
 20
268.2407229999999
 30
0.0
 11
176.634872
 21
268.09491
 31
0.0
  0
LINE
  5
11C
330
1E
100
AcDbEntity
  8
0
  6
CONTINUOUS
100
AcDbLine
 10
176.6231379999999
 20
268.0609129999999
 30
0.0
 11
176.1244659999999
 21
267.930847
 31
0.0
  0
LINE
  5
11D
330
1E
100
AcDbEntity
  8
0
  6
CONTINUOUS
100
AcDbLine
 10
176.115677
 20
267.914795
 30
0.0
 11
175.972687
 21
267.90799
 31
0.0
  0
LINE
  5
11E
330
1E
100
AcDbEntity
  8
0
  6
CONTINUOUS
100
AcDbLine
 10
173.7836149999999
 20
268.9216
 30
0.0
 11
174.06456
 21
268.928894
 31
0.0
  0
LINE
  5
11F
330
1E
100
AcDbEntity
  8
0
  6
CONTINUOUS
100
AcDbLine
 10
174.06456
 20
268.928894
 30
0.0
 11
174.647903
 21
268.9379879999999
 31
0.0
  0
LINE
  5
120
330
1E
100
AcDbEntity
  8
0
  6
CONTINUOUS
100
AcDbLine
 10
174.647903
 20
268.9379879999999
 30
0.0
 11
175.1218569999999
 21
268.95166
 31
0.0
  0
ARC
  5
121
330
1E
100
AcDbEntity
  8
0
  6
CONTINUOUS
100
AcDbCircle
 10
224.472504
 20
262.6487119999999
 30
0.0
 40
10.0
100
AcDbArc
 50
66.42182199999999
 51
113.578178
  0
ARC
  5
122
330
1E
100
AcDbEntity
  8
0
  6
CONTINUOUS
100
AcDbCircle
 10
451.9725039999999
 20
77.826836
 30
0.0
 40
450.0
100
AcDbArc
 50
173.2476039999999
 51
186.752502
  0
LINE
  5
123
330
1E
100
AcDbEntity
  8
0
  6
CONTINUOUS
100
AcDbLine
 10
17.010738
 20
141.326828
 30
0.0
 11
20.708706
 21
141.326828
 31
0.0
  0
LINE
  5
124
330
1E
100
AcDbEntity
  8
0
  6
CONTINUOUS
100
AcDbLine
 10
17.01079899999999
 20
14.326832
 30
0.0
 11
20.708706
 21
14.326832
 31
0.0
  0
LINE
  5
125
330
1E
100
AcDbEntity
  8
0
  6
CONTINUOUS
100
AcDbLine
 10
21.73220399999999
 20
145.326828
 30
0.0
 11
52.4725
 21
145.326828
 31
0.0
  0
LINE
  5
126
330
1E
100
AcDbEntity
  8
0
  6
CONTINUOUS
100
AcDbLine
 10
52.4725
 20
145.326828
 30
0.0
 11
52.4725
 21
13.326832
 31
0.0
  0
ARC
  5
127
330
1E
100
AcDbEntity
  8
0
  6
CONTINUOUS
100
AcDbCircle
 10
-298.027496
 20
77.826836
 30
0.0
 40
325.0
100
AcDbArc
 50
348.73281
 51
11.66233999999999
  0
ARC
  5
128
330
1E
100
AcDbEntity
  8
0
  6
CONTINUOUS
100
AcDbCircle
 10
17.010771
 20
129.326828
 30
0.0
 40
12.0
100
AcDbArc
 50
90.0
 51
173.247894
  0
ARC
  5
129
330
1E
100
AcDbEntity
  8
0
  6
CONTINUOUS
100
AcDbCircle
 10
21.73220399999999
 20
143.826828
 30
0.0
 40
1.5
100
AcDbArc
 50
90.0
 51
191.662598
  0
ARC
  5
12A
330
1E
100
AcDbEntity
  8
0
  6
CONTINUOUS
100
AcDbCircle
 10
17.010738
 20
26.326832
 30
0.0
 40
12.0
100
AcDbArc
 50
186.752396
 51
270.0
  0
LINE
  5
12B
330
1E
100
AcDbEntity
  8
0
  6
CONTINUOUS
100
AcDbLine
 10
52.4725
 20
135.3268279999999
 30
0.0
 11
164.472504
 21
135.3268279999999
 31
0.0
  0
LINE
  5
12C
330
1E
100
AcDbEntity
  8
0
  6
CONTINUOUS
100
AcDbLine
 10
52.4725
 20
20.326832
 30
0.0
 11
64.657501
 21
20.326832
 31
0.0
  0
LINE
  5
12D
330
1E
100
AcDbEntity
  8
0
  6
CONTINUOUS
100
AcDbLine
 10
156.472504
 20
129.112854
 30
0.0
 11
156.472504
 21
124.826836
 31
0.0
  0
LINE
  5
12E
330
1E
100
AcDbEntity
  8
0
  6
CONTINUOUS
100
AcDbLine
 10
117.4725039999999
 20
104.826836
 30
0.0
 11
52.4725
 21
104.826836
 31
0.0
  0
LINE
  5
12F
330
1E
100
AcDbEntity
  8
0
  6
CONTINUOUS
100
AcDbLine
 10
117.4725039999999
 20
50.826832
 30
0.0
 11
74.287498
 21
50.826832
 31
0.0
  0
LINE
  5
130
330
1E
100
AcDbEntity
  8
0
  6
CONTINUOUS
100
AcDbLine
 10
119.472504
 20
52.826832
 30
0.0
 11
119.472504
 21
102.8268359999999
 31
0.0
  0
LINE
  5
131
330
1E
100
AcDbEntity
  8
0
  6
CONTINUOUS
100
AcDbLine
 10
119.472504
 20
84.626823
 30
0.0
 11
156.472504
 21
84.626823
 31
0.0
  0
LINE
  5
132
330
1E
100
AcDbEntity
  8
0
  6
CONTINUOUS
100
AcDbLine
 10
119.472504
 20
71.02684
 30
0.0
 11
156.472504
 21
71.02684
 31
0.0
  0
LINE
  5
133
330
1E
100
AcDbEntity
  8
0
  6
CONTINUOUS
100
AcDbLine
 10
119.472504
 20
86.626823
 30
0.0
 11
156.472504
 21
86.626823
 31
0.0
  0
LINE
  5
134
330
1E
100
AcDbEntity
  8
0
  6
CONTINUOUS
100
AcDbLine
 10
119.472504
 20
69.02684
 30
0.0
 11
156.472504
 21
69.02684
 31
0.0
  0
LINE
  5
135
330
1E
100
AcDbEntity
  8
0
  6
CONTINUOUS
100
AcDbLine
 10
119.472504
 20
92.42684200000001
 30
0.0
 11
156.472504
 21
92.42684200000001
 31
0.0
  0
LINE
  5
136
330
1E
100
AcDbEntity
  8
0
  6
CONTINUOUS
100
AcDbLine
 10
119.472504
 20
94.426842
 30
0.0
 11
156.472504
 21
94.426842
 31
0.0
  0
LINE
  5
137
330
1E
100
AcDbEntity
  8
0
  6
CONTINUOUS
100
AcDbLine
 10
119.472504
 20
63.226826
 30
0.0
 11
156.472504
 21
63.226826
 31
0.0
  0
LINE
  5
138
330
1E
100
AcDbEntity
  8
0
  6
CONTINUOUS
100
AcDbLine
 10
119.472504
 20
61.226826
 30
0.0
 11
156.472504
 21
61.226826
 31
0.0
  0
LINE
  5
139
330
1E
100
AcDbEntity
  8
0
  6
CONTINUOUS
100
AcDbLine
 10
119.472504
 20
100.22683
 30
0.0
 11
156.472504
 21
100.22683
 31
0.0
  0
LINE
  5
13A
330
1E
100
AcDbEntity
  8
0
  6
CONTINUOUS
100
AcDbLine
 10
119.472504
 20
55.42683
 30
0.0
 11
156.472504
 21
55.42683
 31
0.0
  0
LINE
  5
13B
330
1E
100
AcDbEntity
  8
0
  6
CONTINUOUS
100
AcDbLine
 10
119.472504
 20
102.22683
 30
0.0
 11
156.472504
 21
102.22683
 31
0.0
  0
LINE
  5
13C
330
1E
100
AcDbEntity
  8
0
  6
CONTINUOUS
100
AcDbLine
 10
119.472504
 20
53.42683
 30
0.0
 11
156.472504
 21
53.42683
 31
0.0
  0
LINE
  5
13D
330
1E
100
AcDbEntity
  8
0
  6
CONTINUOUS
100
AcDbLine
 10
52.4725
 20
108.326836
 30
0.0
 11
156.472504
 21
108.326836
 31
0.0
  0
LINE
  5
13E
330
1E
100
AcDbEntity
  8
0
  6
CONTINUOUS
100
AcDbLine
 10
52.4725
 20
47.326832
 30
0.0
 11
64.657501
 21
47.326832
 31
0.0
  0
LINE
  5
13F
330
1E
100
AcDbEntity
  8
0
  6
CONTINUOUS
100
AcDbLine
 10
52.4725
 20
110.326836
 30
0.0
 11
156.472504
 21
110.326836
 31
0.0
  0
LINE
  5
140
330
1E
100
AcDbEntity
  8
0
  6
CONTINUOUS
100
AcDbLine
 10
52.4725
 20
45.326832
 30
0.0
 11
64.657501
 21
45.326832
 31
0.0
  0
LINE
  5
141
330
1E
100
AcDbEntity
  8
0
  6
CONTINUOUS
100
AcDbLine
 10
52.4725
 20
115.826836
 30
0.0
 11
156.472504
 21
115.826836
 31
0.0
  0
LINE
  5
142
330
1E
100
AcDbEntity
  8
0
  6
CONTINUOUS
100
AcDbLine
 10
52.4725
 20
39.826832
 30
0.0
 11
64.657501
 21
39.826832
 31
0.0
  0
LINE
  5
143
330
1E
100
AcDbEntity
  8
0
  6
CONTINUOUS
100
AcDbLine
 10
52.4725
 20
117.826836
 30
0.0
 11
156.472504
 21
117.826836
 31
0.0
  0
LINE
  5
144
330
1E
100
AcDbEntity
  8
0
  6
CONTINUOUS
100
AcDbLine
 10
52.4725
 20
37.826832
 30
0.0
 11
64.657501
 21
37.826832
 31
0.0
  0
LINE
  5
145
330
1E
100
AcDbEntity
  8
0
  6
CONTINUOUS
100
AcDbLine
 10
52.4725
 20
122.826836
 30
0.0
 11
156.472504
 21
122.826836
 31
0.0
  0
LINE
  5
146
330
1E
100
AcDbEntity
  8
0
  6
CONTINUOUS
100
AcDbLine
 10
52.4725
 20
32.826832
 30
0.0
 11
64.657501
 21
32.826832
 31
0.0
  0
LINE
  5
147
330
1E
100
AcDbEntity
  8
0
  6
CONTINUOUS
100
AcDbLine
 10
52.4725
 20
124.826836
 30
0.0
 11
156.472504
 21
124.826836
 31
0.0
  0
LINE
  5
148
330
1E
100
AcDbEntity
  8
0
  6
CONTINUOUS
100
AcDbLine
 10
52.4725
 20
30.82683199999999
 30
0.0
 11
64.657501
 21
30.82683199999999
 31
0.0
  0
LINE
  5
149
330
1E
100
AcDbEntity
  8
0
  6
CONTINUOUS
100
AcDbLine
 10
52.4725
 20
129.112854
 30
0.0
 11
156.472504
 21
129.112854
 31
0.0
  0
LINE
  5
14A
330
1E
100
AcDbEntity
  8
0
  6
CONTINUOUS
100
AcDbLine
 10
52.4725
 20
26.540812
 30
0.0
 11
64.657501
 21
26.540812
 31
0.0
  0
LINE
  5
14B
330
1E
100
AcDbEntity
  8
0
  6
CONTINUOUS
100
AcDbLine
 10
156.472504
 20
26.540812
 30
0.0
 11
156.472504
 21
30.82683199999999
 31
0.0
  0
LINE
  5
14C
330
1E
100
AcDbEntity
  8
0
  6
CONTINUOUS
100
AcDbLine
 10
156.472504
 20
32.826832
 30
0.0
 11
156.472504
 21
37.826832
 31
0.0
  0
LINE
  5
14D
330
1E
100
AcDbEntity
  8
0
  6
CONTINUOUS
100
AcDbLine
 10
156.472504
 20
39.826832
 30
0.0
 11
156.472504
 21
45.326832
 31
0.0
  0
LINE
  5
14E
330
1E
100
AcDbEntity
  8
0
  6
CONTINUOUS
100
AcDbLine
 10
156.472504
 20
47.326832
 30
0.0
 11
156.472504
 21
53.42683
 31
0.0
  0
LINE
  5
14F
330
1E
100
AcDbEntity
  8
0
  6
CONTINUOUS
100
AcDbLine
 10
156.472504
 20
55.42683
 30
0.0
 11
156.472504
 21
61.226826
 31
0.0
  0
LINE
  5
150
330
1E
100
AcDbEntity
  8
0
  6
CONTINUOUS
100
AcDbLine
 10
156.472504
 20
63.226826
 30
0.0
 11
156.472504
 21
69.02684
 31
0.0
  0
LINE
  5
151
330
1E
100
AcDbEntity
  8
0
  6
CONTINUOUS
100
AcDbLine
 10
119.472504
 20
78.826836
 30
0.0
 11
156.472504
 21
78.826836
 31
0.0
  0
LINE
  5
152
330
1E
100
AcDbEntity
  8
0
  6
CONTINUOUS
100
AcDbLine
 10
119.472504
 20
76.826836
 30
0.0
 11
156.472504
 21
76.826836
 31
0.0
  0
LINE
  5
153
330
1E
100
AcDbEntity
  8
0
  6
CONTINUOUS
100
AcDbLine
 10
156.472504
 20
71.02684
 30
0.0
 11
156.472504
 21
76.826836
 31
0.0
  0
LINE
  5
154
330
1E
100
AcDbEntity
  8
0
  6
CONTINUOUS
100
AcDbLine
 10
156.472504
 20
78.826836
 30
0.0
 11
156.472504
 21
84.62684600000001
 31
0.0
  0
LINE
  5
155
330
1E
100
AcDbEntity
  8
0
  6
CONTINUOUS
100
AcDbLine
 10
156.472504
 20
86.626823
 30
0.0
 11
156.472504
 21
92.42684200000001
 31
0.0
  0
LINE
  5
156
330
1E
100
AcDbEntity
  8
0
  6
CONTINUOUS
100
AcDbLine
 10
156.472504
 20
94.426842
 30
0.0
 11
156.472504
 21
100.22683
 31
0.0
  0
LINE
  5
157
330
1E
100
AcDbEntity
  8
0
  6
CONTINUOUS
100
AcDbLine
 10
156.472504
 20
102.22683
 30
0.0
 11
156.472504
 21
108.326836
 31
0.0
  0
LINE
  5
158
330
1E
100
AcDbEntity
  8
0
  6
CONTINUOUS
100
AcDbLine
 10
156.472504
 20
110.326836
 30
0.0
 11
156.472504
 21
115.826836
 31
0.0
  0
LINE
  5
159
330
1E
100
AcDbEntity
  8
0
  6
CONTINUOUS
100
AcDbLine
 10
156.472504
 20
117.826836
 30
0.0
 11
156.472504
 21
122.826836
 31
0.0
  0
ARC
  5
15A
330
1E
100
AcDbEntity
  8
0
  6
CONTINUOUS
100
AcDbCircle
 10
117.4725039999999
 20
102.8268359999999
 30
0.0
 40
2.0
100
AcDbArc
 50
0.0
 51
90.0
  0
ARC
  5
15B
330
1E
100
AcDbEntity
  8
0
  6
CONTINUOUS
100
AcDbCircle
 10
117.4725039999999
 20
52.826832
 30
0.0
 40
2.0
100
AcDbArc
 50
270.0
 51
0.0
  0
ARC
  5
15C
330
1E
100
AcDbEntity
  8
0
  6
CONTINUOUS
100
AcDbCircle
 10
54.4725
 20
102.8268359999999
 30
0.0
 40
2.0
100
AcDbArc
 50
90.0
 51
180.0
  0
ARC
  5
15D
330
1E
100
AcDbEntity
  8
0
  6
CONTINUOUS
100
AcDbCircle
 10
54.4725
 20
52.826832
 30
0.0
 40
2.0
100
AcDbArc
 50
180.0
 51
270.0
  0
ARC
  5
15E
330
1E
100
AcDbEntity
  8
0
  6
CONTINUOUS
100
AcDbCircle
 10
69.472504
 20
77.826836
 30
0.0
 40
12.0
100
AcDbArc
 50
259.508698
 51
263.7084959999999
  0
ARC
  5
15F
330
1E
100
AcDbEntity
  8
0
  6
CONTINUOUS
100
AcDbCircle
 10
69.472504
 20
81.826836
 30
0.0
 40
1.5
100
AcDbArc
 50
331.24268
 51
208.757202
  0
LINE
  5
160
330
1E
100
AcDbEntity
  8
0
  6
CONTINUOUS
100
AcDbLine
 10
68.15750099999999
 20
81.826836
 30
0.0
 11
68.15750099999999
 21
17.451832
 31
0.0
  0
LINE
  5
161
330
1E
100
AcDbEntity
  8
0
  6
CONTINUOUS
100
AcDbLine
 10
70.787498
 20
81.826836
 30
0.0
 11
70.787498
 21
17.451832
 31
0.0
  0
CIRCLE
  5
162
330
1E
100
AcDbEntity
  8
0
  6
CONTINUOUS
100
AcDbCircle
 10
69.472504
 20
4.451831999999999
 30
0.0
 40
2.149999999999999
  0
ARC
  5
163
330
1E
100
AcDbEntity
  8
0
  6
CONTINUOUS
100
AcDbCircle
 10
69.472504
 20
4.451831999999999
 30
0.0
 40
3.75
100
AcDbArc
 50
129.736893
 51
50.263371
  0
LINE
  5
164
330
1E
100
AcDbEntity
  8
0
  6
CONTINUOUS
100
AcDbLine
 10
67.65750099999999
 20
17.451832
 30
0.0
 11
71.287498
 21
17.451832
 31
0.0
  0
LINE
  5
165
330
1E
100
AcDbEntity
  8
0
  6
CONTINUOUS
100
AcDbLine
 10
68.15750099999999
 20
10.251812
 30
0.0
 11
70.787498
 21
10.251812
 31
0.0
  0
ARC
  5
166
330
1E
100
AcDbEntity
  8
0
  6
CONTINUOUS
100
AcDbCircle
 10
65.15750099999999
 20
9.642511999999999
 30
0.0
 40
3.0
100
AcDbArc
 50
309.736389
 51
0.0
  0
ARC
  5
167
330
1E
100
AcDbEntity
  8
0
  6
CONTINUOUS
100
AcDbCircle
 10
73.787498
 20
9.642511999999999
 30
0.0
 40
3.0
100
AcDbArc
 50
180.0
 51
230.263306
  0
LINE
  5
168
330
1E
100
AcDbEntity
  8
0
  6
CONTINUOUS
100
AcDbLine
 10
67.65750099999999
 20
14.451832
 30
0.0
 11
71.287498
 21
14.451832
 31
0.0
  0
LINE
  5
169
330
1E
100
AcDbEntity
  8
0
  6
CONTINUOUS
100
AcDbLine
 10
67.65750099999999
 20
17.451832
 30
0.0
 11
67.65750099999999
 21
14.451832
 31
0.0
  0
LINE
  5
16A
330
1E
100
AcDbEntity
  8
0
  6
CONTINUOUS
100
AcDbLine
 10
71.287498
 20
17.451832
 30
0.0
 11
71.287498
 21
14.451832
 31
0.0
  0
LINE
  5
16B
330
1E
100
AcDbEntity
  8
0
  6
CONTINUOUS
100
AcDbLine
 10
68.15750099999999
 20
9.642511999999999
 30
0.0
 11
68.15750099999999
 21
14.451832
 31
0.0
  0
LINE
  5
16C
330
1E
100
AcDbEntity
  8
0
  6
CONTINUOUS
100
AcDbLine
 10
70.787498
 20
9.642511999999999
 30
0.0
 11
70.787498
 21
14.451832
 31
0.0
  0
ARC
  5
16D
330
1E
100
AcDbEntity
  8
0
  6
CONTINUOUS
100
AcDbCircle
 10
69.472504
 20
81.826836
 30
0.0
 40
1.314999999999999
100
AcDbArc
 50
0.0
 51
180.0
  0
ARC
  5
16E
330
1E
100
AcDbEntity
  8
0
  6
CONTINUOUS
100
AcDbCircle
 10
72.972504
 20
75.826836
 30
0.0
 40
1.5
100
AcDbArc
 50
331.24268
 51
208.757202
  0
LINE
  5
16F
330
1E
100
AcDbEntity
  8
0
  6
CONTINUOUS
100
AcDbLine
 10
71.657501
 20
75.826836
 30
0.0
 11
71.657501
 21
11.451832
 31
0.0
  0
LINE
  5
170
330
1E
100
AcDbEntity
  8
0
  6
CONTINUOUS
100
AcDbLine
 10
74.287498
 20
75.826836
 30
0.0
 11
74.287498
 21
11.451832
 31
0.0
  0
CIRCLE
  5
171
330
1E
100
AcDbEntity
  8
0
  6
CONTINUOUS
100
AcDbCircle
 10
72.972504
 20
-1.548167999999999
 30
0.0
 40
2.149999999999999
  0
ARC
  5
172
330
1E
100
AcDbEntity
  8
0
  6
CONTINUOUS
100
AcDbCircle
 10
72.972504
 20
-1.548167999999999
 30
0.0
 40
3.75
100
AcDbArc
 50
142.411804
 51
158.967697
  0
LINE
  5
173
330
1E
100
AcDbEntity
  8
0
  6
CONTINUOUS
100
AcDbLine
 10
71.15750099999999
 20
11.451832
 30
0.0
 11
74.787498
 21
11.451832
 31
0.0
  0
LINE
  5
174
330
1E
100
AcDbEntity
  8
0
  6
CONTINUOUS
100
AcDbLine
 10
73.217163
 20
4.251812
 30
0.0
 11
74.287498
 21
4.251812
 31
0.0
  0
ARC
  5
175
330
1E
100
AcDbEntity
  8
0
  6
CONTINUOUS
100
AcDbCircle
 10
77.287498
 20
3.642512
 30
0.0
 40
3.0
100
AcDbArc
 50
180.0
 51
230.263306
  0
LINE
  5
176
330
1E
100
AcDbEntity
  8
0
  6
CONTINUOUS
100
AcDbLine
 10
71.15750099999999
 20
8.451832000000001
 30
0.0
 11
74.787498
 21
8.451832000000001
 31
0.0
  0
LINE
  5
177
330
1E
100
AcDbEntity
  8
0
  6
CONTINUOUS
100
AcDbLine
 10
71.15750099999999
 20
11.451832
 30
0.0
 11
71.15750099999999
 21
8.451832000000001
 31
0.0
  0
LINE
  5
178
330
1E
100
AcDbEntity
  8
0
  6
CONTINUOUS
100
AcDbLine
 10
74.787498
 20
11.451832
 30
0.0
 11
74.787498
 21
8.451832000000001
 31
0.0
  0
LINE
  5
179
330
1E
100
AcDbEntity
  8
0
  6
CONTINUOUS
100
AcDbLine
 10
71.657501
 20
7.529892
 30
0.0
 11
71.657501
 21
8.451832000000001
 31
0.0
  0
LINE
  5
17A
330
1E
100
AcDbEntity
  8
0
  6
CONTINUOUS
100
AcDbLine
 10
74.287498
 20
3.642512
 30
0.0
 11
74.287498
 21
8.451832000000001
 31
0.0
  0
ARC
  5
17B
330
1E
100
AcDbEntity
  8
0
  6
CONTINUOUS
100
AcDbCircle
 10
72.972504
 20
75.826836
 30
0.0
 40
1.314999999999999
100
AcDbArc
 50
0.0
 51
180.0
  0
ARC
  5
17C
330
1E
100
AcDbEntity
  8
0
  6
CONTINUOUS
100
AcDbCircle
 10
65.972504
 20
75.826836
 30
0.0
 40
1.5
100
AcDbArc
 50
331.24268
 51
208.757202
  0
LINE
  5
17D
330
1E
100
AcDbEntity
  8
0
  6
CONTINUOUS
100
AcDbLine
 10
64.657501
 20
75.826836
 30
0.0
 11
64.657501
 21
11.451832
 31
0.0
  0
LINE
  5
17E
330
1E
100
AcDbEntity
  8
0
  6
CONTINUOUS
100
AcDbLine
 10
67.287498
 20
75.826836
 30
0.0
 11
67.287498
 21
11.451832
 31
0.0
  0
CIRCLE
  5
17F
330
1E
100
AcDbEntity
  8
0
  6
CONTINUOUS
100
AcDbCircle
 10
65.972504
 20
-1.548167999999999
 30
0.0
 40
2.149999999999999
  0
ARC
  5
180
330
1E
100
AcDbEntity
  8
0
  6
CONTINUOUS
100
AcDbCircle
 10
65.972504
 20
-1.548167999999999
 30
0.0
 40
3.75
100
AcDbArc
 50
129.736893
 51
37.58773
  0
LINE
  5
181
330
1E
100
AcDbEntity
  8
0
  6
CONTINUOUS
100
AcDbLine
 10
64.157501
 20
11.451832
 30
0.0
 11
67.78749799999999
 21
11.451832
 31
0.0
  0
LINE
  5
182
330
1E
100
AcDbEntity
  8
0
  6
CONTINUOUS
100
AcDbLine
 10
64.657501
 20
4.251812
 30
0.0
 11
65.722504
 21
4.251812
 31
0.0
  0
ARC
  5
183
330
1E
100
AcDbEntity
  8
0
  6
CONTINUOUS
100
AcDbCircle
 10
61.657501
 20
3.642512
 30
0.0
 40
3.0
100
AcDbArc
 50
309.736389
 51
0.0
  0
LINE
  5
184
330
1E
100
AcDbEntity
  8
0
  6
CONTINUOUS
100
AcDbLine
 10
64.157501
 20
8.451832000000001
 30
0.0
 11
67.78749799999999
 21
8.451832000000001
 31
0.0
  0
LINE
  5
185
330
1E
100
AcDbEntity
  8
0
  6
CONTINUOUS
100
AcDbLine
 10
64.157501
 20
11.451832
 30
0.0
 11
64.157501
 21
8.451832000000001
 31
0.0
  0
LINE
  5
186
330
1E
100
AcDbEntity
  8
0
  6
CONTINUOUS
100
AcDbLine
 10
67.78749799999999
 20
11.451832
 30
0.0
 11
67.78749799999999
 21
8.451832000000001
 31
0.0
  0
LINE
  5
187
330
1E
100
AcDbEntity
  8
0
  6
CONTINUOUS
100
AcDbLine
 10
64.657501
 20
3.642512
 30
0.0
 11
64.657501
 21
8.451832000000001
 31
0.0
  0
LINE
  5
188
330
1E
100
AcDbEntity
  8
0
  6
CONTINUOUS
100
AcDbLine
 10
67.287498
 20
7.529892
 30
0.0
 11
67.287498
 21
8.451832000000001
 31
0.0
  0
ARC
  5
189
330
1E
100
AcDbEntity
  8
0
  6
CONTINUOUS
100
AcDbCircle
 10
65.972504
 20
75.826836
 30
0.0
 40
1.314999999999999
100
AcDbArc
 50
0.0
 51
180.0
  0
ARC
  5
18A
330
1E
100
AcDbEntity
  8
0
  6
CONTINUOUS
100
AcDbCircle
 10
72.972504
 20
-1.548167999999999
 30
0.0
 40
3.75
100
AcDbArc
 50
201.0317989999999
 51
50.263371
  0
ARC
  5
18B
330
1E
100
AcDbEntity
  8
0
  6
CONTINUOUS
100
AcDbCircle
 10
69.472504
 20
77.826836
 30
0.0
 40
12.0
100
AcDbArc
 50
276.2912899999999
 51
280.4912109999999
  0
ARC
  5
18C
330
1E
100
AcDbEntity
  8
0
  6
CONTINUOUS
100
AcDbCircle
 10
69.472504
 20
77.826836
 30
0.0
 40
12.0
100
AcDbArc
 50
293.656342
 51
246.343506
  0
LINE
  5
18D
330
1E
100
AcDbEntity
  8
0
  6
CONTINUOUS
100
AcDbLine
 10
52.4725
 20
50.826832
 30
0.0
 11
64.657501
 21
50.826832
 31
0.0
  0
LINE
  5
18E
330
1E
100
AcDbEntity
  8
0
  6
CONTINUOUS
100
AcDbLine
 10
67.287498
 20
50.826832
 30
0.0
 11
68.15750099999999
 21
50.826832
 31
0.0
  0
LINE
  5
18F
330
1E
100
AcDbEntity
  8
0
  6
CONTINUOUS
100
AcDbLine
 10
70.787498
 20
50.826832
 30
0.0
 11
71.657501
 21
50.826832
 31
0.0
  0
LINE
  5
190
330
1E
100
AcDbEntity
  8
0
  6
CONTINUOUS
100
AcDbLine
 10
156.472504
 20
47.326832
 30
0.0
 11
74.287498
 21
47.326832
 31
0.0
  0
LINE
  5
191
330
1E
100
AcDbEntity
  8
0
  6
CONTINUOUS
100
AcDbLine
 10
67.287498
 20
47.326832
 30
0.0
 11
68.15750099999999
 21
47.326832
 31
0.0
  0
LINE
  5
192
330
1E
100
AcDbEntity
  8
0
  6
CONTINUOUS
100
AcDbLine
 10
70.787498
 20
47.326832
 30
0.0
 11
71.657501
 21
47.326832
 31
0.0
  0
LINE
  5
193
330
1E
100
AcDbEntity
  8
0
  6
CONTINUOUS
100
AcDbLine
 10
156.472504
 20
45.326832
 30
0.0
 11
74.287498
 21
45.326832
 31
0.0
  0
LINE
  5
194
330
1E
100
AcDbEntity
  8
0
  6
CONTINUOUS
100
AcDbLine
 10
67.287498
 20
45.326832
 30
0.0
 11
68.15750099999999
 21
45.326832
 31
0.0
  0
LINE
  5
195
330
1E
100
AcDbEntity
  8
0
  6
CONTINUOUS
100
AcDbLine
 10
70.787498
 20
45.326832
 30
0.0
 11
71.657501
 21
45.326832
 31
0.0
  0
LINE
  5
196
330
1E
100
AcDbEntity
  8
0
  6
CONTINUOUS
100
AcDbLine
 10
156.472504
 20
39.826832
 30
0.0
 11
74.287498
 21
39.826832
 31
0.0
  0
LINE
  5
197
330
1E
100
AcDbEntity
  8
0
  6
CONTINUOUS
100
AcDbLine
 10
67.287498
 20
39.826832
 30
0.0
 11
68.15750099999999
 21
39.826832
 31
0.0
  0
LINE
  5
198
330
1E
100
AcDbEntity
  8
0
  6
CONTINUOUS
100
AcDbLine
 10
70.787498
 20
39.826832
 30
0.0
 11
71.657501
 21
39.826832
 31
0.0
  0
LINE
  5
199
330
1E
100
AcDbEntity
  8
0
  6
CONTINUOUS
100
AcDbLine
 10
156.472504
 20
37.826832
 30
0.0
 11
74.287498
 21
37.826832
 31
0.0
  0
LINE
  5
19A
330
1E
100
AcDbEntity
  8
0
  6
CONTINUOUS
100
AcDbLine
 10
67.287498
 20
37.826832
 30
0.0
 11
68.15750099999999
 21
37.826832
 31
0.0
  0
LINE
  5
19B
330
1E
100
AcDbEntity
  8
0
  6
CONTINUOUS
100
AcDbLine
 10
70.787498
 20
37.826832
 30
0.0
 11
71.657501
 21
37.826832
 31
0.0
  0
LINE
  5
19C
330
1E
100
AcDbEntity
  8
0
  6
CONTINUOUS
100
AcDbLine
 10
156.472504
 20
32.826832
 30
0.0
 11
74.287498
 21
32.826832
 31
0.0
  0
LINE
  5
19D
330
1E
100
AcDbEntity
  8
0
  6
CONTINUOUS
100
AcDbLine
 10
67.287498
 20
32.826832
 30
0.0
 11
68.15750099999999
 21
32.826832
 31
0.0
  0
LINE
  5
19E
330
1E
100
AcDbEntity
  8
0
  6
CONTINUOUS
100
AcDbLine
 10
70.787498
 20
32.826832
 30
0.0
 11
71.657501
 21
32.826832
 31
0.0
  0
LINE
  5
19F
330
1E
100
AcDbEntity
  8
0
  6
CONTINUOUS
100
AcDbLine
 10
156.472504
 20
30.82683199999999
 30
0.0
 11
74.287498
 21
30.82683199999999
 31
0.0
  0
LINE
  5
1A0
330
1E
100
AcDbEntity
  8
0
  6
CONTINUOUS
100
AcDbLine
 10
67.287498
 20
30.82683199999999
 30
0.0
 11
68.15750099999999
 21
30.82683199999999
 31
0.0
  0
LINE
  5
1A1
330
1E
100
AcDbEntity
  8
0
  6
CONTINUOUS
100
AcDbLine
 10
70.787498
 20
30.82683199999999
 30
0.0
 11
71.657501
 21
30.82683199999999
 31
0.0
  0
LINE
  5
1A2
330
1E
100
AcDbEntity
  8
0
  6
CONTINUOUS
100
AcDbLine
 10
156.472504
 20
26.540812
 30
0.0
 11
74.287498
 21
26.540812
 31
0.0
  0
LINE
  5
1A3
330
1E
100
AcDbEntity
  8
0
  6
CONTINUOUS
100
AcDbLine
 10
67.287498
 20
26.540812
 30
0.0
 11
68.15750099999999
 21
26.540812
 31
0.0
  0
LINE
  5
1A4
330
1E
100
AcDbEntity
  8
0
  6
CONTINUOUS
100
AcDbLine
 10
70.787498
 20
26.540812
 30
0.0
 11
71.657501
 21
26.540812
 31
0.0
  0
LINE
  5
1A5
330
1E
100
AcDbEntity
  8
0
  6
CONTINUOUS
100
AcDbLine
 10
164.472504
 20
20.326832
 30
0.0
 11
74.287498
 21
20.326832
 31
0.0
  0
LINE
  5
1A6
330
1E
100
AcDbEntity
  8
0
  6
CONTINUOUS
100
AcDbLine
 10
67.287498
 20
20.326832
 30
0.0
 11
68.15750099999999
 21
20.326832
 31
0.0
  0
LINE
  5
1A7
330
1E
100
AcDbEntity
  8
0
  6
CONTINUOUS
100
AcDbLine
 10
70.787498
 20
20.326832
 30
0.0
 11
71.657501
 21
20.326832
 31
0.0
  0
LINE
  5
1A8
330
1E
100
AcDbEntity
  8
0
  6
CONTINUOUS
100
AcDbLine
 10
52.4725
 20
13.326832
 30
0.0
 11
21.728268
 21
13.326832
 31
0.0
  0
ARC
  5
1A9
330
1E
100
AcDbEntity
  8
0
  6
CONTINUOUS
100
AcDbCircle
 10
21.728268
 20
14.326832
 30
0.0
 40
1.0
100
AcDbArc
 50
168.767807
 51
270.0
  0
LINE
  5
1AA
330
1E
100
AcDbEntity
  8
0
  6
CONTINUOUS
100
AcDbLine
 10
181.472504
 20
135.076828
 30
0.0
 11
181.472504
 21
20.576832
 31
0.0
  0
LINE
  5
1AB
330
1E
100
AcDbEntity
  8
0
  6
CONTINUOUS
100
AcDbLine
 10
181.472504
 20
135.076828
 30
0.0
 11
164.472504
 21
135.076828
 31
0.0
  0
LINE
  5
1AC
330
1E
100
AcDbEntity
  8
0
  6
CONTINUOUS
100
AcDbLine
 10
181.472504
 20
20.576832
 30
0.0
 11
164.472504
 21
20.576832
 31
0.0
  0
LINE
  5
1AD
330
1E
100
AcDbEntity
  8
0
  6
CONTINUOUS
100
AcDbLine
 10
174.472504
 20
91.826836
 30
0.0
 11
174.472504
 21
66.076836
 31
0.0
  0
LINE
  5
1AE
330
1E
100
AcDbEntity
  8
0
  6
CONTINUOUS
100
AcDbLine
 10
175.972504
 20
91.826836
 30
0.0
 11
175.972504
 21
65.139336
 31
0.0
  0
LINE
  5
1AF
330
1E
100
AcDbEntity
  8
0
  6
CONTINUOUS
100
AcDbLine
 10
172.972504
 20
91.826836
 30
0.0
 11
172.972504
 21
65.53683499999999
 31
0.0
  0
LINE
  5
1B0
330
1E
100
AcDbEntity
  8
0
  6
CONTINUOUS
100
AcDbLine
 10
172.972504
 20
65.53683499999999
 30
0.0
 11
174.447495
 21
67.233086
 31
0.0
  0
LINE
  5
1B1
330
1E
100
AcDbEntity
  8
0
  6
CONTINUOUS
100
AcDbLine
 10
174.4769129999999
 20
66.084183
 30
0.0
 11
175.993454
 21
65.174263
 31
0.0
  0
ARC
  5
1B2
330
1E
100
AcDbEntity
  8
0
  6
CONTINUOUS
100
AcDbCircle
 10
175.222504
 20
91.826836
 30
0.0
 40
0.75
100
AcDbArc
 50
0.0
 51
180.0
  0
ARC
  5
1B3
330
1E
100
AcDbEntity
  8
0
  6
CONTINUOUS
100
AcDbCircle
 10
173.722504
 20
91.826836
 30
0.0
 40
0.75
100
AcDbArc
 50
0.0
 51
180.0
  0
ARC
  5
1B4
330
1E
100
AcDbEntity
  8
0
  6
CONTINUOUS
100
AcDbCircle
 10
174.472504
 20
91.826836
 30
0.0
 40
3.0
100
AcDbArc
 50
300.0000609999999
 51
239.999893
  0
LINE
  5
1B5
330
1E
100
AcDbEntity
  8
0
  6
CONTINUOUS
100
AcDbLine
 10
164.472504
 20
135.3268279999999
 30
0.0
 11
164.472504
 21
20.326832
 31
0.0
  0
LINE
  5
1B6
330
1E
100
AcDbEntity
  8
0
  6
CONTINUOUS
100
AcDbLine
 10
252.472504
 20
135.3268279999999
 30
0.0
 11
257.472504
 21
135.3268279999999
 31
0.0
  0
LINE
  5
1B7
330
1E
100
AcDbEntity
  8
0
  6
CONTINUOUS
100
AcDbLine
 10
252.472504
 20
20.326832
 30
0.0
 11
257.472504
 21
20.326832
 31
0.0
  0
LINE
  5
1B8
330
1E
100
AcDbEntity
  8
0
  6
CONTINUOUS
100
AcDbLine
 10
252.472504
 20
135.3268279999999
 30
0.0
 11
252.472504
 21
20.326832
 31
0.0
  0
LINE
  5
1B9
330
1E
100
AcDbEntity
  8
0
  6
CONTINUOUS
100
AcDbLine
 10
64.63275899999999
 20
264.7859189999999
 30
0.0
 11
64.63275899999999
 21
257.068939
 31
0.0
  0
LINE
  5
1BA
330
1E
100
AcDbEntity
  8
0
  6
CONTINUOUS
100
AcDbLine
 10
67.26275600000001
 20
264.7859189999999
 30
0.0
 11
67.26275600000001
 21
257.2577209999999
 31
0.0
  0
LINE
  5
1BB
330
1E
100
AcDbEntity
  8
0
  6
CONTINUOUS
100
AcDbLine
 10
68.13275899999999
 20
264.7859189999999
 30
0.0
 11
68.13275899999999
 21
257.0064089999999
 31
0.0
  0
LINE
  5
1BC
330
1E
100
AcDbEntity
  8
0
  6
CONTINUOUS
100
AcDbLine
 10
70.76275600000001
 20
264.7859189999999
 30
0.0
 11
70.76275600000001
 21
256.7377009999999
 31
0.0
  0
LINE
  5
1BD
330
1E
100
AcDbEntity
  8
0
  6
CONTINUOUS
100
AcDbLine
 10
71.63275899999999
 20
264.7859189999999
 30
0.0
 11
71.63275899999999
 21
256.853699
 31
0.0
  0
LINE
  5
1BE
330
1E
100
AcDbEntity
  8
0
  6
CONTINUOUS
100
AcDbLine
 10
74.26275600000001
 20
264.7859189999999
 30
0.0
 11
74.26275600000001
 21
256.463959
 31
0.0
  0
LINE
  5
1BF
330
1E
100
AcDbEntity
  8
0
  6
CONTINUOUS
100
AcDbLine
 10
64.63275899999999
 20
257.068939
 30
0.0
 11
66.37231400000001
 21
257.5149539999999
 31
0.0
  0
LINE
  5
1C0
330
1E
100
AcDbEntity
  8
0
  6
CONTINUOUS
100
AcDbLine
 10
66.37231400000001
 20
257.5149539999999
 30
0.0
 11
67.26275600000001
 21
257.2577209999999
 31
0.0
  0
LINE
  5
1C1
330
1E
100
AcDbEntity
  8
0
  6
CONTINUOUS
100
AcDbLine
 10
69.599655
 20
256.5826109999999
 30
0.0
 11
70.76275600000001
 21
256.7377009999999
 31
0.0
  0
LINE
  5
1C2
330
1E
100
AcDbEntity
  8
0
  6
CONTINUOUS
100
AcDbLine
 10
72.82699599999999
 20
257.012939
 30
0.0
 11
74.26275600000001
 21
256.463959
 31
0.0
  0
LINE
  5
1C3
330
1E
100
AcDbEntity
  8
0
  6
CONTINUOUS
100
AcDbLine
 10
68.13275899999999
 20
257.0064089999999
 30
0.0
 11
69.599655
 21
256.5826109999999
 31
0.0
  0
LINE
  5
1C4
330
1E
100
AcDbEntity
  8
0
  6
CONTINUOUS
100
AcDbLine
 10
71.63275899999999
 20
256.853699
 30
0.0
 11
72.82699599999999
 21
257.012939
 31
0.0
  0
LINE
  5
1C5
330
1E
100
AcDbEntity
  8
0
  6
CONTINUOUS
100
AcDbLine
 10
172.972687
 20
262.576874
 30
0.0
 11
174.472687
 21
263.0054319999999
 31
0.0
  0
LINE
  5
1C6
330
1E
100
AcDbEntity
  8
0
  6
CONTINUOUS
100
AcDbLine
 10
174.472687
 20
262.01889
 30
0.0
 11
175.972687
 21
262.535278
 31
0.0
  0
LINE
  5
1C7
330
1E
100
AcDbEntity
  8
0
  6
CONTINUOUS
100
AcDbLine
 10
172.972687
 20
268.721039
 30
0.0
 11
172.972687
 21
262.576874
 31
0.0
  0
LINE
  5
1C8
330
1E
100
AcDbEntity
  8
0
  6
CONTINUOUS
100
AcDbLine
 10
174.472687
 20
268.8286129999999
 30
0.0
 11
174.472687
 21
262.01889
 31
0.0
  0
LINE
  5
1C9
330
1E
100
AcDbEntity
  8
0
  6
CONTINUOUS
100
AcDbLine
 10
175.972687
 20
268.667236
 30
0.0
 11
175.972687
 21
262.535278
 31
0.0
  0
LINE
  5
1CA
330
1E
100
AcDbEntity
  8
0
  6
CONTINUOUS
100
AcDbLine
 10
222.9726869999999
 20
269.285004
 30
0.0
 11
222.9726869999999
 21
264.3339839999999
 31
0.0
  0
LINE
  5
1CB
330
1E
100
AcDbEntity
  8
0
  6
CONTINUOUS
100
AcDbLine
 10
224.472687
 20
269.285004
 30
0.0
 11
224.472687
 21
263.7760009999999
 31
0.0
  0
LINE
  5
1CC
330
1E
100
AcDbEntity
  8
0
  6
CONTINUOUS
100
AcDbLine
 10
225.972687
 20
269.285004
 30
0.0
 11
225.972687
 21
264.292389
 31
0.0
  0
LINE
  5
1CD
330
1E
100
AcDbEntity
  8
0
  6
CONTINUOUS
100
AcDbLine
 10
224.472687
 20
263.7760009999999
 30
0.0
 11
225.972687
 21
264.292389
 31
0.0
  0
LINE
  5
1CE
330
1E
100
AcDbEntity
  8
0
  6
CONTINUOUS
100
AcDbLine
 10
222.9726869999999
 20
264.3339839999999
 30
0.0
 11
224.472687
 21
264.762543
 31
0.0
  0
LINE
  5
1CF
330
1E
100
AcDbEntity
  8
0
  6
CONTINUOUS
100
AcDbLine
 10
225.972687
 20
268.785004
 30
0.0
 11
242.8756259999999
 21
268.785004
 31
0.0
  0
LINE
  5
1D0
330
1E
100
AcDbEntity
  8
0
  6
CONTINUOUS
100
AcDbLine
 10
175.972687
 20
266.535004
 30
0.0
 11
187.472504
 21
266.535004
 31
0.0
  0
LINE
  5
1D1
330
1E
100
AcDbEntity
  8
0
  6
CONTINUOUS
100
AcDbLine
 10
189.472504
 20
22.576656
 30
0.0
 11
189.472504
 21
133.07666
 31
0.0
  0
LINE
  5
1D2
330
1E
100
AcDbEntity
  8
0
  6
CONTINUOUS
100
AcDbLine
 10
244.472504
 20
22.576656
 30
0.0
 11
244.472504
 21
133.07666
 31
0.0
  0
LINE
  5
1D3
330
1E
100
AcDbEntity
  8
0
  6
CONTINUOUS
100
AcDbLine
 10
191.472504
 20
121.8266599999999
 30
0.0
 11
242.472504
 21
121.8266599999999
 31
0.0
  0
LINE
  5
1D4
330
1E
100
AcDbEntity
  8
0
  6
CONTINUOUS
100
AcDbLine
 10
191.472504
 20
29.826656
 30
0.0
 11
242.472504
 21
29.826656
 31
0.0
  0
LINE
  5
1D5
330
1E
100
AcDbEntity
  8
0
  6
CONTINUOUS
100
AcDbLine
 10
181.472504
 20
135.07666
 30
0.0
 11
187.472504
 21
135.07666
 31
0.0
  0
LINE
  5
1D6
330
1E
100
AcDbEntity
  8
0
  6
CONTINUOUS
100
AcDbLine
 10
181.472504
 20
20.57665599999999
 30
0.0
 11
187.472504
 21
20.57665599999999
 31
0.0
  0
ARC
  5
1D7
330
1E
100
AcDbEntity
  8
0
  6
CONTINUOUS
100
AcDbCircle
 10
191.472504
 20
123.8266599999999
 30
0.0
 40
2.0
100
AcDbArc
 50
180.0
 51
270.0
  0
ARC
  5
1D8
330
1E
100
AcDbEntity
  8
0
  6
CONTINUOUS
100
AcDbCircle
 10
242.472504
 20
123.8266599999999
 30
0.0
 40
2.0
100
AcDbArc
 50
270.0
 51
0.0
  0
ARC
  5
1D9
330
1E
100
AcDbEntity
  8
0
  6
CONTINUOUS
100
AcDbCircle
 10
191.472504
 20
27.826677
 30
0.0
 40
2.0
100
AcDbArc
 50
90.0
 51
180.0
  0
ARC
  5
1DA
330
1E
100
AcDbEntity
  8
0
  6
CONTINUOUS
100
AcDbCircle
 10
242.472504
 20
27.826656
 30
0.0
 40
2.0
100
AcDbArc
 50
0.0
 51
90.0
  0
ARC
  5
1DB
330
1E
100
AcDbEntity
  8
0
  6
CONTINUOUS
100
AcDbCircle
 10
187.472504
 20
133.07666
 30
0.0
 40
2.0
100
AcDbArc
 50
0.0
 51
90.0
  0
ARC
  5
1DC
330
1E
100
AcDbEntity
  8
0
  6
CONTINUOUS
100
AcDbCircle
 10
246.472504
 20
133.0766749999999
 30
0.0
 40
2.0
100
AcDbArc
 50
90.0
 51
180.0
  0
ARC
  5
1DD
330
1E
100
AcDbEntity
  8
0
  6
CONTINUOUS
100
AcDbCircle
 10
246.472504
 20
22.576656
 30
0.0
 40
2.0
100
AcDbArc
 50
180.0
 51
270.0
  0
ARC
  5
1DE
330
1E
100
AcDbEntity
  8
0
  6
CONTINUOUS
100
AcDbCircle
 10
187.472504
 20
22.576656
 30
0.0
 40
2.0
100
AcDbArc
 50
270.0
 51
0.0
  0
LINE
  5
1DF
330
1E
100
AcDbEntity
  8
0
  6
CONTINUOUS
100
AcDbLine
 10
190.472504
 20
68.82666
 30
0.0
 11
190.472504
 21
81.82666000000001
 31
0.0
  0
LINE
  5
1E0
330
1E
100
AcDbEntity
  8
0
  6
CONTINUOUS
100
AcDbLine
 10
212.472504
 20
81.82666000000001
 30
0.0
 11
212.472504
 21
68.82666
 31
0.0
  0
LINE
  5
1E1
330
1E
100
AcDbEntity
  8
0
  6
CONTINUOUS
100
AcDbLine
 10
243.472504
 20
68.82666
 30
0.0
 11
243.472504
 21
81.82666000000001
 31
0.0
  0
LINE
  5
1E2
330
1E
100
AcDbEntity
  8
0
  6
CONTINUOUS
100
AcDbLine
 10
221.472504
 20
68.82666
 30
0.0
 11
221.472504
 21
81.82666000000001
 31
0.0
  0
LINE
  5
1E3
330
1E
100
AcDbEntity
  8
0
  6
CONTINUOUS
100
AcDbLine
 10
211.472504
 20
82.82666
 30
0.0
 11
191.472504
 21
82.82666
 31
0.0
  0
LINE
  5
1E4
330
1E
100
AcDbEntity
  8
0
  6
CONTINUOUS
100
AcDbLine
 10
211.472504
 20
67.82666
 30
0.0
 11
191.472504
 21
67.82666
 31
0.0
  0
ARC
  5
1E5
330
1E
100
AcDbEntity
  8
0
  6
CONTINUOUS
100
AcDbCircle
 10
191.472504
 20
81.82666000000001
 30
0.0
 40
1.0
100
AcDbArc
 50
90.0
 51
180.0
  0
ARC
  5
1E6
330
1E
100
AcDbEntity
  8
0
  6
CONTINUOUS
100
AcDbCircle
 10
191.472504
 20
68.82666
 30
0.0
 40
1.0
100
AcDbArc
 50
180.0
 51
270.0
  0
ARC
  5
1E7
330
1E
100
AcDbEntity
  8
0
  6
CONTINUOUS
100
AcDbCircle
 10
211.472504
 20
68.82666
 30
0.0
 40
1.0
100
AcDbArc
 50
270.0
 51
0.0
  0
ARC
  5
1E8
330
1E
100
AcDbEntity
  8
0
  6
CONTINUOUS
100
AcDbCircle
 10
211.472504
 20
81.82666000000001
 30
0.0
 40
1.0
100
AcDbArc
 50
0.0
 51
90.0
  0
ARC
  5
1E9
330
1E
100
AcDbEntity
  8
0
  6
CONTINUOUS
100
AcDbCircle
 10
222.472504
 20
81.82666000000001
 30
0.0
 40
1.0
100
AcDbArc
 50
90.0
 51
180.0
  0
ARC
  5
1EA
330
1E
100
AcDbEntity
  8
0
  6
CONTINUOUS
100
AcDbCircle
 10
222.472504
 20
68.82666
 30
0.0
 40
1.0
100
AcDbArc
 50
180.0
 51
270.0
  0
ARC
  5
1EB
330
1E
100
AcDbEntity
  8
0
  6
CONTINUOUS
100
AcDbCircle
 10
242.472504
 20
81.82666000000001
 30
0.0
 40
1.0
100
AcDbArc
 50
0.0
 51
90.0
  0
ARC
  5
1EC
330
1E
100
AcDbEntity
  8
0
  6
CONTINUOUS
100
AcDbCircle
 10
242.472504
 20
68.82666
 30
0.0
 40
1.0
100
AcDbArc
 50
270.0
 51
0.0
  0
LINE
  5
1ED
330
1E
100
AcDbEntity
  8
0
  6
CONTINUOUS
100
AcDbLine
 10
224.472504
 20
91.82666000000001
 30
0.0
 11
224.472504
 21
65.88271299999999
 31
0.0
  0
LINE
  5
1EE
330
1E
100
AcDbEntity
  8
0
  6
CONTINUOUS
100
AcDbLine
 10
225.972504
 20
91.82666000000001
 30
0.0
 11
225.972504
 21
65.025566
 31
0.0
  0
LINE
  5
1EF
330
1E
100
AcDbEntity
  8
0
  6
CONTINUOUS
100
AcDbLine
 10
222.972504
 20
91.82666000000001
 30
0.0
 11
222.972504
 21
65.76763199999999
 31
0.0
  0
LINE
  5
1F0
330
1E
100
AcDbEntity
  8
0
  6
CONTINUOUS
100
AcDbLine
 10
222.972504
 20
65.76763199999999
 30
0.0
 11
224.472504
 21
67.00511899999999
 31
0.0
  0
LINE
  5
1F1
330
1E
100
AcDbEntity
  8
0
  6
CONTINUOUS
100
AcDbLine
 10
224.472504
 20
65.88271299999999
 30
0.0
 11
225.972504
 21
65.025566
 31
0.0
  0
ARC
  5
1F2
330
1E
100
AcDbEntity
  8
0
  6
CONTINUOUS
100
AcDbCircle
 10
225.222504
 20
91.82666000000001
 30
0.0
 40
0.75
100
AcDbArc
 50
0.0
 51
180.0
  0
ARC
  5
1F3
330
1E
100
AcDbEntity
  8
0
  6
CONTINUOUS
100
AcDbCircle
 10
223.722504
 20
91.82666000000001
 30
0.0
 40
0.75
100
AcDbArc
 50
0.0
 51
180.0
  0
LINE
  5
1F4
330
1E
100
AcDbEntity
  8
0
  6
CONTINUOUS
100
AcDbLine
 10
222.472504
 20
82.82666
 30
0.0
 11
222.972504
 21
82.82666
 31
0.0
  0
LINE
  5
1F5
330
1E
100
AcDbEntity
  8
0
  6
CONTINUOUS
100
AcDbLine
 10
222.472504
 20
67.82666
 30
0.0
 11
222.972504
 21
67.82666
 31
0.0
  0
LINE
  5
1F6
330
1E
100
AcDbEntity
  8
0
  6
CONTINUOUS
100
AcDbLine
 10
191.365555
 20
64.23241400000001
 30
0.0
 11
242.816299
 21
64.23241400000001
 31
0.0
  0
LINE
  5
1F7
330
1E
100
AcDbEntity
  8
0
  6
CONTINUOUS
100
AcDbLine
 10
246.472504
 20
135.07666
 30
0.0
 11
252.472504
 21
135.07666
 31
0.0
  0
LINE
  5
1F8
330
1E
100
AcDbEntity
  8
0
  6
CONTINUOUS
100
AcDbLine
 10
246.472504
 20
20.57665599999999
 30
0.0
 11
252.472504
 21
20.57665599999999
 31
0.0
  0
LINE
  5
1F9
330
1E
100
AcDbEntity
  8
0
  6
CONTINUOUS
100
AcDbLine
 10
242.472504
 20
67.82666
 30
0.0
 11
225.972504
 21
67.82666
 31
0.0
  0
LINE
  5
1FA
330
1E
100
AcDbEntity
  8
0
  6
CONTINUOUS
100
AcDbLine
 10
242.472504
 20
82.82666
 30
0.0
 11
225.972504
 21
82.82666
 31
0.0
  0
LINE
  5
1FB
330
1E
100
AcDbEntity
  8
0
  6
CONTINUOUS
100
AcDbLine
 10
191.365555
 20
60.826717
 30
0.0
 11
242.816299
 21
60.826717
 31
0.0
  0
LINE
  5
1FC
330
1E
100
AcDbEntity
  8
0
  6
CONTINUOUS
100
AcDbLine
 10
232.472504
 20
47.430717
 30
0.0
 11
232.472504
 21
31.82665599999999
 31
0.0
  0
LINE
  5
1FD
330
1E
100
AcDbEntity
  8
0
  6
CONTINUOUS
100
AcDbLine
 10
201.472504
 20
47.430717
 30
0.0
 11
201.472504
 21
31.82665599999999
 31
0.0
  0
LINE
  5
1FE
330
1E
100
AcDbEntity
  8
0
  6
CONTINUOUS
100
AcDbLine
 10
191.365555
 20
51.162136
 30
0.0
 11
200.0368799999999
 21
51.162136
 31
0.0
  0
LINE
  5
1FF
330
1E
100
AcDbEntity
  8
0
  6
CONTINUOUS
100
AcDbLine
 10
233.930618
 20
51.162136
 30
0.0
 11
242.816299
 21
51.162136
 31
0.0
  0
ARC
  5
200
330
1E
100
AcDbEntity
  8
0
  6
CONTINUOUS
100
AcDbCircle
 10
199.472504
 20
31.82665599999999
 30
0.0
 40
2.0
100
AcDbArc
 50
270.0
 51
0.0
  0
ARC
  5
201
330
1E
100
AcDbEntity
  8
0
  6
CONTINUOUS
100
AcDbCircle
 10
234.472504
 20
31.82665599999999
 30
0.0
 40
2.0
100
AcDbArc
 50
180.0
 51
270.0
  0
LINE
  5
202
330
1E
100
AcDbEntity
  8
0
  6
CONTINUOUS
100
AcDbLine
 10
202.1303099999999
 20
40.94854
 30
0.0
 11
231.6378169999999
 21
40.94854
 31
0.0
  0
ARC
  5
203
330
1E
100
AcDbEntity
  8
0
  6
CONTINUOUS
100
AcDbCircle
 10
224.472504
 20
91.82666000000001
 30
0.0
 40
4.0
100
AcDbArc
 50
292.024315
 51
247.9756929999999
  0
TEXT
  5
204
330
1E
100
AcDbEntity
  8
0
100
AcDbText
 10
-12.0
 20
-16.0
 30
0.0
 40
4.0
  1
G3FE-18-5~25-T020
100
AcDbText
  0
ARC
  5
26A
330
1E
100
AcDbEntity
  8
TOP
100
AcDbCircle
 10
18.04079823472619
 20
375.2850039999998
 30
0.0
 40
12.0
100
AcDbArc
 50
90.5000000000013
 51
170.9664843358174
  0
ARC
  5
26B
330
1E
100
AcDbEntity
  8
0
100
AcDbCircle
 10
344.9696744791912
 20
323.7850039999997
 30
0.0
 40
325.0
100
AcDbArc
 50
168.2484724111569
 51
191.751527588843
  0
LINE
  5
26C
330
1E
100
AcDbEntity
  8
TOP
100
AcDbLine
 10
52.47250400000007
 20
390.17155471872
 30
0.0
 11
52.47250399999995
 21
257.3984532812797
 31
0.0
  0
LINE
  5
26F
330
1E
100
AcDbEntity
  8
TOP
100
AcDbLine
 10
17.9360798087456
 20
260.2854609232297
 30
0.0
 11
25.41740546379594
 21
260.2754046468481
 31
0.0
  0
ARC
  5
270
330
1E
100
AcDbEntity
  8
TOP
100
AcDbCircle
 10
18.04079823472619
 20
272.2850039999999
 30
0.0
 40
12.0
100
AcDbArc
 50
189.0335156641825
 51
269.4999999999986
  0
ARC
  5
271
330
1E
100
AcDbEntity
  8
TOP
100
AcDbCircle
 10
341.972504
 20
323.7850039999997
 30
0.0
 40
340.0
100
AcDbArc
 50
170.9664843358174
 51
189.0335156641825
  0
LINE
  5
274
330
1E
100
AcDbEntity
  8
0
100
AcDbLine
 10
51.47250399999996
 20
256.3984532812797
 30
0.0
 11
28.25022064916595
 21
256.3984532812797
 31
0.0
  0
ARC
  5
275
330
1E
100
AcDbEntity
  8
0
100
AcDbCircle
 10
25.41606128125937
 20
259.2754055502619
 30
0.0
 40
1.0
100
AcDbArc
 50
11.4131433273955
 51
89.92298399056364
  0
ARC
  5
276
330
1E
100
AcDbEntity
  8
0
100
AcDbCircle
 10
28.25022064916612
 20
257.8984532812797
 30
0.0
 40
1.5
100
AcDbArc
 50
191.751527588843
 51
270.0
  0
ARC
  5
277
330
1E
100
AcDbEntity
  8
0
100
AcDbCircle
 10
51.47250400000013
 20
257.3984532812797
 30
0.0
 40
1.0
100
AcDbArc
 50
270.0
 51
0.0
  0
LINE
  5
280
330
1E
100
AcDbEntity
  8
TOP
100
AcDbLine
 10
17.9360798087456
 20
387.28454707677
 30
0.0
 11
25.41740546379594
 21
387.2946033531516
 31
0.0
  0
LINE
  5
284
330
1E
100
AcDbEntity
  8
0
100
AcDbLine
 10
51.47250400000007
 20
391.1715547187201
 30
0.0
 11
28.25022064916595
 21
391.1715547187201
 31
0.0
  0
ARC
  5
285
330
1E
100
AcDbEntity
  8
0
100
AcDbCircle
 10
25.41606128125937
 20
388.2946024497378
 30
0.0
 40
1.0
100
AcDbArc
 50
270.0770160094362
 51
348.5868566726044
  0
ARC
  5
286
330
1E
100
AcDbEntity
  8
0
100
AcDbCircle
 10
28.25022064916612
 20
389.67155471872
 30
0.0
 40
1.5
100
AcDbArc
 50
90.0
 51
168.2484724111498
  0
ARC
  5
287
330
1E
100
AcDbEntity
  8
0
100
AcDbCircle
 10
51.47250400000013
 20
390.17155471872
 30
0.0
 40
1.0
100
AcDbArc
 50
0.0
 51
90.0
  0
ENDSEC
  0
SECTION
  2
OBJECTS
  0
DICTIONARY
  5
C
330
0
100
AcDbDictionary
  3
ACAD_GROUP
350
D
  3
ACAD_LAYOUT
350
19
  3
ACAD_MLINESTYLE
350
16
  3
ACAD_PLOTSETTINGS
350
18
  3
ACAD_PLOTSTYLENAME
350
E
  3
ACDBHEADERROUNDTRIPXREC
350
2E7
  3
ACDBVARIABLEDICTIONARY
350
2E4
  0
DICTIONARY
  5
309
330
1E
100
AcDbDictionary
280
     1
  3
ACAD_LAYOUTSELFREF
360
30A
  0
DICTIONARY
  5
307
330
1A
100
AcDbDictionary
280
     1
  3
ACAD_LAYOUTSELFREF
360
308
  0
DICTIONARY
  5
D
102
{ACAD_REACTORS
330
C
102
}
330
C
100
AcDbDictionary
  0
DICTIONARY
  5
19
102
{ACAD_REACTORS
330
C
102
}
330
C
100
AcDbDictionary
  0
DICTIONARY
  5
16
102
{ACAD_REACTORS
330
C
102
}
330
C
100
AcDbDictionary
  3
STANDARD
350
17
  0
DICTIONARY
  5
18
102
{ACAD_REACTORS
330
C
102
}
330
C
100
AcDbDictionary
  0
ACDBDICTIONARYWDFLT
  5
E
102
{ACAD_REACTORS
330
C
102
}
330
C
100
AcDbDictionary
281
     1
  3
Normal
350
F
100
AcDbDictionaryWithDefault
340
F
  0
DICTIONARY
  5
2E7
102
{ACAD_REACTORS
330
C
102
}
330
C
100
AcDbDictionary
  3
CEPSNTYPE
350
2F1
  3
FINGERPRINTGUID
350
2F2
  3
HYPERLINKBASE
350
2EA
  3
INSUNITS
350
2F0
  3
LAYOUTDICT
350
2EC
  3
LWETCUNION
350
2EF
  3
PLOTSETDICT
350
2ED
  3
PLOTSTYLNAMDICT
350
2EE
  3
PSVPSCALE
350
2F4
  3
PUCSBASE
350
2F7
  3
PUCSORGBACK
350
2FD
  3
PUCSORGBOTTOM
350
2F9
  3
PUCSORGFRONT
350
2FC
  3
PUCSORGLEFT
350
2FA
  3
PUCSORGRIGHT
350
2FB
  3
PUCSORGTOP
350
2F8
  3
PUCSORTHOREF
350
2F5
  3
PUCSORTHOVIEW
350
2F6
  3
STYLESHEET
350
2EB
  3
TSTACKALIGN
350
2E8
  3
TSTACKSIZE
350
2E9
  3
UCSBASE
350
300
  3
UCSORGBACK
350
306
  3
UCSORGBOTTOM
350
302
  3
UCSORGFRONT
350
305
  3
UCSORGLEFT
350
303
  3
UCSORGRIGHT
350
304
  3
UCSORGTOP
350
301
  3
UCSORTHOREF
350
2FE
  3
UCSORTHOVIEW
350
2FF
  3
VERSIONGUID
350
2F3
  0
DICTIONARY
  5
2E4
102
{ACAD_REACTORS
330
C
102
}
330
C
100
AcDbDictionary
  3
DIMASSOC
350
2E5
  0
XRECORD
  5
30A
102
{ACAD_REACTORS
330
309
102
}
330
309
100
AcDbXrecord
340
1E
  0
XRECORD
  5
308
102
{ACAD_REACTORS
330
307
102
}
330
307
100
AcDbXrecord
340
1A
  0
MLINESTYLE
  5
17
102
{ACAD_REACTORS
330
16
102
}
330
16
100
AcDbMlineStyle
  2
STANDARD
 70
     0
  3

 62
   256
 51
90.0
 52
90.0
 71
     2
 49
0.5
 62
   256
  6
BYLAYER
 49
-0.5
 62
   256
  6
BYLAYER
  0
ACDBPLACEHOLDER
  5
F
102
{ACAD_REACTORS
330
E
102
}
330
E
100
AcDbPlaceHolder
280
     0
  0
XRECORD
  5
2F1
102
{ACAD_REACTORS
330
2E7
102
}
330
2E7
100
AcDbXrecord
 90
        0
  0
XRECORD
  5
2F2
102
{ACAD_REACTORS
330
2E7
102
}
330
2E7
100
AcDbXrecord
  1
{0B8C96CB-1B23-4C35-8809-C160AFFE599B}
  0
XRECORD
  5
2EA
102
{ACAD_REACTORS
330
2E7
102
}
330
2E7
100
AcDbXrecord
  1

  0
XRECORD
  5
2F0
102
{ACAD_REACTORS
330
2E7
102
}
330
2E7
100
AcDbXrecord
 90
        0
  0
XRECORD
  5
2EC
102
{ACAD_REACTORS
330
2E7
102
}
330
2E7
100
AcDbXrecord
340
19
  0
XRECORD
  5
2EF
102
{ACAD_REACTORS
330
2E7
102
}
330
2E7
100
AcDbXrecord
 90
    10781
  0
XRECORD
  5
2ED
102
{ACAD_REACTORS
330
2E7
102
}
330
2E7
100
AcDbXrecord
340
18
  0
XRECORD
  5
2EE
102
{ACAD_REACTORS
330
2E7
102
}
330
2E7
100
AcDbXrecord
340
E
  0
XRECORD
  5
2F4
102
{ACAD_REACTORS
330
2E7
102
}
330
2E7
100
AcDbXrecord
 40
0.0
  0
XRECORD
  5
2F7
102
{ACAD_REACTORS
330
2E7
102
}
330
2E7
100
AcDbXrecord
340
0
  0
XRECORD
  5
2FD
102
{ACAD_REACTORS
330
2E7
102
}
330
2E7
100
AcDbXrecord
 10
0.0
 20
0.0
 30
0.0
  0
XRECORD
  5
2F9
102
{ACAD_REACTORS
330
2E7
102
}
330
2E7
100
AcDbXrecord
 10
0.0
 20
0.0
 30
0.0
  0
XRECORD
  5
2FC
102
{ACAD_REACTORS
330
2E7
102
}
330
2E7
100
AcDbXrecord
 10
0.0
 20
0.0
 30
0.0
  0
XRECORD
  5
2FA
102
{ACAD_REACTORS
330
2E7
102
}
330
2E7
100
AcDbXrecord
 10
0.0
 20
0.0
 30
0.0
  0
XRECORD
  5
2FB
102
{ACAD_REACTORS
330
2E7
102
}
330
2E7
100
AcDbXrecord
 10
0.0
 20
0.0
 30
0.0
  0
XRECORD
  5
2F8
102
{ACAD_REACTORS
330
2E7
102
}
330
2E7
100
AcDbXrecord
 10
0.0
 20
0.0
 30
0.0
  0
XRECORD
  5
2F5
102
{ACAD_REACTORS
330
2E7
102
}
330
2E7
100
AcDbXrecord
340
0
  0
XRECORD
  5
2F6
102
{ACAD_REACTORS
330
2E7
102
}
330
2E7
100
AcDbXrecord
 70
     0
  0
XRECORD
  5
2EB
102
{ACAD_REACTORS
330
2E7
102
}
330
2E7
100
AcDbXrecord
  1

  0
XRECORD
  5
2E8
102
{ACAD_REACTORS
330
2E7
102
}
330
2E7
100
AcDbXrecord
 90
        1
  0
XRECORD
  5
2E9
102
{ACAD_REACTORS
330
2E7
102
}
330
2E7
100
AcDbXrecord
 90
       70
  0
XRECORD
  5
300
102
{ACAD_REACTORS
330
2E7
102
}
330
2E7
100
AcDbXrecord
340
0
  0
XRECORD
  5
306
102
{ACAD_REACTORS
330
2E7
102
}
330
2E7
100
AcDbXrecord
 10
0.0
 20
0.0
 30
0.0
  0
XRECORD
  5
302
102
{ACAD_REACTORS
330
2E7
102
}
330
2E7
100
AcDbXrecord
 10
0.0
 20
0.0
 30
0.0
  0
XRECORD
  5
305
102
{ACAD_REACTORS
330
2E7
102
}
330
2E7
100
AcDbXrecord
 10
0.0
 20
0.0
 30
0.0
  0
XRECORD
  5
303
102
{ACAD_REACTORS
330
2E7
102
}
330
2E7
100
AcDbXrecord
 10
0.0
 20
0.0
 30
0.0
  0
XRECORD
  5
304
102
{ACAD_REACTORS
330
2E7
102
}
330
2E7
100
AcDbXrecord
 10
0.0
 20
0.0
 30
0.0
  0
XRECORD
  5
301
102
{ACAD_REACTORS
330
2E7
102
}
330
2E7
100
AcDbXrecord
 10
0.0
 20
0.0
 30
0.0
  0
XRECORD
  5
2FE
102
{ACAD_REACTORS
330
2E7
102
}
330
2E7
100
AcDbXrecord
340
0
  0
XRECORD
  5
2FF
102
{ACAD_REACTORS
330
2E7
102
}
330
2E7
100
AcDbXrecord
 70
     0
  0
XRECORD
  5
2F3
102
{ACAD_REACTORS
330
2E7
102
}
330
2E7
100
AcDbXrecord
  1
{CE0DFD88-3D2A-4E12-A0E9-F378300B33D8}
  0
DICTIONARYVAR
  5
2E5
102
{ACAD_REACTORS
330
2E4
102
}
330
2E4
100
DictionaryVariables
280
     0
  1
1
  0
ENDSEC
  0
EOF
