  0
SECTION
  2
HEADER
  9
$CLAYER
  8
1
  9
$LTSCALE
 40
3.0
  0
ENDSEC
  0
SECTION
  2
TABLES
  0
TABLE
  2
LTYPE
 70
     4
  0
LTYPE
  2
CONTINUOUS
  3
solid line
 70
    64
 72
    65
 73
     0
 40
0.0
  0
LTYPE
  2
DASHED
  3
__ __ __ __ __ __ __ __ __ __ __ __ __ __ __
 70
    64
 72
    65
 73
     2
 40
0.75
 49
0.5
 49
-0.25
  0
LTYPE
  2
CENTER
  3
____ _ ____ _ ____ _ ____ _ ____ _ ____ _ ____
 70
    64
 72
    65
 73
     4
 40
2.0
 49
1.25
 49
-0.25
 49
0.25
 49
-0.25
  0
LTYPE
  2
PHANTOM
  3
_____ _ _ _____ _ _ _____ _ _ _____ _ _ ____
 70
    64
 72
    65
 73
     6
 40
2.5
 49
1.25
 49
-0.25
 49
0.25
 49
-0.25
 49
0.25
 49
-0.25
  0
ENDTAB
  0
TABLE
  2
LAYER
 70
     1
  0
LAYER
  2
0
 70
    64
 62
     7
  6
CONTINUOUS
  0
ENDTAB
  0
TABLE
  2
STYLE
 70
     1
  0
STYLE
  2
STANDARD
 70
     0
 40
0.000000
 41
1.000000
 50
0.000000
 71
     0
 42
3.000000
  3
txt
  4
BIGFONT
  0
ENDTAB
  0
ENDSEC
  0
SECTION
  2
BLOCKS
  0
ENDSEC
  0
SECTION
  2
ENTITIES
  0
LINE
  8
0
  6
CONTINUOUS
 10
101.437477
 20
330.374725
 11
102.387276
 21
329.959320
  0
LINE
  8
0
  6
CONTINUOUS
 10
97.150841
 20
329.669403
 11
99.177528
 21
330.433197
  0
LINE
  8
0
  6
CONTINUOUS
 10
97.150841
 20
343.285004
 11
97.150841
 21
329.669403
  0
LINE
  8
0
  6
CONTINUOUS
 10
104.625847
 20
329.892792
 11
106.314232
 21
330.514618
  0
LINE
  8
0
  6
CENTER
 10
104.151939
 20
323.601166
 11
104.151939
 21
347.641327
  0
LINE
  8
0
  6
CONTINUOUS
 10
111.153038
 20
343.285004
 11
111.153038
 21
329.674042
  0
LINE
  8
0
  6
CONTINUOUS
 10
108.227943
 20
330.568329
 11
111.153038
 21
329.674042
  0
LINE
  8
0
  6
CONTINUOUS
 10
113.651939
 20
343.285004
 11
94.651939
 21
343.285004
  0
LINE
  8
0
  6
CONTINUOUS
 10
102.337212
 20
88.312195
 11
105.967781
 21
88.312195
  0
LINE
  8
0
  6
CONTINUOUS
 10
105.467705
 20
88.312195
 11
105.467705
 21
129.810486
  0
LINE
  8
0
  6
CONTINUOUS
 10
110.485603
 20
129.810486
 11
110.485603
 21
90.708679
  0
LINE
  8
0
  6
CONTINUOUS
 10
102.837288
 20
129.810486
 11
102.837288
 21
88.312195
  0
LINE
  8
0
  6
CONTINUOUS
 10
97.819389
 20
129.810486
 11
97.819389
 21
90.708679
  0
LINE
  8
0
  6
CONTINUOUS
 10
112.640923
 20
83.790588
 11
113.908974
 21
81.071289
  0
LINE
  8
0
  6
CONTINUOUS
 10
112.246620
 20
83.606750
 11
111.890968
 21
84.369446
  0
LINE
  8
0
  6
CONTINUOUS
 10
115.488564
 20
76.500488
 11
113.455757
 21
80.859924
  0
LINE
  8
0
  6
CONTINUOUS
 10
115.231010
 20
77.052795
 11
112.847054
 21
75.941162
  0
LINE
  8
0
  6
CENTER
 10
112.218925
 20
69.247681
 11
122.201546
 21
73.902649
  0
LINE
  8
0
  6
CENTER
 10
112.760780
 20
79.238220
 11
119.026711
 21
65.800903
  0
LINE
  8
0
  6
CONTINUOUS
 10
109.507011
 20
83.257751
 11
109.862648
 21
82.495117
  0
LINE
  8
0
  6
CONTINUOUS
 10
109.468330
 20
82.003540
 11
110.618553
 21
79.536926
  0
LINE
  8
0
  6
CONTINUOUS
 10
108.968254
 20
74.500671
 11
108.968254
 21
79.310730
  0
LINE
  8
0
  6
CONTINUOUS
 10
107.897743
 20
75.110107
 11
108.968254
 21
75.110107
  0
LINE
  8
0
  6
CONTINUOUS
 10
109.468330
 20
79.310730
 11
109.468330
 21
82.311218
  0
LINE
  8
0
  6
CONTINUOUS
 10
105.467705
 20
80.501587
 11
105.467705
 21
85.311707
  0
LINE
  8
0
  6
CONTINUOUS
 10
106.337837
 20
78.388672
 11
106.337837
 21
79.310730
  0
LINE
  8
0
  6
CONTINUOUS
 10
105.837761
 20
82.311218
 11
105.837761
 21
79.310730
  0
LINE
  8
0
  6
CONTINUOUS
 10
105.967781
 20
88.312195
 11
105.967781
 21
85.311707
  0
LINE
  8
0
  6
CONTINUOUS
 10
105.837761
 20
82.311218
 11
109.468330
 21
82.311218
  0
LINE
  8
0
  6
CONTINUOUS
 10
105.837761
 20
79.310730
 11
109.468330
 21
79.310730
  0
LINE
  8
0
  6
CONTINUOUS
 10
98.836662
 20
82.311218
 11
102.467232
 21
82.311218
  0
LINE
  8
0
  6
CONTINUOUS
 10
98.836662
 20
79.310730
 11
102.467232
 21
79.310730
  0
LINE
  8
0
  6
CONTINUOUS
 10
98.797981
 20
83.257751
 11
98.442345
 21
82.495117
  0
LINE
  8
0
  6
CONTINUOUS
 10
99.336739
 20
74.500671
 11
99.336739
 21
79.310730
  0
LINE
  8
0
  6
CONTINUOUS
 10
99.336739
 20
75.110107
 11
100.401909
 21
75.110107
  0
LINE
  8
0
  6
CONTINUOUS
 10
98.836662
 20
82.311218
 11
98.836662
 21
79.310730
  0
LINE
  8
0
  6
CONTINUOUS
 10
101.967155
 20
78.388672
 11
101.967155
 21
79.310730
  0
LINE
  8
0
  6
CONTINUOUS
 10
95.664070
 20
83.790588
 11
94.396019
 21
81.071289
  0
LINE
  8
0
  6
CONTINUOUS
 10
96.058372
 20
83.606750
 11
96.414024
 21
84.369446
  0
LINE
  8
0
  6
CONTINUOUS
 10
97.686440
 20
79.536926
 11
94.396019
 21
81.071289
  0
LINE
  8
0
  6
CONTINUOUS
 10
95.200386
 20
75.388855
 11
97.233223
 21
79.748230
  0
LINE
  8
0
  6
CONTINUOUS
 10
98.836662
 20
82.311218
 11
95.664070
 21
83.790588
  0
LINE
  8
0
  6
CONTINUOUS
 10
98.836662
 20
82.003540
 11
97.686440
 21
79.536926
  0
LINE
  8
0
  6
CONTINUOUS
 10
102.837288
 20
80.501587
 11
102.837288
 21
85.311707
  0
LINE
  8
0
  6
CONTINUOUS
 10
102.467232
 20
82.311218
 11
102.467232
 21
79.310730
  0
LINE
  8
0
  6
CONTINUOUS
 10
102.337212
 20
88.312195
 11
102.337212
 21
85.311707
  0
LINE
  8
0
  6
CENTER
 10
97.776497
 20
75.310120
 11
110.653526
 21
75.310120
  0
LINE
  8
0
  6
CONTINUOUS
 10
102.837288
 20
81.111023
 11
105.467705
 21
81.111023
  0
LINE
  8
0
  6
CONTINUOUS
 10
102.337212
 20
85.311707
 11
105.967781
 21
85.311707
  0
LINE
  8
0
  6
CENTER
 10
100.651939
 20
72.934753
 11
100.651939
 21
63.308228
  0
LINE
  8
0
  6
CENTER
 10
104.152504
 20
65.308533
 11
104.152504
 21
83.061340
  0
LINE
  8
0
  6
CENTER
 10
107.653053
 20
63.308228
 11
107.653053
 21
83.061340
  0
LINE
  8
0
  6
CONTINUOUS
 10
93.073982
 20
77.052795
 11
95.457939
 21
75.941162
  0
LINE
  8
0
  6
CONTINUOUS
 10
92.816429
 20
76.500488
 11
94.849251
 21
80.859924
  0
LINE
  8
0
  6
CENTER
 10
96.086067
 20
69.247681
 11
86.103447
 21
73.902649
  0
LINE
  8
0
  6
CENTER
 10
95.544212
 20
79.238220
 11
89.278282
 21
65.800903
  0
LINE
  8
0
  6
CONTINUOUS
 10
108.968254
 20
82.311218
 11
108.968254
 21
129.810486
  0
LINE
  8
0
  6
CONTINUOUS
 10
106.337837
 20
129.810486
 11
106.337837
 21
82.311218
  0
LINE
  8
0
  6
CONTINUOUS
 10
101.967155
 20
129.810486
 11
101.967155
 21
82.311218
  0
LINE
  8
0
  6
CONTINUOUS
 10
99.336739
 20
82.311218
 11
99.336739
 21
129.810486
  0
LINE
  8
0
  6
CONTINUOUS
 10
109.468330
 20
82.311218
 11
112.640923
 21
83.790588
  0
LINE
  8
0
  6
CONTINUOUS
 10
110.618553
 20
79.536926
 11
113.908974
 21
81.071289
  0
LINE
  8
0
  6
CENTER
 10
94.838524
 20
69.309143
 11
113.341454
 21
69.309143
  0
LINE
  8
0
  6
CONTINUOUS
 10
113.104607
 20
75.388855
 11
111.071785
 21
79.748230
  0
LINE
  8
0
  6
CONTINUOUS
 10
111.153603
 20
133.561096
 11
111.153603
 21
129.810486
  0
LINE
  8
0
  6
CONTINUOUS
 10
112.153755
 20
136.061462
 11
112.153755
 21
133.561096
  0
LINE
  8
0
  6
CONTINUOUS
 10
93.150764
 20
136.811584
 11
96.151237
 21
136.811584
  0
LINE
  8
0
  6
CONTINUOUS
 10
97.151390
 20
133.561096
 11
97.151390
 21
129.810486
  0
LINE
  8
0
  6
CONTINUOUS
 10
93.150764
 20
132.810974
 11
96.151237
 21
132.810974
  0
LINE
  8
0
  6
CONTINUOUS
 10
93.150764
 20
136.811584
 11
93.150764
 21
132.810974
  0
LINE
  8
0
  6
CONTINUOUS
 10
96.151237
 20
136.811584
 11
96.151237
 21
132.810974
  0
LINE
  8
0
  6
CONTINUOUS
 10
97.151390
 20
129.810486
 11
111.153603
 21
129.810486
  0
LINE
  8
0
  6
CONTINUOUS
 10
96.151237
 20
136.061462
 11
112.153755
 21
136.061462
  0
LINE
  8
0
  6
CONTINUOUS
 10
96.151237
 20
133.561096
 11
112.153755
 21
133.561096
  0
LINE
  8
0
  6
CONTINUOUS
 10
111.153603
 20
154.814392
 11
111.153603
 21
136.061462
  0
LINE
  8
0
  6
CONTINUOUS
 10
97.151390
 20
154.814392
 11
97.151390
 21
136.061462
  0
LINE
  8
0
  6
CENTER
 10
104.152504
 20
170.691956
 11
104.152504
 21
127.084412
  0
CIRCLE
  8
0
  6
CONTINUOUS
 10
107.653053
 20
69.309143
 40
2.150338
  0
CIRCLE
  8
0
  6
CONTINUOUS
 10
100.651939
 20
69.309143
 40
2.150338
  0
CIRCLE
  8
0
  6
CONTINUOUS
 10
104.152504
 20
75.310120
 40
2.150338
  0
ARC
  8
0
  6
CONTINUOUS
 10
94.651939
 20
344.785004
 40
1.500000
 50
180.000000
 51
270.000000
  0
ARC
  8
0
  6
CONTINUOUS
 10
100.235542
 20
327.625946
 40
3.000000
 50
66.381584
 51
110.650711
  0
ARC
  8
0
  6
CONTINUOUS
 10
107.350868
 20
327.699310
 40
3.000000
 50
73.000710
 51
110.215172
  0
ARC
  8
0
  6
CONTINUOUS
 10
103.589211
 20
332.708099
 40
3.000000
 50
246.381592
 51
290.215179
  0
ARC
  8
0
  6
CONTINUOUS
 10
113.651939
 20
344.785004
 40
1.500000
 50
-90.000000
 51
0.000000
  0
ARC
  8
0
  6
CONTINUOUS
 10
118.207924
 20
77.768555
 40
3.000476
 50
205.000000
 51
255.263290
  0
ARC
  8
0
  6
CONTINUOUS
 10
116.490608
 20
71.239563
 40
2.150338
 50
104.239098
 51
305.760895
  0
ARC
  8
0
  6
CONTINUOUS
 10
116.490608
 20
71.239563
 40
2.150338
 50
-75.760895
 51
125.760902
  0
ARC
  8
0
  6
CONTINUOUS
 10
116.490608
 20
71.239563
 40
3.750592
 50
-92.818146
 51
75.263367
  0
ARC
  8
0
  6
CONTINUOUS
 10
110.385246
 20
74.120789
 40
3.000476
 50
-25.263306
 51
25.000000
  0
ARC
  8
0
  6
CONTINUOUS
 10
125.485603
 20
90.708679
 40
17.630417
 50
200.468155
 51
204.999893
  0
ARC
  8
0
  6
CONTINUOUS
 10
108.468178
 20
80.501587
 40
3.000476
 50
180.000000
 51
230.263306
  0
ARC
  8
0
  6
CONTINUOUS
 10
82.819389
 20
90.708679
 40
17.630417
 50
335.000122
 51
339.531769
  0
ARC
  8
0
  6
CONTINUOUS
 10
82.819389
 20
90.708679
 40
15.000000
 50
-24.999878
 51
0.000000
  0
ARC
  8
0
  6
CONTINUOUS
 10
99.836815
 20
80.501587
 40
3.000476
 50
-50.263611
 51
0.000000
  0
ARC
  8
0
  6
CONTINUOUS
 10
107.653053
 20
69.309143
 40
3.750592
 50
-158.968201
 51
50.263371
  0
ARC
  8
0
  6
CONTINUOUS
 10
107.653053
 20
69.309143
 40
3.750592
 50
142.411804
 51
158.967697
  0
ARC
  8
0
  6
CONTINUOUS
 10
100.651939
 20
69.309143
 40
3.750592
 50
-230.263107
 51
37.587730
  0
ARC
  8
0
  6
CONTINUOUS
 10
104.152504
 20
75.310120
 40
3.750592
 50
-230.263107
 51
50.263371
  0
ARC
  8
0
  6
CONTINUOUS
 10
111.968727
 20
74.500671
 40
3.000476
 50
180.000000
 51
230.263306
  0
ARC
  8
0
  6
CONTINUOUS
 10
97.919746
 20
74.120789
 40
3.000476
 50
155.000000
 51
205.263306
  0
ARC
  8
0
  6
CONTINUOUS
 10
96.336266
 20
74.500671
 40
3.000476
 50
-50.263611
 51
0.000000
  0
ARC
  8
0
  6
CONTINUOUS
 10
90.097069
 20
77.768555
 40
3.000476
 50
284.736694
 51
335.000000
  0
ARC
  8
0
  6
CONTINUOUS
 10
91.814384
 20
71.239563
 40
2.150338
 50
54.239098
 51
255.760895
  0
ARC
  8
0
  6
CONTINUOUS
 10
91.814384
 20
71.239563
 40
2.150338
 50
-125.760895
 51
75.760902
  0
ARC
  8
0
  6
CONTINUOUS
 10
91.814384
 20
71.239563
 40
3.750592
 50
104.736633
 51
272.818146
  0
ARC
  8
0
  6
CONTINUOUS
 10
91.814384
 20
71.239563
 40
3.750592
 50
-142.818146
 51
25.263371
  0
ARC
  8
0
  6
CONTINUOUS
 10
125.485603
 20
90.708679
 40
15.000000
 50
180.000000
 51
204.999893
  0
ARC
  8
0
  6
CONTINUOUS
 10
116.490608
 20
71.239563
 40
3.750592
 50
154.736633
 51
322.818146
  0
ARC
  8
0
  6
CONTINUOUS
 10
104.152504
 20
154.814392
 40
7.001104
 50
0.000000
 51
180.000000
  0
ARC
  8
0
  6
CONTINUOUS
 10
104.152504
 20
154.814392
 40
11.001738
 50
-50.478821
 51
230.478806
  0
LINE
  8
0
  6
CONTINUOUS
 10
86.152504
 20
468.171570
 11
62.930222
 21
468.171570
  0
LINE
  8
0
  6
CONTINUOUS
 10
52.616077
 20
464.284546
 11
60.097404
 21
464.294617
  0
LINE
  8
0
  6
CONTINUOUS
 10
86.152504
 20
333.398468
 11
62.930222
 21
333.398468
  0
LINE
  8
0
  6
CONTINUOUS
 10
52.616077
 20
337.285461
 11
60.097404
 21
337.275391
  0
LINE
  8
0
  6
CONTINUOUS
 10
87.152504
 20
467.171570
 11
87.152504
 21
334.398468
  0
LINE
  8
0
  6
CONTINUOUS
 10
236.810303
 20
117.948540
 11
266.317810
 21
117.948540
  0
LINE
  8
0
  6
CONTINUOUS
 10
268.610626
 20
128.162140
 11
277.496307
 21
128.162140
  0
LINE
  8
0
  6
CONTINUOUS
 10
226.045547
 20
128.162140
 11
234.716873
 21
128.162140
  0
LINE
  8
0
  6
CONTINUOUS
 10
236.152512
 20
124.430717
 11
236.152512
 21
108.826653
  0
LINE
  8
0
  6
CONTINUOUS
 10
267.152496
 20
124.430717
 11
267.152496
 21
108.826653
  0
LINE
  8
0
  6
CONTINUOUS
 10
226.045547
 20
137.826721
 11
277.496307
 21
137.826721
  0
LINE
  8
0
  6
CONTINUOUS
 10
277.152496
 20
159.826660
 11
260.652496
 21
159.826660
  0
LINE
  8
0
  6
CONTINUOUS
 10
277.152496
 20
144.826660
 11
260.652496
 21
144.826660
  0
LINE
  8
0
  6
CONTINUOUS
 10
281.152496
 20
97.576653
 11
287.152496
 21
97.576653
  0
LINE
  8
0
  6
CONTINUOUS
 10
281.152496
 20
212.076660
 11
287.152496
 21
212.076660
  0
LINE
  8
0
  6
CONTINUOUS
 10
226.045547
 20
141.232407
 11
277.496307
 21
141.232407
  0
LINE
  8
0
  6
CONTINUOUS
 10
257.152496
 20
144.826660
 11
257.652496
 21
144.826660
  0
LINE
  8
0
  6
CONTINUOUS
 10
257.152496
 20
159.826660
 11
257.652496
 21
159.826660
  0
LINE
  8
0
  6
CONTINUOUS
 10
259.152496
 20
142.882706
 11
260.652496
 21
142.025558
  0
LINE
  8
0
  6
CONTINUOUS
 10
257.652496
 20
142.767639
 11
259.152496
 21
144.005112
  0
LINE
  8
0
  6
CONTINUOUS
 10
257.652496
 20
168.826660
 11
257.652496
 21
142.767639
  0
LINE
  8
0
  6
CONTINUOUS
 10
260.652496
 20
168.826660
 11
260.652496
 21
142.025558
  0
LINE
  8
0
  6
CONTINUOUS
 10
259.152496
 20
168.826660
 11
259.152496
 21
142.882706
  0
LINE
  8
0
  6
CONTINUOUS
 10
246.152512
 20
144.826660
 11
226.152512
 21
144.826660
  0
LINE
  8
0
  6
CONTINUOUS
 10
246.152512
 20
159.826660
 11
226.152512
 21
159.826660
  0
LINE
  8
0
  6
CONTINUOUS
 10
256.152496
 20
145.826660
 11
256.152496
 21
158.826660
  0
LINE
  8
0
  6
CONTINUOUS
 10
278.152496
 20
145.826660
 11
278.152496
 21
158.826660
  0
LINE
  8
0
  6
CONTINUOUS
 10
247.152512
 20
158.826660
 11
247.152512
 21
145.826660
  0
LINE
  8
0
  6
CONTINUOUS
 10
225.152512
 20
145.826660
 11
225.152512
 21
158.826660
  0
LINE
  8
0
  6
CONTINUOUS
 10
216.152512
 20
97.576653
 11
222.152512
 21
97.576653
  0
LINE
  8
0
  6
CONTINUOUS
 10
216.152512
 20
212.076660
 11
222.152512
 21
212.076660
  0
LINE
  8
0
  6
CONTINUOUS
 10
226.152512
 20
106.826653
 11
277.152496
 21
106.826653
  0
LINE
  8
0
  6
CONTINUOUS
 10
226.152512
 20
198.826660
 11
277.152496
 21
198.826660
  0
LINE
  8
0
  6
CONTINUOUS
 10
279.152496
 20
99.576653
 11
279.152496
 21
210.076660
  0
LINE
  8
0
  6
CONTINUOUS
 10
224.152512
 20
99.576653
 11
224.152512
 21
210.076660
  0
LINE
  8
0
  6
CONTINUOUS
 10
210.652679
 20
343.535004
 11
222.152512
 21
343.535004
  0
LINE
  8
0
  6
CONTINUOUS
 10
260.652679
 20
345.785004
 11
277.555634
 21
345.785004
  0
LINE
  8
0
  6
CONTINUOUS
 10
257.652679
 20
341.333984
 11
259.152679
 21
341.762543
  0
LINE
  8
0
  6
CONTINUOUS
 10
259.152679
 20
340.776001
 11
260.652679
 21
341.292389
  0
LINE
  8
0
  6
CONTINUOUS
 10
260.652679
 20
346.285004
 11
260.652679
 21
341.292389
  0
LINE
  8
0
  6
CONTINUOUS
 10
259.152679
 20
346.285004
 11
259.152679
 21
340.776001
  0
LINE
  8
0
  6
CONTINUOUS
 10
257.652679
 20
346.285004
 11
257.652679
 21
341.333984
  0
LINE
  8
0
  6
CONTINUOUS
 10
210.652679
 20
345.667236
 11
210.652679
 21
339.535278
  0
LINE
  8
0
  6
CONTINUOUS
 10
209.152679
 20
345.828613
 11
209.152679
 21
339.018890
  0
LINE
  8
0
  6
CONTINUOUS
 10
207.652679
 20
345.721039
 11
207.652679
 21
339.576874
  0
LINE
  8
0
  6
CONTINUOUS
 10
209.152679
 20
339.018890
 11
210.652679
 21
339.535278
  0
LINE
  8
0
  6
CONTINUOUS
 10
207.652679
 20
339.576874
 11
209.152679
 21
340.005432
  0
LINE
  8
0
  6
CONTINUOUS
 10
287.152496
 20
212.326828
 11
287.152496
 21
97.326836
  0
LINE
  8
0
  6
CONTINUOUS
 10
287.152496
 20
97.326836
 11
292.152496
 21
97.326836
  0
LINE
  8
0
  6
CONTINUOUS
 10
287.152496
 20
212.326828
 11
292.152496
 21
212.326828
  0
LINE
  8
0
  6
CONTINUOUS
 10
199.152512
 20
212.326828
 11
199.152512
 21
97.326836
  0
LINE
  8
0
  6
CONTINUOUS
 10
209.156906
 20
143.084183
 11
210.673447
 21
142.174255
  0
LINE
  8
0
  6
CONTINUOUS
 10
207.652512
 20
142.536835
 11
209.127502
 21
144.233093
  0
LINE
  8
0
  6
CONTINUOUS
 10
207.652512
 20
168.826843
 11
207.652512
 21
142.536835
  0
LINE
  8
0
  6
CONTINUOUS
 10
210.652512
 20
168.826843
 11
210.652512
 21
142.139343
  0
LINE
  8
0
  6
CONTINUOUS
 10
209.152512
 20
168.826843
 11
209.152512
 21
143.076843
  0
LINE
  8
0
  6
CONTINUOUS
 10
216.152512
 20
97.576836
 11
199.152512
 21
97.576836
  0
LINE
  8
0
  6
CONTINUOUS
 10
216.152512
 20
212.076828
 11
199.152512
 21
212.076828
  0
LINE
  8
0
  6
CONTINUOUS
 10
216.152512
 20
212.076828
 11
216.152512
 21
97.576836
  0
LINE
  8
0
  6
CONTINUOUS
 10
87.152496
 20
90.326836
 11
56.408268
 21
90.326836
  0
LINE
  8
0
  6
CONTINUOUS
 10
199.152512
 20
97.326836
 11
110.485603
 21
97.326836
  0
LINE
  8
0
  6
CONTINUOUS
 10
191.152512
 20
103.540810
 11
110.485603
 21
103.540810
  0
LINE
  8
0
  6
CONTINUOUS
 10
191.152512
 20
107.826836
 11
110.485603
 21
107.826836
  0
LINE
  8
0
  6
CONTINUOUS
 10
191.152512
 20
109.826836
 11
110.485603
 21
109.826836
  0
LINE
  8
0
  6
CONTINUOUS
 10
191.152512
 20
114.826836
 11
110.485603
 21
114.826836
  0
LINE
  8
0
  6
CONTINUOUS
 10
191.152512
 20
116.826836
 11
110.485603
 21
116.826836
  0
LINE
  8
0
  6
CONTINUOUS
 10
191.152512
 20
122.326836
 11
110.485603
 21
122.326836
  0
LINE
  8
0
  6
CONTINUOUS
 10
191.152512
 20
124.326836
 11
110.485603
 21
124.326836
  0
LINE
  8
0
  6
CONTINUOUS
 10
87.152496
 20
127.826836
 11
97.819389
 21
127.826836
  0
LINE
  8
0
  6
CONTINUOUS
 10
191.152512
 20
194.826843
 11
191.152512
 21
199.826843
  0
LINE
  8
0
  6
CONTINUOUS
 10
191.152512
 20
187.326843
 11
191.152512
 21
192.826843
  0
LINE
  8
0
  6
CONTINUOUS
 10
191.152512
 20
179.226837
 11
191.152512
 21
185.326843
  0
LINE
  8
0
  6
CONTINUOUS
 10
191.152512
 20
171.426849
 11
191.152512
 21
177.226837
  0
LINE
  8
0
  6
CONTINUOUS
 10
191.152512
 20
163.626816
 11
191.152512
 21
169.426849
  0
LINE
  8
0
  6
CONTINUOUS
 10
191.152512
 20
155.826843
 11
191.152512
 21
161.626846
  0
LINE
  8
0
  6
CONTINUOUS
 10
191.152512
 20
148.026840
 11
191.152512
 21
153.826843
  0
LINE
  8
0
  6
CONTINUOUS
 10
154.152512
 20
153.826843
 11
191.152512
 21
153.826843
  0
LINE
  8
0
  6
CONTINUOUS
 10
154.152512
 20
155.826843
 11
191.152512
 21
155.826843
  0
LINE
  8
0
  6
CONTINUOUS
 10
191.152512
 20
140.226822
 11
191.152512
 21
146.026840
  0
LINE
  8
0
  6
CONTINUOUS
 10
191.152512
 20
132.426834
 11
191.152512
 21
138.226822
  0
LINE
  8
0
  6
CONTINUOUS
 10
191.152512
 20
124.326836
 11
191.152512
 21
130.426834
  0
LINE
  8
0
  6
CONTINUOUS
 10
191.152512
 20
116.826836
 11
191.152512
 21
122.326836
  0
LINE
  8
0
  6
CONTINUOUS
 10
191.152512
 20
109.826836
 11
191.152512
 21
114.826836
  0
LINE
  8
0
  6
CONTINUOUS
 10
191.152512
 20
103.540810
 11
191.152512
 21
107.826836
  0
LINE
  8
0
  6
CONTINUOUS
 10
87.152496
 20
103.540810
 11
97.819389
 21
103.540810
  0
LINE
  8
0
  6
CONTINUOUS
 10
87.152496
 20
206.112854
 11
191.152512
 21
206.112854
  0
LINE
  8
0
  6
CONTINUOUS
 10
87.152496
 20
107.826836
 11
97.819389
 21
107.826836
  0
LINE
  8
0
  6
CONTINUOUS
 10
87.152496
 20
201.826843
 11
191.152512
 21
201.826843
  0
LINE
  8
0
  6
CONTINUOUS
 10
87.152496
 20
109.826836
 11
97.819389
 21
109.826836
  0
LINE
  8
0
  6
CONTINUOUS
 10
87.152496
 20
199.826843
 11
191.152512
 21
199.826843
  0
LINE
  8
0
  6
CONTINUOUS
 10
87.152496
 20
114.826836
 11
97.819389
 21
114.826836
  0
LINE
  8
0
  6
CONTINUOUS
 10
87.152496
 20
194.826843
 11
191.152512
 21
194.826843
  0
LINE
  8
0
  6
CONTINUOUS
 10
87.152496
 20
116.826836
 11
97.819389
 21
116.826836
  0
LINE
  8
0
  6
CONTINUOUS
 10
87.152496
 20
192.826843
 11
191.152512
 21
192.826843
  0
LINE
  8
0
  6
CONTINUOUS
 10
87.152496
 20
122.326836
 11
97.819389
 21
122.326836
  0
LINE
  8
0
  6
CONTINUOUS
 10
87.152496
 20
187.326843
 11
191.152512
 21
187.326843
  0
LINE
  8
0
  6
CONTINUOUS
 10
87.152496
 20
124.326836
 11
97.819389
 21
124.326836
  0
LINE
  8
0
  6
CONTINUOUS
 10
87.152496
 20
185.326843
 11
191.152512
 21
185.326843
  0
LINE
  8
0
  6
CONTINUOUS
 10
154.152512
 20
130.426834
 11
191.152512
 21
130.426834
  0
LINE
  8
0
  6
CONTINUOUS
 10
154.152512
 20
179.226837
 11
191.152512
 21
179.226837
  0
LINE
  8
0
  6
CONTINUOUS
 10
154.152512
 20
132.426834
 11
191.152512
 21
132.426834
  0
LINE
  8
0
  6
CONTINUOUS
 10
154.152512
 20
177.226837
 11
191.152512
 21
177.226837
  0
LINE
  8
0
  6
CONTINUOUS
 10
154.152512
 20
138.226822
 11
191.152512
 21
138.226822
  0
LINE
  8
0
  6
CONTINUOUS
 10
154.152512
 20
140.226822
 11
191.152512
 21
140.226822
  0
LINE
  8
0
  6
CONTINUOUS
 10
154.152512
 20
171.426849
 11
191.152512
 21
171.426849
  0
LINE
  8
0
  6
CONTINUOUS
 10
154.152512
 20
169.426849
 11
191.152512
 21
169.426849
  0
LINE
  8
0
  6
CONTINUOUS
 10
154.152512
 20
146.026840
 11
191.152512
 21
146.026840
  0
LINE
  8
0
  6
CONTINUOUS
 10
154.152512
 20
163.626816
 11
191.152512
 21
163.626816
  0
LINE
  8
0
  6
CONTINUOUS
 10
154.152512
 20
148.026840
 11
191.152512
 21
148.026840
  0
LINE
  8
0
  6
CONTINUOUS
 10
154.152512
 20
161.626816
 11
191.152512
 21
161.626816
  0
LINE
  8
0
  6
CONTINUOUS
 10
154.152512
 20
129.826828
 11
154.152512
 21
179.826843
  0
LINE
  8
0
  6
CONTINUOUS
 10
152.152512
 20
127.826836
 11
110.485603
 21
127.826836
  0
LINE
  8
0
  6
CONTINUOUS
 10
152.152512
 20
181.826843
 11
87.152496
 21
181.826843
  0
LINE
  8
0
  6
CONTINUOUS
 10
191.152512
 20
206.112854
 11
191.152512
 21
201.826843
  0
LINE
  8
0
  6
CONTINUOUS
 10
87.152496
 20
97.326836
 11
97.819389
 21
97.326836
  0
LINE
  8
0
  6
CONTINUOUS
 10
87.152496
 20
212.326828
 11
199.152512
 21
212.326828
  0
LINE
  8
0
  6
CONTINUOUS
 10
87.152496
 20
222.326828
 11
87.152496
 21
90.326836
  0
LINE
  8
0
  6
CONTINUOUS
 10
56.412205
 20
222.326828
 11
87.152496
 21
222.326828
  0
LINE
  8
0
  6
CONTINUOUS
 10
51.690800
 20
91.326836
 11
55.388706
 21
91.326836
  0
LINE
  8
0
  6
CONTINUOUS
 10
51.690739
 20
218.326828
 11
55.388706
 21
218.326828
  0
LINE
  8
0
  6
CONTINUOUS
 10
209.327896
 20
345.937988
 11
209.801865
 21
345.951660
  0
LINE
  8
0
  6
CONTINUOUS
 10
208.744553
 20
345.928894
 11
209.327896
 21
345.937988
  0
LINE
  8
0
  6
CONTINUOUS
 10
208.463608
 20
345.921600
 11
208.744553
 21
345.928894
  0
LINE
  8
0
  6
CONTINUOUS
 10
210.795670
 20
344.914795
 11
210.652679
 21
344.907990
  0
LINE
  8
0
  6
CONTINUOUS
 10
211.303131
 20
345.060913
 11
210.804459
 21
344.930847
  0
LINE
  8
0
  6
CONTINUOUS
 10
211.460709
 20
345.240723
 11
211.314865
 21
345.094910
  0
LINE
  8
0
  6
CONTINUOUS
 10
211.424240
 20
345.459473
 11
211.509933
 21
345.288116
  0
LINE
  8
0
  6
CONTINUOUS
 10
211.273376
 20
345.653717
 11
211.424240
 21
345.477722
  0
LINE
  8
0
  6
CONTINUOUS
 10
211.059662
 20
345.696472
 11
211.241959
 21
345.623535
  0
LINE
  8
0
  6
CONTINUOUS
 10
210.713303
 20
345.769379
 11
211.059662
 21
345.696472
  0
LINE
  8
0
  6
CONTINUOUS
 10
210.184662
 20
345.860535
 11
210.713303
 21
345.769379
  0
LINE
  8
0
  6
CONTINUOUS
 10
209.801865
 20
345.951660
 11
210.184662
 21
345.860535
  0
LINE
  8
0
  6
CONTINUOUS
 10
207.416626
 20
344.916809
 11
207.652679
 21
344.887299
  0
LINE
  8
0
  6
CONTINUOUS
 10
207.006180
 20
344.966309
 11
207.413834
 21
344.894379
  0
LINE
  8
0
  6
CONTINUOUS
 10
206.848740
 20
345.149597
 11
207.012787
 21
345.003754
  0
LINE
  8
0
  6
CONTINUOUS
 10
206.794037
 20
345.404785
 11
206.815536
 21
345.146820
  0
LINE
  8
0
  6
CONTINUOUS
 10
207.016342
 20
345.622101
 11
206.782761
 21
345.417694
  0
LINE
  8
0
  6
CONTINUOUS
 10
207.651443
 20
345.840637
 11
207.031021
 21
345.605316
  0
LINE
  8
0
  6
CONTINUOUS
 10
208.463608
 20
345.921600
 11
207.650803
 21
345.842285
  0
LINE
  8
0
  6
CONTINUOUS
 10
255.152512
 20
348.813843
 11
255.152512
 21
346.285004
  0
LINE
  8
0
  6
CONTINUOUS
 10
263.152496
 20
348.813843
 11
263.152496
 21
346.285004
  0
LINE
  8
0
  6
CONTINUOUS
 10
255.152512
 20
346.285004
 11
263.152496
 21
346.285004
  0
LINE
  8
0
  6
CONTINUOUS
 10
225.749359
 20
433.785004
 11
277.555634
 21
433.785004
  0
LINE
  8
0
  6
CONTINUOUS
 10
225.749359
 20
367.785004
 11
277.555634
 21
367.785004
  0
LINE
  8
0
  6
CONTINUOUS
 10
225.749359
 20
345.785004
 11
257.652679
 21
345.785004
  0
LINE
  8
0
  6
CONTINUOUS
 10
225.749359
 20
455.785004
 11
277.555634
 21
455.785004
  0
LINE
  8
0
  6
CONTINUOUS
 10
281.152496
 20
458.035004
 11
287.152496
 21
458.035004
  0
LINE
  8
0
  6
CONTINUOUS
 10
281.152496
 20
343.535004
 11
287.152496
 21
343.535004
  0
LINE
  8
0
  6
CONTINUOUS
 10
199.152512
 20
343.535004
 11
207.652679
 21
343.535004
  0
LINE
  8
0
  6
CONTINUOUS
 10
199.152512
 20
458.035004
 11
222.152512
 21
458.035004
  0
LINE
  8
0
  6
CONTINUOUS
 10
224.152512
 20
345.535004
 11
224.152512
 21
456.035004
  0
LINE
  8
0
  6
CONTINUOUS
 10
216.152512
 20
343.535004
 11
216.152512
 21
458.035004
  0
LINE
  8
0
  6
CONTINUOUS
 10
279.152496
 20
345.535004
 11
279.152496
 21
456.035004
  0
LINE
  8
0
  6
CONTINUOUS
 10
287.152496
 20
458.285004
 11
287.152496
 21
343.285004
  0
LINE
  8
0
  6
CONTINUOUS
 10
287.152496
 20
343.285004
 11
292.152496
 21
343.285004
  0
LINE
  8
0
  6
CONTINUOUS
 10
287.152496
 20
458.285004
 11
292.152496
 21
458.285004
  0
LINE
  8
0
  6
CONTINUOUS
 10
153.126892
 20
344.785889
 11
133.674866
 21
344.785797
  0
LINE
  8
0
  6
CONTINUOUS
 10
87.152496
 20
344.785889
 11
133.674866
 21
344.785889
  0
LINE
  8
0
  6
CONTINUOUS
 10
87.152496
 20
349.984436
 11
154.126877
 21
349.984436
  0
LINE
  8
0
  6
CONTINUOUS
 10
87.152496
 20
352.890167
 11
191.126297
 21
352.890167
  0
LINE
  8
0
  6
CONTINUOUS
 10
88.152496
 20
356.932800
 11
190.126328
 21
356.932800
  0
LINE
  8
0
  6
CONTINUOUS
 10
88.152496
 20
363.735596
 11
190.126328
 21
363.735596
  0
LINE
  8
0
  6
CONTINUOUS
 10
154.126877
 20
343.785004
 11
154.126877
 21
349.984436
  0
LINE
  8
0
  6
CONTINUOUS
 10
191.126297
 20
343.285004
 11
191.126297
 21
374.785492
  0
LINE
  8
0
  6
CONTINUOUS
 10
154.626862
 20
343.826935
 11
191.126297
 21
343.826935
  0
LINE
  8
0
  6
CONTINUOUS
 10
154.126877
 20
345.482239
 11
191.126297
 21
345.482239
  0
LINE
  8
0
  6
CONTINUOUS
 10
154.126877
 20
348.359283
 11
191.126297
 21
348.359283
  0
LINE
  8
0
  6
CONTINUOUS
 10
87.152496
 20
358.920624
 11
191.126297
 21
358.920624
  0
LINE
  8
0
  6
CONTINUOUS
 10
87.152496
 20
367.014984
 11
191.126297
 21
367.014984
  0
LINE
  8
0
  6
CONTINUOUS
 10
87.152496
 20
374.785492
 11
191.126297
 21
374.785492
  0
LINE
  8
0
  6
CONTINUOUS
 10
191.126297
 20
458.285004
 11
191.126297
 21
426.784485
  0
LINE
  8
0
  6
CONTINUOUS
 10
87.152496
 20
457.743073
 11
191.126297
 21
457.743073
  0
LINE
  8
0
  6
CONTINUOUS
 10
87.152496
 20
456.087769
 11
191.126297
 21
456.087769
  0
LINE
  8
0
  6
CONTINUOUS
 10
87.152496
 20
453.210693
 11
191.126297
 21
453.210693
  0
LINE
  8
0
  6
CONTINUOUS
 10
87.152496
 20
448.679840
 11
191.126297
 21
448.679840
  0
LINE
  8
0
  6
CONTINUOUS
 10
88.152496
 20
444.637207
 11
190.126328
 21
444.637207
  0
LINE
  8
0
  6
CONTINUOUS
 10
87.152496
 20
442.649353
 11
191.126297
 21
442.649353
  0
LINE
  8
0
  6
CONTINUOUS
 10
88.152496
 20
437.834412
 11
190.126328
 21
437.834412
  0
LINE
  8
0
  6
CONTINUOUS
 10
87.152496
 20
434.555023
 11
191.126297
 21
434.555023
  0
LINE
  8
0
  6
CONTINUOUS
 10
87.152496
 20
426.784485
 11
191.126297
 21
426.784485
  0
LINE
  8
0
  6
CONTINUOUS
 10
199.152512
 20
343.285004
 11
154.626877
 21
343.285004
  0
LINE
  8
0
  6
CONTINUOUS
 10
87.152496
 20
458.285004
 11
199.152512
 21
458.285004
  0
LINE
  8
0
  6
CONTINUOUS
 10
199.152512
 20
458.285004
 11
199.152512
 21
343.285004
  0
LINE
  8
0
  6
DASHED
 10
361.652557
 20
105.722542
 11
351.652527
 21
105.722542
  0
LINE
  8
0
  6
DASHED
 10
361.652557
 20
116.722542
 11
351.652527
 21
116.722542
  0
LINE
  8
0
  6
DASHED
 10
361.652557
 20
225.930893
 11
351.652527
 21
225.930893
  0
LINE
  8
0
  6
DASHED
 10
361.652557
 20
236.930893
 11
351.652527
 21
236.930893
  0
LINE
  8
0
  6
DASHED
 10
361.652802
 20
335.180817
 11
351.652771
 21
335.180817
  0
LINE
  8
0
  6
DASHED
 10
361.652802
 20
346.180817
 11
351.652771
 21
346.180817
  0
LINE
  8
0
  6
DASHED
 10
361.652679
 20
455.389191
 11
351.652649
 21
455.389191
  0
LINE
  8
0
  6
DASHED
 10
361.652679
 20
466.389191
 11
351.652649
 21
466.389191
  0
LINE
  8
0
  6
CONTINUOUS
 10
369.652679
 20
392.299988
 11
396.652679
 21
392.299988
  0
LINE
  8
0
  6
CONTINUOUS
 10
306.652435
 20
93.326599
 11
302.652283
 21
93.326599
  0
LINE
  8
0
  6
CONTINUOUS
 10
302.600128
 20
217.220322
 11
306.652679
 21
217.326447
  0
LINE
  8
0
  6
CONTINUOUS
 10
306.652832
 20
341.785004
 11
301.933868
 21
341.908600
  0
LINE
  8
0
  6
CONTINUOUS
 10
306.652832
 20
459.784973
 11
301.933868
 21
459.661407
  0
LINE
  8
0
  6
CONTINUOUS
 10
361.152771
 20
91.335648
 11
361.652679
 21
91.826920
  0
LINE
  8
0
  6
CONTINUOUS
 10
292.152496
 20
97.326721
 11
299.684174
 21
97.063705
  0
LINE
  8
0
  6
CONTINUOUS
 10
292.152496
 20
458.285004
 11
292.152496
 21
343.285004
  0
LINE
  8
0
  6
CENTER
 10
366.110962
 20
111.222542
 11
346.873230
 21
111.222542
  0
LINE
  8
0
  6
CENTER
 10
366.110962
 20
231.430893
 11
346.873230
 21
231.430893
  0
LINE
  8
0
  6
CONTINUOUS
 10
571.926208
 20
90.326721
 11
533.663818
 21
90.326721
  0
LINE
  8
0
  6
CONTINUOUS
 10
541.294800
 20
168.326477
 11
547.294983
 21
168.326477
  0
LINE
  8
0
  6
CONTINUOUS
 10
541.294800
 20
174.326477
 11
547.294983
 21
174.326477
  0
LINE
  8
0
  6
CONTINUOUS
 10
541.294800
 20
174.326477
 11
541.294800
 21
168.326477
  0
LINE
  8
0
  6
CONTINUOUS
 10
547.294983
 20
174.326477
 11
547.294983
 21
168.326477
  0
LINE
  8
0
  6
CONTINUOUS
 10
505.584778
 20
215.001114
 11
516.009399
 21
204.576920
  0
LINE
  8
0
  6
CONTINUOUS
 10
509.120605
 20
218.536514
 11
521.054382
 21
206.603119
  0
LINE
  8
0
  6
CONTINUOUS
 10
600.005005
 20
215.001312
 11
589.580566
 21
204.576721
  0
LINE
  8
0
  6
CONTINUOUS
 10
596.469421
 20
218.536713
 11
584.535767
 21
206.602921
  0
LINE
  8
0
  6
CENTER
 10
478.625000
 20
97.156738
 11
626.399963
 21
244.931793
  0
LINE
  8
0
  6
CENTER
 10
454.164978
 20
171.326477
 11
651.734985
 21
171.326477
  0
LINE
  8
0
  6
CONTINUOUS
 10
550.294983
 20
235.591919
 11
550.294800
 21
216.080322
  0
LINE
  8
0
  6
CONTINUOUS
 10
555.294983
 20
235.591919
 11
555.294800
 21
216.080322
  0
LINE
  8
0
  6
CENTER
 10
478.079803
 20
246.041565
 11
627.005188
 21
97.116821
  0
LINE
  8
0
  6
CENTER
 10
552.794983
 20
266.516724
 11
552.794983
 21
70.096718
  0
LINE
  8
0
  6
CENTER
 10
454.164978
 20
154.826721
 11
651.734985
 21
154.826721
  0
LINE
  8
0
  6
CONTINUOUS
 10
292.152496
 20
212.326721
 11
299.684174
 21
212.589737
  0
LINE
  8
0
  6
CONTINUOUS
 10
292.152496
 20
212.326721
 11
292.152496
 21
97.326721
  0
LINE
  8
0
  6
CONTINUOUS
 10
305.777496
 20
101.326599
 11
302.027496
 21
101.326599
  0
LINE
  8
0
  6
CONTINUOUS
 10
305.777496
 20
115.326599
 11
302.027496
 21
115.326599
  0
LINE
  8
0
  6
CONTINUOUS
 10
300.652283
 20
95.326607
 11
300.652496
 21
215.221008
  0
LINE
  8
0
  6
CONTINUOUS
 10
364.652679
 20
181.326721
 11
366.652679
 21
181.326721
  0
LINE
  8
0
  6
CONTINUOUS
 10
364.652679
 20
161.326721
 11
366.652679
 21
161.326721
  0
LINE
  8
0
  6
CONTINUOUS
 10
372.652679
 20
168.326721
 11
396.652679
 21
168.326721
  0
LINE
  8
0
  6
CONTINUOUS
 10
372.652679
 20
174.326721
 11
396.652679
 21
174.326721
  0
LINE
  8
0
  6
CONTINUOUS
 10
396.652679
 20
180.326721
 11
396.652679
 21
162.326721
  0
LINE
  8
0
  6
CONTINUOUS
 10
366.652679
 20
162.326721
 11
396.652679
 21
162.326721
  0
LINE
  8
0
  6
CONTINUOUS
 10
366.652679
 20
180.326660
 11
396.652679
 21
180.326721
  0
LINE
  8
0
  6
CONTINUOUS
 10
366.652679
 20
181.326721
 11
366.652679
 21
161.326721
  0
LINE
  8
0
  6
CONTINUOUS
 10
361.152771
 20
91.335648
 11
327.377106
 21
91.925247
  0
LINE
  8
0
  6
CONTINUOUS
 10
348.704895
 20
219.304382
 11
334.207092
 21
219.051193
  0
LINE
  8
0
  6
CONTINUOUS
 10
361.152679
 20
248.326721
 11
361.652679
 21
247.826721
  0
LINE
  8
0
  6
CONTINUOUS
 10
306.652466
 20
101.326698
 11
348.900085
 21
100.220741
  0
LINE
  8
0
  6
CONTINUOUS
 10
306.652466
 20
115.326714
 11
348.900085
 21
116.432922
  0
LINE
  8
0
  6
CONTINUOUS
 10
361.152679
 20
248.326721
 11
354.652679
 21
248.326721
  0
LINE
  8
0
  6
CONTINUOUS
 10
351.652496
 20
245.326721
 11
351.652496
 21
94.449570
  0
LINE
  8
0
  6
CONTINUOUS
 10
361.652679
 20
91.826920
 11
361.652679
 21
247.826721
  0
LINE
  8
0
  6
CONTINUOUS
 10
361.652679
 20
98.826721
 11
364.152679
 21
98.826721
  0
LINE
  8
0
  6
CONTINUOUS
 10
361.652679
 20
243.826721
 11
364.152679
 21
243.826721
  0
LINE
  8
0
  6
CONTINUOUS
 10
306.652679
 20
217.326447
 11
306.652435
 21
93.326599
  0
LINE
  8
0
  6
CONTINUOUS
 10
364.652679
 20
99.326721
 11
364.652679
 21
243.326721
  0
LINE
  8
0
  6
CENTER
 10
332.509888
 20
171.326721
 11
407.325684
 21
171.326721
  0
LINE
  8
0
  6
CONTINUOUS
 10
364.152679
 20
243.826721
 11
364.652679
 21
243.326721
  0
LINE
  8
0
  6
CONTINUOUS
 10
364.652679
 20
99.326721
 11
364.152679
 21
98.826721
  0
LINE
  8
0
  6
CENTER
 10
22.117811
 20
154.826721
 11
343.538696
 21
154.826721
  0
LINE
  8
0
  6
CONTINUOUS
 10
364.152679
 20
98.826721
 11
361.652679
 21
98.826721
  0
LINE
  8
0
  6
CENTER
 10
366.111084
 20
340.680817
 11
346.873322
 21
340.680817
  0
LINE
  8
0
  6
CENTER
 10
366.111084
 20
460.889191
 11
346.873322
 21
460.889191
  0
LINE
  8
0
  6
CONTINUOUS
 10
299.687714
 20
343.021759
 11
292.152679
 21
343.284943
  0
LINE
  8
0
  6
CONTINUOUS
 10
300.652740
 20
459.140717
 11
300.652557
 21
342.429474
  0
LINE
  8
0
  6
CONTINUOUS
 10
299.687714
 20
458.548248
 11
292.152679
 21
458.285065
  0
LINE
  8
0
  6
CONTINUOUS
 10
366.652679
 20
391.785004
 11
369.652679
 21
391.785004
  0
LINE
  8
0
  6
CONTINUOUS
 10
369.652679
 20
389.285004
 11
396.652679
 21
389.285004
  0
LINE
  8
0
  6
CONTINUOUS
 10
369.652679
 20
392.299988
 11
369.652679
 21
389.285004
  0
LINE
  8
0
  6
CONTINUOUS
 10
396.652679
 20
409.785004
 11
396.652679
 21
389.285004
  0
LINE
  8
0
  6
CONTINUOUS
 10
366.652679
 20
409.785004
 11
396.652679
 21
409.785004
  0
LINE
  8
0
  6
CONTINUOUS
 10
364.652679
 20
390.785004
 11
366.652679
 21
390.785004
  0
LINE
  8
0
  6
CONTINUOUS
 10
364.652679
 20
410.785004
 11
366.652679
 21
410.785004
  0
LINE
  8
0
  6
CONTINUOUS
 10
366.652679
 20
410.785004
 11
366.652679
 21
390.785004
  0
LINE
  8
0
  6
CONTINUOUS
 10
348.706787
 20
339.806915
 11
334.208984
 21
340.060150
  0
LINE
  8
0
  6
CONTINUOUS
 10
306.652802
 20
459.785004
 11
306.652802
 21
341.785004
  0
LINE
  8
0
  6
CONTINUOUS
 10
364.152679
 20
473.285004
 11
364.652679
 21
472.785004
  0
LINE
  8
0
  6
CONTINUOUS
 10
361.152802
 20
477.785004
 11
361.652802
 21
477.285004
  0
LINE
  8
0
  6
CONTINUOUS
 10
361.152924
 20
323.785004
 11
361.652924
 21
324.285004
  0
LINE
  8
0
  6
CONTINUOUS
 10
364.152679
 20
328.285004
 11
364.652802
 21
328.785004
  0
LINE
  8
0
  6
CONTINUOUS
 10
351.652802
 20
474.785004
 11
351.652588
 21
326.785004
  0
LINE
  8
0
  6
CONTINUOUS
 10
364.652679
 20
472.785004
 11
364.652802
 21
328.785004
  0
LINE
  8
0
  6
CONTINUOUS
 10
361.652924
 20
328.285004
 11
364.152679
 21
328.285004
  0
LINE
  8
0
  6
CONTINUOUS
 10
361.652802
 20
473.285004
 11
364.152679
 21
473.285004
  0
LINE
  8
0
  6
CONTINUOUS
 10
354.652802
 20
323.785004
 11
361.152924
 21
323.785004
  0
LINE
  8
0
  6
CONTINUOUS
 10
354.652802
 20
477.785004
 11
361.152802
 21
477.785004
  0
LINE
  8
0
  6
CONTINUOUS
 10
361.652802
 20
477.285004
 11
361.652924
 21
324.285004
  0
LINE
  8
0
  6
CONTINUOUS
 10
348.706787
 20
461.763031
 11
334.208984
 21
461.509796
  0
LINE
  8
0
  6
CENTER
 10
26.420938
 20
400.785004
 11
409.493164
 21
400.785004
  0
CIRCLE
  8
0
  6
CENTER
 10
552.794983
 20
171.326721
 40
85.000000
  0
CIRCLE
  8
0
  6
CONTINUOUS
 10
552.794983
 20
171.326721
 40
25.000000
  0
CIRCLE
  8
0
  6
CONTINUOUS
 10
492.690796
 20
111.222542
 40
5.500000
  0
CIRCLE
  8
0
  6
CONTINUOUS
 10
492.690979
 20
231.430511
 40
5.500000
  0
CIRCLE
  8
0
  6
CONTINUOUS
 10
612.899170
 20
111.222542
 40
5.500000
  0
CIRCLE
  8
0
  6
CONTINUOUS
 10
612.898987
 20
231.430511
 40
5.500000
  0
CIRCLE
  8
0
  6
CONTINUOUS
 10
552.794983
 20
171.326721
 40
67.500000
  0
CIRCLE
  8
0
  6
CONTINUOUS
 10
552.794983
 20
171.326721
 40
72.500000
  0
CIRCLE
  8
0
  6
CONTINUOUS
 10
612.899170
 20
111.222595
 40
5.500000
  0
CIRCLE
  8
0
  6
CONTINUOUS
 10
492.690796
 20
231.430893
 40
5.500000
  0
CIRCLE
  8
0
  6
CONTINUOUS
 10
492.690796
 20
111.222595
 40
5.500000
  0
CIRCLE
  8
0
  6
CONTINUOUS
 10
612.898987
 20
231.430893
 40
5.500000
  0
ARC
  8
0
  6
CONTINUOUS
 10
86.152504
 20
467.171570
 40
1.000000
 50
0.000000
 51
90.000000
  0
ARC
  8
0
  6
CONTINUOUS
 10
62.930222
 20
466.671570
 40
1.500000
 50
90.000000
 51
168.248474
  0
ARC
  8
0
  6
CONTINUOUS
 10
60.096062
 20
465.294617
 40
1.000000
 50
270.077026
 51
348.586853
  0
ARC
  8
0
  6
CONTINUOUS
 10
86.152504
 20
334.398468
 40
1.000000
 50
-90.000000
 51
0.000000
  0
ARC
  8
0
  6
CONTINUOUS
 10
62.930222
 20
334.898468
 40
1.500000
 50
191.751526
 51
270.000000
  0
ARC
  8
0
  6
CONTINUOUS
 10
60.096062
 20
336.275391
 40
1.000000
 50
11.413143
 51
89.922981
  0
ARC
  8
0
  6
CONTINUOUS
 10
376.652496
 20
400.785004
 40
340.000000
 50
170.966492
 51
189.033508
  0
ARC
  8
0
  6
CONTINUOUS
 10
52.720798
 20
349.285004
 40
12.000000
 50
189.033508
 51
269.500000
  0
ARC
  8
0
  6
CONTINUOUS
 10
379.649658
 20
400.785004
 40
325.000000
 50
168.248474
 51
191.751526
  0
ARC
  8
0
  6
CONTINUOUS
 10
52.720798
 20
452.285004
 40
12.000000
 50
90.500000
 51
170.966492
  0
ARC
  8
0
  6
CONTINUOUS
 10
259.152496
 20
168.826660
 40
4.000000
 50
-67.975677
 51
247.975693
  0
ARC
  8
0
  6
CONTINUOUS
 10
269.152496
 20
108.826653
 40
2.000000
 50
180.000000
 51
270.000000
  0
ARC
  8
0
  6
CONTINUOUS
 10
234.152512
 20
108.826653
 40
2.000000
 50
-90.000000
 51
0.000000
  0
ARC
  8
0
  6
CONTINUOUS
 10
258.402496
 20
168.826660
 40
0.750000
 50
0.000000
 51
180.000000
  0
ARC
  8
0
  6
CONTINUOUS
 10
259.902496
 20
168.826660
 40
0.750000
 50
0.000000
 51
180.000000
  0
ARC
  8
0
  6
CONTINUOUS
 10
277.152496
 20
145.826660
 40
1.000000
 50
-90.000000
 51
0.000000
  0
ARC
  8
0
  6
CONTINUOUS
 10
277.152496
 20
158.826660
 40
1.000000
 50
0.000000
 51
90.000000
  0
ARC
  8
0
  6
CONTINUOUS
 10
257.152496
 20
145.826660
 40
1.000000
 50
180.000000
 51
270.000000
  0
ARC
  8
0
  6
CONTINUOUS
 10
257.152496
 20
158.826660
 40
1.000000
 50
90.000000
 51
180.000000
  0
ARC
  8
0
  6
CONTINUOUS
 10
246.152512
 20
158.826660
 40
1.000000
 50
0.000000
 51
90.000000
  0
ARC
  8
0
  6
CONTINUOUS
 10
246.152512
 20
145.826660
 40
1.000000
 50
-90.000000
 51
0.000000
  0
ARC
  8
0
  6
CONTINUOUS
 10
226.152512
 20
145.826660
 40
1.000000
 50
180.000000
 51
270.000000
  0
ARC
  8
0
  6
CONTINUOUS
 10
226.152512
 20
158.826660
 40
1.000000
 50
90.000000
 51
180.000000
  0
ARC
  8
0
  6
CONTINUOUS
 10
222.152512
 20
99.576653
 40
2.000000
 50
-90.000000
 51
0.000000
  0
ARC
  8
0
  6
CONTINUOUS
 10
281.152496
 20
99.576653
 40
2.000000
 50
180.000000
 51
270.000000
  0
ARC
  8
0
  6
CONTINUOUS
 10
281.152496
 20
210.076675
 40
2.000000
 50
90.000000
 51
180.000000
  0
ARC
  8
0
  6
CONTINUOUS
 10
222.152512
 20
210.076660
 40
2.000000
 50
0.000000
 51
90.000000
  0
ARC
  8
0
  6
CONTINUOUS
 10
277.152496
 20
104.826653
 40
2.000000
 50
0.000000
 51
90.000000
  0
ARC
  8
0
  6
CONTINUOUS
 10
226.152512
 20
104.826675
 40
2.000000
 50
90.000000
 51
180.000000
  0
ARC
  8
0
  6
CONTINUOUS
 10
277.152496
 20
200.826660
 40
2.000000
 50
-90.000000
 51
0.000000
  0
ARC
  8
0
  6
CONTINUOUS
 10
226.152512
 20
200.826660
 40
2.000000
 50
180.000000
 51
270.000000
  0
ARC
  8
0
  6
CONTINUOUS
 10
209.152512
 20
168.826843
 40
3.000000
 50
-59.999939
 51
239.999893
  0
ARC
  8
0
  6
CONTINUOUS
 10
208.402512
 20
168.826843
 40
0.750000
 50
0.000000
 51
180.000000
  0
ARC
  8
0
  6
CONTINUOUS
 10
209.902512
 20
168.826843
 40
0.750000
 50
0.000000
 51
180.000000
  0
ARC
  8
0
  6
CONTINUOUS
 10
56.408268
 20
91.326836
 40
1.000000
 50
168.767807
 51
270.000000
  0
ARC
  8
0
  6
CONTINUOUS
 10
89.152496
 20
129.826828
 40
2.000000
 50
180.000000
 51
270.000000
  0
ARC
  8
0
  6
CONTINUOUS
 10
89.152496
 20
179.826843
 40
2.000000
 50
90.000000
 51
180.000000
  0
ARC
  8
0
  6
CONTINUOUS
 10
152.152512
 20
129.826828
 40
2.000000
 50
-90.000000
 51
0.000000
  0
ARC
  8
0
  6
CONTINUOUS
 10
152.152512
 20
179.826843
 40
2.000000
 50
0.000000
 51
90.000000
  0
ARC
  8
0
  6
CONTINUOUS
 10
51.690739
 20
103.326836
 40
12.000000
 50
186.752396
 51
270.000000
  0
ARC
  8
0
  6
CONTINUOUS
 10
56.412205
 20
220.826828
 40
1.500000
 50
90.000000
 51
191.662598
  0
ARC
  8
0
  6
CONTINUOUS
 10
51.690769
 20
206.326828
 40
12.000000
 50
90.000000
 51
173.247894
  0
ARC
  8
0
  6
CONTINUOUS
 10
-263.347504
 20
154.826843
 40
325.000000
 50
-11.267181
 51
11.662340
  0
ARC
  8
0
  6
CONTINUOUS
 10
486.652496
 20
154.826843
 40
450.000000
 50
173.247604
 51
186.752502
  0
ARC
  8
0
  6
CONTINUOUS
 10
259.152496
 20
339.648712
 40
10.000000
 50
66.421822
 51
113.578178
  0
ARC
  8
0
  6
CONTINUOUS
 10
225.749359
 20
343.785004
 40
2.000000
 50
90.000000
 51
154.055527
  0
ARC
  8
0
  6
CONTINUOUS
 10
277.555634
 20
343.785004
 40
2.000000
 50
25.944489
 51
90.000000
  0
ARC
  8
0
  6
CONTINUOUS
 10
281.152496
 20
345.535004
 40
2.000000
 50
180.000000
 51
270.000000
  0
ARC
  8
0
  6
CONTINUOUS
 10
222.152512
 20
345.535004
 40
2.000000
 50
-90.000000
 51
0.000000
  0
ARC
  8
0
  6
CONTINUOUS
 10
225.749359
 20
457.785004
 40
2.000000
 50
205.944473
 51
270.000000
  0
ARC
  8
0
  6
CONTINUOUS
 10
277.555634
 20
457.785004
 40
2.000000
 50
270.000000
 51
334.055511
  0
ARC
  8
0
  6
CONTINUOUS
 10
281.152496
 20
456.035004
 40
2.000000
 50
90.000000
 51
180.000000
  0
ARC
  8
0
  6
CONTINUOUS
 10
222.152512
 20
456.035004
 40
2.000000
 50
0.000000
 51
90.000000
  0
ARC
  8
0
  6
CONTINUOUS
 10
154.626877
 20
343.785004
 40
0.500000
 50
180.000000
 51
270.000000
  0
ARC
  8
0
  6
CONTINUOUS
 10
153.126892
 20
345.785858
 40
0.999984
 50
-90.000000
 51
0.000000
  0
ARC
  8
0
  6
CONTINUOUS
 10
154.626862
 20
344.326935
 40
0.499992
 50
180.000000
 51
270.000000
  0
ARC
  8
0
  6
CONTINUOUS
 10
302.652283
 20
95.326599
 40
2.000000
 50
180.000000
 51
270.000000
  0
ARC
  8
0
  6
CONTINUOUS
 10
302.652496
 20
215.221008
 40
2.000000
 50
91.500000
 51
180.000000
  0
ARC
  8
0
  6
CONTINUOUS
 10
301.986206
 20
343.907898
 40
2.000000
 50
218.940552
 51
268.500000
  0
ARC
  8
0
  6
CONTINUOUS
 10
299.652802
 20
342.022369
 40
1.000000
 50
38.940552
 51
88.000793
  0
ARC
  8
0
  6
CONTINUOUS
 10
301.986206
 20
457.662109
 40
2.000000
 50
91.500000
 51
141.059448
  0
ARC
  8
0
  6
CONTINUOUS
 10
354.652679
 20
94.449570
 40
3.000000
 50
180.000000
 51
268.999939
  0
ARC
  8
0
  6
CONTINUOUS
 10
299.649261
 20
96.064316
 40
1.000000
 50
0.115784
 51
88.000000
  0
ARC
  8
0
  6
CONTINUOUS
 10
299.649261
 20
213.589127
 40
1.000000
 50
272.000000
 51
359.884216
  0
ARC
  8
0
  6
CONTINUOUS
 10
552.794983
 20
154.826721
 40
67.500000
 50
247.566803
 51
252.175797
  0
ARC
  8
0
  6
CONTINUOUS
 10
571.926208
 20
95.326721
 40
5.000000
 50
270.000000
 51
287.824219
  0
ARC
  8
0
  6
CONTINUOUS
 10
533.663818
 20
95.326721
 40
5.000000
 50
252.175797
 51
270.000000
  0
ARC
  8
0
  6
CONTINUOUS
 10
552.794983
 20
154.826721
 40
67.500000
 50
287.824188
 51
292.433411
  0
ARC
  8
0
  6
CONTINUOUS
 10
552.794983
 20
171.326721
 40
9.000000
 50
-160.527100
 51
160.530396
  0
ARC
  8
0
  6
CONTINUOUS
 10
552.794983
 20
154.826721
 40
58.500000
 50
129.244507
 51
169.327896
  0
ARC
  8
0
  6
CONTINUOUS
 10
552.794983
 20
154.826721
 40
58.500000
 50
95.130997
 51
118.791100
  0
ARC
  8
0
  6
CONTINUOUS
 10
552.794983
 20
154.826721
 40
58.500000
 50
61.208549
 51
84.869537
  0
ARC
  8
0
  6
CONTINUOUS
 10
591.701782
 20
202.455719
 40
3.000000
 50
135.000000
 51
230.755600
  0
ARC
  8
0
  6
CONTINUOUS
 10
582.414795
 20
208.724121
 40
3.000000
 50
241.208298
 51
315.000488
  0
ARC
  8
0
  6
CONTINUOUS
 10
558.294373
 20
216.080322
 40
3.000000
 50
180.000000
 51
264.869904
  0
ARC
  8
0
  6
CONTINUOUS
 10
547.294800
 20
216.080322
 40
3.000000
 50
-84.868713
 51
0.000000
  0
ARC
  8
0
  6
CONTINUOUS
 10
523.175415
 20
208.724121
 40
3.000000
 50
217.102707
 51
298.791687
  0
ARC
  8
0
  6
CONTINUOUS
 10
513.888184
 20
202.455719
 40
3.000000
 50
-50.755188
 51
45.001190
  0
ARC
  8
0
  6
CONTINUOUS
 10
615.154785
 20
166.739136
 40
5.000000
 50
-173.108902
 51
2.124938
  0
ARC
  8
0
  6
CONTINUOUS
 10
490.446808
 20
166.834534
 40
5.000000
 50
180.375198
 51
351.783203
  0
ARC
  8
0
  6
CONTINUOUS
 10
552.794983
 20
154.826721
 40
58.500000
 50
10.479610
 51
50.755550
  0
ARC
  8
0
  6
CONTINUOUS
 10
612.156189
 20
230.687714
 40
14.000000
 50
7.015888
 51
82.984283
  0
ARC
  8
0
  6
CONTINUOUS
 10
612.104187
 20
111.543999
 40
14.000000
 50
281.968689
 51
352.934387
  0
ARC
  8
0
  6
CONTINUOUS
 10
493.485992
 20
111.543999
 40
14.000000
 50
187.065796
 51
258.031311
  0
ARC
  8
0
  6
CONTINUOUS
 10
493.433990
 20
230.687714
 40
14.000000
 50
97.016220
 51
172.984604
  0
ARC
  8
0
  6
CONTINUOUS
 10
552.794983
 20
391.326904
 40
300.000000
 50
270.000000
 51
281.968597
  0
ARC
  8
0
  6
CONTINUOUS
 10
129.794998
 20
171.326721
 40
500.000000
 50
-7.065796
 51
7.015738
  0
ARC
  8
0
  6
CONTINUOUS
 10
552.794983
 20
-251.673279
 40
500.000000
 50
82.984154
 51
90.000000
  0
ARC
  8
0
  6
CONTINUOUS
 10
552.794983
 20
391.326904
 40
300.000000
 50
258.031403
 51
270.000000
  0
ARC
  8
0
  6
CONTINUOUS
 10
975.795166
 20
171.326721
 40
500.000000
 50
172.984299
 51
187.065796
  0
ARC
  8
0
  6
CONTINUOUS
 10
552.794983
 20
-251.673279
 40
500.000000
 50
90.000000
 51
97.015846
  0
ARC
  8
0
  6
CONTINUOUS
 10
602.125793
 20
212.880524
 40
3.000000
 50
40.109409
 51
135.000504
  0
ARC
  8
0
  6
CONTINUOUS
 10
594.347778
 20
220.658325
 40
3.000000
 50
-44.999939
 51
49.892139
  0
ARC
  8
0
  6
CONTINUOUS
 10
511.241791
 20
220.658325
 40
3.000000
 50
130.112000
 51
225.000397
  0
ARC
  8
0
  6
CONTINUOUS
 10
503.463593
 20
212.879913
 40
3.000000
 50
45.000370
 51
139.895996
  0
ARC
  8
0
  6
CONTINUOUS
 10
558.295166
 20
235.591919
 40
3.000000
 50
85.108582
 51
180.000000
  0
ARC
  8
0
  6
CONTINUOUS
 10
547.294983
 20
235.591919
 40
3.000000
 50
0.000000
 51
94.896111
  0
ARC
  8
0
  6
CONTINUOUS
 10
372.652679
 20
171.326721
 40
3.000000
 50
90.000000
 51
270.000000
  0
ARC
  8
0
  6
CONTINUOUS
 10
348.652496
 20
222.304031
 40
3.000000
 50
-88.999023
 51
0.000000
  0
ARC
  8
0
  6
CONTINUOUS
 10
354.652679
 20
245.326721
 40
3.000000
 50
90.000000
 51
180.000000
  0
ARC
  8
0
  6
CONTINUOUS
 10
351.652100
 20
591.335571
 40
500.000000
 50
264.836304
 51
267.217102
  0
ARC
  8
0
  6
CONTINUOUS
 10
351.652100
 20
-280.644287
 40
500.000000
 50
91.999352
 51
95.163643
  0
ARC
  8
0
  6
CONTINUOUS
 10
299.652802
 20
459.547638
 40
1.000000
 50
271.999207
 51
321.059448
  0
ARC
  8
0
  6
CONTINUOUS
 10
354.652802
 20
474.785004
 40
3.000000
 50
90.000000
 51
180.000000
  0
ARC
  8
0
  6
CONTINUOUS
 10
354.652802
 20
326.785004
 40
3.000000
 50
180.000000
 51
270.000000
  0
ARC
  8
0
  6
CONTINUOUS
 10
348.654388
 20
336.807343
 40
3.000000
 50
0.000000
 51
88.999023
  0
ARC
  8
0
  6
CONTINUOUS
 10
351.653900
 20
839.755798
 40
500.000000
 50
264.836273
 51
268.000641
  0
ARC
  8
0
  6
CONTINUOUS
 10
348.654388
 20
464.762604
 40
3.000000
 50
-88.999023
 51
0.000000
  0
ARC
  8
0
  6
CONTINUOUS
 10
351.653900
 20
-38.185799
 40
500.000000
 50
91.999352
 51
95.163734
  0
LINE
  8
0
  6
CONTINUOUS
 10
105.467705
 20
127.826836
 11
106.337837
 21
127.826836
  0
LINE
  8
0
  6
CONTINUOUS
 10
105.467705
 20
124.326836
 11
106.337837
 21
124.326836
  0
LINE
  8
0
  6
CONTINUOUS
 10
105.467705
 20
122.326836
 11
106.337837
 21
122.326836
  0
LINE
  8
0
  6
CONTINUOUS
 10
105.467705
 20
116.826836
 11
106.337837
 21
116.826836
  0
LINE
  8
0
  6
CONTINUOUS
 10
105.467705
 20
114.826836
 11
106.337837
 21
114.826836
  0
LINE
  8
0
  6
CONTINUOUS
 10
105.467705
 20
109.826836
 11
106.337837
 21
109.826836
  0
LINE
  8
0
  6
CONTINUOUS
 10
105.467705
 20
107.826836
 11
106.337837
 21
107.826836
  0
LINE
  8
0
  6
CONTINUOUS
 10
102.837288
 20
127.826836
 11
101.967155
 21
127.826836
  0
LINE
  8
0
  6
CONTINUOUS
 10
102.837288
 20
124.326836
 11
101.967155
 21
124.326836
  0
LINE
  8
0
  6
CONTINUOUS
 10
102.837288
 20
122.326836
 11
101.967155
 21
122.326836
  0
LINE
  8
0
  6
CONTINUOUS
 10
102.837288
 20
116.826836
 11
101.967155
 21
116.826836
  0
LINE
  8
0
  6
CONTINUOUS
 10
102.837288
 20
114.826836
 11
101.967155
 21
114.826836
  0
LINE
  8
0
  6
CONTINUOUS
 10
102.837288
 20
109.826836
 11
101.967155
 21
109.826836
  0
LINE
  8
0
  6
CONTINUOUS
 10
102.837288
 20
107.826836
 11
101.967155
 21
107.826836
  0
LINE
  8
0
  6
CONTINUOUS
 10
105.467705
 20
103.540810
 11
106.337837
 21
103.540810
  0
LINE
  8
0
  6
CONTINUOUS
 10
105.467705
 20
97.326836
 11
106.337837
 21
97.326836
  0
LINE
  8
0
  6
CONTINUOUS
 10
102.837288
 20
97.326836
 11
101.967155
 21
97.326836
  0
LINE
  8
0
  6
CONTINUOUS
 10
102.837288
 20
103.540810
 11
101.967155
 21
103.540810
  0
TEXT
  8
0
 10
22.000000
 20
3.000000
 40
10.000000
 41
1.000000
  1
G3FE-18-5~25-T020W
 50
0.000000
  0
ENDSEC
  0
EOF
