  0
SECTION
  2
HEADER
  9
$ACADVER
  1
AC1014
  9
$ACADMAINTVER
 70
     9
  9
$DWGCODEPAGE
  3
ANSI_932
  9
$INSBASE
 10
0.0
 20
0.0
 30
0.0
  9
$EXTMIN
 10
-18.347189
 20
-12.0
 30
0.0
  9
$EXTMAX
 10
669.6921999999999
 20
432.6817319999999
 30
0.0
  9
$LIMMIN
 10
0.0
 20
0.0
  9
$LIMMAX
 10
12.0
 20
9.0
  9
$ORTHOMODE
 70
     0
  9
$REGENMODE
 70
     1
  9
$FILLMODE
 70
     1
  9
$QTEXTMODE
 70
     0
  9
$MIRRTEXT
 70
     1
  9
$DRAGMODE
 70
     2
  9
$LTSCALE
 40
3.0
  9
$OSMODE
 70
    45
  9
$ATTMODE
 70
     1
  9
$TEXTSIZE
 40
3.0
  9
$TRACEWID
 40
0.05
  9
$TEXTSTYLE
  7
STANDARD
  9
$CLAYER
  8
1
  9
$CELTYPE
  6
CONTINUOUS
  9
$CECOLOR
 62
   256
  9
$CELTSCALE
 40
1.0
  9
$DELOBJ
 70
     1
  9
$DISPSILH
 70
     0
  9
$DIMSCALE
 40
1.0
  9
$DIMASZ
 40
0.18
  9
$DIMEXO
 40
0.0625
  9
$DIMDLI
 40
0.38
  9
$DIMRND
 40
0.0
  9
$DIMDLE
 40
0.0
  9
$DIMEXE
 40
0.18
  9
$DIMTP
 40
0.0
  9
$DIMTM
 40
0.0
  9
$DIMTXT
 40
0.18
  9
$DIMCEN
 40
0.09
  9
$DIMTSZ
 40
0.0
  9
$DIMTOL
 70
     0
  9
$DIMLIM
 70
     0
  9
$DIMTIH
 70
     1
  9
$DIMTOH
 70
     1
  9
$DIMSE1
 70
     0
  9
$DIMSE2
 70
     0
  9
$DIMTAD
 70
     0
  9
$DIMZIN
 70
     0
  9
$DIMBLK
  1

  9
$DIMASO
 70
     1
  9
$DIMSHO
 70
     1
  9
$DIMPOST
  1

  9
$DIMAPOST
  1

  9
$DIMALT
 70
     0
  9
$DIMALTD
 70
     2
  9
$DIMALTF
 40
25.4
  9
$DIMLFAC
 40
1.0
  9
$DIMTOFL
 70
     0
  9
$DIMTVP
 40
0.0
  9
$DIMTIX
 70
     0
  9
$DIMSOXD
 70
     0
  9
$DIMSAH
 70
     0
  9
$DIMBLK1
  1

  9
$DIMBLK2
  1

  9
$DIMSTYLE
  2
STANDARD
  9
$DIMCLRD
 70
     0
  9
$DIMCLRE
 70
     0
  9
$DIMCLRT
 70
     0
  9
$DIMTFAC
 40
1.0
  9
$DIMGAP
 40
0.09
  9
$DIMJUST
 70
     0
  9
$DIMSD1
 70
     0
  9
$DIMSD2
 70
     0
  9
$DIMTOLJ
 70
     1
  9
$DIMTZIN
 70
     0
  9
$DIMALTZ
 70
     0
  9
$DIMALTTZ
 70
     0
  9
$DIMFIT
 70
     3
  9
$DIMUPT
 70
     0
  9
$DIMUNIT
 70
     2
  9
$DIMDEC
 70
     4
  9
$DIMTDEC
 70
     4
  9
$DIMALTU
 70
     2
  9
$DIMALTTD
 70
     2
  9
$DIMTXSTY
  7
STANDARD
  9
$DIMAUNIT
 70
     0
  9
$LUNITS
 70
     2
  9
$LUPREC
 70
     4
  9
$SKETCHINC
 40
0.1
  9
$FILLETRAD
 40
0.0
  9
$AUNITS
 70
     0
  9
$AUPREC
 70
     0
  9
$MENU
  1
.
  9
$ELEVATION
 40
0.0
  9
$PELEVATION
 40
0.0
  9
$THICKNESS
 40
0.0
  9
$LIMCHECK
 70
     0
  9
$BLIPMODE
 70
     0
  9
$CHAMFERA
 40
0.0
  9
$CHAMFERB
 40
0.0
  9
$CHAMFERC
 40
0.0
  9
$CHAMFERD
 40
0.0
  9
$SKPOLY
 70
     0
  9
$TDCREATE
 40
2453349.575735127
  9
$TDUPDATE
 40
2453354.777308900
  9
$TDINDWG
 40
0.0018286343
  9
$TDUSRTIMER
 40
0.0018286343
  9
$USRTIMER
 70
     1
  9
$ANGBASE
 50
0.0
  9
$ANGDIR
 70
     0
  9
$PDMODE
 70
     0
  9
$PDSIZE
 40
0.0
  9
$PLINEWID
 40
0.0
  9
$COORDS
 70
     1
  9
$SPLFRAME
 70
     0
  9
$SPLINETYPE
 70
     6
  9
$SPLINESEGS
 70
     8
  9
$ATTDIA
 70
     0
  9
$ATTREQ
 70
     1
  9
$HANDLING
 70
 22529
  9
$HANDSEED
  5
34D
  9
$SURFTAB1
 70
     6
  9
$SURFTAB2
 70
     6
  9
$SURFTYPE
 70
     6
  9
$SURFU
 70
     6
  9
$SURFV
 70
     6
  9
$UCSNAME
  2

  9
$UCSORG
 10
0.0
 20
0.0
 30
0.0
  9
$UCSXDIR
 10
1.0
 20
0.0
 30
0.0
  9
$UCSYDIR
 10
0.0
 20
1.0
 30
0.0
  9
$PUCSNAME
  2

  9
$PUCSORG
 10
0.0
 20
0.0
 30
0.0
  9
$PUCSXDIR
 10
1.0
 20
0.0
 30
0.0
  9
$PUCSYDIR
 10
0.0
 20
1.0
 30
0.0
  9
$USERI1
 70
     0
  9
$USERI2
 70
     0
  9
$USERI3
 70
     0
  9
$USERI4
 70
     0
  9
$USERI5
 70
     0
  9
$USERR1
 40
0.0
  9
$USERR2
 40
0.0
  9
$USERR3
 40
0.0
  9
$USERR4
 40
0.0
  9
$USERR5
 40
0.0
  9
$WORLDVIEW
 70
     1
  9
$SHADEDGE
 70
     3
  9
$SHADEDIF
 70
    70
  9
$TILEMODE
 70
     1
  9
$MAXACTVP
 70
    64
  9
$PINSBASE
 10
0.0
 20
0.0
 30
0.0
  9
$PLIMCHECK
 70
     0
  9
$PEXTMIN
 10
1.000000000000000E+20
 20
1.000000000000000E+20
 30
1.000000000000000E+20
  9
$PEXTMAX
 10
-1.000000000000000E+20
 20
-1.000000000000000E+20
 30
-1.000000000000000E+20
  9
$PLIMMIN
 10
0.0
 20
0.0
  9
$PLIMMAX
 10
12.0
 20
9.0
  9
$UNITMODE
 70
     0
  9
$VISRETAIN
 70
     1
  9
$PLINEGEN
 70
     0
  9
$PSLTSCALE
 70
     1
  9
$TREEDEPTH
 70
  3020
  9
$PICKSTYLE
 70
     1
  9
$CMLSTYLE
  2
STANDARD
  9
$CMLJUST
 70
     0
  9
$CMLSCALE
 40
1.0
  9
$PROXYGRAPHICS
 70
     1
  9
$MEASUREMENT
 70
     0
  0
ENDSEC
  0
SECTION
  2
CLASSES
  0
CLASS
  1
ACDBDICTIONARYWDFLT
  2
AcDbDictionaryWithDefault
  3
AutoCAD 2000
 90
        0
280
     0
281
     0
  0
CLASS
  1
ACDBPLACEHOLDER
  2
AcDbPlaceHolder
  3
AutoCAD 2000
 90
        0
280
     0
281
     0
  0
CLASS
  1
LAYOUT
  2
AcDbLayout
  3
AutoCAD 2000
 90
        0
280
     0
281
     0
  0
CLASS
  1
DICTIONARYVAR
  2
AcDbDictionaryVar
  3
AutoCAD 2000
 90
        0
280
     0
281
     0
  0
CLASS
  1
LONG_TRANSACTION
  2
AcDbLongTransaction
  3
AutoCAD 2000
 90
        0
280
     0
281
     0
  0
CLASS
  1
LWPOLYLINE
  2
AcDbPolyline
  3
AutoCAD 2000
 90
        0
280
     0
281
     1
  0
CLASS
  1
HATCH
  2
AcDbHatch
  3
AutoCAD 2000
 90
        0
280
     0
281
     1
  0
CLASS
  1
XRECORD
  2
AcDbXrecord
  3
AutoCAD 2000
 90
        0
280
     0
281
     0
  0
ENDSEC
  0
SECTION
  2
TABLES
  0
TABLE
  2
VPORT
  5
8
330
0
100
AcDbSymbolTable
 70
     2
  0
VPORT
  5
328
330
8
100
AcDbSymbolTableRecord
100
AcDbViewportTableRecord
  2
*ACTIVE
 70
     0
 10
0.0
 20
0.0
 11
1.0
 21
1.0
 12
450.1793362402208
 22
200.3213593425676
 13
0.0
 23
0.0
 14
1.0
 24
1.0
 15
0.0
 25
0.0
 16
0.0
 26
0.0
 36
1.0
 17
0.0
 27
0.0
 37
0.0
 40
627.5220178897766
 41
1.976793248945147
 42
50.0
 43
0.0
 44
0.0
 50
0.0
 51
0.0
 71
     0
 72
   100
 73
     1
 74
     1
 75
     0
 76
     0
 77
     0
 78
     0
  0
ENDTAB
  0
TABLE
  2
LTYPE
  5
5
330
0
100
AcDbSymbolTable
 70
     3
  0
LTYPE
  5
13
330
5
100
AcDbSymbolTableRecord
100
AcDbLinetypeTableRecord
  2
BYBLOCK
 70
     0
  3

 72
    65
 73
     0
 40
0.0
  0
LTYPE
  5
14
330
5
100
AcDbSymbolTableRecord
100
AcDbLinetypeTableRecord
  2
BYLAYER
 70
     0
  3

 72
    65
 73
     0
 40
0.0
  0
LTYPE
  5
15
330
5
100
AcDbSymbolTableRecord
100
AcDbLinetypeTableRecord
  2
CONTINUOUS
 70
     0
  3
solid line
 72
    65
 73
     0
 40
0.0
  0
LTYPE
  5
23
330
5
100
AcDbSymbolTableRecord
100
AcDbLinetypeTableRecord
  2
DASHED
 70
     0
  3
__ __ __ __ __ __ __ __ __ __ __ __ __ __ __
 72
    65
 73
     2
 40
0.75
 49
0.5
 74
     0
 49
-0.25
 74
     0
  0
LTYPE
  5
24
330
5
100
AcDbSymbolTableRecord
100
AcDbLinetypeTableRecord
  2
CENTER
 70
     0
  3
____ _ ____ _ ____ _ ____ _ ____ _ ____ _ ____
 72
    65
 73
     4
 40
2.0
 49
1.25
 74
     0
 49
-0.25
 74
     0
 49
0.25
 74
     0
 49
-0.25
 74
     0
  0
ENDTAB
  0
TABLE
  2
LAYER
  5
2
330
0
100
AcDbSymbolTable
 70
     3
  0
LAYER
  5
10
330
2
100
AcDbSymbolTableRecord
100
AcDbLayerTableRecord
  2
0
 70
     0
 62
     7
  6
CONTINUOUS
  0
LAYER
  5
22
330
2
100
AcDbSymbolTableRecord
100
AcDbLayerTableRecord
  2
1
 70
     0
 62
     7
  6
CONTINUOUS
  0
LAYER
  5
264
330
2
100
AcDbSymbolTableRecord
100
AcDbLayerTableRecord
  2
TOP
 70
     0
 62
     7
  6
CONTINUOUS
  0
ENDTAB
  0
TABLE
  2
STYLE
  5
3
330
0
100
AcDbSymbolTable
 70
     1
  0
STYLE
  5
11
330
3
100
AcDbSymbolTableRecord
100
AcDbTextStyleTableRecord
  2
STANDARD
 70
     0
 40
0.0
 41
1.0
 50
0.0
 71
     0
 42
3.0
  3
txt
  4
BIGFONT
  0
ENDTAB
  0
TABLE
  2
VIEW
  5
6
330
0
100
AcDbSymbolTable
 70
     0
  0
ENDTAB
  0
TABLE
  2
UCS
  5
7
330
0
100
AcDbSymbolTable
 70
     0
  0
ENDTAB
  0
TABLE
  2
APPID
  5
9
330
0
100
AcDbSymbolTable
 70
     1
  0
APPID
  5
12
330
9
100
AcDbSymbolTableRecord
100
AcDbRegAppTableRecord
  2
ACAD
 70
     0
  0
ENDTAB
  0
TABLE
  2
DIMSTYLE
  5
A
330
0
100
AcDbSymbolTable
 70
     1
  0
DIMSTYLE
105
262
330
A
100
AcDbSymbolTableRecord
100
AcDbDimStyleTableRecord
  2
STANDARD
 70
     0
  3

  4

  5

  6

  7

 40
1.0
 41
0.18
 42
0.0625
 43
0.38
 44
0.18
 45
0.0
 46
0.0
 47
0.0
 48
0.0
140
0.18
141
0.09
142
0.0
143
25.4
144
1.0
145
0.0
146
1.0
147
0.09
 71
     0
 72
     0
 73
     1
 74
     1
 75
     0
 76
     0
 77
     0
 78
     0
170
     0
171
     2
172
     0
173
     0
174
     0
175
     0
176
     0
177
     0
178
     0
270
     2
271
     4
272
     4
273
     2
274
     2
340
11
275
     0
280
     0
281
     0
282
     0
283
     1
284
     0
285
     0
286
     0
287
     3
288
     0
  0
ENDTAB
  0
TABLE
  2
BLOCK_RECORD
  5
1
330
0
100
AcDbSymbolTable
 70
     0
  0
BLOCK_RECORD
  5
1E
102
{ACAD_XDICTIONARY
360
34B
102
}
330
1
100
AcDbSymbolTableRecord
100
AcDbBlockTableRecord
  2
*MODEL_SPACE
  0
BLOCK_RECORD
  5
1A
102
{ACAD_XDICTIONARY
360
349
102
}
330
1
100
AcDbSymbolTableRecord
100
AcDbBlockTableRecord
  2
*PAPER_SPACE
  0
ENDTAB
  0
ENDSEC
  0
SECTION
  2
BLOCKS
  0
BLOCK
  5
1F
330
1E
100
AcDbEntity
  8
0
100
AcDbBlockBegin
  2
*MODEL_SPACE
 70
     0
 10
0.0
 20
0.0
 30
0.0
  3
*MODEL_SPACE
  1

  0
ENDBLK
  5
20
330
1E
100
AcDbEntity
  8
0
100
AcDbBlockEnd
  0
BLOCK
  5
1B
330
1A
100
AcDbEntity
 67
     1
  8
0
100
AcDbBlockBegin
  2
*PAPER_SPACE
 70
     0
 10
0.0
 20
0.0
 30
0.0
  3
*PAPER_SPACE
  1

  0
ENDBLK
  5
1C
330
1A
100
AcDbEntity
 67
     1
  8
0
100
AcDbBlockEnd
  0
ENDSEC
  0
SECTION
  2
ENTITIES
  0
LINE
  5
29
330
1E
100
AcDbEntity
  8
0
  6
CENTER
100
AcDbLine
 10
-14.044062
 20
355.681732
 30
0.0
 11
369.028168
 21
355.681732
 31
0.0
  0
ARC
  5
2A
330
1E
100
AcDbEntity
  8
0
  6
CONTINUOUS
100
AcDbCircle
 10
311.1889339999999
 20
-83.28907800000001
 30
0.0
 40
500.0
100
AcDbArc
 50
91.999352
 51
95.16373399999999
  0
LINE
  5
2B
330
1E
100
AcDbEntity
  8
0
  6
CONTINUOUS
100
AcDbLine
 10
308.241791
 20
416.659729
 30
0.0
 11
293.7439879999999
 21
416.406525
 31
0.0
  0
ARC
  5
2C
330
1E
100
AcDbEntity
  8
0
  6
CONTINUOUS
100
AcDbCircle
 10
308.189392
 20
419.6593319999999
 30
0.0
 40
3.0
100
AcDbArc
 50
271.000977
 51
0.0
  0
LINE
  5
2D
330
1E
100
AcDbEntity
  8
0
  6
CONTINUOUS
100
AcDbLine
 10
321.1878049999999
 20
432.181732
 30
0.0
 11
321.187927
 21
279.181732
 31
0.0
  0
LINE
  5
2E
330
1E
100
AcDbEntity
  8
0
  6
CONTINUOUS
100
AcDbLine
 10
314.1878049999999
 20
432.6817319999999
 30
0.0
 11
320.6878049999999
 21
432.6817319999999
 31
0.0
  0
LINE
  5
2F
330
1E
100
AcDbEntity
  8
0
  6
CONTINUOUS
100
AcDbLine
 10
314.1878049999999
 20
278.681732
 30
0.0
 11
320.6879269999999
 21
278.681732
 31
0.0
  0
LINE
  5
30
330
1E
100
AcDbEntity
  8
0
  6
CONTINUOUS
100
AcDbLine
 10
321.1878049999999
 20
428.181732
 30
0.0
 11
323.687714
 21
428.181732
 31
0.0
  0
LINE
  5
31
330
1E
100
AcDbEntity
  8
0
  6
CONTINUOUS
100
AcDbLine
 10
321.187927
 20
283.181732
 30
0.0
 11
323.687714
 21
283.181732
 31
0.0
  0
LINE
  5
32
330
1E
100
AcDbEntity
  8
0
  6
CONTINUOUS
100
AcDbLine
 10
324.187714
 20
427.681732
 30
0.0
 11
324.1878049999999
 21
283.681732
 31
0.0
  0
LINE
  5
33
330
1E
100
AcDbEntity
  8
0
  6
CONTINUOUS
100
AcDbLine
 10
311.1878049999999
 20
429.681732
 30
0.0
 11
311.187592
 21
281.681732
 31
0.0
  0
LINE
  5
34
330
1E
100
AcDbEntity
  8
0
  6
CONTINUOUS
100
AcDbLine
 10
323.687714
 20
283.181732
 30
0.0
 11
324.1878049999999
 21
283.681732
 31
0.0
  0
LINE
  5
35
330
1E
100
AcDbEntity
  8
0
  6
CONTINUOUS
100
AcDbLine
 10
320.6879269999999
 20
278.681732
 30
0.0
 11
321.187927
 21
279.181732
 31
0.0
  0
LINE
  5
36
330
1E
100
AcDbEntity
  8
0
  6
CONTINUOUS
100
AcDbLine
 10
320.6878049999999
 20
432.6817319999999
 30
0.0
 11
321.1878049999999
 21
432.181732
 31
0.0
  0
LINE
  5
37
330
1E
100
AcDbEntity
  8
0
  6
CONTINUOUS
100
AcDbLine
 10
323.687714
 20
428.181732
 30
0.0
 11
324.187714
 21
427.681732
 31
0.0
  0
LINE
  5
38
330
1E
100
AcDbEntity
  8
0
  6
CONTINUOUS
100
AcDbLine
 10
266.1878049999999
 20
414.681732
 30
0.0
 11
266.1878049999999
 21
296.681732
 31
0.0
  0
ARC
  5
39
330
1E
100
AcDbEntity
  8
0
  6
CONTINUOUS
100
AcDbCircle
 10
311.1889339999999
 20
794.6525269999999
 30
0.0
 40
500.0
100
AcDbArc
 50
264.836266
 51
268.000648
  0
LINE
  5
3A
330
1E
100
AcDbEntity
  8
0
  6
CONTINUOUS
100
AcDbLine
 10
308.241791
 20
294.703644
 30
0.0
 11
293.7439879999999
 21
294.9568479999999
 31
0.0
  0
ARC
  5
3B
330
1E
100
AcDbEntity
  8
0
  6
CONTINUOUS
100
AcDbCircle
 10
308.189392
 20
291.704071
 30
0.0
 40
3.0
100
AcDbArc
 50
0.0
 51
88.99902299999999
  0
LINE
  5
3C
330
1E
100
AcDbEntity
  8
0
  6
CONTINUOUS
100
AcDbLine
 10
326.187714
 20
365.681732
 30
0.0
 11
326.187714
 21
345.681732
 31
0.0
  0
LINE
  5
3D
330
1E
100
AcDbEntity
  8
0
  6
CONTINUOUS
100
AcDbLine
 10
324.187714
 20
365.681732
 30
0.0
 11
326.187714
 21
365.681732
 31
0.0
  0
LINE
  5
3E
330
1E
100
AcDbEntity
  8
0
  6
CONTINUOUS
100
AcDbLine
 10
324.187714
 20
345.681732
 30
0.0
 11
326.187714
 21
345.681732
 31
0.0
  0
LINE
  5
3F
330
1E
100
AcDbEntity
  8
0
  6
CONTINUOUS
100
AcDbLine
 10
326.187714
 20
364.681732
 30
0.0
 11
356.187714
 21
364.681732
 31
0.0
  0
LINE
  5
40
330
1E
100
AcDbEntity
  8
0
  6
CONTINUOUS
100
AcDbLine
 10
356.187714
 20
364.681732
 30
0.0
 11
356.187714
 21
344.181732
 31
0.0
  0
LINE
  5
41
330
1E
100
AcDbEntity
  8
0
  6
CONTINUOUS
100
AcDbLine
 10
329.187714
 20
347.196716
 30
0.0
 11
329.187714
 21
344.181732
 31
0.0
  0
LINE
  5
42
330
1E
100
AcDbEntity
  8
0
  6
CONTINUOUS
100
AcDbLine
 10
329.187714
 20
344.181732
 30
0.0
 11
356.187714
 21
344.181732
 31
0.0
  0
LINE
  5
43
330
1E
100
AcDbEntity
  8
0
  6
CONTINUOUS
100
AcDbLine
 10
326.187714
 20
346.681732
 30
0.0
 11
329.187714
 21
346.681732
 31
0.0
  0
ARC
  5
44
330
1E
100
AcDbEntity
  8
0
  6
CONTINUOUS
100
AcDbCircle
 10
314.1878049999999
 20
281.681732
 30
0.0
 40
3.0
100
AcDbArc
 50
180.0
 51
270.0
  0
ARC
  5
45
330
1E
100
AcDbEntity
  8
0
  6
CONTINUOUS
100
AcDbCircle
 10
314.1878049999999
 20
429.681732
 30
0.0
 40
3.0
100
AcDbArc
 50
90.0
 51
180.0
  0
LINE
  5
46
330
1E
100
AcDbEntity
  8
0
  6
CONTINUOUS
100
AcDbLine
 10
259.222717
 20
413.4449459999999
 30
0.0
 11
251.687698
 21
413.181793
 31
0.0
  0
ARC
  5
47
330
1E
100
AcDbEntity
  8
0
  6
CONTINUOUS
100
AcDbCircle
 10
259.1878049999999
 20
414.444366
 30
0.0
 40
1.0
100
AcDbArc
 50
271.9992069999999
 51
321.0594479999999
  0
LINE
  5
48
330
1E
100
AcDbEntity
  8
0
  6
CONTINUOUS
100
AcDbLine
 10
260.1877439999999
 20
414.037445
 30
0.0
 11
260.1875609999999
 21
297.326172
 31
0.0
  0
LINE
  5
49
330
1E
100
AcDbEntity
  8
0
  6
CONTINUOUS
100
AcDbLine
 10
259.222717
 20
297.9184879999999
 30
0.0
 11
251.687698
 21
298.181671
 31
0.0
  0
LINE
  5
4A
330
1E
100
AcDbEntity
  8
0
  6
CENTER
100
AcDbLine
 10
325.6460879999999
 20
415.7858889999999
 30
0.0
 11
306.4083249999999
 21
415.7858889999999
 31
0.0
  0
LINE
  5
4B
330
1E
100
AcDbEntity
  8
0
  6
CENTER
100
AcDbLine
 10
325.6460879999999
 20
295.577545
 30
0.0
 11
306.4083249999999
 21
295.577545
 31
0.0
  0
LINE
  5
4C
330
1E
100
AcDbEntity
  8
0
  6
CONTINUOUS
100
AcDbLine
 10
323.687714
 20
26.876719
 30
0.0
 11
321.187714
 21
26.876719
 31
0.0
  0
LINE
  5
4D
330
1E
100
AcDbEntity
  8
0
  6
CENTER
100
AcDbLine
 10
-18.347189
 20
82.876717
 30
0.0
 11
303.0736999999999
 21
82.876717
 31
0.0
  0
LINE
  5
4E
330
1E
100
AcDbEntity
  8
0
  6
CONTINUOUS
100
AcDbLine
 10
324.187714
 20
27.376719
 30
0.0
 11
323.687714
 21
26.876719
 31
0.0
  0
LINE
  5
4F
330
1E
100
AcDbEntity
  8
0
  6
CONTINUOUS
100
AcDbLine
 10
323.687714
 20
171.876724
 30
0.0
 11
324.187714
 21
171.3767239999999
 31
0.0
  0
LINE
  5
50
330
1E
100
AcDbEntity
  8
0
  6
CENTER
100
AcDbLine
 10
292.044891
 20
99.376717
 30
0.0
 11
366.860687
 21
99.376717
 31
0.0
  0
LINE
  5
51
330
1E
100
AcDbEntity
  8
0
  6
CONTINUOUS
100
AcDbLine
 10
324.187714
 20
27.376719
 30
0.0
 11
324.187714
 21
171.3767239999999
 31
0.0
  0
LINE
  5
52
330
1E
100
AcDbEntity
  8
0
  6
CONTINUOUS
100
AcDbLine
 10
266.187683
 20
145.376434
 30
0.0
 11
266.187439
 21
21.376598
 31
0.0
  0
LINE
  5
53
330
1E
100
AcDbEntity
  8
0
  6
CONTINUOUS
100
AcDbLine
 10
321.187714
 20
171.876724
 30
0.0
 11
323.687714
 21
171.876724
 31
0.0
  0
LINE
  5
54
330
1E
100
AcDbEntity
  8
0
  6
CONTINUOUS
100
AcDbLine
 10
321.187714
 20
26.876719
 30
0.0
 11
323.687714
 21
26.876719
 31
0.0
  0
LINE
  5
55
330
1E
100
AcDbEntity
  8
0
  6
CONTINUOUS
100
AcDbLine
 10
321.187714
 20
19.876919
 30
0.0
 11
321.187714
 21
175.876724
 31
0.0
  0
LINE
  5
56
330
1E
100
AcDbEntity
  8
0
  6
CONTINUOUS
100
AcDbLine
 10
311.1874999999999
 20
173.3767239999999
 30
0.0
 11
311.1874999999999
 21
22.499571
 31
0.0
  0
LINE
  5
57
330
1E
100
AcDbEntity
  8
0
  6
CONTINUOUS
100
AcDbLine
 10
320.687714
 20
176.3767239999999
 30
0.0
 11
314.187714
 21
176.3767239999999
 31
0.0
  0
ARC
  5
58
330
1E
100
AcDbEntity
  8
0
  6
CONTINUOUS
100
AcDbCircle
 10
311.1871029999999
 20
-352.5942689999999
 30
0.0
 40
500.0
100
AcDbArc
 50
91.999352
 51
95.16364300000001
  0
ARC
  5
59
330
1E
100
AcDbEntity
  8
0
  6
CONTINUOUS
100
AcDbCircle
 10
311.1871029999999
 20
519.3855589999999
 30
0.0
 40
500.0
100
AcDbArc
 50
264.836304
 51
267.2171019999999
  0
ARC
  5
5A
330
1E
100
AcDbEntity
  8
0
  6
CONTINUOUS
100
AcDbCircle
 10
314.187714
 20
173.3767239999999
 30
0.0
 40
3.0
100
AcDbArc
 50
90.0
 51
180.0
  0
LINE
  5
5B
330
1E
100
AcDbEntity
  8
0
  6
CONTINUOUS
100
AcDbLine
 10
266.187469
 20
43.37672
 30
0.0
 11
308.435089
 21
44.48291799999999
 31
0.0
  0
LINE
  5
5C
330
1E
100
AcDbEntity
  8
0
  6
CONTINUOUS
100
AcDbLine
 10
266.187469
 20
29.37669899999999
 30
0.0
 11
308.435089
 21
28.270739
 31
0.0
  0
LINE
  5
5D
330
1E
100
AcDbEntity
  8
0
  6
CONTINUOUS
100
AcDbLine
 10
320.687714
 20
176.3767239999999
 30
0.0
 11
321.187714
 21
175.876724
 31
0.0
  0
LINE
  5
5E
330
1E
100
AcDbEntity
  8
0
  6
CONTINUOUS
100
AcDbLine
 10
308.239899
 20
147.354385
 30
0.0
 11
293.742096
 21
147.101196
 31
0.0
  0
ARC
  5
5F
330
1E
100
AcDbEntity
  8
0
  6
CONTINUOUS
100
AcDbCircle
 10
308.1875
 20
150.354034
 30
0.0
 40
3.0
100
AcDbArc
 50
271.000977
 51
0.0
  0
LINE
  5
60
330
1E
100
AcDbEntity
  8
0
  6
CONTINUOUS
100
AcDbLine
 10
320.6877749999999
 20
19.38564699999999
 30
0.0
 11
286.9121089999999
 21
19.975246
 31
0.0
  0
LINE
  5
61
330
1E
100
AcDbEntity
  8
0
  6
CONTINUOUS
100
AcDbLine
 10
326.187714
 20
109.376717
 30
0.0
 11
326.187714
 21
89.376717
 31
0.0
  0
LINE
  5
62
330
1E
100
AcDbEntity
  8
0
  6
CONTINUOUS
100
AcDbLine
 10
326.187714
 20
108.376656
 30
0.0
 11
356.187714
 21
108.3767169999999
 31
0.0
  0
LINE
  5
63
330
1E
100
AcDbEntity
  8
0
  6
CONTINUOUS
100
AcDbLine
 10
326.187714
 20
90.376717
 30
0.0
 11
356.187714
 21
90.376717
 31
0.0
  0
LINE
  5
64
330
1E
100
AcDbEntity
  8
0
  6
CONTINUOUS
100
AcDbLine
 10
356.187714
 20
108.3767169999999
 30
0.0
 11
356.187714
 21
90.376717
 31
0.0
  0
LINE
  5
65
330
1E
100
AcDbEntity
  8
0
  6
CONTINUOUS
100
AcDbLine
 10
332.187714
 20
102.3767169999999
 30
0.0
 11
356.187714
 21
102.3767169999999
 31
0.0
  0
LINE
  5
66
330
1E
100
AcDbEntity
  8
0
  6
CONTINUOUS
100
AcDbLine
 10
332.187714
 20
96.376717
 30
0.0
 11
356.187714
 21
96.376717
 31
0.0
  0
ARC
  5
67
330
1E
100
AcDbEntity
  8
0
  6
CONTINUOUS
100
AcDbCircle
 10
332.187714
 20
99.376717
 30
0.0
 40
3.0
100
AcDbArc
 50
90.0
 51
270.0
  0
LINE
  5
68
330
1E
100
AcDbEntity
  8
0
  6
CONTINUOUS
100
AcDbLine
 10
324.187714
 20
89.376717
 30
0.0
 11
326.187714
 21
89.376717
 31
0.0
  0
LINE
  5
69
330
1E
100
AcDbEntity
  8
0
  6
CONTINUOUS
100
AcDbLine
 10
324.187714
 20
109.376717
 30
0.0
 11
326.187714
 21
109.376717
 31
0.0
  0
LINE
  5
6A
330
1E
100
AcDbEntity
  8
0
  6
CONTINUOUS
100
AcDbLine
 10
260.1872859999999
 20
23.37660199999999
 30
0.0
 11
260.1875
 21
143.271011
 31
0.0
  0
LINE
  5
6B
330
1E
100
AcDbEntity
  8
0
  6
CONTINUOUS
100
AcDbLine
 10
265.3125
 20
43.37659799999999
 30
0.0
 11
261.5625
 21
43.37659799999999
 31
0.0
  0
LINE
  5
6C
330
1E
100
AcDbEntity
  8
0
  6
CONTINUOUS
100
AcDbLine
 10
265.3125
 20
29.376598
 30
0.0
 11
261.5625
 21
29.376598
 31
0.0
  0
LINE
  5
6D
330
1E
100
AcDbEntity
  8
0
  6
CONTINUOUS
100
AcDbLine
 10
251.6875
 20
140.376724
 30
0.0
 11
251.6875
 21
25.376719
 31
0.0
  0
LINE
  5
6E
330
1E
100
AcDbEntity
  8
0
  6
CONTINUOUS
100
AcDbLine
 10
251.6875
 20
140.376724
 30
0.0
 11
259.2191769999999
 21
140.6397249999999
 31
0.0
  0
LINE
  5
6F
330
1E
100
AcDbEntity
  8
0
  6
CENTER
100
AcDbLine
 10
325.6459659999999
 20
159.4808959999999
 30
0.0
 11
306.408234
 21
159.4808959999999
 31
0.0
  0
LINE
  5
70
330
1E
100
AcDbEntity
  8
0
  6
CENTER
100
AcDbLine
 10
325.6459659999999
 20
39.27253699999999
 30
0.0
 11
306.408234
 21
39.27253699999999
 31
0.0
  0
LINE
  5
71
330
1E
100
AcDbEntity
  8
0
  6
CONTINUOUS
100
AcDbLine
 10
251.6875
 20
413.181732
 30
0.0
 11
251.6875
 21
298.181732
 31
0.0
  0
ARC
  5
72
330
1E
100
AcDbEntity
  8
0
  6
CONTINUOUS
100
AcDbCircle
 10
259.1842649999999
 20
141.6391139999999
 30
0.0
 40
1.0
100
AcDbArc
 50
272.0
 51
359.884216
  0
LINE
  5
73
330
1E
100
AcDbEntity
  8
0
  6
CONTINUOUS
100
AcDbLine
 10
251.6875
 20
25.376719
 30
0.0
 11
259.2191769999999
 21
25.113707
 31
0.0
  0
ARC
  5
74
330
1E
100
AcDbEntity
  8
0
  6
CONTINUOUS
100
AcDbCircle
 10
259.1842649999999
 20
24.114317
 30
0.0
 40
1.0
100
AcDbArc
 50
0.1157839999999631
 51
87.99999999999997
  0
ARC
  5
75
330
1E
100
AcDbEntity
  8
0
  6
CONTINUOUS
100
AcDbCircle
 10
314.187714
 20
22.499571
 30
0.0
 40
3.0
100
AcDbArc
 50
180.0
 51
268.999939
  0
LINE
  5
76
330
1E
100
AcDbEntity
  8
0
  6
CONTINUOUS
100
AcDbLine
 10
320.6877749999999
 20
19.38564699999999
 30
0.0
 11
321.187714
 21
19.876919
 31
0.0
  0
LINE
  5
77
330
1E
100
AcDbEntity
  8
0
  6
CONTINUOUS
100
AcDbLine
 10
266.187836
 20
414.681702
 30
0.0
 11
261.468872
 21
414.5581359999999
 31
0.0
  0
ARC
  5
78
330
1E
100
AcDbEntity
  8
0
  6
CONTINUOUS
100
AcDbCircle
 10
261.5212099999999
 20
412.558807
 30
0.0
 40
2.0
100
AcDbArc
 50
91.5
 51
141.059448
  0
ARC
  5
79
330
1E
100
AcDbEntity
  8
0
  6
CONTINUOUS
100
AcDbCircle
 10
259.1878049999999
 20
296.9190669999999
 30
0.0
 40
1.0
100
AcDbArc
 50
38.94055200000002
 51
88.00079300000003
  0
LINE
  5
7A
330
1E
100
AcDbEntity
  8
0
  6
CONTINUOUS
100
AcDbLine
 10
266.187836
 20
296.681732
 30
0.0
 11
261.468872
 21
296.8052979999999
 31
0.0
  0
ARC
  5
7B
330
1E
100
AcDbEntity
  8
0
  6
CONTINUOUS
100
AcDbCircle
 10
261.5212099999999
 20
298.8046259999999
 30
0.0
 40
2.0
100
AcDbArc
 50
218.940552
 51
268.5
  0
LINE
  5
7C
330
1E
100
AcDbEntity
  8
0
  6
CONTINUOUS
100
AcDbLine
 10
262.135132
 20
145.270325
 30
0.0
 11
266.187683
 21
145.376434
 31
0.0
  0
ARC
  5
7D
330
1E
100
AcDbEntity
  8
0
  6
CONTINUOUS
100
AcDbCircle
 10
262.1875
 20
143.271011
 30
0.0
 40
2.0
100
AcDbArc
 50
91.5
 51
180.0
  0
LINE
  5
7E
330
1E
100
AcDbEntity
  8
0
  6
CONTINUOUS
100
AcDbLine
 10
266.187439
 20
21.376598
 30
0.0
 11
262.1872859999999
 21
21.376598
 31
0.0
  0
ARC
  5
7F
330
1E
100
AcDbEntity
  8
0
  6
CONTINUOUS
100
AcDbCircle
 10
262.1872859999999
 20
23.376598
 30
0.0
 40
2.0
100
AcDbArc
 50
180.0
 51
270.0
  0
LINE
  5
80
330
1E
100
AcDbEntity
  8
0
  6
CONTINUOUS
100
AcDbLine
 10
329.187714
 20
347.196716
 30
0.0
 11
356.187714
 21
347.196716
 31
0.0
  0
LINE
  5
81
330
1E
100
AcDbEntity
  8
0
  6
DASHED
100
AcDbLine
 10
321.187714
 20
421.2858889999999
 30
0.0
 11
311.1876829999999
 21
421.2858889999999
 31
0.0
  0
LINE
  5
82
330
1E
100
AcDbEntity
  8
0
  6
DASHED
100
AcDbLine
 10
321.187714
 20
410.285889
 30
0.0
 11
311.1876829999999
 21
410.285889
 31
0.0
  0
LINE
  5
83
330
1E
100
AcDbEntity
  8
0
  6
DASHED
100
AcDbLine
 10
321.1878049999999
 20
301.077545
 30
0.0
 11
311.187775
 21
301.077545
 31
0.0
  0
LINE
  5
84
330
1E
100
AcDbEntity
  8
0
  6
DASHED
100
AcDbLine
 10
321.1878049999999
 20
290.077545
 30
0.0
 11
311.187775
 21
290.077545
 31
0.0
  0
LINE
  5
85
330
1E
100
AcDbEntity
  8
0
  6
DASHED
100
AcDbLine
 10
321.1875609999999
 20
164.980896
 30
0.0
 11
311.1875309999999
 21
164.980896
 31
0.0
  0
LINE
  5
86
330
1E
100
AcDbEntity
  8
0
  6
DASHED
100
AcDbLine
 10
321.1875609999999
 20
153.980896
 30
0.0
 11
311.1875309999999
 21
153.980896
 31
0.0
  0
LINE
  5
87
330
1E
100
AcDbEntity
  8
0
  6
DASHED
100
AcDbLine
 10
321.1875609999999
 20
44.772537
 30
0.0
 11
311.1875309999999
 21
44.772537
 31
0.0
  0
LINE
  5
88
330
1E
100
AcDbEntity
  8
0
  6
DASHED
100
AcDbLine
 10
321.1875609999999
 20
33.772537
 30
0.0
 11
311.1875309999999
 21
33.772537
 31
0.0
  0
LINE
  5
89
330
1E
100
AcDbEntity
  8
0
  6
CONTINUOUS
100
AcDbLine
 10
158.6875
 20
413.181732
 30
0.0
 11
158.6875
 21
298.181732
 31
0.0
  0
LINE
  5
8A
330
1E
100
AcDbEntity
  8
0
  6
CONTINUOUS
100
AcDbLine
 10
246.6874999999999
 20
413.181732
 30
0.0
 11
251.6875
 21
413.181732
 31
0.0
  0
LINE
  5
8B
330
1E
100
AcDbEntity
  8
0
  6
CONTINUOUS
100
AcDbLine
 10
246.6874999999999
 20
298.181732
 30
0.0
 11
251.6875
 21
298.181732
 31
0.0
  0
LINE
  5
8C
330
1E
100
AcDbEntity
  8
0
  6
CONTINUOUS
100
AcDbLine
 10
246.6874999999999
 20
413.181732
 30
0.0
 11
246.6874999999999
 21
298.181732
 31
0.0
  0
LINE
  5
8D
330
1E
100
AcDbEntity
  8
0
  6
CONTINUOUS
100
AcDbLine
 10
238.6874999999999
 20
300.431732
 30
0.0
 11
238.6874999999999
 21
410.931732
 31
0.0
  0
LINE
  5
8E
330
1E
100
AcDbEntity
  8
0
  6
CONTINUOUS
100
AcDbLine
 10
175.6874999999999
 20
298.431732
 30
0.0
 11
175.6874999999999
 21
412.931732
 31
0.0
  0
LINE
  5
8F
330
1E
100
AcDbEntity
  8
0
  6
CONTINUOUS
100
AcDbLine
 10
183.6875
 20
300.431732
 30
0.0
 11
183.6875
 21
410.931732
 31
0.0
  0
LINE
  5
90
330
1E
100
AcDbEntity
  8
0
  6
CONTINUOUS
100
AcDbLine
 10
158.6875
 20
412.931732
 30
0.0
 11
181.6874999999999
 21
412.931732
 31
0.0
  0
LINE
  5
91
330
1E
100
AcDbEntity
  8
0
  6
CONTINUOUS
100
AcDbLine
 10
158.6875
 20
298.431732
 30
0.0
 11
167.187683
 21
298.431732
 31
0.0
  0
LINE
  5
92
330
1E
100
AcDbEntity
  8
0
  6
CONTINUOUS
100
AcDbLine
 10
240.6874999999999
 20
298.431732
 30
0.0
 11
246.6874999999999
 21
298.431732
 31
0.0
  0
LINE
  5
93
330
1E
100
AcDbEntity
  8
0
  6
CONTINUOUS
100
AcDbLine
 10
240.6874999999999
 20
412.931732
 30
0.0
 11
246.6874999999999
 21
412.931732
 31
0.0
  0
ARC
  5
94
330
1E
100
AcDbEntity
  8
0
  6
CONTINUOUS
100
AcDbCircle
 10
181.6874999999999
 20
410.931732
 30
0.0
 40
2.0
100
AcDbArc
 50
0.0
 51
90.0
  0
ARC
  5
95
330
1E
100
AcDbEntity
  8
0
  6
CONTINUOUS
100
AcDbCircle
 10
240.6874999999999
 20
410.931732
 30
0.0
 40
2.0
100
AcDbArc
 50
90.0
 51
180.0
  0
LINE
  5
96
330
1E
100
AcDbEntity
  8
0
  6
CONTINUOUS
100
AcDbLine
 10
185.284378
 20
410.681732
 30
0.0
 11
237.090622
 21
410.681732
 31
0.0
  0
ARC
  5
97
330
1E
100
AcDbEntity
  8
0
  6
CONTINUOUS
100
AcDbCircle
 10
237.090622
 20
412.6817319999999
 30
0.0
 40
2.0
100
AcDbArc
 50
270.0
 51
334.0555109999999
  0
ARC
  5
98
330
1E
100
AcDbEntity
  8
0
  6
CONTINUOUS
100
AcDbCircle
 10
185.284378
 20
412.6817319999999
 30
0.0
 40
2.0
100
AcDbArc
 50
205.944473
 51
270.0
  0
ARC
  5
99
330
1E
100
AcDbEntity
  8
0
  6
CONTINUOUS
100
AcDbCircle
 10
181.6874999999999
 20
300.431732
 30
0.0
 40
2.0
100
AcDbArc
 50
270.0
 51
0.0
  0
ARC
  5
9A
330
1E
100
AcDbEntity
  8
0
  6
CONTINUOUS
100
AcDbCircle
 10
240.6874999999999
 20
300.431732
 30
0.0
 40
2.0
100
AcDbArc
 50
180.0
 51
270.0
  0
LINE
  5
9B
330
1E
100
AcDbEntity
  8
0
  6
CONTINUOUS
100
AcDbLine
 10
185.284378
 20
300.681732
 30
0.0
 11
217.187683
 21
300.681732
 31
0.0
  0
ARC
  5
9C
330
1E
100
AcDbEntity
  8
0
  6
CONTINUOUS
100
AcDbCircle
 10
237.090622
 20
298.681732
 30
0.0
 40
2.0
100
AcDbArc
 50
25.94448900000003
 51
90.0
  0
ARC
  5
9D
330
1E
100
AcDbEntity
  8
0
  6
CONTINUOUS
100
AcDbCircle
 10
185.284378
 20
298.681732
 30
0.0
 40
2.0
100
AcDbArc
 50
90.0
 51
154.055527
  0
LINE
  5
9E
330
1E
100
AcDbEntity
  8
0
  6
CONTINUOUS
100
AcDbLine
 10
185.284378
 20
322.681732
 30
0.0
 11
237.090622
 21
322.681732
 31
0.0
  0
LINE
  5
9F
330
1E
100
AcDbEntity
  8
0
  6
CONTINUOUS
100
AcDbLine
 10
185.284378
 20
388.681732
 30
0.0
 11
237.090622
 21
388.681732
 31
0.0
  0
LINE
  5
A0
330
1E
100
AcDbEntity
  8
0
  6
CONTINUOUS
100
AcDbLine
 10
214.6875
 20
301.181732
 30
0.0
 11
222.6875
 21
301.181732
 31
0.0
  0
LINE
  5
A1
330
1E
100
AcDbEntity
  8
0
  6
CONTINUOUS
100
AcDbLine
 10
222.6875
 20
303.710571
 30
0.0
 11
222.6875
 21
301.181732
 31
0.0
  0
LINE
  5
A2
330
1E
100
AcDbEntity
  8
0
  6
CONTINUOUS
100
AcDbLine
 10
214.6875
 20
303.710571
 30
0.0
 11
214.6875
 21
301.181732
 31
0.0
  0
LINE
  5
A3
330
1E
100
AcDbEntity
  8
0
  6
CONTINUOUS
100
AcDbLine
 10
167.998611
 20
300.8182979999999
 30
0.0
 11
167.185806
 21
300.739014
 31
0.0
  0
LINE
  5
A4
330
1E
100
AcDbEntity
  8
0
  6
CONTINUOUS
100
AcDbLine
 10
167.1864469999999
 20
300.737366
 30
0.0
 11
166.5660249999999
 21
300.5020449999999
 31
0.0
  0
LINE
  5
A5
330
1E
100
AcDbEntity
  8
0
  6
CONTINUOUS
100
AcDbLine
 10
166.5513459999999
 20
300.518799
 30
0.0
 11
166.3177489999999
 21
300.3144229999999
 31
0.0
  0
LINE
  5
A6
330
1E
100
AcDbEntity
  8
0
  6
CONTINUOUS
100
AcDbLine
 10
166.3290409999999
 20
300.301514
 30
0.0
 11
166.35054
 21
300.043549
 31
0.0
  0
LINE
  5
A7
330
1E
100
AcDbEntity
  8
0
  6
CONTINUOUS
100
AcDbLine
 10
166.3837279999999
 20
300.046295
 30
0.0
 11
166.5477909999999
 21
299.900482
 31
0.0
  0
LINE
  5
A8
330
1E
100
AcDbEntity
  8
0
  6
CONTINUOUS
100
AcDbLine
 10
166.541183
 20
299.863037
 30
0.0
 11
166.948837
 21
299.791107
 31
0.0
  0
LINE
  5
A9
330
1E
100
AcDbEntity
  8
0
  6
CONTINUOUS
100
AcDbLine
 10
166.9516449999999
 20
299.8135379999999
 30
0.0
 11
167.187683
 21
299.7840269999999
 31
0.0
  0
LINE
  5
AA
330
1E
100
AcDbEntity
  8
0
  6
CONTINUOUS
100
AcDbLine
 10
169.3368529999999
 20
300.8483889999999
 30
0.0
 11
169.7196659999999
 21
300.7572329999999
 31
0.0
  0
LINE
  5
AB
330
1E
100
AcDbEntity
  8
0
  6
CONTINUOUS
100
AcDbLine
 10
169.7196659999999
 20
300.7572329999999
 30
0.0
 11
170.248306
 21
300.666107
 31
0.0
  0
LINE
  5
AC
330
1E
100
AcDbEntity
  8
0
  6
CONTINUOUS
100
AcDbLine
 10
170.248306
 20
300.666107
 30
0.0
 11
170.5946659999999
 21
300.59317
 31
0.0
  0
LINE
  5
AD
330
1E
100
AcDbEntity
  8
0
  6
CONTINUOUS
100
AcDbLine
 10
170.5946659999999
 20
300.59317
 30
0.0
 11
170.776962
 21
300.520264
 31
0.0
  0
LINE
  5
AE
330
1E
100
AcDbEntity
  8
0
  6
CONTINUOUS
100
AcDbLine
 10
170.8083799999999
 20
300.550446
 30
0.0
 11
170.9592439999999
 21
300.37442
 31
0.0
  0
LINE
  5
AF
330
1E
100
AcDbEntity
  8
0
  6
CONTINUOUS
100
AcDbLine
 10
170.9592439999999
 20
300.356201
 30
0.0
 11
171.0449219999999
 21
300.184845
 31
0.0
  0
LINE
  5
B0
330
1E
100
AcDbEntity
  8
0
  6
CONTINUOUS
100
AcDbLine
 10
170.995712
 20
300.137451
 30
0.0
 11
170.8498689999999
 21
299.9916079999999
 31
0.0
  0
LINE
  5
B1
330
1E
100
AcDbEntity
  8
0
  6
CONTINUOUS
100
AcDbLine
 10
170.838135
 20
299.9576419999999
 30
0.0
 11
170.339462
 21
299.827545
 31
0.0
  0
LINE
  5
B2
330
1E
100
AcDbEntity
  8
0
  6
CONTINUOUS
100
AcDbLine
 10
170.3306729999999
 20
299.811523
 30
0.0
 11
170.187683
 21
299.804688
 31
0.0
  0
LINE
  5
B3
330
1E
100
AcDbEntity
  8
0
  6
CONTINUOUS
100
AcDbLine
 10
167.998611
 20
300.8182979999999
 30
0.0
 11
168.279572
 21
300.8255919999999
 31
0.0
  0
LINE
  5
B4
330
1E
100
AcDbEntity
  8
0
  6
CONTINUOUS
100
AcDbLine
 10
168.279572
 20
300.8255919999999
 30
0.0
 11
168.8628999999999
 21
300.834717
 31
0.0
  0
LINE
  5
B5
330
1E
100
AcDbEntity
  8
0
  6
CONTINUOUS
100
AcDbLine
 10
168.8628999999999
 20
300.834717
 30
0.0
 11
169.3368529999999
 21
300.8483889999999
 31
0.0
  0
ARC
  5
B6
330
1E
100
AcDbEntity
  8
0
  6
CONTINUOUS
100
AcDbCircle
 10
218.6875
 20
294.54541
 30
0.0
 40
10.0
100
AcDbArc
 50
66.42182199999999
 51
113.578178
  0
LINE
  5
B7
330
1E
100
AcDbEntity
  8
0
  6
CONTINUOUS
100
AcDbLine
 10
175.6874999999999
 20
140.126831
 30
0.0
 11
175.6874999999999
 21
25.626831
 31
0.0
  0
LINE
  5
B8
330
1E
100
AcDbEntity
  8
0
  6
CONTINUOUS
100
AcDbLine
 10
175.6874999999999
 20
140.126831
 30
0.0
 11
158.6875
 21
140.126831
 31
0.0
  0
LINE
  5
B9
330
1E
100
AcDbEntity
  8
0
  6
CONTINUOUS
100
AcDbLine
 10
175.6874999999999
 20
25.626831
 30
0.0
 11
158.6875
 21
25.626831
 31
0.0
  0
LINE
  5
BA
330
1E
100
AcDbEntity
  8
0
  6
CONTINUOUS
100
AcDbLine
 10
168.6875
 20
96.876831
 30
0.0
 11
168.6875
 21
71.12683100000001
 31
0.0
  0
LINE
  5
BB
330
1E
100
AcDbEntity
  8
0
  6
CONTINUOUS
100
AcDbLine
 10
170.1875
 20
96.876831
 30
0.0
 11
170.1875
 21
70.18933100000001
 31
0.0
  0
LINE
  5
BC
330
1E
100
AcDbEntity
  8
0
  6
CONTINUOUS
100
AcDbLine
 10
167.1875
 20
96.876831
 30
0.0
 11
167.1875
 21
70.586838
 31
0.0
  0
LINE
  5
BD
330
1E
100
AcDbEntity
  8
0
  6
CONTINUOUS
100
AcDbLine
 10
167.1875
 20
70.586838
 30
0.0
 11
168.662506
 21
72.28308100000001
 31
0.0
  0
LINE
  5
BE
330
1E
100
AcDbEntity
  8
0
  6
CONTINUOUS
100
AcDbLine
 10
168.691925
 20
71.134186
 30
0.0
 11
170.2084659999999
 21
70.22425799999999
 31
0.0
  0
ARC
  5
BF
330
1E
100
AcDbEntity
  8
0
  6
CONTINUOUS
100
AcDbCircle
 10
169.4374999999999
 20
96.876831
 30
0.0
 40
0.75
100
AcDbArc
 50
0.0
 51
180.0
  0
ARC
  5
C0
330
1E
100
AcDbEntity
  8
0
  6
CONTINUOUS
100
AcDbCircle
 10
167.9375
 20
96.876831
 30
0.0
 40
0.75
100
AcDbArc
 50
0.0
 51
180.0
  0
ARC
  5
C1
330
1E
100
AcDbEntity
  8
0
  6
CONTINUOUS
100
AcDbCircle
 10
168.6875
 20
96.876831
 30
0.0
 40
3.0
100
AcDbArc
 50
300.0000609999999
 51
239.999893
  0
LINE
  5
C2
330
1E
100
AcDbEntity
  8
0
  6
CONTINUOUS
100
AcDbLine
 10
158.6875
 20
140.376831
 30
0.0
 11
158.6875
 21
25.376831
 31
0.0
  0
LINE
  5
C3
330
1E
100
AcDbEntity
  8
0
  6
CONTINUOUS
100
AcDbLine
 10
246.6874999999999
 20
140.376831
 30
0.0
 11
251.6875
 21
140.376831
 31
0.0
  0
LINE
  5
C4
330
1E
100
AcDbEntity
  8
0
  6
CONTINUOUS
100
AcDbLine
 10
246.6874999999999
 20
25.376831
 30
0.0
 11
251.6875
 21
25.376831
 31
0.0
  0
LINE
  5
C5
330
1E
100
AcDbEntity
  8
0
  6
CONTINUOUS
100
AcDbLine
 10
246.6874999999999
 20
140.376831
 30
0.0
 11
246.6874999999999
 21
25.376831
 31
0.0
  0
LINE
  5
C6
330
1E
100
AcDbEntity
  8
0
  6
CENTER
100
AcDbLine
 10
446.0
 20
82.87696099999999
 30
0.0
 11
669.6921999999999
 21
82.87696099999999
 31
0.0
  0
LINE
  5
C7
330
1E
100
AcDbEntity
  8
0
  6
CENTER
100
AcDbLine
 10
570.752197
 20
194.5669559999999
 30
0.0
 11
570.752197
 21
-1.853036999999999
 31
0.0
  0
CIRCLE
  5
C8
330
1E
100
AcDbEntity
  8
0
  6
CONTINUOUS
100
AcDbCircle
 10
630.8562009999999
 20
159.4811399999999
 30
0.0
 40
5.5
  0
CIRCLE
  5
C9
330
1E
100
AcDbEntity
  8
0
  6
CONTINUOUS
100
AcDbCircle
 10
510.6479799999999
 20
39.27284199999999
 30
0.0
 40
5.5
  0
CIRCLE
  5
CA
330
1E
100
AcDbEntity
  8
0
  6
CONTINUOUS
100
AcDbCircle
 10
510.6479799999999
 20
159.4811399999999
 30
0.0
 40
5.5
  0
LINE
  5
CB
330
1E
100
AcDbEntity
  8
0
  6
CENTER
100
AcDbLine
 10
496.036987
 20
174.0917969999999
 30
0.0
 11
644.9624019999999
 21
25.167063
 31
0.0
  0
CIRCLE
  5
CC
330
1E
100
AcDbEntity
  8
0
  6
CONTINUOUS
100
AcDbCircle
 10
630.8563839999999
 20
39.27284199999999
 30
0.0
 40
5.5
  0
CIRCLE
  5
CD
330
1E
100
AcDbEntity
  8
0
  6
CONTINUOUS
100
AcDbCircle
 10
570.752197
 20
99.376961
 30
0.0
 40
72.5
  0
CIRCLE
  5
CE
330
1E
100
AcDbEntity
  8
0
  6
CONTINUOUS
100
AcDbCircle
 10
570.752197
 20
99.376961
 30
0.0
 40
67.5
  0
LINE
  5
CF
330
1E
100
AcDbEntity
  8
0
  6
CONTINUOUS
100
AcDbLine
 10
573.252197
 20
163.642166
 30
0.0
 11
573.2520139999999
 21
144.130569
 31
0.0
  0
LINE
  5
D0
330
1E
100
AcDbEntity
  8
0
  6
CONTINUOUS
100
AcDbLine
 10
568.252197
 20
163.642166
 30
0.0
 11
568.2520139999999
 21
144.130569
 31
0.0
  0
ARC
  5
D1
330
1E
100
AcDbEntity
  8
0
  6
CONTINUOUS
100
AcDbCircle
 10
565.252197
 20
163.642166
 30
0.0
 40
3.0
100
AcDbArc
 50
0.0
 51
94.89611100000002
  0
ARC
  5
D2
330
1E
100
AcDbEntity
  8
0
  6
CONTINUOUS
100
AcDbCircle
 10
576.25238
 20
163.642166
 30
0.0
 40
3.0
100
AcDbArc
 50
85.10858199999999
 51
180.0
  0
CIRCLE
  5
D3
330
1E
100
AcDbEntity
  8
0
  6
CONTINUOUS
100
AcDbCircle
 10
630.8562009999999
 20
159.480759
 30
0.0
 40
5.5
  0
LINE
  5
D4
330
1E
100
AcDbEntity
  8
0
  6
CENTER
100
AcDbLine
 10
472.1221919999999
 20
99.376717
 30
0.0
 11
669.6921999999999
 21
99.376717
 31
0.0
  0
CIRCLE
  5
D5
330
1E
100
AcDbEntity
  8
0
  6
CONTINUOUS
100
AcDbCircle
 10
630.8563839999999
 20
39.272781
 30
0.0
 40
5.5
  0
CIRCLE
  5
D6
330
1E
100
AcDbEntity
  8
0
  6
CONTINUOUS
100
AcDbCircle
 10
510.648193
 20
159.480759
 30
0.0
 40
5.5
  0
CIRCLE
  5
D7
330
1E
100
AcDbEntity
  8
0
  6
CONTINUOUS
100
AcDbCircle
 10
510.6479799999999
 20
39.272781
 30
0.0
 40
5.5
  0
LINE
  5
D8
330
1E
100
AcDbEntity
  8
0
  6
CENTER
100
AcDbLine
 10
496.582184
 20
25.206984
 30
0.0
 11
644.357178
 21
172.9820399999999
 31
0.0
  0
LINE
  5
D9
330
1E
100
AcDbEntity
  8
0
  6
CONTINUOUS
100
AcDbLine
 10
614.4265749999999
 20
146.5869599999999
 30
0.0
 11
602.4929809999999
 21
134.653168
 31
0.0
  0
LINE
  5
DA
330
1E
100
AcDbEntity
  8
0
  6
CONTINUOUS
100
AcDbLine
 10
617.962158
 20
143.0515589999999
 30
0.0
 11
607.5377809999999
 21
132.626968
 31
0.0
  0
LINE
  5
DB
330
1E
100
AcDbEntity
  8
0
  6
CONTINUOUS
100
AcDbLine
 10
527.077759
 20
146.586761
 30
0.0
 11
539.0115969999999
 21
134.653366
 31
0.0
  0
LINE
  5
DC
330
1E
100
AcDbEntity
  8
0
  6
CONTINUOUS
100
AcDbLine
 10
523.5419919999999
 20
143.051361
 30
0.0
 11
533.9666139999999
 21
132.6271669999999
 31
0.0
  0
ARC
  5
DD
330
1E
100
AcDbEntity
  8
0
  6
CONTINUOUS
100
AcDbCircle
 10
521.4207759999999
 20
140.9301609999999
 30
0.0
 40
3.0
100
AcDbArc
 50
45.00037
 51
139.895996
  0
ARC
  5
DE
330
1E
100
AcDbEntity
  8
0
  6
CONTINUOUS
100
AcDbCircle
 10
529.1989749999999
 20
148.708557
 30
0.0
 40
3.0
100
AcDbArc
 50
130.112
 51
225.000397
  0
ARC
  5
DF
330
1E
100
AcDbEntity
  8
0
  6
CONTINUOUS
100
AcDbCircle
 10
612.3049929999999
 20
148.708557
 30
0.0
 40
3.0
100
AcDbArc
 50
315.000061
 51
49.89213899999999
  0
ARC
  5
E0
330
1E
100
AcDbEntity
  8
0
  6
CONTINUOUS
100
AcDbCircle
 10
620.0830080000001
 20
140.930756
 30
0.0
 40
3.0
100
AcDbArc
 50
40.109409
 51
135.000504
  0
CIRCLE
  5
E1
330
1E
100
AcDbEntity
  8
0
  6
CONTINUOUS
100
AcDbCircle
 10
570.752197
 20
99.376961
 30
0.0
 40
25.0
  0
ARC
  5
E2
330
1E
100
AcDbEntity
  8
0
  6
CONTINUOUS
100
AcDbCircle
 10
570.752197
 20
-323.623047
 30
0.0
 40
500.0
100
AcDbArc
 50
90.0
 51
97.01584599999998
  0
ARC
  5
E3
330
1E
100
AcDbEntity
  8
0
  6
CONTINUOUS
100
AcDbCircle
 10
993.7523800000001
 20
99.376961
 30
0.0
 40
500.0
100
AcDbArc
 50
172.9842989999999
 51
187.0657959999999
  0
ARC
  5
E4
330
1E
100
AcDbEntity
  8
0
  6
CONTINUOUS
100
AcDbCircle
 10
570.752197
 20
319.3771669999999
 30
0.0
 40
300.0
100
AcDbArc
 50
258.0314029999999
 51
270.0
  0
ARC
  5
E5
330
1E
100
AcDbEntity
  8
0
  6
CONTINUOUS
100
AcDbCircle
 10
570.752197
 20
-323.623047
 30
0.0
 40
500.0
100
AcDbArc
 50
82.98415400000001
 51
90.0
  0
ARC
  5
E6
330
1E
100
AcDbEntity
  8
0
  6
CONTINUOUS
100
AcDbCircle
 10
147.7521819999999
 20
99.376961
 30
0.0
 40
500.0
100
AcDbArc
 50
352.934204
 51
7.015738
  0
ARC
  5
E7
330
1E
100
AcDbEntity
  8
0
  6
CONTINUOUS
100
AcDbCircle
 10
570.752197
 20
319.3771669999999
 30
0.0
 40
300.0
100
AcDbArc
 50
270.0
 51
281.968597
  0
ARC
  5
E8
330
1E
100
AcDbEntity
  8
0
  6
CONTINUOUS
100
AcDbCircle
 10
511.391174
 20
158.737961
 30
0.0
 40
14.0
100
AcDbArc
 50
97.01622
 51
172.9846039999999
  0
ARC
  5
E9
330
1E
100
AcDbEntity
  8
0
  6
CONTINUOUS
100
AcDbCircle
 10
511.443176
 20
39.594242
 30
0.0
 40
14.0
100
AcDbArc
 50
187.0657959999999
 51
258.0313109999999
  0
ARC
  5
EA
330
1E
100
AcDbEntity
  8
0
  6
CONTINUOUS
100
AcDbCircle
 10
630.0614009999999
 20
39.594242
 30
0.0
 40
14.0
100
AcDbArc
 50
281.968689
 51
352.934387
  0
ARC
  5
EB
330
1E
100
AcDbEntity
  8
0
  6
CONTINUOUS
100
AcDbCircle
 10
630.113403
 20
158.737961
 30
0.0
 40
14.0
100
AcDbArc
 50
7.015888000000001
 51
82.98428299999999
  0
ARC
  5
EC
330
1E
100
AcDbEntity
  8
0
  6
CONTINUOUS
100
AcDbCircle
 10
570.752197
 20
82.87696099999999
 30
0.0
 40
58.5
100
AcDbArc
 50
10.47961
 51
50.75555
  0
ARC
  5
ED
330
1E
100
AcDbEntity
  8
0
  6
CONTINUOUS
100
AcDbCircle
 10
508.403992
 20
94.88477299999999
 30
0.0
 40
5.0
100
AcDbArc
 50
180.375198
 51
351.7832029999999
  0
ARC
  5
EE
330
1E
100
AcDbEntity
  8
0
  6
CONTINUOUS
100
AcDbCircle
 10
633.1119999999999
 20
94.789375
 30
0.0
 40
5.0
100
AcDbArc
 50
186.891098
 51
2.124938
  0
ARC
  5
EF
330
1E
100
AcDbEntity
  8
0
  6
CONTINUOUS
100
AcDbCircle
 10
531.845398
 20
130.5059659999999
 30
0.0
 40
3.0
100
AcDbArc
 50
309.244808
 51
45.00119
  0
ARC
  5
F0
330
1E
100
AcDbEntity
  8
0
  6
CONTINUOUS
100
AcDbCircle
 10
541.132568
 20
136.7743679999999
 30
0.0
 40
3.0
100
AcDbArc
 50
217.102707
 51
298.791687
  0
ARC
  5
F1
330
1E
100
AcDbEntity
  8
0
  6
CONTINUOUS
100
AcDbCircle
 10
565.2520139999999
 20
144.130569
 30
0.0
 40
3.0
100
AcDbArc
 50
275.131287
 51
0.0
  0
ARC
  5
F2
330
1E
100
AcDbEntity
  8
0
  6
CONTINUOUS
100
AcDbCircle
 10
576.2515869999999
 20
144.130569
 30
0.0
 40
3.0
100
AcDbArc
 50
180.0
 51
264.869904
  0
ARC
  5
F3
330
1E
100
AcDbEntity
  8
0
  6
CONTINUOUS
100
AcDbCircle
 10
600.3720089999999
 20
136.7743679999999
 30
0.0
 40
3.0
100
AcDbArc
 50
241.208298
 51
315.0004879999999
  0
ARC
  5
F4
330
1E
100
AcDbEntity
  8
0
  6
CONTINUOUS
100
AcDbCircle
 10
609.658997
 20
130.5059659999999
 30
0.0
 40
3.0
100
AcDbArc
 50
135.0
 51
230.7556
  0
ARC
  5
F5
330
1E
100
AcDbEntity
  8
0
  6
CONTINUOUS
100
AcDbCircle
 10
570.752197
 20
82.87696099999999
 30
0.0
 40
58.5
100
AcDbArc
 50
61.208549
 51
84.86953699999999
  0
ARC
  5
F6
330
1E
100
AcDbEntity
  8
0
  6
CONTINUOUS
100
AcDbCircle
 10
570.752197
 20
82.87696099999999
 30
0.0
 40
58.5
100
AcDbArc
 50
95.13099699999999
 51
118.7911
  0
ARC
  5
F7
330
1E
100
AcDbEntity
  8
0
  6
CONTINUOUS
100
AcDbCircle
 10
570.752197
 20
82.87696099999999
 30
0.0
 40
58.5
100
AcDbArc
 50
129.244507
 51
169.327896
  0
CIRCLE
  5
F8
330
1E
100
AcDbEntity
  8
0
  6
CENTER
100
AcDbCircle
 10
570.752197
 20
99.376961
 30
0.0
 40
85.0
  0
ARC
  5
F9
330
1E
100
AcDbEntity
  8
0
  6
CONTINUOUS
100
AcDbCircle
 10
570.752197
 20
99.376961
 30
0.0
 40
9.0
100
AcDbArc
 50
199.4729
 51
160.530396
  0
LINE
  5
FA
330
1E
100
AcDbEntity
  8
0
  6
CONTINUOUS
100
AcDbLine
 10
565.252197
 20
102.3767169999999
 30
0.0
 11
565.252197
 21
96.376717
 31
0.0
  0
LINE
  5
FB
330
1E
100
AcDbEntity
  8
0
  6
CONTINUOUS
100
AcDbLine
 10
559.2520139999999
 20
102.3767169999999
 30
0.0
 11
559.2520139999999
 21
96.376717
 31
0.0
  0
LINE
  5
FC
330
1E
100
AcDbEntity
  8
0
  6
CONTINUOUS
100
AcDbLine
 10
559.2520139999999
 20
102.3767169999999
 30
0.0
 11
565.252197
 21
102.3767169999999
 31
0.0
  0
LINE
  5
FD
330
1E
100
AcDbEntity
  8
0
  6
CONTINUOUS
100
AcDbLine
 10
559.2520139999999
 20
96.376717
 30
0.0
 11
565.252197
 21
96.376717
 31
0.0
  0
LINE
  5
FE
330
1E
100
AcDbEntity
  8
0
  6
CONTINUOUS
100
AcDbLine
 10
589.883362
 20
18.376963
 30
0.0
 11
551.6209719999999
 21
18.376963
 31
0.0
  0
ARC
  5
FF
330
1E
100
AcDbEntity
  8
0
  6
CONTINUOUS
100
AcDbCircle
 10
570.752197
 20
82.87696099999999
 30
0.0
 40
67.5
100
AcDbArc
 50
287.824188
 51
292.4334109999999
  0
ARC
  5
100
330
1E
100
AcDbEntity
  8
0
  6
CONTINUOUS
100
AcDbCircle
 10
551.6209719999999
 20
23.376963
 30
0.0
 40
5.0
100
AcDbArc
 50
252.1757969999999
 51
270.0
  0
ARC
  5
101
330
1E
100
AcDbEntity
  8
0
  6
CONTINUOUS
100
AcDbCircle
 10
589.883362
 20
23.376963
 30
0.0
 40
5.0
100
AcDbArc
 50
270.0
 51
287.8242259999999
  0
ARC
  5
102
330
1E
100
AcDbEntity
  8
0
  6
CONTINUOUS
100
AcDbCircle
 10
570.752197
 20
82.87696099999999
 30
0.0
 40
67.5
100
AcDbArc
 50
247.5668029999999
 51
252.175797
  0
LINE
  5
103
330
1E
100
AcDbEntity
  8
0
  6
CONTINUOUS
100
AcDbLine
 10
496.3136599999999
 20
48.832928
 30
0.0
 11
460.2521969999999
 21
47.876965
 31
0.0
  0
LINE
  5
104
330
1E
100
AcDbEntity
  8
0
  6
CONTINUOUS
100
AcDbLine
 10
494.062347
 20
116.980247
 30
0.0
 11
460.2521969999999
 21
117.876961
 31
0.0
  0
LINE
  5
105
330
1E
100
AcDbEntity
  8
0
  6
CONTINUOUS
100
AcDbLine
 10
454.252197
 20
50.376965
 30
0.0
 11
454.252197
 21
115.376961
 31
0.0
  0
LINE
  5
106
330
1E
100
AcDbEntity
  8
0
  6
CONTINUOUS
100
AcDbLine
 10
456.7521969999999
 20
117.876961
 30
0.0
 11
459.2521969999999
 21
117.876961
 31
0.0
  0
LINE
  5
107
330
1E
100
AcDbEntity
  8
0
  6
CONTINUOUS
100
AcDbLine
 10
456.7521969999999
 20
47.876965
 30
0.0
 11
459.2521969999999
 21
47.876965
 31
0.0
  0
LINE
  5
108
330
1E
100
AcDbEntity
  8
0
  6
CONTINUOUS
100
AcDbLine
 10
459.2521969999999
 20
117.876961
 30
0.0
 11
459.2521969999999
 21
47.876965
 31
0.0
  0
LINE
  5
109
330
1E
100
AcDbEntity
  8
0
  6
CONTINUOUS
100
AcDbLine
 10
460.2521969999999
 20
117.876961
 30
0.0
 11
460.2521969999999
 21
47.876965
 31
0.0
  0
LINE
  5
10A
330
1E
100
AcDbEntity
  8
0
  6
CONTINUOUS
100
AcDbLine
 10
459.2521969999999
 20
117.876961
 30
0.0
 11
460.2521969999999
 21
117.876961
 31
0.0
  0
LINE
  5
10B
330
1E
100
AcDbEntity
  8
0
  6
CONTINUOUS
100
AcDbLine
 10
459.2521969999999
 20
47.876965
 30
0.0
 11
460.2521969999999
 21
47.876965
 31
0.0
  0
LINE
  5
10C
330
1E
100
AcDbEntity
  8
0
  6
CONTINUOUS
100
AcDbLine
 10
457.2521969999999
 20
109.364059
 30
0.0
 11
457.2521969999999
 21
116.876961
 31
0.0
  0
LINE
  5
10D
330
1E
100
AcDbEntity
  8
0
  6
CONTINUOUS
100
AcDbLine
 10
457.2521969999999
 20
56.389904
 30
0.0
 11
457.2521969999999
 21
48.876965
 31
0.0
  0
LINE
  5
10E
330
1E
100
AcDbEntity
  8
0
  6
CONTINUOUS
100
AcDbLine
 10
456.7652889999999
 20
108.8642649999999
 30
0.0
 11
455.2259829999999
 21
108.823959
 31
0.0
  0
ARC
  5
10F
330
1E
100
AcDbEntity
  8
0
  6
CONTINUOUS
100
AcDbCircle
 10
456.7521969999999
 20
109.364059
 30
0.0
 40
0.5
100
AcDbArc
 50
271.4999999999999
 51
0.0
  0
ARC
  5
110
330
1E
100
AcDbEntity
  8
0
  6
CONTINUOUS
100
AcDbCircle
 10
455.2521969999999
 20
107.8242649999999
 30
0.0
 40
1.0
100
AcDbArc
 50
91.49980199999999
 51
180.0
  0
ARC
  5
111
330
1E
100
AcDbEntity
  8
0
  6
CONTINUOUS
100
AcDbCircle
 10
458.252197
 20
116.876961
 30
0.0
 40
1.0
100
AcDbArc
 50
90.0
 51
180.0
  0
ARC
  5
112
330
1E
100
AcDbEntity
  8
0
  6
CONTINUOUS
100
AcDbCircle
 10
456.7521969999999
 20
115.376961
 30
0.0
 40
2.5
100
AcDbArc
 50
90.0
 51
180.0
  0
LINE
  5
113
330
1E
100
AcDbEntity
  8
0
  6
CONTINUOUS
100
AcDbLine
 10
456.7652889999999
 20
56.889782
 30
0.0
 11
455.2259829999999
 21
56.930061
 31
0.0
  0
ARC
  5
114
330
1E
100
AcDbEntity
  8
0
  6
CONTINUOUS
100
AcDbCircle
 10
455.2521969999999
 20
57.929691
 30
0.0
 40
1.0
100
AcDbArc
 50
180.0
 51
268.4996029999999
  0
ARC
  5
115
330
1E
100
AcDbEntity
  8
0
  6
CONTINUOUS
100
AcDbCircle
 10
456.7521969999999
 20
56.389904
 30
0.0
 40
0.5
100
AcDbArc
 50
0.0
 51
88.49980200000002
  0
ARC
  5
116
330
1E
100
AcDbEntity
  8
0
  6
CONTINUOUS
100
AcDbCircle
 10
458.252197
 20
48.876965
 30
0.0
 40
1.0
100
AcDbArc
 50
180.0
 51
270.0
  0
ARC
  5
117
330
1E
100
AcDbEntity
  8
0
  6
CONTINUOUS
100
AcDbCircle
 10
456.7521969999999
 20
50.376965
 30
0.0
 40
2.5
100
AcDbArc
 50
180.0
 51
270.0
  0
ARC
  5
118
330
1E
100
AcDbEntity
  8
0
  6
CONTINUOUS
100
AcDbCircle
 10
457.2521969999999
 20
112.876961
 30
0.0
 40
3.0
100
AcDbArc
 50
90.0
 51
270.0
  0
LINE
  5
119
330
1E
100
AcDbEntity
  8
0
  6
CONTINUOUS
100
AcDbLine
 10
456.7521969999999
 20
115.834961
 30
0.0
 11
456.7521969999999
 21
109.918961
 31
0.0
  0
LINE
  5
11A
330
1E
100
AcDbEntity
  8
0
  6
CONTINUOUS
100
AcDbLine
 10
454.752197
 20
112.876961
 30
0.0
 11
454.2653809999999
 21
112.5958629999999
 31
0.0
  0
LINE
  5
11B
330
1E
100
AcDbEntity
  8
0
  6
CONTINUOUS
100
AcDbLine
 10
454.752197
 20
112.876961
 30
0.0
 11
454.2653809999999
 21
113.158066
 31
0.0
  0
ARC
  5
11C
330
1E
100
AcDbEntity
  8
0
  6
CONTINUOUS
100
AcDbCircle
 10
457.2521969999999
 20
52.876965
 30
0.0
 40
3.0
100
AcDbArc
 50
90.0
 51
270.0
  0
LINE
  5
11D
330
1E
100
AcDbEntity
  8
0
  6
CONTINUOUS
100
AcDbLine
 10
456.7521969999999
 20
55.834972
 30
0.0
 11
456.7521969999999
 21
49.918953
 31
0.0
  0
LINE
  5
11E
330
1E
100
AcDbEntity
  8
0
  6
CONTINUOUS
100
AcDbLine
 10
454.752197
 20
52.876965
 30
0.0
 11
454.2653809999999
 21
52.59589399999999
 31
0.0
  0
LINE
  5
11F
330
1E
100
AcDbEntity
  8
0
  6
CONTINUOUS
100
AcDbLine
 10
454.752197
 20
52.876965
 30
0.0
 11
454.2653809999999
 21
53.158092
 31
0.0
  0
LINE
  5
126
330
1E
100
AcDbEntity
  8
0
  6
CONTINUOUS
100
AcDbLine
 10
46.6875
 20
413.181732
 30
0.0
 11
158.6875
 21
413.181732
 31
0.0
  0
LINE
  5
127
330
1E
100
AcDbEntity
  8
0
  6
CONTINUOUS
100
AcDbLine
 10
158.6875
 20
298.181732
 30
0.0
 11
114.161873
 21
298.181732
 31
0.0
  0
LINE
  5
128
330
1E
100
AcDbEntity
  8
0
  6
CONTINUOUS
100
AcDbLine
 10
46.6875
 20
381.681213
 30
0.0
 11
150.661301
 21
381.681213
 31
0.0
  0
LINE
  5
129
330
1E
100
AcDbEntity
  8
0
  6
CONTINUOUS
100
AcDbLine
 10
46.6875
 20
389.451721
 30
0.0
 11
150.661301
 21
389.451721
 31
0.0
  0
LINE
  5
12A
330
1E
100
AcDbEntity
  8
0
  6
CONTINUOUS
100
AcDbLine
 10
47.68749999999999
 20
392.73111
 30
0.0
 11
149.661316
 21
392.73111
 31
0.0
  0
LINE
  5
12B
330
1E
100
AcDbEntity
  8
0
  6
CONTINUOUS
100
AcDbLine
 10
46.6875
 20
397.5460819999999
 30
0.0
 11
150.661301
 21
397.5460819999999
 31
0.0
  0
LINE
  5
12C
330
1E
100
AcDbEntity
  8
0
  6
CONTINUOUS
100
AcDbLine
 10
47.68749999999999
 20
399.533905
 30
0.0
 11
149.661316
 21
399.533905
 31
0.0
  0
LINE
  5
12D
330
1E
100
AcDbEntity
  8
0
  6
CONTINUOUS
100
AcDbLine
 10
46.6875
 20
403.5765379999999
 30
0.0
 11
150.661301
 21
403.5765379999999
 31
0.0
  0
LINE
  5
12E
330
1E
100
AcDbEntity
  8
0
  6
CONTINUOUS
100
AcDbLine
 10
46.6875
 20
408.1073909999999
 30
0.0
 11
150.661301
 21
408.1073909999999
 31
0.0
  0
LINE
  5
12F
330
1E
100
AcDbEntity
  8
0
  6
CONTINUOUS
100
AcDbLine
 10
46.6875
 20
410.984467
 30
0.0
 11
150.661301
 21
410.984467
 31
0.0
  0
LINE
  5
130
330
1E
100
AcDbEntity
  8
0
  6
CONTINUOUS
100
AcDbLine
 10
46.6875
 20
412.6398009999999
 30
0.0
 11
150.661301
 21
412.6398009999999
 31
0.0
  0
LINE
  5
131
330
1E
100
AcDbEntity
  8
0
  6
CONTINUOUS
100
AcDbLine
 10
150.661301
 20
413.181732
 30
0.0
 11
150.661301
 21
381.681213
 31
0.0
  0
LINE
  5
132
330
1E
100
AcDbEntity
  8
0
  6
CONTINUOUS
100
AcDbLine
 10
46.6875
 20
329.68222
 30
0.0
 11
150.661301
 21
329.68222
 31
0.0
  0
LINE
  5
133
330
1E
100
AcDbEntity
  8
0
  6
CONTINUOUS
100
AcDbLine
 10
46.6875
 20
321.9117129999999
 30
0.0
 11
150.661301
 21
321.9117129999999
 31
0.0
  0
LINE
  5
134
330
1E
100
AcDbEntity
  8
0
  6
CONTINUOUS
100
AcDbLine
 10
46.6875
 20
313.817352
 30
0.0
 11
150.661301
 21
313.817352
 31
0.0
  0
LINE
  5
135
330
1E
100
AcDbEntity
  8
0
  6
CONTINUOUS
100
AcDbLine
 10
113.661873
 20
303.2560119999999
 30
0.0
 11
150.661301
 21
303.2560119999999
 31
0.0
  0
LINE
  5
136
330
1E
100
AcDbEntity
  8
0
  6
CONTINUOUS
100
AcDbLine
 10
113.661873
 20
300.3789669999999
 30
0.0
 11
150.661301
 21
300.3789669999999
 31
0.0
  0
LINE
  5
137
330
1E
100
AcDbEntity
  8
0
  6
CONTINUOUS
100
AcDbLine
 10
114.1618649999999
 20
298.7236329999999
 30
0.0
 11
150.661301
 21
298.7236329999999
 31
0.0
  0
LINE
  5
138
330
1E
100
AcDbEntity
  8
0
  6
CONTINUOUS
100
AcDbLine
 10
150.661301
 20
298.181732
 30
0.0
 11
150.661301
 21
329.68222
 31
0.0
  0
LINE
  5
139
330
1E
100
AcDbEntity
  8
0
  6
CONTINUOUS
100
AcDbLine
 10
113.661873
 20
298.681732
 30
0.0
 11
113.661873
 21
304.8811339999999
 31
0.0
  0
ARC
  5
13A
330
1E
100
AcDbEntity
  8
0
  6
CONTINUOUS
100
AcDbCircle
 10
114.1618649999999
 20
299.223633
 30
0.0
 40
0.499992
100
AcDbArc
 50
180.0
 51
270.0
  0
ARC
  5
13B
330
1E
100
AcDbEntity
  8
0
  6
CONTINUOUS
100
AcDbCircle
 10
112.6618879999999
 20
300.682587
 30
0.0
 40
0.9999839999999998
100
AcDbArc
 50
270.0
 51
0.0
  0
LINE
  5
13C
330
1E
100
AcDbEntity
  8
0
  6
CONTINUOUS
100
AcDbLine
 10
47.68749999999999
 20
318.632324
 30
0.0
 11
149.661316
 21
318.632324
 31
0.0
  0
LINE
  5
13D
330
1E
100
AcDbEntity
  8
0
  6
CONTINUOUS
100
AcDbLine
 10
47.68749999999999
 20
311.8295289999999
 30
0.0
 11
149.661316
 21
311.8295289999999
 31
0.0
  0
LINE
  5
13E
330
1E
100
AcDbEntity
  8
0
  6
CONTINUOUS
100
AcDbLine
 10
46.6875
 20
307.7868959999999
 30
0.0
 11
150.661301
 21
307.7868959999999
 31
0.0
  0
LINE
  5
13F
330
1E
100
AcDbEntity
  8
0
  6
CONTINUOUS
100
AcDbLine
 10
46.6875
 20
304.8811339999999
 30
0.0
 11
113.661873
 21
304.8811339999999
 31
0.0
  0
LINE
  5
140
330
1E
100
AcDbEntity
  8
0
  6
CONTINUOUS
100
AcDbLine
 10
46.6875
 20
299.682587
 30
0.0
 11
93.20987700000001
 21
299.682587
 31
0.0
  0
LINE
  5
141
330
1E
100
AcDbEntity
  8
0
  6
CONTINUOUS
100
AcDbLine
 10
112.6618879999999
 20
299.682587
 30
0.0
 11
93.20987700000001
 21
299.6825259999999
 31
0.0
  0
ARC
  5
142
330
1E
100
AcDbEntity
  8
0
  6
CONTINUOUS
100
AcDbCircle
 10
114.161873
 20
298.681732
 30
0.0
 40
0.5
100
AcDbArc
 50
180.0
 51
270.0
  0
LINE
  5
14B
330
1E
100
AcDbEntity
  8
0
  6
CONTINUOUS
100
AcDbLine
 10
40.74990099999999
 20
285.259918
 30
0.0
 11
39.6875
 21
245.1817169999999
 31
0.0
  0
LINE
  5
14C
330
1E
100
AcDbEntity
  8
0
  6
CONTINUOUS
100
AcDbLine
 10
108.6244959999999
 20
285.259918
 30
0.0
 11
109.6875
 21
245.1817169999999
 31
0.0
  0
LINE
  5
14D
330
1E
100
AcDbEntity
  8
0
  6
CONTINUOUS
100
AcDbLine
 10
50.661701
 20
298.181732
 30
0.0
 11
63.1875
 21
298.181732
 31
0.0
  0
LINE
  5
14E
330
1E
100
AcDbEntity
  8
0
  6
CONTINUOUS
100
AcDbLine
 10
98.713303
 20
298.181732
 30
0.0
 11
63.1875
 21
298.181732
 31
0.0
  0
LINE
  5
14F
330
1E
100
AcDbEntity
  8
0
  6
CONTINUOUS
100
AcDbLine
 10
105.638702
 20
288.181732
 30
0.0
 11
87.998703
 21
288.181732
 31
0.0
  0
ARC
  5
150
330
1E
100
AcDbEntity
  8
0
  6
CONTINUOUS
100
AcDbCircle
 10
43.7355
 20
285.181732
 30
0.0
 40
3.0
100
AcDbArc
 50
90.0
 51
178.5002749999999
  0
ARC
  5
151
330
1E
100
AcDbEntity
  8
0
  6
CONTINUOUS
100
AcDbCircle
 10
105.638702
 20
285.181732
 30
0.0
 40
3.0
100
AcDbArc
 50
1.4999
 51
90.0
  0
LINE
  5
152
330
1E
100
AcDbEntity
  8
0
  6
CONTINUOUS
100
AcDbLine
 10
49.661942
 20
297.207916
 30
0.0
 11
49.476593
 21
290.129364
 31
0.0
  0
LINE
  5
153
330
1E
100
AcDbEntity
  8
0
  6
CONTINUOUS
100
AcDbLine
 10
99.71260799999999
 20
297.2078859999999
 30
0.0
 11
99.898384
 21
290.1292419999999
 31
0.0
  0
ARC
  5
154
330
1E
100
AcDbEntity
  8
0
  6
CONTINUOUS
100
AcDbCircle
 10
98.713303
 20
297.1817319999999
 30
0.0
 40
1.0
100
AcDbArc
 50
1.4993
 51
90.0
  0
ARC
  5
155
330
1E
100
AcDbEntity
  8
0
  6
CONTINUOUS
100
AcDbCircle
 10
50.661701
 20
297.1817319999999
 30
0.0
 40
1.0
100
AcDbArc
 50
90.0
 51
178.4994049999999
  0
LINE
  5
156
330
1E
100
AcDbEntity
  8
0
  6
CONTINUOUS
100
AcDbLine
 10
43.73569899999999
 20
288.181732
 30
0.0
 11
61.37630099999999
 21
288.181732
 31
0.0
  0
ARC
  5
157
330
1E
100
AcDbEntity
  8
0
  6
CONTINUOUS
100
AcDbCircle
 10
74.6875
 20
355.681732
 30
0.0
 40
68.800003
100
AcDbArc
 50
258.8442
 51
281.1558
  0
LINE
  5
158
330
1E
100
AcDbEntity
  8
0
  6
CONTINUOUS
100
AcDbLine
 10
42.1875
 20
239.1817169999999
 30
0.0
 11
107.1875
 21
239.1817169999999
 31
0.0
  0
LINE
  5
159
330
1E
100
AcDbEntity
  8
0
  6
CONTINUOUS
100
AcDbLine
 10
109.6875
 20
241.6817169999999
 30
0.0
 11
109.6875
 21
244.1817169999999
 31
0.0
  0
LINE
  5
15A
330
1E
100
AcDbEntity
  8
0
  6
CONTINUOUS
100
AcDbLine
 10
39.6875
 20
241.6817169999999
 30
0.0
 11
39.6875
 21
244.1817169999999
 31
0.0
  0
LINE
  5
15B
330
1E
100
AcDbEntity
  8
0
  6
CONTINUOUS
100
AcDbLine
 10
109.6875
 20
244.1817169999999
 30
0.0
 11
39.6875
 21
244.1817169999999
 31
0.0
  0
LINE
  5
15C
330
1E
100
AcDbEntity
  8
0
  6
CONTINUOUS
100
AcDbLine
 10
109.6875
 20
245.1817169999999
 30
0.0
 11
39.6875
 21
245.1817169999999
 31
0.0
  0
LINE
  5
15D
330
1E
100
AcDbEntity
  8
0
  6
CONTINUOUS
100
AcDbLine
 10
109.6875
 20
244.1817169999999
 30
0.0
 11
109.6875
 21
245.1817169999999
 31
0.0
  0
LINE
  5
15E
330
1E
100
AcDbEntity
  8
0
  6
CONTINUOUS
100
AcDbLine
 10
39.6875
 20
244.1817169999999
 30
0.0
 11
39.6875
 21
245.1817169999999
 31
0.0
  0
LINE
  5
15F
330
1E
100
AcDbEntity
  8
0
  6
CONTINUOUS
100
AcDbLine
 10
101.1746979999999
 20
242.181717
 30
0.0
 11
108.6875
 21
242.181717
 31
0.0
  0
LINE
  5
160
330
1E
100
AcDbEntity
  8
0
  6
CONTINUOUS
100
AcDbLine
 10
48.2005
 20
242.181717
 30
0.0
 11
40.6875
 21
242.181717
 31
0.0
  0
LINE
  5
161
330
1E
100
AcDbEntity
  8
0
  6
CONTINUOUS
100
AcDbLine
 10
100.6746979999999
 20
241.694916
 30
0.0
 11
100.634499
 21
240.155518
 31
0.0
  0
ARC
  5
162
330
1E
100
AcDbEntity
  8
0
  6
CONTINUOUS
100
AcDbCircle
 10
101.1746979999999
 20
241.6817169999999
 30
0.0
 40
0.5
100
AcDbArc
 50
90.0
 51
178.5
  0
ARC
  5
163
330
1E
100
AcDbEntity
  8
0
  6
CONTINUOUS
100
AcDbCircle
 10
99.63490300000001
 20
240.181717
 30
0.0
 40
1.0
100
AcDbArc
 50
270.0
 51
358.5002
  0
ARC
  5
164
330
1E
100
AcDbEntity
  8
0
  6
CONTINUOUS
100
AcDbCircle
 10
108.6875
 20
243.1817169999999
 30
0.0
 40
1.0
100
AcDbArc
 50
270.0
 51
0.0
  0
ARC
  5
165
330
1E
100
AcDbEntity
  8
0
  6
CONTINUOUS
100
AcDbCircle
 10
107.1875
 20
241.6817169999999
 30
0.0
 40
2.5
100
AcDbArc
 50
270.0
 51
0.0
  0
LINE
  5
166
330
1E
100
AcDbEntity
  8
0
  6
CONTINUOUS
100
AcDbLine
 10
48.700298
 20
241.694916
 30
0.0
 11
48.740501
 21
240.155518
 31
0.0
  0
ARC
  5
167
330
1E
100
AcDbEntity
  8
0
  6
CONTINUOUS
100
AcDbCircle
 10
49.740299
 20
240.181717
 30
0.0
 40
1.0
100
AcDbArc
 50
181.500397
 51
270.0
  0
ARC
  5
168
330
1E
100
AcDbEntity
  8
0
  6
CONTINUOUS
100
AcDbCircle
 10
48.2005
 20
241.6817169999999
 30
0.0
 40
0.5
100
AcDbArc
 50
1.500199999999999
 51
90.0
  0
ARC
  5
169
330
1E
100
AcDbEntity
  8
0
  6
CONTINUOUS
100
AcDbCircle
 10
40.6875
 20
243.1817169999999
 30
0.0
 40
1.0
100
AcDbArc
 50
180.0
 51
270.0
  0
ARC
  5
16A
330
1E
100
AcDbEntity
  8
0
  6
CONTINUOUS
100
AcDbCircle
 10
42.1875
 20
241.6817169999999
 30
0.0
 40
2.5
100
AcDbArc
 50
180.0
 51
270.0
  0
ARC
  5
16B
330
1E
100
AcDbEntity
  8
0
  6
CONTINUOUS
100
AcDbCircle
 10
104.6875
 20
242.181717
 30
0.0
 40
3.0
100
AcDbArc
 50
180.0
 51
0.0
  0
LINE
  5
16C
330
1E
100
AcDbEntity
  8
0
  6
CONTINUOUS
100
AcDbLine
 10
107.6454999999999
 20
241.6817169999999
 30
0.0
 11
101.7295
 21
241.6817169999999
 31
0.0
  0
LINE
  5
16D
330
1E
100
AcDbEntity
  8
0
  6
CONTINUOUS
100
AcDbLine
 10
104.6875
 20
239.6817169999999
 30
0.0
 11
104.406502
 21
239.194916
 31
0.0
  0
LINE
  5
16E
330
1E
100
AcDbEntity
  8
0
  6
CONTINUOUS
100
AcDbLine
 10
104.6875
 20
239.6817169999999
 30
0.0
 11
104.9686969999999
 21
239.194916
 31
0.0
  0
ARC
  5
16F
330
1E
100
AcDbEntity
  8
0
  6
CONTINUOUS
100
AcDbCircle
 10
44.6875
 20
242.181717
 30
0.0
 40
3.0
100
AcDbArc
 50
180.0
 51
0.0
  0
LINE
  5
170
330
1E
100
AcDbEntity
  8
0
  6
CONTINUOUS
100
AcDbLine
 10
47.64549999999999
 20
241.6817169999999
 30
0.0
 11
41.7295
 21
241.6817169999999
 31
0.0
  0
LINE
  5
171
330
1E
100
AcDbEntity
  8
0
  6
CONTINUOUS
100
AcDbLine
 10
44.6875
 20
239.6817169999999
 30
0.0
 11
44.406502
 21
239.194916
 31
0.0
  0
LINE
  5
172
330
1E
100
AcDbEntity
  8
0
  6
CONTINUOUS
100
AcDbLine
 10
44.6875
 20
239.6817169999999
 30
0.0
 11
44.9687
 21
239.194916
 31
0.0
  0
LINE
  5
173
330
1E
100
AcDbEntity
  8
0
  6
CONTINUOUS
100
AcDbLine
 10
97.6875
 20
298.181732
 30
0.0
 11
97.6875
 21
299.681732
 31
0.0
  0
LINE
  5
174
330
1E
100
AcDbEntity
  8
0
  6
CONTINUOUS
100
AcDbLine
 10
51.6875
 20
298.181732
 30
0.0
 11
51.6875
 21
299.681732
 31
0.0
  0
LINE
  5
175
330
1E
100
AcDbEntity
  8
0
  6
CONTINUOUS
100
AcDbLine
 10
11.68749999999999
 20
275.681915
 30
0.0
 11
11.68749999999999
 21
246.681717
 31
0.0
  0
LINE
  5
176
330
1E
100
AcDbEntity
  8
0
  6
CONTINUOUS
100
AcDbLine
 10
19.6875
 20
275.681915
 30
0.0
 11
19.6875
 21
246.681717
 31
0.0
  0
LINE
  5
177
330
1E
100
AcDbEntity
  8
0
  6
CONTINUOUS
100
AcDbLine
 10
11.68749999999999
 20
275.681915
 30
0.0
 11
19.6875
 21
275.681915
 31
0.0
  0
LINE
  5
178
330
1E
100
AcDbEntity
  8
0
  6
CONTINUOUS
100
AcDbLine
 10
11.68749999999999
 20
246.681717
 30
0.0
 11
19.6875
 21
246.681717
 31
0.0
  0
LINE
  5
179
330
1E
100
AcDbEntity
  8
0
  6
CONTINUOUS
100
AcDbLine
 10
28.6875
 20
274.1819149999999
 30
0.0
 11
28.6875
 21
248.1817169999999
 31
0.0
  0
LINE
  5
17A
330
1E
100
AcDbEntity
  8
0
  6
CONTINUOUS
100
AcDbLine
 10
19.6875
 20
274.1819149999999
 30
0.0
 11
28.6875
 21
274.1819149999999
 31
0.0
  0
LINE
  5
17B
330
1E
100
AcDbEntity
  8
0
  6
CONTINUOUS
100
AcDbLine
 10
19.6875
 20
248.1817169999999
 30
0.0
 11
28.6875
 21
248.1817169999999
 31
0.0
  0
LINE
  5
17C
330
1E
100
AcDbEntity
  8
0
  6
CONTINUOUS
100
AcDbLine
 10
28.6875
 20
272.681915
 30
0.0
 11
33.6875
 21
272.681915
 31
0.0
  0
LINE
  5
17D
330
1E
100
AcDbEntity
  8
0
  6
CONTINUOUS
100
AcDbLine
 10
28.6875
 20
249.6817169999999
 30
0.0
 11
33.6875
 21
249.6817169999999
 31
0.0
  0
LINE
  5
17E
330
1E
100
AcDbEntity
  8
0
  6
CONTINUOUS
100
AcDbLine
 10
33.6875
 20
274.6819149999999
 30
0.0
 11
33.6875
 21
247.6817169999999
 31
0.0
  0
LINE
  5
17F
330
1E
100
AcDbEntity
  8
0
  6
CONTINUOUS
100
AcDbLine
 10
38.1875
 20
275.681915
 30
0.0
 11
38.1875
 21
246.681717
 31
0.0
  0
LINE
  5
180
330
1E
100
AcDbEntity
  8
0
  6
CONTINUOUS
100
AcDbLine
 10
33.6875
 20
274.6819149999999
 30
0.0
 11
38.1875
 21
274.6819149999999
 31
0.0
  0
LINE
  5
181
330
1E
100
AcDbEntity
  8
0
  6
CONTINUOUS
100
AcDbLine
 10
33.6875
 20
247.6817169999999
 30
0.0
 11
38.1875
 21
247.6817169999999
 31
0.0
  0
LINE
  5
182
330
1E
100
AcDbEntity
  8
0
  6
CONTINUOUS
100
AcDbLine
 10
38.1875
 20
275.681915
 30
0.0
 11
40.496101
 21
275.681915
 31
0.0
  0
LINE
  5
183
330
1E
100
AcDbEntity
  8
0
  6
CONTINUOUS
100
AcDbLine
 10
38.1875
 20
246.681717
 30
0.0
 11
39.727299
 21
246.681717
 31
0.0
  0
LINE
  5
184
330
1E
100
AcDbEntity
  8
0
  6
CONTINUOUS
100
AcDbLine
 10
11.68749999999999
 20
269.181915
 30
0.0
 11
19.6875
 21
269.181915
 31
0.0
  0
LINE
  5
185
330
1E
100
AcDbEntity
  8
0
  6
CONTINUOUS
100
AcDbLine
 10
11.68749999999999
 20
253.181717
 30
0.0
 11
19.6875
 21
253.181717
 31
0.0
  0
LINE
  5
186
330
1E
100
AcDbEntity
  8
0
  6
CONTINUOUS
100
AcDbLine
 10
28.6875
 20
271.181915
 30
0.0
 11
33.6875
 21
271.181915
 31
0.0
  0
LINE
  5
187
330
1E
100
AcDbEntity
  8
0
  6
CONTINUOUS
100
AcDbLine
 10
28.6875
 20
251.181717
 30
0.0
 11
33.6875
 21
251.181717
 31
0.0
  0
ARC
  5
188
330
1E
100
AcDbEntity
  8
0
  6
CONTINUOUS
100
AcDbCircle
 10
101.8976969999999
 20
290.181732
 30
0.0
 40
2.0
100
AcDbArc
 50
181.5033719999999
 51
270.0
  0
ARC
  5
189
330
1E
100
AcDbEntity
  8
0
  6
CONTINUOUS
100
AcDbCircle
 10
47.47728
 20
290.181732
 30
0.0
 40
2.0
100
AcDbArc
 50
270.0
 51
358.500092
  0
ARC
  5
18A
330
1E
100
AcDbEntity
  8
0
  6
CONTINUOUS
100
AcDbCircle
 10
446.1875
 20
82.876831
 30
0.0
 40
450.0
100
AcDbArc
 50
173.2476039999999
 51
186.752502
  0
LINE
  5
18B
330
1E
100
AcDbEntity
  8
0
  6
CONTINUOUS
100
AcDbLine
 10
11.225746
 20
146.376831
 30
0.0
 11
14.923706
 21
146.376831
 31
0.0
  0
LINE
  5
18C
330
1E
100
AcDbEntity
  8
0
  6
CONTINUOUS
100
AcDbLine
 10
11.225802
 20
19.376831
 30
0.0
 11
14.923706
 21
19.376831
 31
0.0
  0
LINE
  5
18D
330
1E
100
AcDbEntity
  8
0
  6
CONTINUOUS
100
AcDbLine
 10
15.947202
 20
150.376831
 30
0.0
 11
46.6875
 21
150.376831
 31
0.0
  0
LINE
  5
18E
330
1E
100
AcDbEntity
  8
0
  6
CONTINUOUS
100
AcDbLine
 10
46.6875
 20
150.376831
 30
0.0
 11
46.6875
 21
117.8768229999999
 31
0.0
  0
ARC
  5
18F
330
1E
100
AcDbEntity
  8
0
  6
CONTINUOUS
100
AcDbCircle
 10
11.22576999999999
 20
134.376831
 30
0.0
 40
12.0
100
AcDbArc
 50
90.0
 51
173.247894
  0
ARC
  5
190
330
1E
100
AcDbEntity
  8
0
  6
CONTINUOUS
100
AcDbCircle
 10
15.947204
 20
148.876831
 30
0.0
 40
1.5
100
AcDbArc
 50
90.0
 51
191.662598
  0
ARC
  5
191
330
1E
100
AcDbEntity
  8
0
  6
CONTINUOUS
100
AcDbCircle
 10
11.225738
 20
31.376831
 30
0.0
 40
12.0
100
AcDbArc
 50
186.752396
 51
270.0
  0
LINE
  5
192
330
1E
100
AcDbEntity
  8
0
  6
CONTINUOUS
100
AcDbLine
 10
46.6875
 20
140.376831
 30
0.0
 11
158.6875
 21
140.376831
 31
0.0
  0
LINE
  5
193
330
1E
100
AcDbEntity
  8
0
  6
CONTINUOUS
100
AcDbLine
 10
150.6874999999999
 20
134.1628269999999
 30
0.0
 11
150.6874999999999
 21
129.876831
 31
0.0
  0
LINE
  5
194
330
1E
100
AcDbEntity
  8
0
  6
CONTINUOUS
100
AcDbLine
 10
111.6875
 20
109.876831
 30
0.0
 11
109.6875
 21
109.876831
 31
0.0
  0
LINE
  5
195
330
1E
100
AcDbEntity
  8
0
  6
CONTINUOUS
100
AcDbLine
 10
111.6875
 20
55.876831
 30
0.0
 11
109.6875
 21
55.876831
 31
0.0
  0
LINE
  5
196
330
1E
100
AcDbEntity
  8
0
  6
CONTINUOUS
100
AcDbLine
 10
113.6875
 20
57.876831
 30
0.0
 11
113.6875
 21
107.876831
 31
0.0
  0
LINE
  5
197
330
1E
100
AcDbEntity
  8
0
  6
CONTINUOUS
100
AcDbLine
 10
46.6875
 20
120.876831
 30
0.0
 11
150.6874999999999
 21
120.876831
 31
0.0
  0
LINE
  5
198
330
1E
100
AcDbEntity
  8
0
  6
CONTINUOUS
100
AcDbLine
 10
46.6875
 20
122.876831
 30
0.0
 11
150.6874999999999
 21
122.876831
 31
0.0
  0
LINE
  5
199
330
1E
100
AcDbEntity
  8
0
  6
CONTINUOUS
100
AcDbLine
 10
46.6875
 20
127.876831
 30
0.0
 11
150.6874999999999
 21
127.876831
 31
0.0
  0
LINE
  5
19A
330
1E
100
AcDbEntity
  8
0
  6
CONTINUOUS
100
AcDbLine
 10
46.6875
 20
129.876831
 30
0.0
 11
150.6874999999999
 21
129.876831
 31
0.0
  0
LINE
  5
19B
330
1E
100
AcDbEntity
  8
0
  6
CONTINUOUS
100
AcDbLine
 10
46.6875
 20
134.1628269999999
 30
0.0
 11
150.6874999999999
 21
134.1628269999999
 31
0.0
  0
LINE
  5
19C
330
1E
100
AcDbEntity
  8
0
  6
CONTINUOUS
100
AcDbLine
 10
150.6874999999999
 20
31.590832
 30
0.0
 11
150.6874999999999
 21
35.876831
 31
0.0
  0
LINE
  5
19D
330
1E
100
AcDbEntity
  8
0
  6
CONTINUOUS
100
AcDbLine
 10
150.6874999999999
 20
37.876831
 30
0.0
 11
150.6874999999999
 21
42.876831
 31
0.0
  0
LINE
  5
19E
330
1E
100
AcDbEntity
  8
0
  6
CONTINUOUS
100
AcDbLine
 10
150.6874999999999
 20
44.876831
 30
0.0
 11
150.6874999999999
 21
50.376831
 31
0.0
  0
LINE
  5
19F
330
1E
100
AcDbEntity
  8
0
  6
CONTINUOUS
100
AcDbLine
 10
150.6874999999999
 20
52.376831
 30
0.0
 11
150.6874999999999
 21
58.47683299999999
 31
0.0
  0
LINE
  5
1A0
330
1E
100
AcDbEntity
  8
0
  6
CONTINUOUS
100
AcDbLine
 10
150.6874999999999
 20
60.476833
 30
0.0
 11
150.6874999999999
 21
66.276825
 31
0.0
  0
LINE
  5
1A1
330
1E
100
AcDbEntity
  8
0
  6
CONTINUOUS
100
AcDbLine
 10
150.6874999999999
 20
68.276825
 30
0.0
 11
150.6874999999999
 21
74.076836
 31
0.0
  0
LINE
  5
1A2
330
1E
100
AcDbEntity
  8
0
  6
CONTINUOUS
100
AcDbLine
 10
150.6874999999999
 20
76.076836
 30
0.0
 11
150.6874999999999
 21
81.876831
 31
0.0
  0
LINE
  5
1A3
330
1E
100
AcDbEntity
  8
0
  6
CONTINUOUS
100
AcDbLine
 10
150.6874999999999
 20
83.87683100000002
 30
0.0
 11
150.6874999999999
 21
89.676834
 31
0.0
  0
LINE
  5
1A4
330
1E
100
AcDbEntity
  8
0
  6
CONTINUOUS
100
AcDbLine
 10
150.6874999999999
 20
91.67683399999999
 30
0.0
 11
150.6874999999999
 21
97.47683700000001
 31
0.0
  0
LINE
  5
1A5
330
1E
100
AcDbEntity
  8
0
  6
CONTINUOUS
100
AcDbLine
 10
150.6874999999999
 20
99.47683000000001
 30
0.0
 11
150.6874999999999
 21
105.276833
 31
0.0
  0
LINE
  5
1A6
330
1E
100
AcDbEntity
  8
0
  6
CONTINUOUS
100
AcDbLine
 10
150.6874999999999
 20
107.276833
 30
0.0
 11
150.6874999999999
 21
113.376831
 31
0.0
  0
LINE
  5
1A7
330
1E
100
AcDbEntity
  8
0
  6
CONTINUOUS
100
AcDbLine
 10
150.6874999999999
 20
115.376831
 30
0.0
 11
150.6874999999999
 21
120.876831
 31
0.0
  0
LINE
  5
1A8
330
1E
100
AcDbEntity
  8
0
  6
CONTINUOUS
100
AcDbLine
 10
150.6874999999999
 20
122.876831
 30
0.0
 11
150.6874999999999
 21
127.876831
 31
0.0
  0
ARC
  5
1A9
330
1E
100
AcDbEntity
  8
0
  6
CONTINUOUS
100
AcDbCircle
 10
111.6875
 20
107.876831
 30
0.0
 40
2.0
100
AcDbArc
 50
0.0
 51
90.0
  0
ARC
  5
1AA
330
1E
100
AcDbEntity
  8
0
  6
CONTINUOUS
100
AcDbCircle
 10
111.6875
 20
57.876831
 30
0.0
 40
2.0
100
AcDbArc
 50
270.0
 51
0.0
  0
LINE
  5
1AB
330
1E
100
AcDbEntity
  8
0
  6
CONTINUOUS
100
AcDbLine
 10
150.6874999999999
 20
52.376831
 30
0.0
 11
109.6875
 21
52.376831
 31
0.0
  0
LINE
  5
1AC
330
1E
100
AcDbEntity
  8
0
  6
CONTINUOUS
100
AcDbLine
 10
150.6874999999999
 20
50.376831
 30
0.0
 11
109.6875
 21
50.376881
 31
0.0
  0
LINE
  5
1AD
330
1E
100
AcDbEntity
  8
0
  6
CONTINUOUS
100
AcDbLine
 10
150.6874999999999
 20
44.876831
 30
0.0
 11
61.18755
 21
44.876831
 31
0.0
  0
LINE
  5
1AE
330
1E
100
AcDbEntity
  8
0
  6
CONTINUOUS
100
AcDbLine
 10
150.6874999999999
 20
42.876831
 30
0.0
 11
88.187653
 21
42.876831
 31
0.0
  0
LINE
  5
1AF
330
1E
100
AcDbEntity
  8
0
  6
CONTINUOUS
100
AcDbLine
 10
150.6874999999999
 20
37.876831
 30
0.0
 11
63.18755
 21
37.876831
 31
0.0
  0
LINE
  5
1B0
330
1E
100
AcDbEntity
  8
0
  6
CONTINUOUS
100
AcDbLine
 10
150.6874999999999
 20
35.876831
 30
0.0
 11
87.687653
 21
35.876831
 31
0.0
  0
LINE
  5
1B1
330
1E
100
AcDbEntity
  8
0
  6
CONTINUOUS
100
AcDbLine
 10
150.6874999999999
 20
31.590832
 30
0.0
 11
61.68755
 21
31.590832
 31
0.0
  0
LINE
  5
1B2
330
1E
100
AcDbEntity
  8
0
  6
CONTINUOUS
100
AcDbLine
 10
158.6875
 20
25.376831
 30
0.0
 11
89.187653
 21
25.376831
 31
0.0
  0
LINE
  5
1B3
330
1E
100
AcDbEntity
  8
0
  6
CONTINUOUS
100
AcDbLine
 10
109.6875
 20
115.376823
 30
0.0
 11
109.6875
 21
50.376881
 31
0.0
  0
LINE
  5
1B4
330
1E
100
AcDbEntity
  8
0
  6
CONTINUOUS
100
AcDbLine
 10
39.6875
 20
50.376781
 30
0.0
 11
39.6875
 21
115.376831
 31
0.0
  0
LINE
  5
1B5
330
1E
100
AcDbEntity
  8
0
  6
CONTINUOUS
100
AcDbLine
 10
42.1875
 20
117.876831
 30
0.0
 11
107.1875
 21
117.876831
 31
0.0
  0
LINE
  5
1B6
330
1E
100
AcDbEntity
  8
0
  6
CONTINUOUS
100
AcDbLine
 10
42.187489
 20
47.87678099999999
 30
0.0
 11
107.1875
 21
47.87678099999999
 31
0.0
  0
ARC
  5
1B7
330
1E
100
AcDbEntity
  8
0
  6
CONTINUOUS
100
AcDbCircle
 10
107.1875
 20
50.376781
 30
0.0
 40
2.5
100
AcDbArc
 50
270.0
 51
0.0
  0
ARC
  5
1B8
330
1E
100
AcDbEntity
  8
0
  6
CONTINUOUS
100
AcDbCircle
 10
107.1875
 20
115.376801
 30
0.0
 40
2.5
100
AcDbArc
 50
0.0
 51
90.0
  0
ARC
  5
1B9
330
1E
100
AcDbEntity
  8
0
  6
CONTINUOUS
100
AcDbCircle
 10
42.1875
 20
115.376823
 30
0.0
 40
2.5
100
AcDbArc
 50
90.0
 51
180.0
  0
ARC
  5
1BA
330
1E
100
AcDbEntity
  8
0
  6
CONTINUOUS
100
AcDbCircle
 10
42.187489
 20
50.376781
 30
0.0
 40
2.5
100
AcDbArc
 50
180.0
 51
270.0
  0
ARC
  5
1BB
330
1E
100
AcDbEntity
  8
0
  6
CONTINUOUS
100
AcDbCircle
 10
104.6875
 20
112.876823
 30
0.0
 40
4.0
100
AcDbArc
 50
180.0
 51
270.0
  0
ARC
  5
1BC
330
1E
100
AcDbEntity
  8
0
  6
CONTINUOUS
100
AcDbCircle
 10
104.6875
 20
52.876781
 30
0.0
 40
4.0
100
AcDbArc
 50
90.0
 51
180.0
  0
ARC
  5
1BD
330
1E
100
AcDbEntity
  8
0
  6
CONTINUOUS
100
AcDbCircle
 10
44.6875
 20
52.876781
 30
0.0
 40
4.0
100
AcDbArc
 50
0.0
 51
90.0
  0
ARC
  5
1BE
330
1E
100
AcDbEntity
  8
0
  6
CONTINUOUS
100
AcDbCircle
 10
44.6875
 20
112.876823
 30
0.0
 40
4.0
100
AcDbArc
 50
270.0
 51
0.0
  0
LINE
  5
1BF
330
1E
100
AcDbEntity
  8
0
  6
CONTINUOUS
100
AcDbLine
 10
100.6874999999999
 20
52.876781
 30
0.0
 11
100.6874999999999
 21
50.376781
 31
0.0
  0
LINE
  5
1C0
330
1E
100
AcDbEntity
  8
0
  6
CONTINUOUS
100
AcDbLine
 10
100.6874999999999
 20
112.876831
 30
0.0
 11
100.6874999999999
 21
115.376831
 31
0.0
  0
LINE
  5
1C1
330
1E
100
AcDbEntity
  8
0
  6
CONTINUOUS
100
AcDbLine
 10
48.6875
 20
112.876831
 30
0.0
 11
48.6875
 21
115.376801
 31
0.0
  0
LINE
  5
1C2
330
1E
100
AcDbEntity
  8
0
  6
CONTINUOUS
100
AcDbLine
 10
48.6875
 20
52.876781
 30
0.0
 11
48.6875
 21
50.376781
 31
0.0
  0
LINE
  5
1C3
330
1E
100
AcDbEntity
  8
0
  6
CONTINUOUS
100
AcDbLine
 10
104.6875
 20
56.87678100000001
 30
0.0
 11
107.1875
 21
56.87678100000001
 31
0.0
  0
LINE
  5
1C4
330
1E
100
AcDbEntity
  8
0
  6
CONTINUOUS
100
AcDbLine
 10
104.6875
 20
108.876823
 30
0.0
 11
107.1875
 21
108.876823
 31
0.0
  0
LINE
  5
1C5
330
1E
100
AcDbEntity
  8
0
  6
CONTINUOUS
100
AcDbLine
 10
44.6875
 20
108.876823
 30
0.0
 11
42.187489
 21
108.876823
 31
0.0
  0
LINE
  5
1C6
330
1E
100
AcDbEntity
  8
0
  6
CONTINUOUS
100
AcDbLine
 10
44.687481
 20
56.87678100000001
 30
0.0
 11
42.187489
 21
56.87678100000001
 31
0.0
  0
ARC
  5
1C7
330
1E
100
AcDbEntity
  8
0
  6
CONTINUOUS
100
AcDbCircle
 10
98.18750000000001
 20
115.376823
 30
0.0
 40
2.5
100
AcDbArc
 50
0.0
 51
90.0
  0
ARC
  5
1C8
330
1E
100
AcDbEntity
  8
0
  6
CONTINUOUS
100
AcDbCircle
 10
107.1875
 20
106.3768009999999
 30
0.0
 40
2.5
100
AcDbArc
 50
0.0
 51
90.0
  0
ARC
  5
1C9
330
1E
100
AcDbEntity
  8
0
  6
CONTINUOUS
100
AcDbCircle
 10
107.1875
 20
59.37678100000001
 30
0.0
 40
2.5
100
AcDbArc
 50
270.0
 51
0.0
  0
ARC
  5
1CA
330
1E
100
AcDbEntity
  8
0
  6
CONTINUOUS
100
AcDbCircle
 10
98.18750000000001
 20
50.376781
 30
0.0
 40
2.5
100
AcDbArc
 50
270.0
 51
0.0
  0
ARC
  5
1CB
330
1E
100
AcDbEntity
  8
0
  6
CONTINUOUS
100
AcDbCircle
 10
51.1875
 20
115.376823
 30
0.0
 40
2.5
100
AcDbArc
 50
90.0
 51
180.0
  0
ARC
  5
1CC
330
1E
100
AcDbEntity
  8
0
  6
CONTINUOUS
100
AcDbCircle
 10
42.1875
 20
106.3768229999999
 30
0.0
 40
2.5
100
AcDbArc
 50
90.0
 51
180.0
  0
ARC
  5
1CD
330
1E
100
AcDbEntity
  8
0
  6
CONTINUOUS
100
AcDbCircle
 10
51.18748899999999
 20
50.376781
 30
0.0
 40
2.5
100
AcDbArc
 50
180.0
 51
270.0
  0
ARC
  5
1CE
330
1E
100
AcDbEntity
  8
0
  6
CONTINUOUS
100
AcDbCircle
 10
42.187489
 20
59.37678100000001
 30
0.0
 40
2.5
100
AcDbArc
 50
180.0
 51
270.0
  0
LINE
  5
1CF
330
1E
100
AcDbEntity
  8
0
  6
CONTINUOUS
100
AcDbLine
 10
11.68754999999999
 20
68.376678
 30
0.0
 11
11.68754999999999
 21
97.37678500000001
 31
0.0
  0
LINE
  5
1D0
330
1E
100
AcDbEntity
  8
0
  6
CONTINUOUS
100
AcDbLine
 10
19.68755
 20
68.376678
 30
0.0
 11
19.68755
 21
97.37678500000001
 31
0.0
  0
LINE
  5
1D1
330
1E
100
AcDbEntity
  8
0
  6
CONTINUOUS
100
AcDbLine
 10
11.68754999999999
 20
68.376678
 30
0.0
 11
19.68755
 21
68.376678
 31
0.0
  0
LINE
  5
1D2
330
1E
100
AcDbEntity
  8
0
  6
CONTINUOUS
100
AcDbLine
 10
11.68754999999999
 20
97.37678500000001
 30
0.0
 11
19.68755
 21
97.37678500000001
 31
0.0
  0
LINE
  5
1D3
330
1E
100
AcDbEntity
  8
0
  6
CONTINUOUS
100
AcDbLine
 10
28.68755
 20
69.876678
 30
0.0
 11
28.68755
 21
95.876785
 31
0.0
  0
LINE
  5
1D4
330
1E
100
AcDbEntity
  8
0
  6
CONTINUOUS
100
AcDbLine
 10
19.68755
 20
69.876678
 30
0.0
 11
28.68755
 21
69.876678
 31
0.0
  0
LINE
  5
1D5
330
1E
100
AcDbEntity
  8
0
  6
CONTINUOUS
100
AcDbLine
 10
19.68755
 20
95.876785
 30
0.0
 11
28.68755
 21
95.876785
 31
0.0
  0
LINE
  5
1D6
330
1E
100
AcDbEntity
  8
0
  6
CONTINUOUS
100
AcDbLine
 10
28.68755
 20
71.376678
 30
0.0
 11
33.68755
 21
71.376678
 31
0.0
  0
LINE
  5
1D7
330
1E
100
AcDbEntity
  8
0
  6
CONTINUOUS
100
AcDbLine
 10
28.68755
 20
94.376785
 30
0.0
 11
33.68755
 21
94.376785
 31
0.0
  0
LINE
  5
1D8
330
1E
100
AcDbEntity
  8
0
  6
CONTINUOUS
100
AcDbLine
 10
33.68755
 20
69.37667799999999
 30
0.0
 11
33.68755
 21
96.37678499999999
 31
0.0
  0
LINE
  5
1D9
330
1E
100
AcDbEntity
  8
0
  6
CONTINUOUS
100
AcDbLine
 10
38.18755
 20
68.376678
 30
0.0
 11
38.18755
 21
97.37678500000001
 31
0.0
  0
LINE
  5
1DA
330
1E
100
AcDbEntity
  8
0
  6
CONTINUOUS
100
AcDbLine
 10
33.68755
 20
69.37667799999999
 30
0.0
 11
38.18755
 21
69.37667799999999
 31
0.0
  0
LINE
  5
1DB
330
1E
100
AcDbEntity
  8
0
  6
CONTINUOUS
100
AcDbLine
 10
33.68755
 20
96.37678499999999
 30
0.0
 11
38.18755
 21
96.37678499999999
 31
0.0
  0
LINE
  5
1DC
330
1E
100
AcDbEntity
  8
0
  6
CONTINUOUS
100
AcDbLine
 10
38.18755
 20
68.376678
 30
0.0
 11
39.726849
 21
68.376678
 31
0.0
  0
LINE
  5
1DD
330
1E
100
AcDbEntity
  8
0
  6
CONTINUOUS
100
AcDbLine
 10
38.18755
 20
97.37678500000001
 30
0.0
 11
39.6875
 21
97.37678500000001
 31
0.0
  0
LINE
  5
1DE
330
1E
100
AcDbEntity
  8
0
  6
CONTINUOUS
100
AcDbLine
 10
11.68754999999999
 20
74.876678
 30
0.0
 11
19.68755
 21
74.876678
 31
0.0
  0
LINE
  5
1DF
330
1E
100
AcDbEntity
  8
0
  6
CONTINUOUS
100
AcDbLine
 10
11.68754999999999
 20
90.876785
 30
0.0
 11
19.68755
 21
90.876785
 31
0.0
  0
ARC
  5
1E0
330
1E
100
AcDbEntity
  8
0
  6
CONTINUOUS
100
AcDbCircle
 10
-303.8124999999999
 20
82.876831
 30
0.0
 40
325.0
100
AcDbArc
 50
348.552979
 51
357.70752
  0
LINE
  5
1E1
330
1E
100
AcDbEntity
  8
0
  6
CONTINUOUS
100
AcDbLine
 10
46.6875
 20
18.37683099999999
 30
0.0
 11
14.72282
 21
18.37683099999999
 31
0.0
  0
LINE
  5
1E2
330
1E
100
AcDbEntity
  8
0
  6
CONTINUOUS
100
AcDbLine
 10
109.6875
 20
115.376823
 30
0.0
 11
150.6874999999999
 21
115.376831
 31
0.0
  0
LINE
  5
1E3
330
1E
100
AcDbEntity
  8
0
  6
CONTINUOUS
100
AcDbLine
 10
109.6875
 20
113.376831
 30
0.0
 11
150.6874999999999
 21
113.376831
 31
0.0
  0
LINE
  5
1E4
330
1E
100
AcDbEntity
  8
0
  6
CONTINUOUS
100
AcDbLine
 10
113.6875
 20
107.276833
 30
0.0
 11
150.6874999999999
 21
107.276833
 31
0.0
  0
LINE
  5
1E5
330
1E
100
AcDbEntity
  8
0
  6
CONTINUOUS
100
AcDbLine
 10
113.6875
 20
105.276833
 30
0.0
 11
150.6874999999999
 21
105.276833
 31
0.0
  0
LINE
  5
1E6
330
1E
100
AcDbEntity
  8
0
  6
CONTINUOUS
100
AcDbLine
 10
113.6875
 20
99.47683000000001
 30
0.0
 11
150.6874999999999
 21
99.47683000000001
 31
0.0
  0
LINE
  5
1E7
330
1E
100
AcDbEntity
  8
0
  6
CONTINUOUS
100
AcDbLine
 10
113.6875
 20
97.47683000000002
 30
0.0
 11
150.6874999999999
 21
97.47683000000002
 31
0.0
  0
LINE
  5
1E8
330
1E
100
AcDbEntity
  8
0
  6
CONTINUOUS
100
AcDbLine
 10
113.6875
 20
91.67683399999999
 30
0.0
 11
150.6874999999999
 21
91.67683399999999
 31
0.0
  0
LINE
  5
1E9
330
1E
100
AcDbEntity
  8
0
  6
CONTINUOUS
100
AcDbLine
 10
113.6875
 20
89.676834
 30
0.0
 11
150.6874999999999
 21
89.676834
 31
0.0
  0
LINE
  5
1EA
330
1E
100
AcDbEntity
  8
0
  6
CONTINUOUS
100
AcDbLine
 10
113.6875
 20
83.87683100000002
 30
0.0
 11
150.6874999999999
 21
83.87683100000002
 31
0.0
  0
LINE
  5
1EB
330
1E
100
AcDbEntity
  8
0
  6
CONTINUOUS
100
AcDbLine
 10
113.6875
 20
81.876831
 30
0.0
 11
150.6874999999999
 21
81.876831
 31
0.0
  0
LINE
  5
1EC
330
1E
100
AcDbEntity
  8
0
  6
CONTINUOUS
100
AcDbLine
 10
113.6875
 20
76.076836
 30
0.0
 11
150.6874999999999
 21
76.076836
 31
0.0
  0
LINE
  5
1ED
330
1E
100
AcDbEntity
  8
0
  6
CONTINUOUS
100
AcDbLine
 10
113.6875
 20
74.076836
 30
0.0
 11
150.6874999999999
 21
74.076836
 31
0.0
  0
LINE
  5
1EE
330
1E
100
AcDbEntity
  8
0
  6
CONTINUOUS
100
AcDbLine
 10
113.6875
 20
68.276833
 30
0.0
 11
150.6874999999999
 21
68.276833
 31
0.0
  0
LINE
  5
1EF
330
1E
100
AcDbEntity
  8
0
  6
CONTINUOUS
100
AcDbLine
 10
113.6875
 20
66.276833
 30
0.0
 11
150.6874999999999
 21
66.276833
 31
0.0
  0
LINE
  5
1F0
330
1E
100
AcDbEntity
  8
0
  6
CONTINUOUS
100
AcDbLine
 10
113.6875
 20
60.476833
 30
0.0
 11
150.6874999999999
 21
60.476833
 31
0.0
  0
LINE
  5
1F1
330
1E
100
AcDbEntity
  8
0
  6
CONTINUOUS
100
AcDbLine
 10
113.6875
 20
58.47683299999999
 30
0.0
 11
150.6874999999999
 21
58.47683299999999
 31
0.0
  0
LINE
  5
1F2
330
1E
100
AcDbEntity
  8
0
  6
CONTINUOUS
100
AcDbLine
 10
46.6875
 20
47.87678099999999
 30
0.0
 11
46.6875
 21
18.37683099999999
 31
0.0
  0
LINE
  5
1F3
330
1E
100
AcDbEntity
  8
0
  6
CONTINUOUS
100
AcDbLine
 10
61.18755
 20
44.876831
 30
0.0
 11
46.6875
 21
44.876831
 31
0.0
  0
LINE
  5
1F4
330
1E
100
AcDbEntity
  8
0
  6
CONTINUOUS
100
AcDbLine
 10
88.187653
 20
42.876831
 30
0.0
 11
46.6875
 21
42.876831
 31
0.0
  0
LINE
  5
1F5
330
1E
100
AcDbEntity
  8
0
  6
CONTINUOUS
100
AcDbLine
 10
87.687653
 20
35.876831
 30
0.0
 11
46.6875
 21
35.876831
 31
0.0
  0
LINE
  5
1F6
330
1E
100
AcDbEntity
  8
0
  6
CONTINUOUS
100
AcDbLine
 10
63.18755
 20
37.876831
 30
0.0
 11
46.6875
 21
37.876831
 31
0.0
  0
LINE
  5
1F7
330
1E
100
AcDbEntity
  8
0
  6
CONTINUOUS
100
AcDbLine
 10
61.68755
 20
31.590832
 30
0.0
 11
46.6875
 21
31.590832
 31
0.0
  0
LINE
  5
1F8
330
1E
100
AcDbEntity
  8
0
  6
CONTINUOUS
100
AcDbLine
 10
89.187653
 20
25.376831
 30
0.0
 11
46.6875
 21
25.376831
 31
0.0
  0
ARC
  5
1F9
330
1E
100
AcDbEntity
  8
0
  6
CONTINUOUS
100
AcDbCircle
 10
-303.8124999999999
 20
82.876831
 30
0.0
 40
325.0
100
AcDbArc
 50
2.292434
 51
11.66233999999999
  0
LINE
  5
1FA
330
1E
100
AcDbEntity
  8
0
  6
CONTINUOUS
100
AcDbLine
 10
106.4375
 20
113.276817
 30
0.0
 11
106.4375
 21
112.476799
 31
0.0
  0
LINE
  5
1FB
330
1E
100
AcDbEntity
  8
0
  6
CONTINUOUS
100
AcDbLine
 10
104.2874759999999
 20
114.6268229999999
 30
0.0
 11
105.0874939999999
 21
114.6268229999999
 31
0.0
  0
LINE
  5
1FC
330
1E
100
AcDbEntity
  8
0
  6
CONTINUOUS
100
AcDbLine
 10
104.2874759999999
 20
111.126823
 30
0.0
 11
105.0874939999999
 21
111.126823
 31
0.0
  0
LINE
  5
1FD
330
1E
100
AcDbEntity
  8
0
  6
CONTINUOUS
100
AcDbLine
 10
102.9374999999999
 20
113.276817
 30
0.0
 11
102.9374999999999
 21
112.476799
 31
0.0
  0
CIRCLE
  5
1FE
330
1E
100
AcDbEntity
  8
0
  6
CONTINUOUS
100
AcDbCircle
 10
104.6875
 20
112.876823
 30
0.0
 40
2.75
  0
ARC
  5
1FF
330
1E
100
AcDbEntity
  8
0
  6
CONTINUOUS
100
AcDbCircle
 10
102.9374999999999
 20
114.6268229999999
 30
0.0
 40
1.35
100
AcDbArc
 50
270.0
 51
0.0
  0
ARC
  5
200
330
1E
100
AcDbEntity
  8
0
  6
CONTINUOUS
100
AcDbCircle
 10
102.9374999999999
 20
111.126823
 30
0.0
 40
1.35
100
AcDbArc
 50
0.0
 51
90.0
  0
ARC
  5
201
330
1E
100
AcDbEntity
  8
0
  6
CONTINUOUS
100
AcDbCircle
 10
106.4375
 20
114.6268229999999
 30
0.0
 40
1.35
100
AcDbArc
 50
180.0
 51
270.0
  0
ARC
  5
202
330
1E
100
AcDbEntity
  8
0
  6
CONTINUOUS
100
AcDbCircle
 10
106.4375
 20
111.126823
 30
0.0
 40
1.35
100
AcDbArc
 50
90.0
 51
180.0
  0
LINE
  5
203
330
1E
100
AcDbEntity
  8
0
  6
CONTINUOUS
100
AcDbLine
 10
46.43749999999999
 20
113.276817
 30
0.0
 11
46.43749999999999
 21
112.476799
 31
0.0
  0
LINE
  5
204
330
1E
100
AcDbEntity
  8
0
  6
CONTINUOUS
100
AcDbLine
 10
44.287476
 20
114.6268229999999
 30
0.0
 11
45.087494
 21
114.6268229999999
 31
0.0
  0
LINE
  5
205
330
1E
100
AcDbEntity
  8
0
  6
CONTINUOUS
100
AcDbLine
 10
44.287476
 20
111.126823
 30
0.0
 11
45.087494
 21
111.126823
 31
0.0
  0
LINE
  5
206
330
1E
100
AcDbEntity
  8
0
  6
CONTINUOUS
100
AcDbLine
 10
42.9375
 20
113.276817
 30
0.0
 11
42.9375
 21
112.476799
 31
0.0
  0
CIRCLE
  5
207
330
1E
100
AcDbEntity
  8
0
  6
CONTINUOUS
100
AcDbCircle
 10
44.6875
 20
112.876823
 30
0.0
 40
2.75
  0
ARC
  5
208
330
1E
100
AcDbEntity
  8
0
  6
CONTINUOUS
100
AcDbCircle
 10
42.9375
 20
114.6268229999999
 30
0.0
 40
1.35
100
AcDbArc
 50
270.0
 51
0.0
  0
ARC
  5
209
330
1E
100
AcDbEntity
  8
0
  6
CONTINUOUS
100
AcDbCircle
 10
42.9375
 20
111.126823
 30
0.0
 40
1.35
100
AcDbArc
 50
0.0
 51
90.0
  0
ARC
  5
20A
330
1E
100
AcDbEntity
  8
0
  6
CONTINUOUS
100
AcDbCircle
 10
46.43749999999999
 20
114.6268229999999
 30
0.0
 40
1.35
100
AcDbArc
 50
180.0
 51
270.0
  0
ARC
  5
20B
330
1E
100
AcDbEntity
  8
0
  6
CONTINUOUS
100
AcDbCircle
 10
46.43749999999999
 20
111.126823
 30
0.0
 40
1.35
100
AcDbArc
 50
90.0
 51
180.0
  0
LINE
  5
20C
330
1E
100
AcDbEntity
  8
0
  6
CONTINUOUS
100
AcDbLine
 10
46.43749999999999
 20
53.276775
 30
0.0
 11
46.43749999999999
 21
52.47675699999999
 31
0.0
  0
LINE
  5
20D
330
1E
100
AcDbEntity
  8
0
  6
CONTINUOUS
100
AcDbLine
 10
44.287476
 20
54.62678100000001
 30
0.0
 11
45.087494
 21
54.62678100000001
 31
0.0
  0
LINE
  5
20E
330
1E
100
AcDbEntity
  8
0
  6
CONTINUOUS
100
AcDbLine
 10
44.287476
 20
51.126781
 30
0.0
 11
45.087494
 21
51.126781
 31
0.0
  0
LINE
  5
20F
330
1E
100
AcDbEntity
  8
0
  6
CONTINUOUS
100
AcDbLine
 10
42.9375
 20
53.276775
 30
0.0
 11
42.9375
 21
52.47675699999999
 31
0.0
  0
CIRCLE
  5
210
330
1E
100
AcDbEntity
  8
0
  6
CONTINUOUS
100
AcDbCircle
 10
44.6875
 20
52.876781
 30
0.0
 40
2.75
  0
ARC
  5
211
330
1E
100
AcDbEntity
  8
0
  6
CONTINUOUS
100
AcDbCircle
 10
42.9375
 20
54.62678100000001
 30
0.0
 40
1.35
100
AcDbArc
 50
270.0
 51
0.0
  0
ARC
  5
212
330
1E
100
AcDbEntity
  8
0
  6
CONTINUOUS
100
AcDbCircle
 10
42.9375
 20
51.126781
 30
0.0
 40
1.35
100
AcDbArc
 50
0.0
 51
90.0
  0
ARC
  5
213
330
1E
100
AcDbEntity
  8
0
  6
CONTINUOUS
100
AcDbCircle
 10
46.43749999999999
 20
54.62678100000001
 30
0.0
 40
1.35
100
AcDbArc
 50
180.0
 51
270.0
  0
ARC
  5
214
330
1E
100
AcDbEntity
  8
0
  6
CONTINUOUS
100
AcDbCircle
 10
46.43749999999999
 20
51.126781
 30
0.0
 40
1.35
100
AcDbArc
 50
90.0
 51
180.0
  0
LINE
  5
215
330
1E
100
AcDbEntity
  8
0
  6
CONTINUOUS
100
AcDbLine
 10
106.4375
 20
53.276775
 30
0.0
 11
106.4375
 21
52.47675699999999
 31
0.0
  0
LINE
  5
216
330
1E
100
AcDbEntity
  8
0
  6
CONTINUOUS
100
AcDbLine
 10
104.2874759999999
 20
54.62678100000001
 30
0.0
 11
105.0874939999999
 21
54.62678100000001
 31
0.0
  0
LINE
  5
217
330
1E
100
AcDbEntity
  8
0
  6
CONTINUOUS
100
AcDbLine
 10
104.2874759999999
 20
51.126781
 30
0.0
 11
105.0874939999999
 21
51.126781
 31
0.0
  0
LINE
  5
218
330
1E
100
AcDbEntity
  8
0
  6
CONTINUOUS
100
AcDbLine
 10
102.9374999999999
 20
53.276775
 30
0.0
 11
102.9374999999999
 21
52.47675699999999
 31
0.0
  0
CIRCLE
  5
219
330
1E
100
AcDbEntity
  8
0
  6
CONTINUOUS
100
AcDbCircle
 10
104.6875
 20
52.876781
 30
0.0
 40
2.75
  0
ARC
  5
21A
330
1E
100
AcDbEntity
  8
0
  6
CONTINUOUS
100
AcDbCircle
 10
102.9374999999999
 20
54.62678100000001
 30
0.0
 40
1.35
100
AcDbArc
 50
270.0
 51
0.0
  0
ARC
  5
21B
330
1E
100
AcDbEntity
  8
0
  6
CONTINUOUS
100
AcDbCircle
 10
102.9374999999999
 20
51.126781
 30
0.0
 40
1.35
100
AcDbArc
 50
0.0
 51
90.0
  0
ARC
  5
21C
330
1E
100
AcDbEntity
  8
0
  6
CONTINUOUS
100
AcDbCircle
 10
106.4375
 20
54.62678100000001
 30
0.0
 40
1.35
100
AcDbArc
 50
180.0
 51
270.0
  0
ARC
  5
21D
330
1E
100
AcDbEntity
  8
0
  6
CONTINUOUS
100
AcDbCircle
 10
106.4375
 20
51.126781
 30
0.0
 40
1.35
100
AcDbArc
 50
90.0
 51
180.0
  0
LINE
  5
21E
330
1E
100
AcDbEntity
  8
0
  6
CONTINUOUS
100
AcDbLine
 10
167.187683
 20
294.473602
 30
0.0
 11
168.687683
 21
294.9021609999999
 31
0.0
  0
LINE
  5
21F
330
1E
100
AcDbEntity
  8
0
  6
CONTINUOUS
100
AcDbLine
 10
168.687683
 20
293.9156189999999
 30
0.0
 11
170.187683
 21
294.4320069999999
 31
0.0
  0
LINE
  5
220
330
1E
100
AcDbEntity
  8
0
  6
CONTINUOUS
100
AcDbLine
 10
167.187683
 20
300.617767
 30
0.0
 11
167.187683
 21
294.473602
 31
0.0
  0
LINE
  5
221
330
1E
100
AcDbEntity
  8
0
  6
CONTINUOUS
100
AcDbLine
 10
168.687683
 20
300.725342
 30
0.0
 11
168.687683
 21
293.9156189999999
 31
0.0
  0
LINE
  5
222
330
1E
100
AcDbEntity
  8
0
  6
CONTINUOUS
100
AcDbLine
 10
170.187683
 20
300.5639649999999
 30
0.0
 11
170.187683
 21
294.4320069999999
 31
0.0
  0
LINE
  5
223
330
1E
100
AcDbEntity
  8
0
  6
CONTINUOUS
100
AcDbLine
 10
217.187683
 20
301.181732
 30
0.0
 11
217.187683
 21
296.2307129999999
 31
0.0
  0
LINE
  5
224
330
1E
100
AcDbEntity
  8
0
  6
CONTINUOUS
100
AcDbLine
 10
218.687683
 20
301.181732
 30
0.0
 11
218.687683
 21
295.6727289999999
 31
0.0
  0
LINE
  5
225
330
1E
100
AcDbEntity
  8
0
  6
CONTINUOUS
100
AcDbLine
 10
220.187683
 20
301.181732
 30
0.0
 11
220.187683
 21
296.189117
 31
0.0
  0
LINE
  5
226
330
1E
100
AcDbEntity
  8
0
  6
CONTINUOUS
100
AcDbLine
 10
218.687683
 20
295.6727289999999
 30
0.0
 11
220.187683
 21
296.189117
 31
0.0
  0
LINE
  5
227
330
1E
100
AcDbEntity
  8
0
  6
CONTINUOUS
100
AcDbLine
 10
217.187683
 20
296.2307129999999
 30
0.0
 11
218.687683
 21
296.659271
 31
0.0
  0
LINE
  5
228
330
1E
100
AcDbEntity
  8
0
  6
CONTINUOUS
100
AcDbLine
 10
170.187683
 20
298.431732
 30
0.0
 11
181.6874999999999
 21
298.431732
 31
0.0
  0
LINE
  5
229
330
1E
100
AcDbEntity
  8
0
  6
CONTINUOUS
100
AcDbLine
 10
220.187683
 20
300.681732
 30
0.0
 11
237.090622
 21
300.681732
 31
0.0
  0
LINE
  5
22A
330
1E
100
AcDbEntity
  8
0
  6
CENTER
100
AcDbLine
 10
74.6875
 20
304.4999999999999
 30
0.0
 11
74.6875
 21
233.377502
 31
0.0
  0
LINE
  5
22B
330
1E
100
AcDbEntity
  8
0
  6
CENTER
100
AcDbLine
 10
74.68755300000001
 20
121.3799969999999
 30
0.0
 11
74.68755300000001
 21
44.126251
 31
0.0
  0
LINE
  5
22C
330
1E
100
AcDbEntity
  8
0
  6
CENTER
100
AcDbLine
 10
7.153125
 20
261.181732
 30
0.0
 11
49.25437500000001
 21
261.181732
 31
0.0
  0
LINE
  5
22D
330
1E
100
AcDbEntity
  8
0
  6
CONTINUOUS
100
AcDbLine
 10
183.6875
 20
27.626657
 30
0.0
 11
183.6875
 21
138.1266629999999
 31
0.0
  0
LINE
  5
22E
330
1E
100
AcDbEntity
  8
0
  6
CONTINUOUS
100
AcDbLine
 10
238.6874999999999
 20
27.626657
 30
0.0
 11
238.6874999999999
 21
138.1266629999999
 31
0.0
  0
LINE
  5
22F
330
1E
100
AcDbEntity
  8
0
  6
CONTINUOUS
100
AcDbLine
 10
185.6875
 20
126.876656
 30
0.0
 11
236.6874999999999
 21
126.876656
 31
0.0
  0
LINE
  5
230
330
1E
100
AcDbEntity
  8
0
  6
CONTINUOUS
100
AcDbLine
 10
185.6875
 20
34.87665599999999
 30
0.0
 11
236.6874999999999
 21
34.87665599999999
 31
0.0
  0
LINE
  5
231
330
1E
100
AcDbEntity
  8
0
  6
CONTINUOUS
100
AcDbLine
 10
175.6874999999999
 20
140.1266629999999
 30
0.0
 11
181.6874999999999
 21
140.1266629999999
 31
0.0
  0
LINE
  5
232
330
1E
100
AcDbEntity
  8
0
  6
CONTINUOUS
100
AcDbLine
 10
175.6874999999999
 20
25.626657
 30
0.0
 11
181.6874999999999
 21
25.626657
 31
0.0
  0
ARC
  5
233
330
1E
100
AcDbEntity
  8
0
  6
CONTINUOUS
100
AcDbCircle
 10
185.6875
 20
128.8766629999999
 30
0.0
 40
2.0
100
AcDbArc
 50
180.0
 51
270.0
  0
ARC
  5
234
330
1E
100
AcDbEntity
  8
0
  6
CONTINUOUS
100
AcDbCircle
 10
236.6874999999999
 20
128.8766629999999
 30
0.0
 40
2.0
100
AcDbArc
 50
270.0
 51
0.0
  0
ARC
  5
235
330
1E
100
AcDbEntity
  8
0
  6
CONTINUOUS
100
AcDbCircle
 10
185.6875
 20
32.876678
 30
0.0
 40
2.0
100
AcDbArc
 50
90.0
 51
180.0
  0
ARC
  5
236
330
1E
100
AcDbEntity
  8
0
  6
CONTINUOUS
100
AcDbCircle
 10
236.6874999999999
 20
32.87665599999999
 30
0.0
 40
2.0
100
AcDbArc
 50
0.0
 51
90.0
  0
ARC
  5
237
330
1E
100
AcDbEntity
  8
0
  6
CONTINUOUS
100
AcDbCircle
 10
181.6874999999999
 20
138.1266629999999
 30
0.0
 40
2.0
100
AcDbArc
 50
0.0
 51
90.0
  0
ARC
  5
238
330
1E
100
AcDbEntity
  8
0
  6
CONTINUOUS
100
AcDbCircle
 10
240.6874999999999
 20
138.126678
 30
0.0
 40
2.0
100
AcDbArc
 50
90.0
 51
180.0
  0
ARC
  5
239
330
1E
100
AcDbEntity
  8
0
  6
CONTINUOUS
100
AcDbCircle
 10
240.6874999999999
 20
27.626657
 30
0.0
 40
2.0
100
AcDbArc
 50
180.0
 51
270.0
  0
ARC
  5
23A
330
1E
100
AcDbEntity
  8
0
  6
CONTINUOUS
100
AcDbCircle
 10
181.6874999999999
 20
27.626657
 30
0.0
 40
2.0
100
AcDbArc
 50
270.0
 51
0.0
  0
LINE
  5
23B
330
1E
100
AcDbEntity
  8
0
  6
CONTINUOUS
100
AcDbLine
 10
184.6875
 20
73.87665600000001
 30
0.0
 11
184.6875
 21
86.876656
 31
0.0
  0
LINE
  5
23C
330
1E
100
AcDbEntity
  8
0
  6
CONTINUOUS
100
AcDbLine
 10
206.6875
 20
86.876656
 30
0.0
 11
206.6875
 21
73.87665600000001
 31
0.0
  0
LINE
  5
23D
330
1E
100
AcDbEntity
  8
0
  6
CONTINUOUS
100
AcDbLine
 10
237.6875
 20
73.87665600000001
 30
0.0
 11
237.6875
 21
86.876656
 31
0.0
  0
LINE
  5
23E
330
1E
100
AcDbEntity
  8
0
  6
CONTINUOUS
100
AcDbLine
 10
215.6874999999999
 20
73.87665600000001
 30
0.0
 11
215.6874999999999
 21
86.876656
 31
0.0
  0
LINE
  5
23F
330
1E
100
AcDbEntity
  8
0
  6
CONTINUOUS
100
AcDbLine
 10
205.6875
 20
87.87665600000002
 30
0.0
 11
185.6875
 21
87.87665600000002
 31
0.0
  0
LINE
  5
240
330
1E
100
AcDbEntity
  8
0
  6
CONTINUOUS
100
AcDbLine
 10
205.6875
 20
72.87665600000001
 30
0.0
 11
185.6875
 21
72.87665600000001
 31
0.0
  0
ARC
  5
241
330
1E
100
AcDbEntity
  8
0
  6
CONTINUOUS
100
AcDbCircle
 10
185.6875
 20
86.876656
 30
0.0
 40
1.0
100
AcDbArc
 50
90.0
 51
180.0
  0
ARC
  5
242
330
1E
100
AcDbEntity
  8
0
  6
CONTINUOUS
100
AcDbCircle
 10
185.6875
 20
73.87665600000001
 30
0.0
 40
1.0
100
AcDbArc
 50
180.0
 51
270.0
  0
ARC
  5
243
330
1E
100
AcDbEntity
  8
0
  6
CONTINUOUS
100
AcDbCircle
 10
205.6875
 20
73.87665600000001
 30
0.0
 40
1.0
100
AcDbArc
 50
270.0
 51
0.0
  0
ARC
  5
244
330
1E
100
AcDbEntity
  8
0
  6
CONTINUOUS
100
AcDbCircle
 10
205.6875
 20
86.876656
 30
0.0
 40
1.0
100
AcDbArc
 50
0.0
 51
90.0
  0
ARC
  5
245
330
1E
100
AcDbEntity
  8
0
  6
CONTINUOUS
100
AcDbCircle
 10
216.6875
 20
86.876656
 30
0.0
 40
1.0
100
AcDbArc
 50
90.0
 51
180.0
  0
ARC
  5
246
330
1E
100
AcDbEntity
  8
0
  6
CONTINUOUS
100
AcDbCircle
 10
216.6875
 20
73.87665600000001
 30
0.0
 40
1.0
100
AcDbArc
 50
180.0
 51
270.0
  0
ARC
  5
247
330
1E
100
AcDbEntity
  8
0
  6
CONTINUOUS
100
AcDbCircle
 10
236.6874999999999
 20
86.876656
 30
0.0
 40
1.0
100
AcDbArc
 50
0.0
 51
90.0
  0
ARC
  5
248
330
1E
100
AcDbEntity
  8
0
  6
CONTINUOUS
100
AcDbCircle
 10
236.6874999999999
 20
73.87665600000001
 30
0.0
 40
1.0
100
AcDbArc
 50
270.0
 51
0.0
  0
LINE
  5
249
330
1E
100
AcDbEntity
  8
0
  6
CONTINUOUS
100
AcDbLine
 10
218.6875
 20
96.87665600000002
 30
0.0
 11
218.6875
 21
70.932709
 31
0.0
  0
LINE
  5
24A
330
1E
100
AcDbEntity
  8
0
  6
CONTINUOUS
100
AcDbLine
 10
220.1875
 20
96.87665600000002
 30
0.0
 11
220.1875
 21
70.075562
 31
0.0
  0
LINE
  5
24B
330
1E
100
AcDbEntity
  8
0
  6
CONTINUOUS
100
AcDbLine
 10
217.1875
 20
96.87665600000002
 30
0.0
 11
217.1875
 21
70.817627
 31
0.0
  0
LINE
  5
24C
330
1E
100
AcDbEntity
  8
0
  6
CONTINUOUS
100
AcDbLine
 10
217.1875
 20
70.817627
 30
0.0
 11
218.6875
 21
72.055115
 31
0.0
  0
LINE
  5
24D
330
1E
100
AcDbEntity
  8
0
  6
CONTINUOUS
100
AcDbLine
 10
218.6875
 20
70.932709
 30
0.0
 11
220.1875
 21
70.075562
 31
0.0
  0
ARC
  5
24E
330
1E
100
AcDbEntity
  8
0
  6
CONTINUOUS
100
AcDbCircle
 10
219.4374999999999
 20
96.87665600000002
 30
0.0
 40
0.75
100
AcDbArc
 50
0.0
 51
180.0
  0
ARC
  5
24F
330
1E
100
AcDbEntity
  8
0
  6
CONTINUOUS
100
AcDbCircle
 10
217.9374999999999
 20
96.87665600000002
 30
0.0
 40
0.75
100
AcDbArc
 50
0.0
 51
180.0
  0
LINE
  5
250
330
1E
100
AcDbEntity
  8
0
  6
CONTINUOUS
100
AcDbLine
 10
216.6875
 20
87.87665600000002
 30
0.0
 11
217.1875
 21
87.87665600000002
 31
0.0
  0
LINE
  5
251
330
1E
100
AcDbEntity
  8
0
  6
CONTINUOUS
100
AcDbLine
 10
216.6875
 20
72.87665600000001
 30
0.0
 11
217.1875
 21
72.87665600000001
 31
0.0
  0
LINE
  5
252
330
1E
100
AcDbEntity
  8
0
  6
CONTINUOUS
100
AcDbLine
 10
185.580566
 20
69.282417
 30
0.0
 11
237.031296
 21
69.282417
 31
0.0
  0
LINE
  5
253
330
1E
100
AcDbEntity
  8
0
  6
CONTINUOUS
100
AcDbLine
 10
240.6874999999999
 20
140.1266629999999
 30
0.0
 11
246.6874999999999
 21
140.1266629999999
 31
0.0
  0
LINE
  5
254
330
1E
100
AcDbEntity
  8
0
  6
CONTINUOUS
100
AcDbLine
 10
240.6874999999999
 20
25.626657
 30
0.0
 11
246.6874999999999
 21
25.626657
 31
0.0
  0
LINE
  5
255
330
1E
100
AcDbEntity
  8
0
  6
CONTINUOUS
100
AcDbLine
 10
236.6874999999999
 20
72.87665600000001
 30
0.0
 11
220.1875
 21
72.87665600000001
 31
0.0
  0
LINE
  5
256
330
1E
100
AcDbEntity
  8
0
  6
CONTINUOUS
100
AcDbLine
 10
236.6874999999999
 20
87.87665600000002
 30
0.0
 11
220.1875
 21
87.87665600000002
 31
0.0
  0
LINE
  5
257
330
1E
100
AcDbEntity
  8
0
  6
CONTINUOUS
100
AcDbLine
 10
185.580566
 20
65.876717
 30
0.0
 11
237.031296
 21
65.876717
 31
0.0
  0
LINE
  5
258
330
1E
100
AcDbEntity
  8
0
  6
CONTINUOUS
100
AcDbLine
 10
226.6875
 20
52.48072099999999
 30
0.0
 11
226.6875
 21
36.87665599999999
 31
0.0
  0
LINE
  5
259
330
1E
100
AcDbEntity
  8
0
  6
CONTINUOUS
100
AcDbLine
 10
195.6875
 20
52.48072099999999
 30
0.0
 11
195.6875
 21
36.87665599999999
 31
0.0
  0
LINE
  5
25A
330
1E
100
AcDbEntity
  8
0
  6
CONTINUOUS
100
AcDbLine
 10
185.580566
 20
56.21213499999999
 30
0.0
 11
194.251877
 21
56.21213499999999
 31
0.0
  0
LINE
  5
25B
330
1E
100
AcDbEntity
  8
0
  6
CONTINUOUS
100
AcDbLine
 10
228.1456299999999
 20
56.21213499999999
 30
0.0
 11
237.031296
 21
56.21213499999999
 31
0.0
  0
ARC
  5
25C
330
1E
100
AcDbEntity
  8
0
  6
CONTINUOUS
100
AcDbCircle
 10
193.6875
 20
36.87665599999999
 30
0.0
 40
2.0
100
AcDbArc
 50
270.0
 51
0.0
  0
ARC
  5
25D
330
1E
100
AcDbEntity
  8
0
  6
CONTINUOUS
100
AcDbCircle
 10
228.6875
 20
36.87665599999999
 30
0.0
 40
2.0
100
AcDbArc
 50
180.0
 51
270.0
  0
LINE
  5
25E
330
1E
100
AcDbEntity
  8
0
  6
CONTINUOUS
100
AcDbLine
 10
196.3453059999999
 20
45.99854299999999
 30
0.0
 11
225.852814
 21
45.99854299999999
 31
0.0
  0
ARC
  5
25F
330
1E
100
AcDbEntity
  8
0
  6
CONTINUOUS
100
AcDbCircle
 10
218.6875
 20
96.87665600000002
 30
0.0
 40
4.0
100
AcDbArc
 50
292.024315
 51
247.9756929999999
  0
LINE
  5
260
330
1E
100
AcDbEntity
  8
0
  6
CENTER
100
AcDbLine
 10
476.2521969999999
 20
123.0
 30
0.0
 11
476.2521969999999
 21
43.0
 31
0.0
  0
TEXT
  5
261
330
1E
100
AcDbEntity
  8
0
100
AcDbText
 10
-18.0
 20
-12.0
 30
0.0
 40
4.0
  1
G3FE-18-5~25-T020WA
100
AcDbText
  0
ARC
  5
2C5
330
1E
100
AcDbEntity
  8
TOP
100
AcDbCircle
 10
12.25579423472618
 20
407.1817319999999
 30
0.0
 40
12.0
100
AcDbArc
 50
90.50000000000132
 51
170.9664843358174
  0
ARC
  5
2C6
330
1E
100
AcDbEntity
  8
0
100
AcDbCircle
 10
339.1846704791912
 20
355.6817319999997
 30
0.0
 40
325.0
100
AcDbArc
 50
168.2484724111569
 51
191.751527588843
  0
LINE
  5
2C7
330
1E
100
AcDbEntity
  8
TOP
100
AcDbLine
 10
46.68750000000005
 20
422.06828271872
 30
0.0
 11
46.68749999999994
 21
289.2951812812797
 31
0.0
  0
ARC
  5
2F0
330
1E
100
AcDbEntity
  8
TOP
100
AcDbCircle
 10
336.1874999999999
 20
355.6817319999997
 30
0.0
 40
340.0
100
AcDbArc
 50
170.9664843358174
 51
189.0335156641825
  0
LINE
  5
2F1
330
1E
100
AcDbEntity
  8
0
100
AcDbLine
 10
45.68749999999994
 20
288.2951812812797
 30
0.0
 11
22.46521664916593
 21
288.2951812812797
 31
0.0
  0
ARC
  5
2F2
330
1E
100
AcDbEntity
  8
TOP
100
AcDbCircle
 10
12.25579423472618
 20
304.1817319999998
 30
0.0
 40
12.0
100
AcDbArc
 50
189.0335156641825
 51
269.4999999999986
  0
LINE
  5
2F3
330
1E
100
AcDbEntity
  8
TOP
100
AcDbLine
 10
12.15107580874558
 20
292.1821889232297
 30
0.0
 11
19.63240146379592
 21
292.1721326468481
 31
0.0
  0
ARC
  5
2F4
330
1E
100
AcDbEntity
  8
0
100
AcDbCircle
 10
19.63105728125936
 20
291.1721335502619
 30
0.0
 40
1.0
100
AcDbArc
 50
11.41314332739548
 51
89.92298399056364
  0
ARC
  5
2F5
330
1E
100
AcDbEntity
  8
0
100
AcDbCircle
 10
22.46521664916611
 20
289.7951812812797
 30
0.0
 40
1.5
100
AcDbArc
 50
191.751527588843
 51
270.0
  0
ARC
  5
2F6
330
1E
100
AcDbEntity
  8
0
100
AcDbCircle
 10
45.68750000000011
 20
289.2951812812797
 30
0.0
 40
1.0
100
AcDbArc
 50
270.0
 51
0.0
  0
LINE
  5
310
330
1E
100
AcDbEntity
  8
0
100
AcDbLine
 10
45.68750000000005
 20
423.06828271872
 30
0.0
 11
22.46521664916593
 21
423.06828271872
 31
0.0
  0
LINE
  5
311
330
1E
100
AcDbEntity
  8
TOP
100
AcDbLine
 10
12.15107580874558
 20
419.18127507677
 30
0.0
 11
19.63240146379592
 21
419.1913313531516
 31
0.0
  0
ARC
  5
312
330
1E
100
AcDbEntity
  8
0
100
AcDbCircle
 10
22.46521664916611
 20
421.56828271872
 30
0.0
 40
1.5
100
AcDbArc
 50
90.0
 51
168.2484724111498
  0
ARC
  5
313
330
1E
100
AcDbEntity
  8
0
100
AcDbCircle
 10
19.63105728125936
 20
420.1913304497378
 30
0.0
 40
1.0
100
AcDbArc
 50
270.0770160094363
 51
348.5868566726044
  0
ARC
  5
314
330
1E
100
AcDbEntity
  8
0
100
AcDbCircle
 10
45.68750000000011
 20
422.06828271872
 30
0.0
 40
1.0
100
AcDbArc
 50
0.0
 51
90.0
  0
ENDSEC
  0
SECTION
  2
OBJECTS
  0
DICTIONARY
  5
C
330
0
100
AcDbDictionary
  3
ACAD_GROUP
350
D
  3
ACAD_LAYOUT
350
19
  3
ACAD_MLINESTYLE
350
16
  3
ACAD_PLOTSETTINGS
350
18
  3
ACAD_PLOTSTYLENAME
350
E
  3
ACDBHEADERROUNDTRIPXREC
350
329
  3
ACDBVARIABLEDICTIONARY
350
326
  0
DICTIONARY
  5
34B
330
1E
100
AcDbDictionary
280
     1
  3
ACAD_LAYOUTSELFREF
360
34C
  0
DICTIONARY
  5
349
330
1A
100
AcDbDictionary
280
     1
  3
ACAD_LAYOUTSELFREF
360
34A
  0
DICTIONARY
  5
D
102
{ACAD_REACTORS
330
C
102
}
330
C
100
AcDbDictionary
  0
DICTIONARY
  5
19
102
{ACAD_REACTORS
330
C
102
}
330
C
100
AcDbDictionary
  0
DICTIONARY
  5
16
102
{ACAD_REACTORS
330
C
102
}
330
C
100
AcDbDictionary
  3
STANDARD
350
17
  0
DICTIONARY
  5
18
102
{ACAD_REACTORS
330
C
102
}
330
C
100
AcDbDictionary
  0
ACDBDICTIONARYWDFLT
  5
E
102
{ACAD_REACTORS
330
C
102
}
330
C
100
AcDbDictionary
281
     1
  3
Normal
350
F
100
AcDbDictionaryWithDefault
340
F
  0
DICTIONARY
  5
329
102
{ACAD_REACTORS
330
C
102
}
330
C
100
AcDbDictionary
  3
CEPSNTYPE
350
333
  3
FINGERPRINTGUID
350
334
  3
HYPERLINKBASE
350
32C
  3
INSUNITS
350
332
  3
LAYOUTDICT
350
32E
  3
LWETCUNION
350
331
  3
PLOTSETDICT
350
32F
  3
PLOTSTYLNAMDICT
350
330
  3
PSVPSCALE
350
336
  3
PUCSBASE
350
339
  3
PUCSORGBACK
350
33F
  3
PUCSORGBOTTOM
350
33B
  3
PUCSORGFRONT
350
33E
  3
PUCSORGLEFT
350
33C
  3
PUCSORGRIGHT
350
33D
  3
PUCSORGTOP
350
33A
  3
PUCSORTHOREF
350
337
  3
PUCSORTHOVIEW
350
338
  3
STYLESHEET
350
32D
  3
TSTACKALIGN
350
32A
  3
TSTACKSIZE
350
32B
  3
UCSBASE
350
342
  3
UCSORGBACK
350
348
  3
UCSORGBOTTOM
350
344
  3
UCSORGFRONT
350
347
  3
UCSORGLEFT
350
345
  3
UCSORGRIGHT
350
346
  3
UCSORGTOP
350
343
  3
UCSORTHOREF
350
340
  3
UCSORTHOVIEW
350
341
  3
VERSIONGUID
350
335
  0
DICTIONARY
  5
326
102
{ACAD_REACTORS
330
C
102
}
330
C
100
AcDbDictionary
  3
DIMASSOC
350
327
  0
XRECORD
  5
34C
102
{ACAD_REACTORS
330
34B
102
}
330
34B
100
AcDbXrecord
340
1E
  0
XRECORD
  5
34A
102
{ACAD_REACTORS
330
349
102
}
330
349
100
AcDbXrecord
340
1A
  0
MLINESTYLE
  5
17
102
{ACAD_REACTORS
330
16
102
}
330
16
100
AcDbMlineStyle
  2
STANDARD
 70
     0
  3

 62
   256
 51
90.0
 52
90.0
 71
     2
 49
0.5
 62
   256
  6
BYLAYER
 49
-0.5
 62
   256
  6
BYLAYER
  0
ACDBPLACEHOLDER
  5
F
102
{ACAD_REACTORS
330
E
102
}
330
E
100
AcDbPlaceHolder
280
     0
  0
XRECORD
  5
333
102
{ACAD_REACTORS
330
329
102
}
330
329
100
AcDbXrecord
 90
        0
  0
XRECORD
  5
334
102
{ACAD_REACTORS
330
329
102
}
330
329
100
AcDbXrecord
  1
{6015A24F-4AF1-4692-90AC-15EE2E931361}
  0
XRECORD
  5
32C
102
{ACAD_REACTORS
330
329
102
}
330
329
100
AcDbXrecord
  1

  0
XRECORD
  5
332
102
{ACAD_REACTORS
330
329
102
}
330
329
100
AcDbXrecord
 90
        0
  0
XRECORD
  5
32E
102
{ACAD_REACTORS
330
329
102
}
330
329
100
AcDbXrecord
340
19
  0
XRECORD
  5
331
102
{ACAD_REACTORS
330
329
102
}
330
329
100
AcDbXrecord
 90
    10781
  0
XRECORD
  5
32F
102
{ACAD_REACTORS
330
329
102
}
330
329
100
AcDbXrecord
340
18
  0
XRECORD
  5
330
102
{ACAD_REACTORS
330
329
102
}
330
329
100
AcDbXrecord
340
E
  0
XRECORD
  5
336
102
{ACAD_REACTORS
330
329
102
}
330
329
100
AcDbXrecord
 40
0.0
  0
XRECORD
  5
339
102
{ACAD_REACTORS
330
329
102
}
330
329
100
AcDbXrecord
340
0
  0
XRECORD
  5
33F
102
{ACAD_REACTORS
330
329
102
}
330
329
100
AcDbXrecord
 10
0.0
 20
0.0
 30
0.0
  0
XRECORD
  5
33B
102
{ACAD_REACTORS
330
329
102
}
330
329
100
AcDbXrecord
 10
0.0
 20
0.0
 30
0.0
  0
XRECORD
  5
33E
102
{ACAD_REACTORS
330
329
102
}
330
329
100
AcDbXrecord
 10
0.0
 20
0.0
 30
0.0
  0
XRECORD
  5
33C
102
{ACAD_REACTORS
330
329
102
}
330
329
100
AcDbXrecord
 10
0.0
 20
0.0
 30
0.0
  0
XRECORD
  5
33D
102
{ACAD_REACTORS
330
329
102
}
330
329
100
AcDbXrecord
 10
0.0
 20
0.0
 30
0.0
  0
XRECORD
  5
33A
102
{ACAD_REACTORS
330
329
102
}
330
329
100
AcDbXrecord
 10
0.0
 20
0.0
 30
0.0
  0
XRECORD
  5
337
102
{ACAD_REACTORS
330
329
102
}
330
329
100
AcDbXrecord
340
0
  0
XRECORD
  5
338
102
{ACAD_REACTORS
330
329
102
}
330
329
100
AcDbXrecord
 70
     0
  0
XRECORD
  5
32D
102
{ACAD_REACTORS
330
329
102
}
330
329
100
AcDbXrecord
  1

  0
XRECORD
  5
32A
102
{ACAD_REACTORS
330
329
102
}
330
329
100
AcDbXrecord
 90
        1
  0
XRECORD
  5
32B
102
{ACAD_REACTORS
330
329
102
}
330
329
100
AcDbXrecord
 90
       70
  0
XRECORD
  5
342
102
{ACAD_REACTORS
330
329
102
}
330
329
100
AcDbXrecord
340
0
  0
XRECORD
  5
348
102
{ACAD_REACTORS
330
329
102
}
330
329
100
AcDbXrecord
 10
0.0
 20
0.0
 30
0.0
  0
XRECORD
  5
344
102
{ACAD_REACTORS
330
329
102
}
330
329
100
AcDbXrecord
 10
0.0
 20
0.0
 30
0.0
  0
XRECORD
  5
347
102
{ACAD_REACTORS
330
329
102
}
330
329
100
AcDbXrecord
 10
0.0
 20
0.0
 30
0.0
  0
XRECORD
  5
345
102
{ACAD_REACTORS
330
329
102
}
330
329
100
AcDbXrecord
 10
0.0
 20
0.0
 30
0.0
  0
XRECORD
  5
346
102
{ACAD_REACTORS
330
329
102
}
330
329
100
AcDbXrecord
 10
0.0
 20
0.0
 30
0.0
  0
XRECORD
  5
343
102
{ACAD_REACTORS
330
329
102
}
330
329
100
AcDbXrecord
 10
0.0
 20
0.0
 30
0.0
  0
XRECORD
  5
340
102
{ACAD_REACTORS
330
329
102
}
330
329
100
AcDbXrecord
340
0
  0
XRECORD
  5
341
102
{ACAD_REACTORS
330
329
102
}
330
329
100
AcDbXrecord
 70
     0
  0
XRECORD
  5
335
102
{ACAD_REACTORS
330
329
102
}
330
329
100
AcDbXrecord
  1
{876777B9-3140-4150-835B-7623DC87ECD7}
  0
DICTIONARYVAR
  5
327
102
{ACAD_REACTORS
330
326
102
}
330
326
100
DictionaryVariables
280
     0
  1
1
  0
ENDSEC
  0
EOF
