  0
SECTION
  2
HEADER
  9
$CLAYER
  8
1
  9
$LTSCALE
 40
3.0
  0
ENDSEC
  0
SECTION
  2
TABLES
  0
TABLE
  2
LTYPE
 70
     4
  0
LTYPE
  2
CONTINUOUS
  3
solid line
 70
    64
 72
    65
 73
     0
 40
0.0
  0
LTYPE
  2
DASHED
  3
__ __ __ __ __ __ __ __ __ __ __ __ __ __ __
 70
    64
 72
    65
 73
     2
 40
0.75
 49
0.5
 49
-0.25
  0
LTYPE
  2
CENTER
  3
____ _ ____ _ ____ _ ____ _ ____ _ ____ _ ____
 70
    64
 72
    65
 73
     4
 40
2.0
 49
1.25
 49
-0.25
 49
0.25
 49
-0.25
  0
LTYPE
  2
PHANTOM
  3
_____ _ _ _____ _ _ _____ _ _ _____ _ _ ____
 70
    64
 72
    65
 73
     6
 40
2.5
 49
1.25
 49
-0.25
 49
0.25
 49
-0.25
 49
0.25
 49
-0.25
  0
ENDTAB
  0
TABLE
  2
LAYER
 70
     1
  0
LAYER
  2
0
 70
    64
 62
     7
  6
CONTINUOUS
  0
ENDTAB
  0
TABLE
  2
STYLE
 70
     1
  0
STYLE
  2
STANDARD
 70
     0
 40
0.000000
 41
1.000000
 50
0.000000
 71
     0
 42
3.000000
  3
txt
  4
BIGFONT
  0
ENDTAB
  0
ENDSEC
  0
SECTION
  2
BLOCKS
  0
ENDSEC
  0
SECTION
  2
ENTITIES
  0
LINE
  8
0
  6
CENTER
 10
-10.779375
 20
347.821259
 11
352.577820
 21
347.821259
  0
LINE
  8
0
  6
CONTINUOUS
 10
297.577820
 20
335.821198
 11
299.577820
 21
335.821198
  0
LINE
  8
0
  6
CONTINUOUS
 10
299.577820
 20
359.821259
 11
299.577820
 21
335.821198
  0
LINE
  8
0
  6
CONTINUOUS
 10
297.577820
 20
359.821259
 11
299.577820
 21
359.821259
  0
LINE
  8
0
  6
CONTINUOUS
 10
299.577820
 20
358.821259
 11
339.577820
 21
358.821259
  0
LINE
  8
0
  6
CONTINUOUS
 10
299.577820
 20
336.821198
 11
304.577820
 21
336.821198
  0
LINE
  8
0
  6
CONTINUOUS
 10
339.577820
 20
358.821259
 11
339.577820
 21
336.821198
  0
LINE
  8
0
  6
CONTINUOUS
 10
222.577835
 20
413.821259
 11
222.577835
 21
281.821198
  0
LINE
  8
0
  6
CONTINUOUS
 10
280.577545
 20
269.137390
 11
280.577545
 21
426.505127
  0
LINE
  8
0
  6
CONTINUOUS
 10
292.577820
 20
266.321259
 11
292.577820
 21
429.321198
  0
LINE
  8
0
  6
CONTINUOUS
 10
283.472839
 20
266.139191
 11
292.078125
 21
265.838715
  0
LINE
  8
0
  6
CONTINUOUS
 10
296.577820
 20
421.321198
 11
296.577820
 21
274.321259
  0
LINE
  8
0
  6
CONTINUOUS
 10
296.077820
 20
421.821198
 11
292.577820
 21
421.821198
  0
LINE
  8
0
  6
CONTINUOUS
 10
296.077820
 20
273.821259
 11
292.577820
 21
273.821259
  0
LINE
  8
0
  6
CONTINUOUS
 10
297.577820
 20
377.821259
 11
297.577820
 21
317.821259
  0
LINE
  8
0
  6
CONTINUOUS
 10
296.577820
 20
377.821259
 11
297.577820
 21
377.821259
  0
LINE
  8
0
  6
CONTINUOUS
 10
296.577820
 20
317.821259
 11
297.577820
 21
317.821259
  0
LINE
  8
0
  6
CONTINUOUS
 10
304.577820
 20
337.238251
 11
304.577820
 21
334.321198
  0
LINE
  8
0
  6
CONTINUOUS
 10
339.577820
 20
336.821198
 11
339.577820
 21
334.321198
  0
LINE
  8
0
  6
CONTINUOUS
 10
304.577820
 20
334.321198
 11
339.577820
 21
334.321198
  0
LINE
  8
0
  6
CONTINUOUS
 10
216.577774
 20
411.715820
 11
216.577560
 21
283.962219
  0
LINE
  8
0
  6
CONTINUOUS
 10
213.682541
 20
290.160461
 11
209.077774
 21
290.321259
  0
ARC
  8
0
  6
CONTINUOUS
 10
213.577835
 20
287.162262
 40
3.000000
 50
0.000000
 51
88.000549
  0
LINE
  8
0
  6
CONTINUOUS
 10
213.682541
 20
405.482056
 11
209.077774
 21
405.321198
  0
ARC
  8
0
  6
CONTINUOUS
 10
213.577835
 20
408.480164
 40
3.000000
 50
-87.999634
 51
0.000000
  0
LINE
  8
0
  6
CONTINUOUS
 10
209.077774
 20
405.321198
 11
209.077774
 21
290.321259
  0
LINE
  8
0
  6
CENTER
 10
-9.626250
 20
71.696892
 11
271.150330
 21
71.696892
  0
LINE
  8
0
  6
CONTINUOUS
 10
222.577835
 20
5.696855
 11
222.577606
 21
139.696915
  0
LINE
  8
0
  6
CENTER
 10
347.220428
 20
90.696892
 11
256.842834
 21
90.696892
  0
LINE
  8
0
  6
CONTINUOUS
 10
296.078033
 20
164.696915
 11
292.577820
 21
164.696915
  0
LINE
  8
0
  6
CONTINUOUS
 10
296.078033
 20
16.696896
 11
292.577820
 21
16.696896
  0
LINE
  8
0
  6
CONTINUOUS
 10
297.578033
 20
117.774414
 11
297.578033
 21
63.619289
  0
LINE
  8
0
  6
CONTINUOUS
 10
280.577850
 20
5.012814
 11
280.577637
 21
169.880783
  0
ARC
  8
0
  6
CONTINUOUS
 10
283.577423
 20
-386.780914
 40
530.000000
 50
92.630783
 51
96.609123
  0
ARC
  8
0
  6
CONTINUOUS
 10
283.577820
 20
532.174866
 40
530.000000
 50
263.390900
 51
266.598785
  0
LINE
  8
0
  6
CONTINUOUS
 10
222.577835
 20
35.200016
 11
277.785431
 21
35.681816
  0
LINE
  8
0
  6
CONTINUOUS
 10
222.577835
 20
18.380014
 11
277.293610
 21
16.947615
  0
LINE
  8
0
  6
CONTINUOUS
 10
296.578033
 20
164.196915
 11
296.578033
 21
160.196915
  0
ARC
  8
0
  6
CONTINUOUS
 10
294.577820
 20
63.619289
 40
3.000000
 50
-48.193790
 51
0.000000
  0
ARC
  8
0
  6
CONTINUOUS
 10
294.577820
 20
117.774414
 40
3.000000
 50
0.000000
 51
48.191448
  0
LINE
  8
0
  6
CONTINUOUS
 10
292.577820
 20
172.696915
 11
292.577820
 21
2.196855
  0
LINE
  8
0
  6
CONTINUOUS
 10
296.578033
 20
17.196896
 11
296.578033
 21
160.196915
  0
LINE
  8
0
  6
CONTINUOUS
 10
292.078125
 20
1.714296
 11
252.137207
 21
3.108395
  0
LINE
  8
0
  6
CONTINUOUS
 10
275.708862
 20
143.091721
 11
259.249664
 21
142.660538
  0
ARC
  8
0
  6
CONTINUOUS
 10
275.577820
 20
148.090012
 40
5.000000
 50
-88.499390
 51
0.000000
  0
LINE
  8
0
  6
CONTINUOUS
 10
297.578033
 20
78.696892
 11
299.578033
 21
78.696892
  0
LINE
  8
0
  6
CONTINUOUS
 10
299.578033
 20
102.696892
 11
299.578033
 21
78.696892
  0
LINE
  8
0
  6
CONTINUOUS
 10
297.577820
 20
102.696892
 11
299.578033
 21
102.696892
  0
LINE
  8
0
  6
CONTINUOUS
 10
299.578033
 20
101.696892
 11
339.577820
 21
101.696892
  0
LINE
  8
0
  6
CONTINUOUS
 10
299.577820
 20
79.696892
 11
339.577820
 21
79.696892
  0
LINE
  8
0
  6
CONTINUOUS
 10
339.577820
 20
101.696892
 11
339.577820
 21
79.696892
  0
LINE
  8
0
  6
CONTINUOUS
 10
307.578033
 20
93.696892
 11
339.577820
 21
93.696892
  0
LINE
  8
0
  6
CONTINUOUS
 10
307.578033
 20
87.696892
 11
339.577820
 21
87.696892
  0
ARC
  8
0
  6
CONTINUOUS
 10
307.578033
 20
90.696892
 40
3.000000
 50
90.000000
 51
270.000000
  0
LINE
  8
0
  6
CONTINUOUS
 10
218.525482
 20
5.803010
 11
222.577835
 21
5.696895
  0
LINE
  8
0
  6
CONTINUOUS
 10
216.577835
 20
7.802324
 11
216.577835
 21
137.591476
  0
LINE
  8
0
  6
CONTINUOUS
 10
221.952835
 20
35.200016
 11
217.452835
 21
35.200016
  0
LINE
  8
0
  6
CONTINUOUS
 10
221.952835
 20
18.379995
 11
217.452835
 21
18.379995
  0
LINE
  8
0
  6
CONTINUOUS
 10
209.077835
 20
129.196899
 11
209.077835
 21
14.196895
  0
LINE
  8
0
  6
CONTINUOUS
 10
213.682526
 20
129.357697
 11
209.077835
 21
129.196899
  0
LINE
  8
0
  6
CONTINUOUS
 10
213.682526
 20
14.036095
 11
209.077835
 21
14.196895
  0
LINE
  8
0
  6
CENTER
 10
512.101074
 20
192.816895
 11
512.101074
 21
-15.333105
  0
LINE
  8
0
  6
CENTER
 10
410.051239
 20
71.696892
 11
610.015076
 21
71.696892
  0
LINE
  8
0
  6
CENTER
 10
410.051239
 20
90.696892
 11
610.015076
 21
90.696892
  0
LINE
  8
0
  6
CENTER
 10
433.576843
 20
12.171175
 11
592.045227
 21
170.642654
  0
LINE
  8
0
  6
CENTER
 10
590.780273
 20
12.016135
 11
430.932037
 21
171.867783
  0
CIRCLE
  8
0
  6
CONTINUOUS
 10
577.507874
 20
156.105011
 40
5.500000
  0
CIRCLE
  8
0
  6
CONTINUOUS
 10
446.693848
 20
156.104492
 40
5.500000
  0
CIRCLE
  8
0
  6
CONTINUOUS
 10
446.694458
 20
25.288815
 40
5.500000
  0
CIRCLE
  8
0
  6
CONTINUOUS
 10
577.507874
 20
25.288815
 40
5.500000
  0
ARC
  8
0
  6
CONTINUOUS
 10
512.101074
 20
-356.803101
 40
530.000000
 50
82.751762
 51
97.248253
  0
ARC
  8
0
  6
CONTINUOUS
 10
960.100647
 20
90.696892
 40
530.000000
 50
172.687897
 51
187.450607
  0
ARC
  8
0
  6
CONTINUOUS
 10
64.101059
 20
90.696892
 40
530.000000
 50
-7.435791
 51
7.312139
  0
ARC
  8
0
  6
CONTINUOUS
 10
577.392456
 20
156.561615
 40
12.500000
 50
7.312304
 51
82.751900
  0
ARC
  8
0
  6
CONTINUOUS
 10
446.809662
 20
156.561615
 40
12.500000
 50
97.248528
 51
172.688293
  0
ARC
  8
0
  6
CONTINUOUS
 10
512.101257
 20
241.696930
 40
240.000000
 50
253.359497
 51
286.640594
  0
ARC
  8
0
  6
CONTINUOUS
 10
577.249268
 20
23.724516
 40
12.500000
 50
286.640686
 51
352.564392
  0
ARC
  8
0
  6
CONTINUOUS
 10
446.953064
 20
23.724516
 40
12.500000
 50
188.061401
 51
253.359299
  0
CIRCLE
  8
0
  6
CONTINUOUS
 10
512.101074
 20
90.696892
 40
74.000000
  0
CIRCLE
  8
0
  6
CONTINUOUS
 10
512.101074
 20
90.696892
 40
69.000000
  0
ARC
  8
0
  6
CONTINUOUS
 10
446.694458
 20
25.288815
 40
12.500000
 50
-20.927799
 51
97.746010
  0
ARC
  8
0
  6
CONTINUOUS
 10
577.507874
 20
25.288815
 40
12.500000
 50
82.255692
 51
200.927902
  0
ARC
  8
0
  6
CONTINUOUS
 10
577.507874
 20
156.105011
 40
12.500000
 50
170.626694
 51
277.744293
  0
ARC
  8
0
  6
CONTINUOUS
 10
446.693848
 20
156.104492
 40
12.500000
 50
-97.744598
 51
9.374557
  0
ARC
  8
0
  6
CONTINUOUS
 10
64.101059
 20
90.696892
 40
523.000000
 50
354.675598
 51
355.749115
  0
ARC
  8
0
  6
CONTINUOUS
 10
960.100647
 20
90.696892
 40
523.000000
 50
174.675705
 51
175.749207
  0
ARC
  8
0
  6
CONTINUOUS
 10
512.101257
 20
241.696930
 40
233.000000
 50
257.573792
 51
282.426208
  0
ARC
  8
0
  6
CONTINUOUS
 10
512.101074
 20
-356.803101
 40
523.000000
 50
84.667427
 51
85.866867
  0
ARC
  8
0
  6
CONTINUOUS
 10
960.100647
 20
90.696892
 40
523.000000
 50
184.250793
 51
185.324402
  0
LINE
  8
0
  6
CONTINUOUS
 10
515.101074
 20
156.423492
 11
515.101074
 21
140.435593
  0
LINE
  8
0
  6
CONTINUOUS
 10
509.101044
 20
156.423615
 11
509.101044
 21
140.435593
  0
ARC
  8
0
  6
CONTINUOUS
 10
518.101624
 20
156.423492
 40
3.000000
 50
84.783257
 51
180.000000
  0
ARC
  8
0
  6
CONTINUOUS
 10
506.101044
 20
156.423615
 40
3.000000
 50
0.000000
 51
95.220268
  0
ARC
  8
0
  6
CONTINUOUS
 10
512.101074
 20
90.696892
 40
75.500000
 50
118.067596
 51
151.060104
  0
ARC
  8
0
  6
CONTINUOUS
 10
64.101059
 20
90.696892
 40
523.000000
 50
4.250875
 51
5.324408
  0
ARC
  8
0
  6
CONTINUOUS
 10
512.101074
 20
90.696892
 40
75.500000
 50
28.940559
 51
61.932369
  0
ARC
  8
0
  6
CONTINUOUS
 10
571.643860
 20
141.757111
 40
3.000000
 50
67.770348
 51
209.144806
  0
ARC
  8
0
  6
CONTINUOUS
 10
563.159241
 20
150.242493
 40
3.000000
 50
-141.997299
 51
22.223600
  0
ARC
  8
0
  6
CONTINUOUS
 10
452.556061
 20
141.755692
 40
3.000000
 50
-29.228300
 51
112.222099
  0
ARC
  8
0
  6
CONTINUOUS
 10
461.043243
 20
150.244019
 40
3.000000
 50
157.784302
 51
321.917511
  0
ARC
  8
0
  6
CONTINUOUS
 10
512.101074
 20
-356.803101
 40
523.000000
 50
94.133141
 51
95.332626
  0
ARC
  8
0
  6
CONTINUOUS
 10
512.101074
 20
90.696892
 40
75.500000
 50
208.939804
 51
331.059387
  0
ARC
  8
0
  6
CONTINUOUS
 10
581.673279
 20
52.226597
 40
4.000000
 50
-4.250610
 51
151.059494
  0
ARC
  8
0
  6
CONTINUOUS
 10
442.528442
 20
52.227497
 40
4.000000
 50
28.940149
 51
184.250595
  0
ARC
  8
0
  6
CONTINUOUS
 10
579.866028
 20
42.629215
 40
5.000000
 50
262.255615
 51
354.675812
  0
ARC
  8
0
  6
CONTINUOUS
 10
561.162231
 20
19.037994
 40
5.000000
 50
-77.573517
 51
20.927670
  0
ARC
  8
0
  6
CONTINUOUS
 10
463.040039
 20
19.037994
 40
5.000000
 50
159.072693
 51
257.573486
  0
ARC
  8
0
  6
CONTINUOUS
 10
444.335846
 20
42.629116
 40
5.000000
 50
185.324600
 51
277.746613
  0
CIRCLE
  8
0
  6
CONTINUOUS
 10
512.101074
 20
90.696892
 40
30.000000
  0
ARC
  8
0
  6
CONTINUOUS
 10
512.101074
 20
71.696892
 40
66.000000
 50
28.951040
 51
51.185902
  0
ARC
  8
0
  6
CONTINUOUS
 10
574.228455
 20
106.065292
 40
5.000000
 50
-151.048996
 51
13.894250
  0
ARC
  8
0
  6
CONTINUOUS
 10
449.973663
 20
106.065292
 40
5.000000
 50
166.108307
 51
331.049286
  0
ARC
  8
0
  6
CONTINUOUS
 10
518.100647
 20
140.435593
 40
3.000000
 50
180.000000
 51
265.011505
  0
ARC
  8
0
  6
CONTINUOUS
 10
506.101440
 20
140.435593
 40
3.000000
 50
-85.011467
 51
0.000000
  0
ARC
  8
0
  6
CONTINUOUS
 10
512.101074
 20
71.696892
 40
66.000000
 50
94.988533
 51
118.640198
  0
ARC
  8
0
  6
CONTINUOUS
 10
442.528442
 20
129.166290
 40
4.000000
 50
175.749802
 51
331.060699
  0
ARC
  8
0
  6
CONTINUOUS
 10
474.695465
 20
160.847198
 40
4.000000
 50
-61.931980
 51
94.133713
  0
ARC
  8
0
  6
CONTINUOUS
 10
444.335663
 20
138.764099
 40
5.000000
 50
82.255569
 51
174.676102
  0
ARC
  8
0
  6
CONTINUOUS
 10
463.960236
 20
158.955017
 40
5.000000
 50
95.333099
 51
189.374695
  0
ARC
  8
0
  6
CONTINUOUS
 10
549.506836
 20
160.847198
 40
4.000000
 50
85.867172
 51
241.932693
  0
ARC
  8
0
  6
CONTINUOUS
 10
560.241455
 20
158.955093
 40
5.000000
 50
-9.372955
 51
84.667587
  0
ARC
  8
0
  6
CONTINUOUS
 10
579.866028
 20
138.764618
 40
5.000000
 50
5.324549
 51
97.744431
  0
ARC
  8
0
  6
CONTINUOUS
 10
581.673279
 20
129.167114
 40
4.000000
 50
-151.059494
 51
4.251050
  0
LINE
  8
0
  6
CONTINUOUS
 10
467.747253
 20
139.294495
 11
476.908051
 21
130.133514
  0
LINE
  8
0
  6
CONTINUOUS
 10
463.504456
 20
135.051910
 11
470.973846
 21
127.582298
  0
ARC
  8
0
  6
CONTINUOUS
 10
469.868439
 20
141.415710
 40
3.000000
 50
129.788101
 51
225.000000
  0
ARC
  8
0
  6
CONTINUOUS
 10
461.382660
 20
132.930115
 40
3.000000
 50
44.999950
 51
140.220306
  0
ARC
  8
0
  6
CONTINUOUS
 10
468.852051
 20
125.460518
 40
3.000000
 50
-51.184841
 51
44.999950
  0
ARC
  8
0
  6
CONTINUOUS
 10
479.029236
 20
132.254700
 40
3.000000
 50
225.000000
 51
298.640411
  0
LINE
  8
0
  6
CONTINUOUS
 10
560.697632
 20
135.051819
 11
553.228271
 21
127.582214
  0
LINE
  8
0
  6
CONTINUOUS
 10
556.455078
 20
139.294495
 11
547.294250
 21
130.133514
  0
ARC
  8
0
  6
CONTINUOUS
 10
554.333862
 20
141.415619
 40
3.000000
 50
-44.999111
 51
50.216091
  0
ARC
  8
0
  6
CONTINUOUS
 10
545.173035
 20
132.254593
 40
3.000000
 50
241.359894
 51
315.000885
  0
ARC
  8
0
  6
CONTINUOUS
 10
555.349854
 20
125.460594
 40
3.000000
 50
135.000900
 51
231.186096
  0
ARC
  8
0
  6
CONTINUOUS
 10
562.819275
 20
132.930191
 40
3.000000
 50
39.783890
 51
135.000900
  0
ARC
  8
0
  6
CONTINUOUS
 10
512.101074
 20
71.696892
 40
66.000000
 50
61.359940
 51
85.011787
  0
ARC
  8
0
  6
CONTINUOUS
 10
512.101074
 20
71.696892
 40
66.000000
 50
128.814407
 51
151.048904
  0
CIRCLE
  8
0
  6
CENTER
 10
512.101074
 20
90.696892
 40
92.500000
  0
ARC
  8
0
  6
CONTINUOUS
 10
512.101074
 20
90.696892
 40
11.000000
 50
-164.173401
 51
164.173401
  0
LINE
  8
0
  6
CONTINUOUS
 10
504.601044
 20
93.696892
 11
504.601044
 21
87.696892
  0
LINE
  8
0
  6
CONTINUOUS
 10
498.601044
 20
93.696892
 11
498.601044
 21
87.696892
  0
LINE
  8
0
  6
CONTINUOUS
 10
498.601044
 20
93.696892
 11
504.601044
 21
93.696892
  0
LINE
  8
0
  6
CONTINUOUS
 10
498.601044
 20
87.696892
 11
504.601044
 21
87.696892
  0
LINE
  8
0
  6
CENTER
 10
297.976257
 20
156.104492
 11
276.255768
 21
156.104492
  0
LINE
  8
0
  6
CENTER
 10
297.976257
 20
25.289295
 11
276.255768
 21
25.289295
  0
LINE
  8
0
  6
CONTINUOUS
 10
296.578033
 20
164.196915
 11
296.078033
 21
164.696915
  0
LINE
  8
0
  6
CONTINUOUS
 10
296.078033
 20
16.696896
 11
296.578033
 21
17.196896
  0
LINE
  8
0
  6
CONTINUOUS
 10
292.078125
 20
1.714296
 11
292.577820
 21
2.196855
  0
LINE
  8
0
  6
CONTINUOUS
 10
296.077820
 20
273.821259
 11
296.577820
 21
274.321259
  0
LINE
  8
0
  6
CONTINUOUS
 10
296.077820
 20
421.821198
 11
296.577820
 21
421.321198
  0
LINE
  8
0
  6
CONTINUOUS
 10
292.078125
 20
173.179459
 11
283.472931
 21
172.878967
  0
ARC
  8
0
  6
CONTINUOUS
 10
283.577637
 20
169.880798
 40
3.000000
 50
92.000000
 51
180.000000
  0
LINE
  8
0
  6
CONTINUOUS
 10
292.078125
 20
173.179459
 11
292.577820
 21
172.696915
  0
ARC
  8
0
  6
CONTINUOUS
 10
283.577850
 20
5.012818
 40
3.000000
 50
180.000000
 51
268.000946
  0
LINE
  8
0
  6
CONTINUOUS
 10
292.078125
 20
265.838715
 11
292.577820
 21
266.321259
  0
ARC
  8
0
  6
CONTINUOUS
 10
283.577545
 20
269.137390
 40
3.000000
 50
180.000000
 51
268.000000
  0
LINE
  8
0
  6
CONTINUOUS
 10
283.472839
 20
429.503296
 11
292.078125
 21
429.803802
  0
LINE
  8
0
  6
CONTINUOUS
 10
292.078125
 20
429.803802
 11
292.577820
 21
429.321259
  0
ARC
  8
0
  6
CONTINUOUS
 10
283.577545
 20
426.505127
 40
3.000000
 50
92.000000
 51
180.000000
  0
LINE
  8
0
  6
CENTER
 10
297.976257
 20
25.288815
 11
276.255768
 21
25.288815
  0
LINE
  8
0
  6
CENTER
 10
297.976257
 20
413.228851
 11
276.255768
 21
413.228851
  0
LINE
  8
0
  6
CENTER
 10
297.976257
 20
282.413635
 11
276.255768
 21
282.413635
  0
ARC
  8
0
  6
CONTINUOUS
 10
213.577835
 20
11.037923
 40
3.000000
 50
0.000000
 51
88.000000
  0
ARC
  8
0
  6
CONTINUOUS
 10
213.577835
 20
132.355865
 40
3.000000
 50
-88.000000
 51
0.000000
  0
ARC
  8
0
  6
CONTINUOUS
 10
283.577423
 20
-112.656570
 40
530.000000
 50
92.630783
 51
96.609123
  0
LINE
  8
0
  6
CONTINUOUS
 10
275.708862
 20
417.216064
 11
259.249664
 21
416.784882
  0
ARC
  8
0
  6
CONTINUOUS
 10
275.577820
 20
422.214355
 40
5.000000
 50
-88.499390
 51
0.000000
  0
ARC
  8
0
  6
CONTINUOUS
 10
283.577423
 20
808.299072
 40
530.000000
 50
-96.609123
 51
-92.630783
  0
LINE
  8
0
  6
CONTINUOUS
 10
275.708862
 20
278.426453
 11
259.249664
 21
278.857635
  0
ARC
  8
0
  6
CONTINUOUS
 10
275.577820
 20
273.428162
 40
5.000000
 50
0.000000
 51
88.499390
  0
LINE
  8
0
  6
CONTINUOUS
 10
218.525421
 20
413.715149
 11
222.577835
 21
413.821259
  0
ARC
  8
0
  6
CONTINUOUS
 10
218.577774
 20
411.715820
 40
2.000000
 50
91.500000
 51
180.000000
  0
LINE
  8
0
  6
CONTINUOUS
 10
218.525421
 20
281.927368
 11
222.577835
 21
281.821259
  0
ARC
  8
0
  6
CONTINUOUS
 10
218.577774
 20
283.926666
 40
2.000000
 50
-180.000000
 51
-91.500000
  0
LINE
  8
0
  6
CONTINUOUS
 10
218.525482
 20
139.590790
 11
222.577835
 21
139.696899
  0
ARC
  8
0
  6
CONTINUOUS
 10
218.577835
 20
137.591476
 40
2.000000
 50
91.500000
 51
180.000000
  0
ARC
  8
0
  6
CONTINUOUS
 10
218.577835
 20
7.802324
 40
2.000000
 50
180.000000
 51
268.500000
  0
LINE
  8
0
  6
CONTINUOUS
 10
304.577820
 20
337.238251
 11
339.577820
 21
337.238251
  0
LINE
  8
0
  6
DASHED
 10
292.577820
 20
418.728851
 11
280.577789
 21
418.728851
  0
LINE
  8
0
  6
DASHED
 10
292.577820
 20
407.728851
 11
280.577789
 21
407.728851
  0
LINE
  8
0
  6
DASHED
 10
292.577820
 20
287.913635
 11
280.577789
 21
287.913635
  0
LINE
  8
0
  6
DASHED
 10
292.577820
 20
276.913635
 11
280.577789
 21
276.913635
  0
LINE
  8
0
  6
DASHED
 10
292.577820
 20
161.604492
 11
280.577789
 21
161.604492
  0
LINE
  8
0
  6
DASHED
 10
292.577820
 20
150.604492
 11
280.577789
 21
150.604492
  0
LINE
  8
0
  6
DASHED
 10
292.577820
 20
30.789295
 11
280.577789
 21
30.789295
  0
LINE
  8
0
  6
DASHED
 10
292.577820
 20
19.789295
 11
280.577789
 21
19.789295
  0
LINE
  8
0
  6
CONTINUOUS
 10
116.077652
 20
405.321320
 11
116.077774
 21
290.321259
  0
LINE
  8
0
  6
CONTINUOUS
 10
11.077811
 20
405.321259
 11
116.077774
 21
405.321259
  0
LINE
  8
0
  6
CONTINUOUS
 10
11.077811
 20
290.321259
 11
19.077810
 21
290.321259
  0
LINE
  8
0
  6
CONTINUOUS
 10
11.077811
 20
405.321259
 11
11.077811
 21
290.321259
  0
LINE
  8
0
  6
CONTINUOUS
 10
19.077810
 20
405.321259
 11
19.077810
 21
373.821136
  0
LINE
  8
0
  6
CONTINUOUS
 10
19.077810
 20
373.821136
 11
108.077827
 21
373.821136
  0
LINE
  8
0
  6
CONTINUOUS
 10
19.077810
 20
381.591797
 11
108.077827
 21
381.591797
  0
LINE
  8
0
  6
CONTINUOUS
 10
20.077810
 20
384.871216
 11
107.077827
 21
384.871216
  0
LINE
  8
0
  6
CONTINUOUS
 10
19.077810
 20
389.686279
 11
108.077827
 21
389.686279
  0
LINE
  8
0
  6
CONTINUOUS
 10
20.077810
 20
391.674133
 11
107.077827
 21
391.674133
  0
LINE
  8
0
  6
CONTINUOUS
 10
19.077810
 20
395.716858
 11
108.077827
 21
395.716858
  0
LINE
  8
0
  6
CONTINUOUS
 10
19.077810
 20
400.247772
 11
108.077827
 21
400.247772
  0
LINE
  8
0
  6
CONTINUOUS
 10
19.077810
 20
403.124878
 11
108.077827
 21
403.124878
  0
LINE
  8
0
  6
CONTINUOUS
 10
19.077810
 20
404.780212
 11
108.077827
 21
404.780212
  0
LINE
  8
0
  6
CONTINUOUS
 10
108.077827
 20
405.321259
 11
108.077827
 21
373.821136
  0
LINE
  8
0
  6
CONTINUOUS
 10
19.077810
 20
290.321259
 11
19.077810
 21
321.821381
  0
LINE
  8
0
  6
CONTINUOUS
 10
19.077810
 20
321.821381
 11
108.077827
 21
321.821381
  0
LINE
  8
0
  6
CONTINUOUS
 10
19.077810
 20
314.050751
 11
108.077827
 21
314.050751
  0
LINE
  8
0
  6
CONTINUOUS
 10
20.077810
 20
310.771301
 11
107.077827
 21
310.771301
  0
LINE
  8
0
  6
CONTINUOUS
 10
19.077810
 20
305.956238
 11
108.077827
 21
305.956238
  0
LINE
  8
0
  6
CONTINUOUS
 10
20.077810
 20
303.968384
 11
107.077827
 21
303.968384
  0
LINE
  8
0
  6
CONTINUOUS
 10
19.077810
 20
299.925690
 11
108.077827
 21
299.925690
  0
LINE
  8
0
  6
CONTINUOUS
 10
86.077774
 20
295.394775
 11
108.077827
 21
295.394775
  0
LINE
  8
0
  6
CONTINUOUS
 10
86.077774
 20
292.517639
 11
108.077827
 21
292.517639
  0
LINE
  8
0
  6
CONTINUOUS
 10
86.577774
 20
290.862305
 11
108.077827
 21
290.862305
  0
LINE
  8
0
  6
CONTINUOUS
 10
108.077827
 20
290.321259
 11
108.077827
 21
321.821381
  0
LINE
  8
0
  6
CONTINUOUS
 10
20.077810
 20
291.821259
 11
85.077827
 21
291.821259
  0
LINE
  8
0
  6
CONTINUOUS
 10
86.577774
 20
290.321259
 11
116.077774
 21
290.321259
  0
LINE
  8
0
  6
CONTINUOUS
 10
86.077774
 20
290.821289
 11
86.077774
 21
297.019897
  0
ARC
  8
0
  6
CONTINUOUS
 10
86.577774
 20
290.821289
 40
0.500000
 50
-180.000000
 51
-90.000000
  0
ARC
  8
0
  6
CONTINUOUS
 10
86.577774
 20
291.362335
 40
0.500000
 50
-180.000000
 51
-90.000000
  0
LINE
  8
0
  6
CONTINUOUS
 10
19.077810
 20
297.019897
 11
86.077774
 21
297.019897
  0
ARC
  8
0
  6
CONTINUOUS
 10
85.077827
 20
292.821259
 40
1.000000
 50
-90.000000
 51
0.000000
  0
ARC
  8
0
  6
CONTINUOUS
 10
20.077810
 20
292.821259
 40
1.000000
 50
-180.000000
 51
-90.000000
  0
LINE
  8
0
  6
CONTINUOUS
 10
-0.422189
 20
368.981476
 11
-0.422189
 21
326.661041
  0
LINE
  8
0
  6
CONTINUOUS
 10
7.747811
 20
290.571259
 11
11.077811
 21
290.571259
  0
LINE
  8
0
  6
CONTINUOUS
 10
7.747811
 20
405.071198
 11
11.077811
 21
405.071198
  0
LINE
  8
0
  6
CONTINUOUS
 10
0.247611
 20
371.481476
 11
1.510811
 21
373.669281
  0
ARC
  8
0
  6
CONTINUOUS
 10
203.517776
 20
380.091217
 40
199.999985
 50
-186.406006
 51
-180.287292
  0
ARC
  8
0
  6
CONTINUOUS
 10
4.577811
 20
368.981476
 40
5.000000
 50
-210.000305
 51
-180.000000
  0
ARC
  8
0
  6
CONTINUOUS
 10
7.747811
 20
402.071289
 40
3.000000
 50
-270.000000
 51
-186.406006
  0
LINE
  8
0
  6
CONTINUOUS
 10
5.084011
 20
401.508820
 11
5.084011
 21
294.696198
  0
LINE
  8
0
  6
CONTINUOUS
 10
0.247611
 20
324.161041
 11
1.511011
 21
321.973022
  0
ARC
  8
0
  6
CONTINUOUS
 10
203.517776
 20
315.551300
 40
199.999985
 50
-179.712601
 51
-173.593994
  0
ARC
  8
0
  6
CONTINUOUS
 10
4.577811
 20
326.661041
 40
5.000000
 50
-180.000000
 51
-149.999695
  0
ARC
  8
0
  6
CONTINUOUS
 10
7.747811
 20
293.571198
 40
3.000000
 50
-173.593994
 51
-90.000000
  0
ARC
  8
0
  6
CONTINUOUS
 10
-11.479589
 20
381.169464
 40
15.000000
 50
-30.000500
 51
-0.287300
  0
ARC
  8
0
  6
CONTINUOUS
 10
-11.479589
 20
314.473022
 40
15.000000
 50
-359.713104
 51
-329.999908
  0
LINE
  8
0
  6
CONTINUOUS
 10
48.077591
 20
288.822205
 11
48.077591
 21
291.588196
  0
LINE
  8
0
  6
CONTINUOUS
 10
24.078011
 20
288.822205
 11
24.078011
 21
291.588196
  0
LINE
  8
0
  6
CONTINUOUS
 10
48.077591
 20
288.822205
 11
24.078011
 21
288.822205
  0
LINE
  8
0
  6
CONTINUOUS
 10
204.077774
 20
405.321259
 11
209.077774
 21
405.321259
  0
LINE
  8
0
  6
CONTINUOUS
 10
204.077774
 20
290.321259
 11
209.077774
 21
290.321259
  0
LINE
  8
0
  6
CONTINUOUS
 10
204.077774
 20
405.321259
 11
204.077774
 21
290.321259
  0
LINE
  8
0
  6
CONTINUOUS
 10
196.077774
 20
292.571259
 11
196.077774
 21
403.071259
  0
LINE
  8
0
  6
CONTINUOUS
 10
133.077774
 20
290.571259
 11
133.077774
 21
405.071259
  0
LINE
  8
0
  6
CONTINUOUS
 10
141.077774
 20
292.571259
 11
141.077774
 21
403.071259
  0
LINE
  8
0
  6
CONTINUOUS
 10
116.077774
 20
405.071259
 11
139.077774
 21
405.071259
  0
LINE
  8
0
  6
CONTINUOUS
 10
116.077774
 20
290.571259
 11
124.577896
 21
290.571259
  0
LINE
  8
0
  6
CONTINUOUS
 10
198.077774
 20
290.571259
 11
204.077774
 21
290.571259
  0
LINE
  8
0
  6
CONTINUOUS
 10
198.077774
 20
405.071259
 11
204.077774
 21
405.071259
  0
ARC
  8
0
  6
CONTINUOUS
 10
139.077774
 20
403.071259
 40
2.000000
 50
0.000000
 51
90.000000
  0
ARC
  8
0
  6
CONTINUOUS
 10
198.077774
 20
403.071259
 40
2.000000
 50
90.000000
 51
180.000000
  0
LINE
  8
0
  6
CONTINUOUS
 10
142.674637
 20
402.821259
 11
194.480896
 21
402.821259
  0
ARC
  8
0
  6
CONTINUOUS
 10
194.480896
 20
404.821259
 40
2.000000
 50
270.000000
 51
334.055511
  0
ARC
  8
0
  6
CONTINUOUS
 10
142.674637
 20
404.821259
 40
2.000000
 50
205.944473
 51
270.000000
  0
ARC
  8
0
  6
CONTINUOUS
 10
139.077774
 20
292.571259
 40
2.000000
 50
-90.000000
 51
0.000000
  0
ARC
  8
0
  6
CONTINUOUS
 10
198.077774
 20
292.571259
 40
2.000000
 50
-180.000000
 51
-90.000000
  0
LINE
  8
0
  6
CONTINUOUS
 10
142.674637
 20
292.821259
 11
174.577896
 21
292.821259
  0
ARC
  8
0
  6
CONTINUOUS
 10
194.480896
 20
290.821259
 40
2.000000
 50
-334.055511
 51
-270.000000
  0
ARC
  8
0
  6
CONTINUOUS
 10
142.674637
 20
290.821259
 40
2.000000
 50
-270.000000
 51
-205.944473
  0
LINE
  8
0
  6
CONTINUOUS
 10
142.674637
 20
314.821259
 11
194.480896
 21
314.821259
  0
LINE
  8
0
  6
CONTINUOUS
 10
142.674637
 20
380.821259
 11
194.480896
 21
380.821259
  0
LINE
  8
0
  6
CONTINUOUS
 10
172.077774
 20
293.321259
 11
180.077774
 21
293.321259
  0
LINE
  8
0
  6
CONTINUOUS
 10
180.077774
 20
295.850098
 11
180.077774
 21
293.321259
  0
LINE
  8
0
  6
CONTINUOUS
 10
172.077774
 20
295.850098
 11
172.077774
 21
293.321259
  0
LINE
  8
0
  6
CONTINUOUS
 10
125.388885
 20
292.957825
 11
124.576080
 21
292.878540
  0
LINE
  8
0
  6
CONTINUOUS
 10
124.576714
 20
292.876892
 11
123.956291
 21
292.641571
  0
LINE
  8
0
  6
CONTINUOUS
 10
123.941612
 20
292.658325
 11
123.708023
 21
292.453949
  0
LINE
  8
0
  6
CONTINUOUS
 10
123.719315
 20
292.441040
 11
123.740814
 21
292.183075
  0
LINE
  8
0
  6
CONTINUOUS
 10
123.774002
 20
292.185822
 11
123.938065
 21
292.040009
  0
LINE
  8
0
  6
CONTINUOUS
 10
123.931458
 20
292.002563
 11
124.339104
 21
291.930634
  0
LINE
  8
0
  6
CONTINUOUS
 10
124.341911
 20
291.953064
 11
124.577896
 21
291.923553
  0
LINE
  8
0
  6
CONTINUOUS
 10
126.727127
 20
292.987915
 11
127.109940
 21
292.896759
  0
LINE
  8
0
  6
CONTINUOUS
 10
127.109940
 20
292.896759
 11
127.638580
 21
292.805634
  0
LINE
  8
0
  6
CONTINUOUS
 10
127.638580
 20
292.805634
 11
127.984940
 21
292.732697
  0
LINE
  8
0
  6
CONTINUOUS
 10
127.984940
 20
292.732697
 11
128.167236
 21
292.659790
  0
LINE
  8
0
  6
CONTINUOUS
 10
128.198654
 20
292.689972
 11
128.349518
 21
292.513947
  0
LINE
  8
0
  6
CONTINUOUS
 10
128.349518
 20
292.495728
 11
128.435196
 21
292.324371
  0
LINE
  8
0
  6
CONTINUOUS
 10
128.385986
 20
292.276978
 11
128.240143
 21
292.131134
  0
LINE
  8
0
  6
CONTINUOUS
 10
128.228409
 20
292.097168
 11
127.729729
 21
291.967072
  0
LINE
  8
0
  6
CONTINUOUS
 10
127.720947
 20
291.951050
 11
127.577896
 21
291.944214
  0
LINE
  8
0
  6
CONTINUOUS
 10
125.388885
 20
292.957825
 11
125.669838
 21
292.965118
  0
LINE
  8
0
  6
CONTINUOUS
 10
125.669838
 20
292.965118
 11
126.253166
 21
292.974243
  0
LINE
  8
0
  6
CONTINUOUS
 10
126.253166
 20
292.974243
 11
126.727127
 21
292.987915
  0
ARC
  8
0
  6
CONTINUOUS
 10
176.077774
 20
286.684967
 40
10.000000
 50
66.421822
 51
113.578178
  0
LINE
  8
0
  6
CONTINUOUS
 10
133.077835
 20
128.946899
 11
133.077835
 21
14.446895
  0
LINE
  8
0
  6
CONTINUOUS
 10
133.077835
 20
128.946899
 11
116.077835
 21
128.946899
  0
LINE
  8
0
  6
CONTINUOUS
 10
133.077835
 20
14.446895
 11
116.077835
 21
14.446895
  0
LINE
  8
0
  6
CONTINUOUS
 10
126.077835
 20
85.696892
 11
126.077835
 21
59.946896
  0
LINE
  8
0
  6
CONTINUOUS
 10
127.577835
 20
85.696892
 11
127.577835
 21
59.009396
  0
LINE
  8
0
  6
CONTINUOUS
 10
124.577835
 20
85.696892
 11
124.577835
 21
59.406902
  0
LINE
  8
0
  6
CONTINUOUS
 10
124.577835
 20
59.406902
 11
126.052834
 21
61.103146
  0
LINE
  8
0
  6
CONTINUOUS
 10
126.082253
 20
59.954250
 11
127.598793
 21
59.044323
  0
ARC
  8
0
  6
CONTINUOUS
 10
126.827835
 20
85.696892
 40
0.750000
 50
0.000000
 51
180.000000
  0
ARC
  8
0
  6
CONTINUOUS
 10
125.327835
 20
85.696892
 40
0.750000
 50
0.000000
 51
180.000000
  0
ARC
  8
0
  6
CONTINUOUS
 10
126.077835
 20
85.696892
 40
3.000000
 50
-59.999939
 51
239.999893
  0
LINE
  8
0
  6
CONTINUOUS
 10
116.077835
 20
128.946899
 11
116.077835
 21
14.446895
  0
LINE
  8
0
  6
CONTINUOUS
 10
204.077835
 20
129.196899
 11
209.077835
 21
129.196899
  0
LINE
  8
0
  6
CONTINUOUS
 10
204.077835
 20
14.196895
 11
209.077835
 21
14.196895
  0
LINE
  8
0
  6
CONTINUOUS
 10
-0.422167
 20
50.536674
 11
-0.422167
 21
92.857117
  0
LINE
  8
0
  6
CONTINUOUS
 10
7.747893
 20
128.946899
 11
11.077833
 21
128.946899
  0
LINE
  8
0
  6
CONTINUOUS
 10
7.747893
 20
14.446935
 11
11.077833
 21
14.446935
  0
LINE
  8
0
  6
CONTINUOUS
 10
0.247693
 20
48.036674
 11
1.510847
 21
45.848873
  0
ARC
  8
0
  6
CONTINUOUS
 10
203.517838
 20
39.426914
 40
199.999985
 50
180.287292
 51
186.406006
  0
ARC
  8
0
  6
CONTINUOUS
 10
4.577817
 20
50.536674
 40
5.000000
 50
180.000000
 51
210.000305
  0
ARC
  8
0
  6
CONTINUOUS
 10
7.747877
 20
17.446896
 40
3.000000
 50
186.406006
 51
270.000000
  0
LINE
  8
0
  6
CONTINUOUS
 10
5.083967
 20
18.009356
 11
5.083967
 21
124.821999
  0
LINE
  8
0
  6
CONTINUOUS
 10
0.247693
 20
95.357117
 11
1.510953
 21
97.545135
  0
ARC
  8
0
  6
CONTINUOUS
 10
203.517838
 20
103.966873
 40
199.999985
 50
173.593994
 51
179.712601
  0
ARC
  8
0
  6
CONTINUOUS
 10
4.577817
 20
92.857117
 40
5.000000
 50
-210.000305
 51
-180.000000
  0
ARC
  8
0
  6
CONTINUOUS
 10
7.747877
 20
125.946938
 40
3.000000
 50
-270.000000
 51
-186.406006
  0
ARC
  8
0
  6
CONTINUOUS
 10
-11.479449
 20
38.348694
 40
15.000000
 50
0.287328
 51
30.000481
  0
ARC
  8
0
  6
CONTINUOUS
 10
-11.479449
 20
105.045135
 40
15.000000
 50
329.999908
 51
359.713104
  0
LINE
  8
0
  6
CONTINUOUS
 10
11.077833
 20
129.196899
 11
11.077833
 21
14.196895
  0
LINE
  8
0
  6
CONTINUOUS
 10
11.077833
 20
129.196899
 11
116.077835
 21
129.196899
  0
LINE
  8
0
  6
CONTINUOUS
 10
11.077833
 20
14.196895
 11
31.262833
 21
14.196895
  0
LINE
  8
0
  6
CONTINUOUS
 10
19.077833
 20
122.982918
 11
19.077833
 21
118.696892
  0
LINE
  8
0
  6
CONTINUOUS
 10
108.077835
 20
122.982918
 11
108.077835
 21
118.696892
  0
LINE
  8
0
  6
CONTINUOUS
 10
84.077835
 20
98.696892
 11
19.077833
 21
98.696892
  0
LINE
  8
0
  6
CONTINUOUS
 10
84.077835
 20
44.696896
 11
40.892834
 21
44.696896
  0
LINE
  8
0
  6
CONTINUOUS
 10
86.077835
 20
46.696896
 11
86.077835
 21
96.696892
  0
LINE
  8
0
  6
CONTINUOUS
 10
86.077835
 20
78.496880
 11
108.077835
 21
78.496880
  0
LINE
  8
0
  6
CONTINUOUS
 10
86.077835
 20
64.896904
 11
108.077835
 21
64.896904
  0
LINE
  8
0
  6
CONTINUOUS
 10
86.077835
 20
80.496880
 11
108.077835
 21
80.496880
  0
LINE
  8
0
  6
CONTINUOUS
 10
86.077835
 20
62.896908
 11
108.077835
 21
62.896908
  0
LINE
  8
0
  6
CONTINUOUS
 10
86.077835
 20
86.296898
 11
108.077835
 21
86.296898
  0
LINE
  8
0
  6
CONTINUOUS
 10
86.077835
 20
88.296898
 11
108.077835
 21
88.296898
  0
LINE
  8
0
  6
CONTINUOUS
 10
86.077835
 20
57.096889
 11
108.077835
 21
57.096889
  0
LINE
  8
0
  6
CONTINUOUS
 10
86.077835
 20
55.096889
 11
108.077835
 21
55.096889
  0
LINE
  8
0
  6
CONTINUOUS
 10
86.077835
 20
94.096893
 11
108.077835
 21
94.096893
  0
LINE
  8
0
  6
CONTINUOUS
 10
86.077835
 20
49.296894
 11
108.077835
 21
49.296894
  0
LINE
  8
0
  6
CONTINUOUS
 10
86.077835
 20
96.096893
 11
108.077835
 21
96.096893
  0
LINE
  8
0
  6
CONTINUOUS
 10
86.077835
 20
47.296894
 11
108.077835
 21
47.296894
  0
LINE
  8
0
  6
CONTINUOUS
 10
19.077833
 20
102.196892
 11
108.077835
 21
102.196892
  0
LINE
  8
0
  6
CONTINUOUS
 10
19.077833
 20
41.196896
 11
31.262833
 21
41.196896
  0
LINE
  8
0
  6
CONTINUOUS
 10
19.077833
 20
104.196892
 11
108.077835
 21
104.196892
  0
LINE
  8
0
  6
CONTINUOUS
 10
19.077833
 20
39.196896
 11
31.262833
 21
39.196896
  0
LINE
  8
0
  6
CONTINUOUS
 10
19.077833
 20
109.696892
 11
108.077835
 21
109.696892
  0
LINE
  8
0
  6
CONTINUOUS
 10
19.077833
 20
33.696896
 11
31.262833
 21
33.696896
  0
LINE
  8
0
  6
CONTINUOUS
 10
19.077833
 20
111.696892
 11
108.077835
 21
111.696892
  0
LINE
  8
0
  6
CONTINUOUS
 10
19.077833
 20
31.696896
 11
31.262833
 21
31.696896
  0
LINE
  8
0
  6
CONTINUOUS
 10
19.077833
 20
116.696892
 11
108.077835
 21
116.696892
  0
LINE
  8
0
  6
CONTINUOUS
 10
19.077833
 20
26.696896
 11
31.262833
 21
26.696896
  0
LINE
  8
0
  6
CONTINUOUS
 10
19.077833
 20
118.696892
 11
108.077835
 21
118.696892
  0
LINE
  8
0
  6
CONTINUOUS
 10
19.077833
 20
24.696896
 11
31.262833
 21
24.696896
  0
LINE
  8
0
  6
CONTINUOUS
 10
19.077833
 20
122.982918
 11
108.077835
 21
122.982918
  0
LINE
  8
0
  6
CONTINUOUS
 10
19.077833
 20
20.410875
 11
31.262833
 21
20.410875
  0
LINE
  8
0
  6
CONTINUOUS
 10
19.077833
 20
20.410875
 11
19.077833
 21
24.696896
  0
LINE
  8
0
  6
CONTINUOUS
 10
19.077833
 20
116.696892
 11
19.077833
 21
111.696892
  0
LINE
  8
0
  6
CONTINUOUS
 10
19.077833
 20
109.696892
 11
19.077833
 21
104.196892
  0
LINE
  8
0
  6
CONTINUOUS
 10
19.077833
 20
102.196892
 11
19.077833
 21
98.696892
  0
LINE
  8
0
  6
CONTINUOUS
 10
19.077833
 20
39.196896
 11
19.077833
 21
33.696896
  0
LINE
  8
0
  6
CONTINUOUS
 10
19.077833
 20
31.696896
 11
19.077833
 21
26.696896
  0
LINE
  8
0
  6
CONTINUOUS
 10
108.077835
 20
20.410875
 11
108.077835
 21
24.696896
  0
LINE
  8
0
  6
CONTINUOUS
 10
108.077835
 20
26.696896
 11
108.077835
 21
31.696896
  0
LINE
  8
0
  6
CONTINUOUS
 10
108.077835
 20
33.696896
 11
108.077835
 21
39.196896
  0
LINE
  8
0
  6
CONTINUOUS
 10
108.077835
 20
41.196896
 11
108.077835
 21
47.296894
  0
LINE
  8
0
  6
CONTINUOUS
 10
108.077835
 20
49.296894
 11
108.077835
 21
55.096889
  0
LINE
  8
0
  6
CONTINUOUS
 10
108.077835
 20
57.096889
 11
108.077835
 21
62.896908
  0
LINE
  8
0
  6
CONTINUOUS
 10
86.077835
 20
72.696892
 11
108.077835
 21
72.696892
  0
LINE
  8
0
  6
CONTINUOUS
 10
86.077835
 20
70.696892
 11
108.077835
 21
70.696892
  0
LINE
  8
0
  6
CONTINUOUS
 10
108.077835
 20
64.896904
 11
108.077835
 21
70.696892
  0
LINE
  8
0
  6
CONTINUOUS
 10
108.077835
 20
72.696892
 11
108.077835
 21
78.496910
  0
LINE
  8
0
  6
CONTINUOUS
 10
108.077835
 20
80.496880
 11
108.077835
 21
86.296898
  0
LINE
  8
0
  6
CONTINUOUS
 10
108.077835
 20
88.296898
 11
108.077835
 21
94.096893
  0
LINE
  8
0
  6
CONTINUOUS
 10
108.077835
 20
96.096893
 11
108.077835
 21
102.196892
  0
LINE
  8
0
  6
CONTINUOUS
 10
108.077835
 20
104.196892
 11
108.077835
 21
109.696892
  0
LINE
  8
0
  6
CONTINUOUS
 10
108.077835
 20
111.696892
 11
108.077835
 21
116.696892
  0
ARC
  8
0
  6
CONTINUOUS
 10
84.077835
 20
96.696892
 40
2.000000
 50
0.000000
 51
90.000000
  0
ARC
  8
0
  6
CONTINUOUS
 10
84.077835
 20
46.696896
 40
2.000000
 50
-90.000000
 51
0.000000
  0
ARC
  8
0
  6
CONTINUOUS
 10
21.077833
 20
96.696892
 40
2.000000
 50
90.000000
 51
180.000000
  0
ARC
  8
0
  6
CONTINUOUS
 10
21.077833
 20
46.696896
 40
2.000000
 50
180.000000
 51
270.000000
  0
LINE
  8
0
  6
CONTINUOUS
 10
19.077833
 20
41.196896
 11
19.077833
 21
44.696896
  0
LINE
  8
0
  6
CONTINUOUS
 10
19.077826
 20
96.696938
 11
19.077826
 21
46.696896
  0
ARC
  8
0
  6
CONTINUOUS
 10
36.077831
 20
71.696892
 40
12.000000
 50
259.508698
 51
263.708496
  0
ARC
  8
0
  6
CONTINUOUS
 10
36.077831
 20
75.696892
 40
1.500000
 50
-28.757320
 51
208.757202
  0
LINE
  8
0
  6
CONTINUOUS
 10
34.762833
 20
75.696892
 11
34.762833
 21
11.321895
  0
LINE
  8
0
  6
CONTINUOUS
 10
37.392834
 20
75.696892
 11
37.392834
 21
11.321895
  0
CIRCLE
  8
0
  6
CONTINUOUS
 10
36.077831
 20
-1.678105
 40
2.150000
  0
ARC
  8
0
  6
CONTINUOUS
 10
36.077831
 20
-1.678105
 40
3.750000
 50
-230.263107
 51
50.263371
  0
LINE
  8
0
  6
CONTINUOUS
 10
34.262833
 20
11.321895
 11
37.892834
 21
11.321895
  0
LINE
  8
0
  6
CONTINUOUS
 10
34.762833
 20
4.121875
 11
37.392834
 21
4.121875
  0
ARC
  8
0
  6
CONTINUOUS
 10
31.762833
 20
3.512575
 40
3.000000
 50
-50.263611
 51
0.000000
  0
ARC
  8
0
  6
CONTINUOUS
 10
40.392834
 20
3.512575
 40
3.000000
 50
180.000000
 51
230.263306
  0
LINE
  8
0
  6
CONTINUOUS
 10
34.262833
 20
8.321895
 11
37.892834
 21
8.321895
  0
LINE
  8
0
  6
CONTINUOUS
 10
34.262833
 20
11.321895
 11
34.262833
 21
8.321895
  0
LINE
  8
0
  6
CONTINUOUS
 10
37.892834
 20
11.321895
 11
37.892834
 21
8.321895
  0
LINE
  8
0
  6
CONTINUOUS
 10
34.762833
 20
3.512575
 11
34.762833
 21
8.321895
  0
LINE
  8
0
  6
CONTINUOUS
 10
37.392834
 20
3.512575
 11
37.392834
 21
8.321895
  0
ARC
  8
0
  6
CONTINUOUS
 10
36.077831
 20
75.696892
 40
1.315000
 50
0.000000
 51
180.000000
  0
ARC
  8
0
  6
CONTINUOUS
 10
39.577831
 20
69.696892
 40
1.500000
 50
-28.757320
 51
208.757202
  0
LINE
  8
0
  6
CONTINUOUS
 10
38.262833
 20
69.696892
 11
38.262833
 21
5.321895
  0
LINE
  8
0
  6
CONTINUOUS
 10
40.892834
 20
69.696892
 11
40.892834
 21
5.321895
  0
CIRCLE
  8
0
  6
CONTINUOUS
 10
39.577831
 20
-7.678105
 40
2.150000
  0
ARC
  8
0
  6
CONTINUOUS
 10
39.577831
 20
-7.678105
 40
3.750000
 50
142.411804
 51
158.967697
  0
LINE
  8
0
  6
CONTINUOUS
 10
37.762833
 20
5.321895
 11
41.392834
 21
5.321895
  0
LINE
  8
0
  6
CONTINUOUS
 10
39.822495
 20
-1.878125
 11
40.892834
 21
-1.878125
  0
ARC
  8
0
  6
CONTINUOUS
 10
43.892834
 20
-2.487425
 40
3.000000
 50
180.000000
 51
230.263306
  0
LINE
  8
0
  6
CONTINUOUS
 10
37.762833
 20
2.321895
 11
41.392834
 21
2.321895
  0
LINE
  8
0
  6
CONTINUOUS
 10
37.762833
 20
5.321895
 11
37.762833
 21
2.321895
  0
LINE
  8
0
  6
CONTINUOUS
 10
41.392834
 20
5.321895
 11
41.392834
 21
2.321895
  0
LINE
  8
0
  6
CONTINUOUS
 10
38.262833
 20
1.399955
 11
38.262833
 21
2.321895
  0
LINE
  8
0
  6
CONTINUOUS
 10
40.892834
 20
-2.487425
 11
40.892834
 21
2.321895
  0
ARC
  8
0
  6
CONTINUOUS
 10
39.577831
 20
69.696892
 40
1.315000
 50
0.000000
 51
180.000000
  0
ARC
  8
0
  6
CONTINUOUS
 10
32.577831
 20
69.696892
 40
1.500000
 50
-28.757320
 51
208.757202
  0
LINE
  8
0
  6
CONTINUOUS
 10
31.262833
 20
69.696892
 11
31.262833
 21
5.321895
  0
LINE
  8
0
  6
CONTINUOUS
 10
33.892834
 20
69.696892
 11
33.892834
 21
5.321895
  0
CIRCLE
  8
0
  6
CONTINUOUS
 10
32.577831
 20
-7.678105
 40
2.150000
  0
ARC
  8
0
  6
CONTINUOUS
 10
32.577831
 20
-7.678105
 40
3.750000
 50
-230.263107
 51
37.587730
  0
LINE
  8
0
  6
CONTINUOUS
 10
30.762833
 20
5.321895
 11
34.392834
 21
5.321895
  0
LINE
  8
0
  6
CONTINUOUS
 10
31.262833
 20
-1.878125
 11
32.327831
 21
-1.878125
  0
ARC
  8
0
  6
CONTINUOUS
 10
28.262833
 20
-2.487425
 40
3.000000
 50
-50.263611
 51
0.000000
  0
LINE
  8
0
  6
CONTINUOUS
 10
30.762833
 20
2.321895
 11
34.392834
 21
2.321895
  0
LINE
  8
0
  6
CONTINUOUS
 10
30.762833
 20
5.321895
 11
30.762833
 21
2.321895
  0
LINE
  8
0
  6
CONTINUOUS
 10
34.392834
 20
5.321895
 11
34.392834
 21
2.321895
  0
LINE
  8
0
  6
CONTINUOUS
 10
31.262833
 20
-2.487425
 11
31.262833
 21
2.321895
  0
LINE
  8
0
  6
CONTINUOUS
 10
33.892834
 20
1.399955
 11
33.892834
 21
2.321895
  0
ARC
  8
0
  6
CONTINUOUS
 10
32.577831
 20
69.696892
 40
1.315000
 50
0.000000
 51
180.000000
  0
ARC
  8
0
  6
CONTINUOUS
 10
39.577831
 20
-7.678105
 40
3.750000
 50
-158.968201
 51
50.263371
  0
ARC
  8
0
  6
CONTINUOUS
 10
36.077831
 20
71.696892
 40
12.000000
 50
276.291290
 51
280.491211
  0
ARC
  8
0
  6
CONTINUOUS
 10
36.077831
 20
71.696892
 40
12.000000
 50
-66.343658
 51
246.343506
  0
LINE
  8
0
  6
CONTINUOUS
 10
19.077833
 20
44.696896
 11
31.262833
 21
44.696896
  0
LINE
  8
0
  6
CONTINUOUS
 10
33.892834
 20
44.696896
 11
34.762833
 21
44.696896
  0
LINE
  8
0
  6
CONTINUOUS
 10
37.392834
 20
44.696896
 11
38.262833
 21
44.696896
  0
LINE
  8
0
  6
CONTINUOUS
 10
108.077835
 20
41.196896
 11
40.892834
 21
41.196896
  0
LINE
  8
0
  6
CONTINUOUS
 10
33.892834
 20
41.196896
 11
34.762833
 21
41.196896
  0
LINE
  8
0
  6
CONTINUOUS
 10
37.392834
 20
41.196896
 11
38.262833
 21
41.196896
  0
LINE
  8
0
  6
CONTINUOUS
 10
108.077835
 20
39.196896
 11
40.892834
 21
39.196896
  0
LINE
  8
0
  6
CONTINUOUS
 10
33.892834
 20
39.196896
 11
34.762833
 21
39.196896
  0
LINE
  8
0
  6
CONTINUOUS
 10
37.392834
 20
39.196896
 11
38.262833
 21
39.196896
  0
LINE
  8
0
  6
CONTINUOUS
 10
108.077835
 20
33.696896
 11
40.892834
 21
33.696896
  0
LINE
  8
0
  6
CONTINUOUS
 10
33.892834
 20
33.696896
 11
34.762833
 21
33.696896
  0
LINE
  8
0
  6
CONTINUOUS
 10
37.392834
 20
33.696896
 11
38.262833
 21
33.696896
  0
LINE
  8
0
  6
CONTINUOUS
 10
108.077835
 20
31.696896
 11
40.892834
 21
31.696896
  0
LINE
  8
0
  6
CONTINUOUS
 10
33.892834
 20
31.696896
 11
34.762833
 21
31.696896
  0
LINE
  8
0
  6
CONTINUOUS
 10
37.392834
 20
31.696896
 11
38.262833
 21
31.696896
  0
LINE
  8
0
  6
CONTINUOUS
 10
108.077835
 20
26.696896
 11
40.892834
 21
26.696896
  0
LINE
  8
0
  6
CONTINUOUS
 10
33.892834
 20
26.696896
 11
34.762833
 21
26.696896
  0
LINE
  8
0
  6
CONTINUOUS
 10
37.392834
 20
26.696896
 11
38.262833
 21
26.696896
  0
LINE
  8
0
  6
CONTINUOUS
 10
108.077835
 20
24.696896
 11
40.892834
 21
24.696896
  0
LINE
  8
0
  6
CONTINUOUS
 10
33.892834
 20
24.696896
 11
34.762833
 21
24.696896
  0
LINE
  8
0
  6
CONTINUOUS
 10
37.392834
 20
24.696896
 11
38.262833
 21
24.696896
  0
LINE
  8
0
  6
CONTINUOUS
 10
108.077835
 20
20.410875
 11
40.892834
 21
20.410875
  0
LINE
  8
0
  6
CONTINUOUS
 10
33.892834
 20
20.410875
 11
34.762833
 21
20.410875
  0
LINE
  8
0
  6
CONTINUOUS
 10
37.392834
 20
20.410875
 11
38.262833
 21
20.410875
  0
LINE
  8
0
  6
CONTINUOUS
 10
116.077835
 20
14.196895
 11
40.892834
 21
14.196895
  0
LINE
  8
0
  6
CONTINUOUS
 10
33.892834
 20
14.196895
 11
34.762833
 21
14.196895
  0
LINE
  8
0
  6
CONTINUOUS
 10
37.392834
 20
14.196895
 11
38.262833
 21
14.196895
  0
LINE
  8
0
  6
CONTINUOUS
 10
204.077835
 20
129.196899
 11
204.077835
 21
14.196895
  0
LINE
  8
0
  6
CONTINUOUS
 10
31.262894
 20
288.822205
 11
31.262894
 21
281.105194
  0
LINE
  8
0
  6
CONTINUOUS
 10
33.892895
 20
288.822205
 11
33.892895
 21
281.293976
  0
LINE
  8
0
  6
CONTINUOUS
 10
34.762894
 20
288.822205
 11
34.762894
 21
281.042664
  0
LINE
  8
0
  6
CONTINUOUS
 10
37.392895
 20
288.822205
 11
37.392895
 21
280.773956
  0
LINE
  8
0
  6
CONTINUOUS
 10
38.262894
 20
288.822205
 11
38.262894
 21
280.889954
  0
LINE
  8
0
  6
CONTINUOUS
 10
40.892895
 20
288.822205
 11
40.892895
 21
280.500244
  0
LINE
  8
0
  6
CONTINUOUS
 10
31.262894
 20
281.105194
 11
33.002445
 21
281.551239
  0
LINE
  8
0
  6
CONTINUOUS
 10
33.002445
 20
281.551239
 11
33.892895
 21
281.293976
  0
LINE
  8
0
  6
CONTINUOUS
 10
36.229790
 20
280.618896
 11
37.392895
 21
280.773956
  0
LINE
  8
0
  6
CONTINUOUS
 10
39.457130
 20
281.049194
 11
40.892895
 21
280.500244
  0
LINE
  8
0
  6
CONTINUOUS
 10
34.762894
 20
281.042664
 11
36.229790
 21
280.618896
  0
LINE
  8
0
  6
CONTINUOUS
 10
38.262894
 20
280.889954
 11
39.457130
 21
281.049194
  0
LINE
  8
0
  6
CONTINUOUS
 10
124.577896
 20
286.613129
 11
126.077896
 21
287.041687
  0
LINE
  8
0
  6
CONTINUOUS
 10
126.077896
 20
286.055145
 11
127.577896
 21
286.571533
  0
LINE
  8
0
  6
CONTINUOUS
 10
124.577896
 20
292.757294
 11
124.577896
 21
286.613129
  0
LINE
  8
0
  6
CONTINUOUS
 10
126.077896
 20
292.864868
 11
126.077896
 21
286.055145
  0
LINE
  8
0
  6
CONTINUOUS
 10
127.577896
 20
292.703491
 11
127.577896
 21
286.571533
  0
LINE
  8
0
  6
CONTINUOUS
 10
174.577896
 20
293.321259
 11
174.577896
 21
288.370239
  0
LINE
  8
0
  6
CONTINUOUS
 10
174.577896
 20
288.370239
 11
176.077896
 21
288.798798
  0
LINE
  8
0
  6
CONTINUOUS
 10
176.077896
 20
293.321259
 11
176.077896
 21
287.812256
  0
LINE
  8
0
  6
CONTINUOUS
 10
176.077896
 20
287.812256
 11
177.577896
 21
288.328644
  0
LINE
  8
0
  6
CONTINUOUS
 10
177.577896
 20
293.321259
 11
177.577896
 21
288.328644
  0
LINE
  8
0
  6
CONTINUOUS
 10
127.577896
 20
290.571259
 11
139.077774
 21
290.571259
  0
LINE
  8
0
  6
CONTINUOUS
 10
177.577896
 20
292.821259
 11
194.480896
 21
292.821259
  0
LINE
  8
0
  6
CONTINUOUS
 10
141.077835
 20
16.446833
 11
141.077835
 21
126.946831
  0
LINE
  8
0
  6
CONTINUOUS
 10
196.077835
 20
16.446833
 11
196.077835
 21
126.946831
  0
LINE
  8
0
  6
CONTINUOUS
 10
143.077835
 20
115.696831
 11
194.077835
 21
115.696831
  0
LINE
  8
0
  6
CONTINUOUS
 10
143.077835
 20
23.696833
 11
194.077835
 21
23.696833
  0
LINE
  8
0
  6
CONTINUOUS
 10
133.077835
 20
128.946838
 11
139.077835
 21
128.946838
  0
LINE
  8
0
  6
CONTINUOUS
 10
133.077835
 20
14.446833
 11
139.077835
 21
14.446833
  0
ARC
  8
0
  6
CONTINUOUS
 10
143.077835
 20
117.696831
 40
2.000000
 50
180.000000
 51
270.000000
  0
ARC
  8
0
  6
CONTINUOUS
 10
194.077835
 20
117.696831
 40
2.000000
 50
-90.000000
 51
0.000000
  0
ARC
  8
0
  6
CONTINUOUS
 10
143.077835
 20
21.696854
 40
2.000000
 50
90.000000
 51
180.000000
  0
ARC
  8
0
  6
CONTINUOUS
 10
194.077835
 20
21.696833
 40
2.000000
 50
0.000000
 51
90.000000
  0
ARC
  8
0
  6
CONTINUOUS
 10
139.077835
 20
126.946831
 40
2.000000
 50
0.000000
 51
90.000000
  0
ARC
  8
0
  6
CONTINUOUS
 10
198.077835
 20
126.946854
 40
2.000000
 50
90.000000
 51
180.000000
  0
ARC
  8
0
  6
CONTINUOUS
 10
198.077835
 20
16.446833
 40
2.000000
 50
180.000000
 51
270.000000
  0
ARC
  8
0
  6
CONTINUOUS
 10
139.077835
 20
16.446833
 40
2.000000
 50
-90.000000
 51
0.000000
  0
LINE
  8
0
  6
CONTINUOUS
 10
142.077835
 20
62.696835
 11
142.077835
 21
75.696831
  0
LINE
  8
0
  6
CONTINUOUS
 10
164.077835
 20
75.696831
 11
164.077835
 21
62.696835
  0
LINE
  8
0
  6
CONTINUOUS
 10
195.077835
 20
62.696835
 11
195.077835
 21
75.696831
  0
LINE
  8
0
  6
CONTINUOUS
 10
173.077835
 20
62.696835
 11
173.077835
 21
75.696831
  0
LINE
  8
0
  6
CONTINUOUS
 10
163.077835
 20
76.696831
 11
143.077835
 21
76.696831
  0
LINE
  8
0
  6
CONTINUOUS
 10
163.077835
 20
61.696835
 11
143.077835
 21
61.696835
  0
ARC
  8
0
  6
CONTINUOUS
 10
143.077835
 20
75.696831
 40
1.000000
 50
90.000000
 51
180.000000
  0
ARC
  8
0
  6
CONTINUOUS
 10
143.077835
 20
62.696835
 40
1.000000
 50
180.000000
 51
270.000000
  0
ARC
  8
0
  6
CONTINUOUS
 10
163.077835
 20
62.696835
 40
1.000000
 50
-90.000000
 51
0.000000
  0
ARC
  8
0
  6
CONTINUOUS
 10
163.077835
 20
75.696831
 40
1.000000
 50
0.000000
 51
90.000000
  0
ARC
  8
0
  6
CONTINUOUS
 10
174.077835
 20
75.696831
 40
1.000000
 50
90.000000
 51
180.000000
  0
ARC
  8
0
  6
CONTINUOUS
 10
174.077835
 20
62.696835
 40
1.000000
 50
180.000000
 51
270.000000
  0
ARC
  8
0
  6
CONTINUOUS
 10
194.077835
 20
75.696831
 40
1.000000
 50
0.000000
 51
90.000000
  0
ARC
  8
0
  6
CONTINUOUS
 10
194.077835
 20
62.696835
 40
1.000000
 50
-90.000000
 51
0.000000
  0
LINE
  8
0
  6
CONTINUOUS
 10
176.077835
 20
85.696831
 11
176.077835
 21
59.752888
  0
LINE
  8
0
  6
CONTINUOUS
 10
177.577835
 20
85.696831
 11
177.577835
 21
58.895741
  0
LINE
  8
0
  6
CONTINUOUS
 10
174.577835
 20
85.696831
 11
174.577835
 21
59.637806
  0
LINE
  8
0
  6
CONTINUOUS
 10
174.577835
 20
59.637806
 11
176.077835
 21
60.875294
  0
LINE
  8
0
  6
CONTINUOUS
 10
176.077835
 20
59.752888
 11
177.577835
 21
58.895741
  0
ARC
  8
0
  6
CONTINUOUS
 10
176.827835
 20
85.696831
 40
0.750000
 50
0.000000
 51
180.000000
  0
ARC
  8
0
  6
CONTINUOUS
 10
175.327835
 20
85.696831
 40
0.750000
 50
0.000000
 51
180.000000
  0
LINE
  8
0
  6
CONTINUOUS
 10
174.077835
 20
76.696831
 11
174.577835
 21
76.696831
  0
LINE
  8
0
  6
CONTINUOUS
 10
174.077835
 20
61.696835
 11
174.577835
 21
61.696835
  0
LINE
  8
0
  6
CONTINUOUS
 10
142.970886
 20
58.102592
 11
194.421631
 21
58.102592
  0
LINE
  8
0
  6
CONTINUOUS
 10
198.077835
 20
128.946838
 11
204.077835
 21
128.946838
  0
LINE
  8
0
  6
CONTINUOUS
 10
198.077835
 20
14.446833
 11
204.077835
 21
14.446833
  0
LINE
  8
0
  6
CONTINUOUS
 10
194.077835
 20
61.696835
 11
177.577835
 21
61.696835
  0
LINE
  8
0
  6
CONTINUOUS
 10
194.077835
 20
76.696831
 11
177.577835
 21
76.696831
  0
LINE
  8
0
  6
CONTINUOUS
 10
142.970886
 20
54.696896
 11
194.421631
 21
54.696896
  0
LINE
  8
0
  6
CONTINUOUS
 10
184.077835
 20
41.300896
 11
184.077835
 21
25.696833
  0
LINE
  8
0
  6
CONTINUOUS
 10
153.077835
 20
41.300896
 11
153.077835
 21
25.696833
  0
LINE
  8
0
  6
CONTINUOUS
 10
142.970886
 20
45.032310
 11
151.642212
 21
45.032310
  0
LINE
  8
0
  6
CONTINUOUS
 10
185.535965
 20
45.032310
 11
194.421631
 21
45.032310
  0
ARC
  8
0
  6
CONTINUOUS
 10
151.077835
 20
25.696833
 40
2.000000
 50
-90.000000
 51
0.000000
  0
ARC
  8
0
  6
CONTINUOUS
 10
186.077835
 20
25.696833
 40
2.000000
 50
180.000000
 51
270.000000
  0
LINE
  8
0
  6
CONTINUOUS
 10
153.735641
 20
34.818718
 11
183.243149
 21
34.818718
  0
ARC
  8
0
  6
CONTINUOUS
 10
176.077835
 20
85.696831
 40
4.000000
 50
-67.975685
 51
247.975693
  0
TEXT
  8
0
 10
-10.000000
 20
-29.000000
 40
4.000000
 41
1.000000
  1
G3FE-22-60~200-T010
 50
0.000000
  0
ENDSEC
  0
EOF
