  0
SECTION
  2
HEADER
  9
$CLAYER
  8
1
  9
$LTSCALE
 40
3.0
  0
ENDSEC
  0
SECTION
  2
TABLES
  0
TABLE
  2
LTYPE
 70
     4
  0
LTYPE
  2
CONTINUOUS
  3
solid line
 70
    64
 72
    65
 73
     0
 40
0.0
  0
LTYPE
  2
DASHED
  3
__ __ __ __ __ __ __ __ __ __ __ __ __ __ __
 70
    64
 72
    65
 73
     2
 40
0.75
 49
0.5
 49
-0.25
  0
LTYPE
  2
CENTER
  3
____ _ ____ _ ____ _ ____ _ ____ _ ____ _ ____
 70
    64
 72
    65
 73
     4
 40
2.0
 49
1.25
 49
-0.25
 49
0.25
 49
-0.25
  0
LTYPE
  2
PHANTOM
  3
_____ _ _ _____ _ _ _____ _ _ _____ _ _ ____
 70
    64
 72
    65
 73
     6
 40
2.5
 49
1.25
 49
-0.25
 49
0.25
 49
-0.25
 49
0.25
 49
-0.25
  0
ENDTAB
  0
TABLE
  2
LAYER
 70
     1
  0
LAYER
  2
0
 70
    64
 62
     7
  6
CONTINUOUS
  0
ENDTAB
  0
TABLE
  2
STYLE
 70
     1
  0
STYLE
  2
STANDARD
 70
     0
 40
0.000000
 41
1.000000
 50
0.000000
 71
     0
 42
3.000000
  3
txt
  4
BIGFONT
  0
ENDTAB
  0
ENDSEC
  0
SECTION
  2
BLOCKS
  0
ENDSEC
  0
SECTION
  2
ENTITIES
  0
LINE
  8
0
  6
CONTINUOUS
 10
29.058882
 20
276.705658
 11
31.085583
 21
277.469513
  0
LINE
  8
0
  6
CONTINUOUS
 10
36.533886
 20
276.929169
 11
38.222271
 21
277.550873
  0
LINE
  8
0
  6
CONTINUOUS
 10
33.345516
 20
277.410980
 11
34.295315
 21
276.995636
  0
LINE
  8
0
  6
CENTER
 10
36.059978
 20
270.637421
 11
36.059978
 21
294.677643
  0
LINE
  8
0
  6
CONTINUOUS
 10
29.058882
 20
290.321259
 11
29.058882
 21
276.705658
  0
LINE
  8
0
  6
CONTINUOUS
 10
43.061092
 20
290.321259
 11
43.061092
 21
276.710297
  0
LINE
  8
0
  6
CONTINUOUS
 10
45.559978
 20
290.321259
 11
26.559978
 21
290.321259
  0
LINE
  8
0
  6
CONTINUOUS
 10
40.135998
 20
277.604584
 11
43.061092
 21
276.710297
  0
LINE
  8
0
  6
CONTINUOUS
 10
34.245373
 20
5.182369
 11
37.875957
 21
5.182369
  0
LINE
  8
0
  6
CONTINUOUS
 10
37.375881
 20
5.182369
 11
37.375881
 21
46.680721
  0
LINE
  8
0
  6
CONTINUOUS
 10
42.393780
 20
46.680721
 11
42.393780
 21
7.578853
  0
LINE
  8
0
  6
CONTINUOUS
 10
34.745464
 20
46.680721
 11
34.745464
 21
5.182369
  0
LINE
  8
0
  6
CONTINUOUS
 10
29.727568
 20
46.680721
 11
29.727568
 21
7.578853
  0
LINE
  8
0
  6
CONTINUOUS
 10
44.549099
 20
0.660824
 11
45.817150
 21
-2.058537
  0
LINE
  8
0
  6
CONTINUOUS
 10
44.154781
 20
0.476986
 11
43.799145
 21
1.239620
  0
LINE
  8
0
  6
CONTINUOUS
 10
47.396740
 20
-6.629277
 11
45.363918
 21
-2.269841
  0
LINE
  8
0
  6
CONTINUOUS
 10
47.139187
 20
-6.076969
 11
44.755230
 21
-7.188603
  0
LINE
  8
0
  6
CENTER
 10
44.127102
 20
-13.882145
 11
54.109722
 21
-9.227177
  0
LINE
  8
0
  6
CENTER
 10
44.668957
 20
-3.891545
 11
50.934887
 21
-17.328922
  0
LINE
  8
0
  6
CONTINUOUS
 10
41.415173
 20
0.127987
 11
41.770824
 21
-0.634709
  0
LINE
  8
0
  6
CONTINUOUS
 10
41.376507
 20
-1.126225
 11
42.526730
 21
-3.592839
  0
LINE
  8
0
  6
CONTINUOUS
 10
40.876431
 20
-8.629093
 11
40.876431
 21
-3.819035
  0
LINE
  8
0
  6
CONTINUOUS
 10
39.805920
 20
-8.019718
 11
40.876431
 21
-8.019718
  0
LINE
  8
0
  6
CONTINUOUS
 10
41.376507
 20
-3.819035
 11
41.376507
 21
-0.818547
  0
LINE
  8
0
  6
CONTINUOUS
 10
37.375866
 20
-2.628178
 11
37.375866
 21
2.181881
  0
LINE
  8
0
  6
CONTINUOUS
 10
38.246014
 20
-4.741093
 11
38.246014
 21
-3.819035
  0
LINE
  8
0
  6
CONTINUOUS
 10
37.745922
 20
-0.818547
 11
37.745922
 21
-3.819035
  0
LINE
  8
0
  6
CONTINUOUS
 10
37.875957
 20
5.182369
 11
37.875957
 21
2.181881
  0
LINE
  8
0
  6
CONTINUOUS
 10
37.745922
 20
-0.818547
 11
41.376507
 21
-0.818547
  0
LINE
  8
0
  6
CONTINUOUS
 10
37.745922
 20
-3.819035
 11
41.376507
 21
-3.819035
  0
LINE
  8
0
  6
CONTINUOUS
 10
30.744825
 20
-0.818547
 11
34.375393
 21
-0.818547
  0
LINE
  8
0
  6
CONTINUOUS
 10
30.744825
 20
-3.819035
 11
34.375393
 21
-3.819035
  0
LINE
  8
0
  6
CONTINUOUS
 10
30.706160
 20
0.127987
 11
30.350521
 21
-0.634709
  0
LINE
  8
0
  6
CONTINUOUS
 10
31.244902
 20
-8.629093
 11
31.244902
 21
-3.819035
  0
LINE
  8
0
  6
CONTINUOUS
 10
31.244902
 20
-8.019718
 11
32.310070
 21
-8.019718
  0
LINE
  8
0
  6
CONTINUOUS
 10
30.744825
 20
-0.818547
 11
30.744825
 21
-3.819035
  0
LINE
  8
0
  6
CONTINUOUS
 10
33.875317
 20
-4.741093
 11
33.875317
 21
-3.819035
  0
LINE
  8
0
  6
CONTINUOUS
 10
27.572248
 20
0.660824
 11
26.304197
 21
-2.058537
  0
LINE
  8
0
  6
CONTINUOUS
 10
27.966551
 20
0.476986
 11
28.322187
 21
1.239620
  0
LINE
  8
0
  6
CONTINUOUS
 10
29.594618
 20
-3.592839
 11
26.304197
 21
-2.058537
  0
LINE
  8
0
  6
CONTINUOUS
 10
27.108564
 20
-7.740910
 11
29.141386
 21
-3.381535
  0
LINE
  8
0
  6
CONTINUOUS
 10
30.744825
 20
-0.818547
 11
27.572248
 21
0.660824
  0
LINE
  8
0
  6
CONTINUOUS
 10
30.744825
 20
-1.126225
 11
29.594618
 21
-3.592839
  0
LINE
  8
0
  6
CONTINUOUS
 10
34.745449
 20
-2.628178
 11
34.745449
 21
2.181881
  0
LINE
  8
0
  6
CONTINUOUS
 10
34.375393
 20
-0.818547
 11
34.375393
 21
-3.819035
  0
LINE
  8
0
  6
CONTINUOUS
 10
34.245373
 20
5.182369
 11
34.245373
 21
2.181881
  0
LINE
  8
0
  6
CENTER
 10
29.684658
 20
-7.819645
 11
42.561687
 21
-7.819645
  0
LINE
  8
0
  6
CONTINUOUS
 10
34.745449
 20
-2.018742
 11
37.375866
 21
-2.018742
  0
LINE
  8
0
  6
CONTINUOUS
 10
34.245373
 20
2.181881
 11
37.875957
 21
2.181881
  0
LINE
  8
0
  6
CENTER
 10
32.560116
 20
-10.195072
 11
32.560116
 21
-19.821537
  0
LINE
  8
0
  6
CENTER
 10
36.060665
 20
-17.821232
 11
36.060665
 21
-0.068425
  0
LINE
  8
0
  6
CENTER
 10
39.561214
 20
-19.821537
 11
39.561214
 21
-0.068425
  0
LINE
  8
0
  6
CONTINUOUS
 10
24.982145
 20
-6.076969
 11
27.366102
 21
-7.188603
  0
LINE
  8
0
  6
CONTINUOUS
 10
24.724592
 20
-6.629277
 11
26.757414
 21
-2.269841
  0
LINE
  8
0
  6
CENTER
 10
27.994230
 20
-13.882145
 11
18.011625
 21
-9.227177
  0
LINE
  8
0
  6
CENTER
 10
27.452391
 20
-3.891545
 11
21.186445
 21
-17.328922
  0
LINE
  8
0
  6
CONTINUOUS
 10
40.876431
 20
-0.818547
 11
40.876431
 21
46.680721
  0
LINE
  8
0
  6
CONTINUOUS
 10
38.246014
 20
46.680721
 11
38.246014
 21
-0.818547
  0
LINE
  8
0
  6
CONTINUOUS
 10
33.875317
 20
46.680721
 11
33.875317
 21
-0.818547
  0
LINE
  8
0
  6
CONTINUOUS
 10
31.244902
 20
-0.818547
 11
31.244902
 21
46.680721
  0
LINE
  8
0
  6
CONTINUOUS
 10
41.376507
 20
-0.818547
 11
44.549099
 21
0.660824
  0
LINE
  8
0
  6
CONTINUOUS
 10
42.526730
 20
-3.592839
 11
45.817150
 21
-2.058537
  0
LINE
  8
0
  6
CENTER
 10
26.746702
 20
-13.820622
 11
45.249615
 21
-13.820622
  0
LINE
  8
0
  6
CONTINUOUS
 10
45.012783
 20
-7.740910
 11
42.979946
 21
-3.381535
  0
LINE
  8
0
  6
CONTINUOUS
 10
43.061764
 20
50.431271
 11
43.061764
 21
46.680721
  0
LINE
  8
0
  6
CONTINUOUS
 10
44.061932
 20
52.931698
 11
44.061932
 21
50.431271
  0
LINE
  8
0
  6
CONTINUOUS
 10
25.058928
 20
53.681820
 11
28.059401
 21
53.681820
  0
LINE
  8
0
  6
CONTINUOUS
 10
29.059568
 20
50.431271
 11
29.059568
 21
46.680721
  0
LINE
  8
0
  6
CONTINUOUS
 10
25.058928
 20
49.681149
 11
28.059401
 21
49.681149
  0
LINE
  8
0
  6
CONTINUOUS
 10
25.058928
 20
53.681820
 11
25.058928
 21
49.681149
  0
LINE
  8
0
  6
CONTINUOUS
 10
28.059401
 20
53.681820
 11
28.059401
 21
49.681149
  0
LINE
  8
0
  6
CONTINUOUS
 10
29.059568
 20
46.680721
 11
43.061764
 21
46.680721
  0
LINE
  8
0
  6
CONTINUOUS
 10
28.059401
 20
52.931698
 11
44.061932
 21
52.931698
  0
LINE
  8
0
  6
CONTINUOUS
 10
28.059401
 20
50.431271
 11
44.061932
 21
50.431271
  0
LINE
  8
0
  6
CONTINUOUS
 10
43.061764
 20
71.684624
 11
43.061764
 21
52.931698
  0
LINE
  8
0
  6
CONTINUOUS
 10
29.059568
 20
71.684624
 11
29.059568
 21
52.931698
  0
LINE
  8
0
  6
CENTER
 10
36.060665
 20
87.562134
 11
36.060665
 21
43.954647
  0
CIRCLE
  8
0
  6
CONTINUOUS
 10
39.561214
 20
-13.820622
 40
2.150338
  0
CIRCLE
  8
0
  6
CONTINUOUS
 10
32.560116
 20
-13.820622
 40
2.150338
  0
CIRCLE
  8
0
  6
CONTINUOUS
 10
36.060665
 20
-7.819645
 40
2.150338
  0
ARC
  8
0
  6
CONTINUOUS
 10
39.258907
 20
274.735626
 40
3.000000
 50
73.000710
 51
110.215172
  0
ARC
  8
0
  6
CONTINUOUS
 10
35.497250
 20
279.744354
 40
3.000000
 50
246.381592
 51
290.215179
  0
ARC
  8
0
  6
CONTINUOUS
 10
32.143581
 20
274.662262
 40
3.000000
 50
66.381584
 51
110.650711
  0
ARC
  8
0
  6
CONTINUOUS
 10
26.559978
 20
291.821259
 40
1.500000
 50
180.000000
 51
270.000000
  0
ARC
  8
0
  6
CONTINUOUS
 10
45.559978
 20
291.821259
 40
1.500000
 50
-90.000000
 51
0.000000
  0
ARC
  8
0
  6
CONTINUOUS
 10
50.116100
 20
-5.361210
 40
3.000476
 50
205.000000
 51
255.263290
  0
ARC
  8
0
  6
CONTINUOUS
 10
48.398785
 20
-11.890202
 40
2.150338
 50
104.239098
 51
305.760895
  0
ARC
  8
0
  6
CONTINUOUS
 10
48.398785
 20
-11.890202
 40
2.150338
 50
-75.760895
 51
125.760902
  0
ARC
  8
0
  6
CONTINUOUS
 10
48.398785
 20
-11.890202
 40
3.750592
 50
-92.818146
 51
75.263367
  0
ARC
  8
0
  6
CONTINUOUS
 10
42.293423
 20
-9.008976
 40
3.000476
 50
-25.263306
 51
25.000000
  0
ARC
  8
0
  6
CONTINUOUS
 10
57.393780
 20
7.578853
 40
17.630417
 50
200.468155
 51
204.999893
  0
ARC
  8
0
  6
CONTINUOUS
 10
40.376354
 20
-2.628178
 40
3.000476
 50
180.000000
 51
230.263306
  0
ARC
  8
0
  6
CONTINUOUS
 10
14.727567
 20
7.578853
 40
17.630417
 50
335.000122
 51
339.531769
  0
ARC
  8
0
  6
CONTINUOUS
 10
14.727567
 20
7.578853
 40
15.000000
 50
-24.999878
 51
0.000000
  0
ARC
  8
0
  6
CONTINUOUS
 10
31.744978
 20
-2.628178
 40
3.000476
 50
-50.263611
 51
0.000000
  0
ARC
  8
0
  6
CONTINUOUS
 10
39.561214
 20
-13.820622
 40
3.750592
 50
-158.968201
 51
50.263371
  0
ARC
  8
0
  6
CONTINUOUS
 10
39.561214
 20
-13.820622
 40
3.750592
 50
142.411804
 51
158.967697
  0
ARC
  8
0
  6
CONTINUOUS
 10
32.560116
 20
-13.820622
 40
3.750592
 50
-230.263107
 51
37.587730
  0
ARC
  8
0
  6
CONTINUOUS
 10
36.060665
 20
-7.819645
 40
3.750592
 50
-230.263107
 51
50.263371
  0
ARC
  8
0
  6
CONTINUOUS
 10
43.876904
 20
-8.629093
 40
3.000476
 50
180.000000
 51
230.263306
  0
ARC
  8
0
  6
CONTINUOUS
 10
29.827909
 20
-9.008976
 40
3.000476
 50
155.000000
 51
205.263306
  0
ARC
  8
0
  6
CONTINUOUS
 10
28.244429
 20
-8.629093
 40
3.000476
 50
-50.263611
 51
0.000000
  0
ARC
  8
0
  6
CONTINUOUS
 10
22.005247
 20
-5.361210
 40
3.000476
 50
284.736694
 51
335.000000
  0
ARC
  8
0
  6
CONTINUOUS
 10
23.722563
 20
-11.890202
 40
2.150338
 50
54.239098
 51
255.760895
  0
ARC
  8
0
  6
CONTINUOUS
 10
23.722563
 20
-11.890202
 40
2.150338
 50
-125.760895
 51
75.760902
  0
ARC
  8
0
  6
CONTINUOUS
 10
23.722563
 20
-11.890202
 40
3.750592
 50
104.736633
 51
272.818146
  0
ARC
  8
0
  6
CONTINUOUS
 10
23.722563
 20
-11.890202
 40
3.750592
 50
-142.818146
 51
25.263371
  0
ARC
  8
0
  6
CONTINUOUS
 10
57.393780
 20
7.578853
 40
15.000000
 50
180.000000
 51
204.999893
  0
ARC
  8
0
  6
CONTINUOUS
 10
48.398785
 20
-11.890202
 40
3.750592
 50
154.736633
 51
322.818146
  0
ARC
  8
0
  6
CONTINUOUS
 10
36.060665
 20
71.684624
 40
7.001104
 50
0.000000
 51
180.000000
  0
ARC
  8
0
  6
CONTINUOUS
 10
36.060665
 20
71.684624
 40
11.001738
 50
-50.478821
 51
230.478806
  0
LINE
  8
0
  6
CENTER
 10
-10.779375
 20
347.821259
 11
352.577820
 21
347.821259
  0
LINE
  8
0
  6
CONTINUOUS
 10
297.577820
 20
335.821198
 11
299.577820
 21
335.821198
  0
LINE
  8
0
  6
CONTINUOUS
 10
299.577820
 20
359.821259
 11
299.577820
 21
335.821198
  0
LINE
  8
0
  6
CONTINUOUS
 10
297.577820
 20
359.821259
 11
299.577820
 21
359.821259
  0
LINE
  8
0
  6
CONTINUOUS
 10
299.577820
 20
358.821259
 11
339.577820
 21
358.821259
  0
LINE
  8
0
  6
CONTINUOUS
 10
299.577820
 20
336.821198
 11
304.577820
 21
336.821198
  0
LINE
  8
0
  6
CONTINUOUS
 10
339.577820
 20
358.821259
 11
339.577820
 21
336.821198
  0
LINE
  8
0
  6
CONTINUOUS
 10
222.577835
 20
413.821259
 11
222.577835
 21
281.821198
  0
LINE
  8
0
  6
CONTINUOUS
 10
280.577545
 20
269.137390
 11
280.577545
 21
426.505127
  0
LINE
  8
0
  6
CONTINUOUS
 10
292.577820
 20
266.321259
 11
292.577820
 21
429.321198
  0
LINE
  8
0
  6
CONTINUOUS
 10
283.472839
 20
266.139191
 11
292.078125
 21
265.838715
  0
LINE
  8
0
  6
CONTINUOUS
 10
296.577820
 20
421.321198
 11
296.577820
 21
274.321259
  0
LINE
  8
0
  6
CONTINUOUS
 10
296.077820
 20
421.821198
 11
292.577820
 21
421.821198
  0
LINE
  8
0
  6
CONTINUOUS
 10
296.077820
 20
273.821259
 11
292.577820
 21
273.821259
  0
LINE
  8
0
  6
CONTINUOUS
 10
297.577820
 20
377.821259
 11
297.577820
 21
317.821259
  0
LINE
  8
0
  6
CONTINUOUS
 10
296.577820
 20
377.821259
 11
297.577820
 21
377.821259
  0
LINE
  8
0
  6
CONTINUOUS
 10
296.577820
 20
317.821259
 11
297.577820
 21
317.821259
  0
LINE
  8
0
  6
CONTINUOUS
 10
304.577820
 20
337.238251
 11
304.577820
 21
334.321198
  0
LINE
  8
0
  6
CONTINUOUS
 10
339.577820
 20
336.821198
 11
339.577820
 21
334.321198
  0
LINE
  8
0
  6
CONTINUOUS
 10
304.577820
 20
334.321198
 11
339.577820
 21
334.321198
  0
LINE
  8
0
  6
CONTINUOUS
 10
216.577774
 20
411.715820
 11
216.577560
 21
283.962219
  0
LINE
  8
0
  6
CONTINUOUS
 10
213.682541
 20
290.160461
 11
209.077774
 21
290.321259
  0
ARC
  8
0
  6
CONTINUOUS
 10
213.577835
 20
287.162262
 40
3.000000
 50
0.000000
 51
88.000549
  0
LINE
  8
0
  6
CONTINUOUS
 10
213.682541
 20
405.482056
 11
209.077774
 21
405.321198
  0
ARC
  8
0
  6
CONTINUOUS
 10
213.577835
 20
408.480164
 40
3.000000
 50
-87.999634
 51
0.000000
  0
LINE
  8
0
  6
CONTINUOUS
 10
209.077774
 20
405.321198
 11
209.077774
 21
290.321259
  0
LINE
  8
0
  6
CENTER
 10
-9.626250
 20
71.696892
 11
271.150330
 21
71.696892
  0
LINE
  8
0
  6
CONTINUOUS
 10
222.577835
 20
5.696855
 11
222.577606
 21
139.696915
  0
LINE
  8
0
  6
CENTER
 10
347.220428
 20
90.696892
 11
256.842834
 21
90.696892
  0
LINE
  8
0
  6
CONTINUOUS
 10
296.078033
 20
164.696915
 11
292.577820
 21
164.696915
  0
LINE
  8
0
  6
CONTINUOUS
 10
296.078033
 20
16.696896
 11
292.577820
 21
16.696896
  0
LINE
  8
0
  6
CONTINUOUS
 10
297.578033
 20
117.774414
 11
297.578033
 21
63.619289
  0
LINE
  8
0
  6
CONTINUOUS
 10
280.577850
 20
5.012814
 11
280.577637
 21
169.880783
  0
ARC
  8
0
  6
CONTINUOUS
 10
283.577423
 20
-386.780914
 40
530.000000
 50
92.630783
 51
96.609123
  0
ARC
  8
0
  6
CONTINUOUS
 10
283.577820
 20
532.174866
 40
530.000000
 50
263.390900
 51
266.598785
  0
LINE
  8
0
  6
CONTINUOUS
 10
222.577835
 20
35.200016
 11
277.785431
 21
35.681816
  0
LINE
  8
0
  6
CONTINUOUS
 10
222.577835
 20
18.380014
 11
277.293610
 21
16.947615
  0
LINE
  8
0
  6
CONTINUOUS
 10
296.578033
 20
164.196915
 11
296.578033
 21
160.196915
  0
ARC
  8
0
  6
CONTINUOUS
 10
294.577820
 20
63.619289
 40
3.000000
 50
-48.193790
 51
0.000000
  0
ARC
  8
0
  6
CONTINUOUS
 10
294.577820
 20
117.774414
 40
3.000000
 50
0.000000
 51
48.191448
  0
LINE
  8
0
  6
CONTINUOUS
 10
292.577820
 20
172.696915
 11
292.577820
 21
2.196855
  0
LINE
  8
0
  6
CONTINUOUS
 10
296.578033
 20
17.196896
 11
296.578033
 21
160.196915
  0
LINE
  8
0
  6
CONTINUOUS
 10
292.078125
 20
1.714296
 11
252.137207
 21
3.108395
  0
LINE
  8
0
  6
CONTINUOUS
 10
275.708862
 20
143.091721
 11
259.249664
 21
142.660538
  0
ARC
  8
0
  6
CONTINUOUS
 10
275.577820
 20
148.090012
 40
5.000000
 50
-88.499390
 51
0.000000
  0
LINE
  8
0
  6
CONTINUOUS
 10
297.578033
 20
78.696892
 11
299.578033
 21
78.696892
  0
LINE
  8
0
  6
CONTINUOUS
 10
299.578033
 20
102.696892
 11
299.578033
 21
78.696892
  0
LINE
  8
0
  6
CONTINUOUS
 10
297.577820
 20
102.696892
 11
299.578033
 21
102.696892
  0
LINE
  8
0
  6
CONTINUOUS
 10
299.578033
 20
101.696892
 11
339.577820
 21
101.696892
  0
LINE
  8
0
  6
CONTINUOUS
 10
299.577820
 20
79.696892
 11
339.577820
 21
79.696892
  0
LINE
  8
0
  6
CONTINUOUS
 10
339.577820
 20
101.696892
 11
339.577820
 21
79.696892
  0
LINE
  8
0
  6
CONTINUOUS
 10
307.578033
 20
93.696892
 11
339.577820
 21
93.696892
  0
LINE
  8
0
  6
CONTINUOUS
 10
307.578033
 20
87.696892
 11
339.577820
 21
87.696892
  0
ARC
  8
0
  6
CONTINUOUS
 10
307.578033
 20
90.696892
 40
3.000000
 50
90.000000
 51
270.000000
  0
LINE
  8
0
  6
CONTINUOUS
 10
218.525482
 20
5.803010
 11
222.577835
 21
5.696895
  0
LINE
  8
0
  6
CONTINUOUS
 10
216.577835
 20
7.802324
 11
216.577835
 21
137.591476
  0
LINE
  8
0
  6
CONTINUOUS
 10
221.952835
 20
35.200016
 11
217.452835
 21
35.200016
  0
LINE
  8
0
  6
CONTINUOUS
 10
221.952835
 20
18.379995
 11
217.452835
 21
18.379995
  0
LINE
  8
0
  6
CONTINUOUS
 10
209.077835
 20
129.196899
 11
209.077835
 21
14.196895
  0
LINE
  8
0
  6
CONTINUOUS
 10
213.682526
 20
129.357697
 11
209.077835
 21
129.196899
  0
LINE
  8
0
  6
CONTINUOUS
 10
213.682526
 20
14.036095
 11
209.077835
 21
14.196895
  0
LINE
  8
0
  6
CENTER
 10
512.101074
 20
192.816895
 11
512.101074
 21
-15.333105
  0
LINE
  8
0
  6
CENTER
 10
410.051239
 20
71.696892
 11
610.015076
 21
71.696892
  0
LINE
  8
0
  6
CENTER
 10
410.051239
 20
90.696892
 11
610.015076
 21
90.696892
  0
LINE
  8
0
  6
CENTER
 10
433.576843
 20
12.171175
 11
592.045227
 21
170.642654
  0
LINE
  8
0
  6
CENTER
 10
590.780273
 20
12.016135
 11
430.932037
 21
171.867783
  0
CIRCLE
  8
0
  6
CONTINUOUS
 10
577.507874
 20
156.105011
 40
5.500000
  0
CIRCLE
  8
0
  6
CONTINUOUS
 10
446.693848
 20
156.104492
 40
5.500000
  0
CIRCLE
  8
0
  6
CONTINUOUS
 10
446.694458
 20
25.288815
 40
5.500000
  0
CIRCLE
  8
0
  6
CONTINUOUS
 10
577.507874
 20
25.288815
 40
5.500000
  0
ARC
  8
0
  6
CONTINUOUS
 10
512.101074
 20
-356.803101
 40
530.000000
 50
82.751762
 51
97.248253
  0
ARC
  8
0
  6
CONTINUOUS
 10
960.100647
 20
90.696892
 40
530.000000
 50
172.687897
 51
187.450607
  0
ARC
  8
0
  6
CONTINUOUS
 10
64.101059
 20
90.696892
 40
530.000000
 50
-7.435791
 51
7.312139
  0
ARC
  8
0
  6
CONTINUOUS
 10
577.392456
 20
156.561615
 40
12.500000
 50
7.312304
 51
82.751900
  0
ARC
  8
0
  6
CONTINUOUS
 10
446.809662
 20
156.561615
 40
12.500000
 50
97.248528
 51
172.688293
  0
ARC
  8
0
  6
CONTINUOUS
 10
512.101257
 20
241.696930
 40
240.000000
 50
253.359497
 51
286.640594
  0
ARC
  8
0
  6
CONTINUOUS
 10
577.249268
 20
23.724516
 40
12.500000
 50
286.640686
 51
352.564392
  0
ARC
  8
0
  6
CONTINUOUS
 10
446.953064
 20
23.724516
 40
12.500000
 50
188.061401
 51
253.359299
  0
CIRCLE
  8
0
  6
CONTINUOUS
 10
512.101074
 20
90.696892
 40
74.000000
  0
CIRCLE
  8
0
  6
CONTINUOUS
 10
512.101074
 20
90.696892
 40
69.000000
  0
ARC
  8
0
  6
CONTINUOUS
 10
446.694458
 20
25.288815
 40
12.500000
 50
-20.927799
 51
97.746010
  0
ARC
  8
0
  6
CONTINUOUS
 10
577.507874
 20
25.288815
 40
12.500000
 50
82.255692
 51
200.927902
  0
ARC
  8
0
  6
CONTINUOUS
 10
577.507874
 20
156.105011
 40
12.500000
 50
170.626694
 51
277.744293
  0
ARC
  8
0
  6
CONTINUOUS
 10
446.693848
 20
156.104492
 40
12.500000
 50
-97.744598
 51
9.374557
  0
ARC
  8
0
  6
CONTINUOUS
 10
64.101059
 20
90.696892
 40
523.000000
 50
354.675598
 51
355.749115
  0
ARC
  8
0
  6
CONTINUOUS
 10
960.100647
 20
90.696892
 40
523.000000
 50
174.675705
 51
175.749207
  0
ARC
  8
0
  6
CONTINUOUS
 10
512.101257
 20
241.696930
 40
233.000000
 50
257.573792
 51
282.426208
  0
ARC
  8
0
  6
CONTINUOUS
 10
512.101074
 20
-356.803101
 40
523.000000
 50
84.667427
 51
85.866867
  0
ARC
  8
0
  6
CONTINUOUS
 10
960.100647
 20
90.696892
 40
523.000000
 50
184.250793
 51
185.324402
  0
LINE
  8
0
  6
CONTINUOUS
 10
515.101074
 20
156.423492
 11
515.101074
 21
140.435593
  0
LINE
  8
0
  6
CONTINUOUS
 10
509.101044
 20
156.423615
 11
509.101044
 21
140.435593
  0
ARC
  8
0
  6
CONTINUOUS
 10
518.101624
 20
156.423492
 40
3.000000
 50
84.783257
 51
180.000000
  0
ARC
  8
0
  6
CONTINUOUS
 10
506.101044
 20
156.423615
 40
3.000000
 50
0.000000
 51
95.220268
  0
ARC
  8
0
  6
CONTINUOUS
 10
512.101074
 20
90.696892
 40
75.500000
 50
118.067596
 51
151.060104
  0
ARC
  8
0
  6
CONTINUOUS
 10
64.101059
 20
90.696892
 40
523.000000
 50
4.250875
 51
5.324408
  0
ARC
  8
0
  6
CONTINUOUS
 10
512.101074
 20
90.696892
 40
75.500000
 50
28.940559
 51
61.932369
  0
ARC
  8
0
  6
CONTINUOUS
 10
571.643860
 20
141.757111
 40
3.000000
 50
67.770348
 51
209.144806
  0
ARC
  8
0
  6
CONTINUOUS
 10
563.159241
 20
150.242493
 40
3.000000
 50
-141.997299
 51
22.223600
  0
ARC
  8
0
  6
CONTINUOUS
 10
452.556061
 20
141.755692
 40
3.000000
 50
-29.228300
 51
112.222099
  0
ARC
  8
0
  6
CONTINUOUS
 10
461.043243
 20
150.244019
 40
3.000000
 50
157.784302
 51
321.917511
  0
ARC
  8
0
  6
CONTINUOUS
 10
512.101074
 20
-356.803101
 40
523.000000
 50
94.133141
 51
95.332626
  0
ARC
  8
0
  6
CONTINUOUS
 10
512.101074
 20
90.696892
 40
75.500000
 50
208.939804
 51
331.059387
  0
ARC
  8
0
  6
CONTINUOUS
 10
581.673279
 20
52.226597
 40
4.000000
 50
-4.250610
 51
151.059494
  0
ARC
  8
0
  6
CONTINUOUS
 10
442.528442
 20
52.227497
 40
4.000000
 50
28.940149
 51
184.250595
  0
ARC
  8
0
  6
CONTINUOUS
 10
579.866028
 20
42.629215
 40
5.000000
 50
262.255615
 51
354.675812
  0
ARC
  8
0
  6
CONTINUOUS
 10
561.162231
 20
19.037994
 40
5.000000
 50
-77.573517
 51
20.927670
  0
ARC
  8
0
  6
CONTINUOUS
 10
463.040039
 20
19.037994
 40
5.000000
 50
159.072693
 51
257.573486
  0
ARC
  8
0
  6
CONTINUOUS
 10
444.335846
 20
42.629116
 40
5.000000
 50
185.324600
 51
277.746613
  0
CIRCLE
  8
0
  6
CONTINUOUS
 10
512.101074
 20
90.696892
 40
30.000000
  0
ARC
  8
0
  6
CONTINUOUS
 10
512.101074
 20
71.696892
 40
66.000000
 50
28.951040
 51
51.185902
  0
ARC
  8
0
  6
CONTINUOUS
 10
574.228455
 20
106.065292
 40
5.000000
 50
-151.048996
 51
13.894250
  0
ARC
  8
0
  6
CONTINUOUS
 10
449.973663
 20
106.065292
 40
5.000000
 50
166.108307
 51
331.049286
  0
ARC
  8
0
  6
CONTINUOUS
 10
518.100647
 20
140.435593
 40
3.000000
 50
180.000000
 51
265.011505
  0
ARC
  8
0
  6
CONTINUOUS
 10
506.101440
 20
140.435593
 40
3.000000
 50
-85.011467
 51
0.000000
  0
ARC
  8
0
  6
CONTINUOUS
 10
512.101074
 20
71.696892
 40
66.000000
 50
94.988533
 51
118.640198
  0
ARC
  8
0
  6
CONTINUOUS
 10
442.528442
 20
129.166290
 40
4.000000
 50
175.749802
 51
331.060699
  0
ARC
  8
0
  6
CONTINUOUS
 10
474.695465
 20
160.847198
 40
4.000000
 50
-61.931980
 51
94.133713
  0
ARC
  8
0
  6
CONTINUOUS
 10
444.335663
 20
138.764099
 40
5.000000
 50
82.255569
 51
174.676102
  0
ARC
  8
0
  6
CONTINUOUS
 10
463.960236
 20
158.955017
 40
5.000000
 50
95.333099
 51
189.374695
  0
ARC
  8
0
  6
CONTINUOUS
 10
549.506836
 20
160.847198
 40
4.000000
 50
85.867172
 51
241.932693
  0
ARC
  8
0
  6
CONTINUOUS
 10
560.241455
 20
158.955093
 40
5.000000
 50
-9.372955
 51
84.667587
  0
ARC
  8
0
  6
CONTINUOUS
 10
579.866028
 20
138.764618
 40
5.000000
 50
5.324549
 51
97.744431
  0
ARC
  8
0
  6
CONTINUOUS
 10
581.673279
 20
129.167114
 40
4.000000
 50
-151.059494
 51
4.251050
  0
LINE
  8
0
  6
CONTINUOUS
 10
467.747253
 20
139.294495
 11
476.908051
 21
130.133514
  0
LINE
  8
0
  6
CONTINUOUS
 10
463.504456
 20
135.051910
 11
470.973846
 21
127.582298
  0
ARC
  8
0
  6
CONTINUOUS
 10
469.868439
 20
141.415710
 40
3.000000
 50
129.788101
 51
225.000000
  0
ARC
  8
0
  6
CONTINUOUS
 10
461.382660
 20
132.930115
 40
3.000000
 50
44.999950
 51
140.220306
  0
ARC
  8
0
  6
CONTINUOUS
 10
468.852051
 20
125.460518
 40
3.000000
 50
-51.184841
 51
44.999950
  0
ARC
  8
0
  6
CONTINUOUS
 10
479.029236
 20
132.254700
 40
3.000000
 50
225.000000
 51
298.640411
  0
LINE
  8
0
  6
CONTINUOUS
 10
560.697632
 20
135.051819
 11
553.228271
 21
127.582214
  0
LINE
  8
0
  6
CONTINUOUS
 10
556.455078
 20
139.294495
 11
547.294250
 21
130.133514
  0
ARC
  8
0
  6
CONTINUOUS
 10
554.333862
 20
141.415619
 40
3.000000
 50
-44.999111
 51
50.216091
  0
ARC
  8
0
  6
CONTINUOUS
 10
545.173035
 20
132.254593
 40
3.000000
 50
241.359894
 51
315.000885
  0
ARC
  8
0
  6
CONTINUOUS
 10
555.349854
 20
125.460594
 40
3.000000
 50
135.000900
 51
231.186096
  0
ARC
  8
0
  6
CONTINUOUS
 10
562.819275
 20
132.930191
 40
3.000000
 50
39.783890
 51
135.000900
  0
ARC
  8
0
  6
CONTINUOUS
 10
512.101074
 20
71.696892
 40
66.000000
 50
61.359940
 51
85.011787
  0
ARC
  8
0
  6
CONTINUOUS
 10
512.101074
 20
71.696892
 40
66.000000
 50
128.814407
 51
151.048904
  0
CIRCLE
  8
0
  6
CENTER
 10
512.101074
 20
90.696892
 40
92.500000
  0
ARC
  8
0
  6
CONTINUOUS
 10
512.101074
 20
90.696892
 40
11.000000
 50
-164.173401
 51
164.173401
  0
LINE
  8
0
  6
CONTINUOUS
 10
504.601044
 20
93.696892
 11
504.601044
 21
87.696892
  0
LINE
  8
0
  6
CONTINUOUS
 10
498.601044
 20
93.696892
 11
498.601044
 21
87.696892
  0
LINE
  8
0
  6
CONTINUOUS
 10
498.601044
 20
93.696892
 11
504.601044
 21
93.696892
  0
LINE
  8
0
  6
CONTINUOUS
 10
498.601044
 20
87.696892
 11
504.601044
 21
87.696892
  0
LINE
  8
0
  6
CENTER
 10
297.976257
 20
156.104492
 11
276.255768
 21
156.104492
  0
LINE
  8
0
  6
CENTER
 10
297.976257
 20
25.289295
 11
276.255768
 21
25.289295
  0
LINE
  8
0
  6
CONTINUOUS
 10
296.578033
 20
164.196915
 11
296.078033
 21
164.696915
  0
LINE
  8
0
  6
CONTINUOUS
 10
296.078033
 20
16.696896
 11
296.578033
 21
17.196896
  0
LINE
  8
0
  6
CONTINUOUS
 10
292.078125
 20
1.714296
 11
292.577820
 21
2.196855
  0
LINE
  8
0
  6
CONTINUOUS
 10
296.077820
 20
273.821259
 11
296.577820
 21
274.321259
  0
LINE
  8
0
  6
CONTINUOUS
 10
296.077820
 20
421.821198
 11
296.577820
 21
421.321198
  0
LINE
  8
0
  6
CONTINUOUS
 10
292.078125
 20
173.179459
 11
283.472931
 21
172.878967
  0
ARC
  8
0
  6
CONTINUOUS
 10
283.577637
 20
169.880798
 40
3.000000
 50
92.000000
 51
180.000000
  0
LINE
  8
0
  6
CONTINUOUS
 10
292.078125
 20
173.179459
 11
292.577820
 21
172.696915
  0
ARC
  8
0
  6
CONTINUOUS
 10
283.577850
 20
5.012818
 40
3.000000
 50
180.000000
 51
268.000946
  0
LINE
  8
0
  6
CONTINUOUS
 10
292.078125
 20
265.838715
 11
292.577820
 21
266.321259
  0
ARC
  8
0
  6
CONTINUOUS
 10
283.577545
 20
269.137390
 40
3.000000
 50
180.000000
 51
268.000000
  0
LINE
  8
0
  6
CONTINUOUS
 10
283.472839
 20
429.503296
 11
292.078125
 21
429.803802
  0
LINE
  8
0
  6
CONTINUOUS
 10
292.078125
 20
429.803802
 11
292.577820
 21
429.321259
  0
ARC
  8
0
  6
CONTINUOUS
 10
283.577545
 20
426.505127
 40
3.000000
 50
92.000000
 51
180.000000
  0
LINE
  8
0
  6
CENTER
 10
297.976257
 20
25.288815
 11
276.255768
 21
25.288815
  0
LINE
  8
0
  6
CENTER
 10
297.976257
 20
413.228851
 11
276.255768
 21
413.228851
  0
LINE
  8
0
  6
CENTER
 10
297.976257
 20
282.413635
 11
276.255768
 21
282.413635
  0
ARC
  8
0
  6
CONTINUOUS
 10
213.577835
 20
11.037923
 40
3.000000
 50
0.000000
 51
88.000000
  0
ARC
  8
0
  6
CONTINUOUS
 10
213.577835
 20
132.355865
 40
3.000000
 50
-88.000000
 51
0.000000
  0
ARC
  8
0
  6
CONTINUOUS
 10
283.577423
 20
-112.656570
 40
530.000000
 50
92.630783
 51
96.609123
  0
LINE
  8
0
  6
CONTINUOUS
 10
275.708862
 20
417.216064
 11
259.249664
 21
416.784882
  0
ARC
  8
0
  6
CONTINUOUS
 10
275.577820
 20
422.214355
 40
5.000000
 50
-88.499390
 51
0.000000
  0
ARC
  8
0
  6
CONTINUOUS
 10
283.577423
 20
808.299072
 40
530.000000
 50
-96.609123
 51
-92.630783
  0
LINE
  8
0
  6
CONTINUOUS
 10
275.708862
 20
278.426453
 11
259.249664
 21
278.857635
  0
ARC
  8
0
  6
CONTINUOUS
 10
275.577820
 20
273.428162
 40
5.000000
 50
0.000000
 51
88.499390
  0
LINE
  8
0
  6
CONTINUOUS
 10
218.525421
 20
413.715149
 11
222.577835
 21
413.821259
  0
ARC
  8
0
  6
CONTINUOUS
 10
218.577774
 20
411.715820
 40
2.000000
 50
91.500000
 51
180.000000
  0
LINE
  8
0
  6
CONTINUOUS
 10
218.525421
 20
281.927368
 11
222.577835
 21
281.821259
  0
ARC
  8
0
  6
CONTINUOUS
 10
218.577774
 20
283.926666
 40
2.000000
 50
-180.000000
 51
-91.500000
  0
LINE
  8
0
  6
CONTINUOUS
 10
218.525482
 20
139.590790
 11
222.577835
 21
139.696899
  0
ARC
  8
0
  6
CONTINUOUS
 10
218.577835
 20
137.591476
 40
2.000000
 50
91.500000
 51
180.000000
  0
ARC
  8
0
  6
CONTINUOUS
 10
218.577835
 20
7.802324
 40
2.000000
 50
180.000000
 51
268.500000
  0
LINE
  8
0
  6
CONTINUOUS
 10
304.577820
 20
337.238251
 11
339.577820
 21
337.238251
  0
LINE
  8
0
  6
DASHED
 10
292.577820
 20
418.728851
 11
280.577789
 21
418.728851
  0
LINE
  8
0
  6
DASHED
 10
292.577820
 20
407.728851
 11
280.577789
 21
407.728851
  0
LINE
  8
0
  6
DASHED
 10
292.577820
 20
287.913635
 11
280.577789
 21
287.913635
  0
LINE
  8
0
  6
DASHED
 10
292.577820
 20
276.913635
 11
280.577789
 21
276.913635
  0
LINE
  8
0
  6
DASHED
 10
292.577820
 20
161.604492
 11
280.577789
 21
161.604492
  0
LINE
  8
0
  6
DASHED
 10
292.577820
 20
150.604492
 11
280.577789
 21
150.604492
  0
LINE
  8
0
  6
DASHED
 10
292.577820
 20
30.789295
 11
280.577789
 21
30.789295
  0
LINE
  8
0
  6
DASHED
 10
292.577820
 20
19.789295
 11
280.577789
 21
19.789295
  0
LINE
  8
0
  6
CONTINUOUS
 10
116.077652
 20
405.321320
 11
116.077774
 21
290.321259
  0
LINE
  8
0
  6
CONTINUOUS
 10
11.077811
 20
405.321259
 11
116.077774
 21
405.321259
  0
LINE
  8
0
  6
CONTINUOUS
 10
11.077811
 20
290.321259
 11
19.077810
 21
290.321259
  0
LINE
  8
0
  6
CONTINUOUS
 10
11.077811
 20
405.321259
 11
11.077811
 21
290.321259
  0
LINE
  8
0
  6
CONTINUOUS
 10
19.077810
 20
405.321259
 11
19.077810
 21
373.821136
  0
LINE
  8
0
  6
CONTINUOUS
 10
19.077810
 20
373.821136
 11
108.077827
 21
373.821136
  0
LINE
  8
0
  6
CONTINUOUS
 10
19.077810
 20
381.591797
 11
108.077827
 21
381.591797
  0
LINE
  8
0
  6
CONTINUOUS
 10
20.077810
 20
384.871216
 11
107.077827
 21
384.871216
  0
LINE
  8
0
  6
CONTINUOUS
 10
19.077810
 20
389.686279
 11
108.077827
 21
389.686279
  0
LINE
  8
0
  6
CONTINUOUS
 10
20.077810
 20
391.674133
 11
107.077827
 21
391.674133
  0
LINE
  8
0
  6
CONTINUOUS
 10
19.077810
 20
395.716858
 11
108.077827
 21
395.716858
  0
LINE
  8
0
  6
CONTINUOUS
 10
19.077810
 20
400.247772
 11
108.077827
 21
400.247772
  0
LINE
  8
0
  6
CONTINUOUS
 10
19.077810
 20
403.124878
 11
108.077827
 21
403.124878
  0
LINE
  8
0
  6
CONTINUOUS
 10
19.077810
 20
404.780212
 11
108.077827
 21
404.780212
  0
LINE
  8
0
  6
CONTINUOUS
 10
108.077827
 20
405.321259
 11
108.077827
 21
373.821136
  0
LINE
  8
0
  6
CONTINUOUS
 10
19.077810
 20
290.321259
 11
19.077810
 21
321.821381
  0
LINE
  8
0
  6
CONTINUOUS
 10
19.077810
 20
321.821381
 11
108.077827
 21
321.821381
  0
LINE
  8
0
  6
CONTINUOUS
 10
19.077810
 20
314.050751
 11
108.077827
 21
314.050751
  0
LINE
  8
0
  6
CONTINUOUS
 10
20.077810
 20
310.771301
 11
107.077827
 21
310.771301
  0
LINE
  8
0
  6
CONTINUOUS
 10
19.077810
 20
305.956238
 11
108.077827
 21
305.956238
  0
LINE
  8
0
  6
CONTINUOUS
 10
20.077810
 20
303.968384
 11
107.077827
 21
303.968384
  0
LINE
  8
0
  6
CONTINUOUS
 10
19.077810
 20
299.925690
 11
108.077827
 21
299.925690
  0
LINE
  8
0
  6
CONTINUOUS
 10
86.077774
 20
295.394775
 11
108.077827
 21
295.394775
  0
LINE
  8
0
  6
CONTINUOUS
 10
86.077774
 20
292.517639
 11
108.077827
 21
292.517639
  0
LINE
  8
0
  6
CONTINUOUS
 10
86.577774
 20
290.862305
 11
108.077827
 21
290.862305
  0
LINE
  8
0
  6
CONTINUOUS
 10
108.077827
 20
290.321259
 11
108.077827
 21
321.821381
  0
LINE
  8
0
  6
CONTINUOUS
 10
20.077810
 20
291.821259
 11
85.077827
 21
291.821259
  0
LINE
  8
0
  6
CONTINUOUS
 10
86.577774
 20
290.321259
 11
116.077774
 21
290.321259
  0
LINE
  8
0
  6
CONTINUOUS
 10
86.077774
 20
290.821289
 11
86.077774
 21
297.019897
  0
ARC
  8
0
  6
CONTINUOUS
 10
86.577774
 20
290.821289
 40
0.500000
 50
-180.000000
 51
-90.000000
  0
ARC
  8
0
  6
CONTINUOUS
 10
86.577774
 20
291.362335
 40
0.500000
 50
-180.000000
 51
-90.000000
  0
LINE
  8
0
  6
CONTINUOUS
 10
19.077810
 20
297.019897
 11
86.077774
 21
297.019897
  0
ARC
  8
0
  6
CONTINUOUS
 10
85.077827
 20
292.821259
 40
1.000000
 50
-90.000000
 51
0.000000
  0
ARC
  8
0
  6
CONTINUOUS
 10
20.077810
 20
292.821259
 40
1.000000
 50
-180.000000
 51
-90.000000
  0
LINE
  8
0
  6
CONTINUOUS
 10
-0.422189
 20
368.981476
 11
-0.422189
 21
326.661041
  0
LINE
  8
0
  6
CONTINUOUS
 10
7.747811
 20
290.571259
 11
11.077811
 21
290.571259
  0
LINE
  8
0
  6
CONTINUOUS
 10
7.747811
 20
405.071198
 11
11.077811
 21
405.071198
  0
LINE
  8
0
  6
CONTINUOUS
 10
0.247611
 20
371.481476
 11
1.510811
 21
373.669281
  0
ARC
  8
0
  6
CONTINUOUS
 10
203.517776
 20
380.091217
 40
199.999985
 50
-186.406006
 51
-180.287292
  0
ARC
  8
0
  6
CONTINUOUS
 10
4.577811
 20
368.981476
 40
5.000000
 50
-210.000305
 51
-180.000000
  0
ARC
  8
0
  6
CONTINUOUS
 10
7.747811
 20
402.071289
 40
3.000000
 50
-270.000000
 51
-186.406006
  0
LINE
  8
0
  6
CONTINUOUS
 10
5.084011
 20
401.508820
 11
5.084011
 21
294.696198
  0
LINE
  8
0
  6
CONTINUOUS
 10
0.247611
 20
324.161041
 11
1.511011
 21
321.973022
  0
ARC
  8
0
  6
CONTINUOUS
 10
203.517776
 20
315.551300
 40
199.999985
 50
-179.712601
 51
-173.593994
  0
ARC
  8
0
  6
CONTINUOUS
 10
4.577811
 20
326.661041
 40
5.000000
 50
-180.000000
 51
-149.999695
  0
ARC
  8
0
  6
CONTINUOUS
 10
7.747811
 20
293.571198
 40
3.000000
 50
-173.593994
 51
-90.000000
  0
ARC
  8
0
  6
CONTINUOUS
 10
-11.479589
 20
381.169464
 40
15.000000
 50
-30.000500
 51
-0.287300
  0
ARC
  8
0
  6
CONTINUOUS
 10
-11.479589
 20
314.473022
 40
15.000000
 50
-359.713104
 51
-329.999908
  0
LINE
  8
0
  6
CONTINUOUS
 10
204.077774
 20
405.321259
 11
209.077774
 21
405.321259
  0
LINE
  8
0
  6
CONTINUOUS
 10
204.077774
 20
290.321259
 11
209.077774
 21
290.321259
  0
LINE
  8
0
  6
CONTINUOUS
 10
204.077774
 20
405.321259
 11
204.077774
 21
290.321259
  0
LINE
  8
0
  6
CONTINUOUS
 10
196.077774
 20
292.571259
 11
196.077774
 21
403.071259
  0
LINE
  8
0
  6
CONTINUOUS
 10
133.077774
 20
290.571259
 11
133.077774
 21
405.071259
  0
LINE
  8
0
  6
CONTINUOUS
 10
141.077774
 20
292.571259
 11
141.077774
 21
403.071259
  0
LINE
  8
0
  6
CONTINUOUS
 10
116.077774
 20
405.071259
 11
139.077774
 21
405.071259
  0
LINE
  8
0
  6
CONTINUOUS
 10
116.077774
 20
290.571259
 11
124.577896
 21
290.571259
  0
LINE
  8
0
  6
CONTINUOUS
 10
198.077774
 20
290.571259
 11
204.077774
 21
290.571259
  0
LINE
  8
0
  6
CONTINUOUS
 10
198.077774
 20
405.071259
 11
204.077774
 21
405.071259
  0
ARC
  8
0
  6
CONTINUOUS
 10
139.077774
 20
403.071259
 40
2.000000
 50
0.000000
 51
90.000000
  0
ARC
  8
0
  6
CONTINUOUS
 10
198.077774
 20
403.071259
 40
2.000000
 50
90.000000
 51
180.000000
  0
LINE
  8
0
  6
CONTINUOUS
 10
142.674637
 20
402.821259
 11
194.480896
 21
402.821259
  0
ARC
  8
0
  6
CONTINUOUS
 10
194.480896
 20
404.821259
 40
2.000000
 50
270.000000
 51
334.055511
  0
ARC
  8
0
  6
CONTINUOUS
 10
142.674637
 20
404.821259
 40
2.000000
 50
205.944473
 51
270.000000
  0
ARC
  8
0
  6
CONTINUOUS
 10
139.077774
 20
292.571259
 40
2.000000
 50
-90.000000
 51
0.000000
  0
ARC
  8
0
  6
CONTINUOUS
 10
198.077774
 20
292.571259
 40
2.000000
 50
-180.000000
 51
-90.000000
  0
LINE
  8
0
  6
CONTINUOUS
 10
142.674637
 20
292.821259
 11
174.577896
 21
292.821259
  0
ARC
  8
0
  6
CONTINUOUS
 10
194.480896
 20
290.821259
 40
2.000000
 50
-334.055511
 51
-270.000000
  0
ARC
  8
0
  6
CONTINUOUS
 10
142.674637
 20
290.821259
 40
2.000000
 50
-270.000000
 51
-205.944473
  0
LINE
  8
0
  6
CONTINUOUS
 10
142.674637
 20
314.821259
 11
194.480896
 21
314.821259
  0
LINE
  8
0
  6
CONTINUOUS
 10
142.674637
 20
380.821259
 11
194.480896
 21
380.821259
  0
LINE
  8
0
  6
CONTINUOUS
 10
172.077774
 20
293.321259
 11
180.077774
 21
293.321259
  0
LINE
  8
0
  6
CONTINUOUS
 10
180.077774
 20
295.850098
 11
180.077774
 21
293.321259
  0
LINE
  8
0
  6
CONTINUOUS
 10
172.077774
 20
295.850098
 11
172.077774
 21
293.321259
  0
LINE
  8
0
  6
CONTINUOUS
 10
125.388885
 20
292.957825
 11
124.576080
 21
292.878540
  0
LINE
  8
0
  6
CONTINUOUS
 10
124.576714
 20
292.876892
 11
123.956291
 21
292.641571
  0
LINE
  8
0
  6
CONTINUOUS
 10
123.941612
 20
292.658325
 11
123.708023
 21
292.453949
  0
LINE
  8
0
  6
CONTINUOUS
 10
123.719315
 20
292.441040
 11
123.740814
 21
292.183075
  0
LINE
  8
0
  6
CONTINUOUS
 10
123.774002
 20
292.185822
 11
123.938065
 21
292.040009
  0
LINE
  8
0
  6
CONTINUOUS
 10
123.931458
 20
292.002563
 11
124.339104
 21
291.930634
  0
LINE
  8
0
  6
CONTINUOUS
 10
124.341911
 20
291.953064
 11
124.577896
 21
291.923553
  0
LINE
  8
0
  6
CONTINUOUS
 10
126.727127
 20
292.987915
 11
127.109940
 21
292.896759
  0
LINE
  8
0
  6
CONTINUOUS
 10
127.109940
 20
292.896759
 11
127.638580
 21
292.805634
  0
LINE
  8
0
  6
CONTINUOUS
 10
127.638580
 20
292.805634
 11
127.984940
 21
292.732697
  0
LINE
  8
0
  6
CONTINUOUS
 10
127.984940
 20
292.732697
 11
128.167236
 21
292.659790
  0
LINE
  8
0
  6
CONTINUOUS
 10
128.198654
 20
292.689972
 11
128.349518
 21
292.513947
  0
LINE
  8
0
  6
CONTINUOUS
 10
128.349518
 20
292.495728
 11
128.435196
 21
292.324371
  0
LINE
  8
0
  6
CONTINUOUS
 10
128.385986
 20
292.276978
 11
128.240143
 21
292.131134
  0
LINE
  8
0
  6
CONTINUOUS
 10
128.228409
 20
292.097168
 11
127.729729
 21
291.967072
  0
LINE
  8
0
  6
CONTINUOUS
 10
127.720947
 20
291.951050
 11
127.577896
 21
291.944214
  0
LINE
  8
0
  6
CONTINUOUS
 10
125.388885
 20
292.957825
 11
125.669838
 21
292.965118
  0
LINE
  8
0
  6
CONTINUOUS
 10
125.669838
 20
292.965118
 11
126.253166
 21
292.974243
  0
LINE
  8
0
  6
CONTINUOUS
 10
126.253166
 20
292.974243
 11
126.727127
 21
292.987915
  0
ARC
  8
0
  6
CONTINUOUS
 10
176.077774
 20
286.684967
 40
10.000000
 50
66.421822
 51
113.578178
  0
LINE
  8
0
  6
CONTINUOUS
 10
133.077835
 20
128.946899
 11
133.077835
 21
14.446895
  0
LINE
  8
0
  6
CONTINUOUS
 10
133.077835
 20
128.946899
 11
116.077835
 21
128.946899
  0
LINE
  8
0
  6
CONTINUOUS
 10
133.077835
 20
14.446895
 11
116.077835
 21
14.446895
  0
LINE
  8
0
  6
CONTINUOUS
 10
126.077835
 20
85.696892
 11
126.077835
 21
59.946896
  0
LINE
  8
0
  6
CONTINUOUS
 10
127.577835
 20
85.696892
 11
127.577835
 21
59.009396
  0
LINE
  8
0
  6
CONTINUOUS
 10
124.577835
 20
85.696892
 11
124.577835
 21
59.406902
  0
LINE
  8
0
  6
CONTINUOUS
 10
124.577835
 20
59.406902
 11
126.052834
 21
61.103146
  0
LINE
  8
0
  6
CONTINUOUS
 10
126.082253
 20
59.954250
 11
127.598793
 21
59.044323
  0
ARC
  8
0
  6
CONTINUOUS
 10
126.827835
 20
85.696892
 40
0.750000
 50
0.000000
 51
180.000000
  0
ARC
  8
0
  6
CONTINUOUS
 10
125.327835
 20
85.696892
 40
0.750000
 50
0.000000
 51
180.000000
  0
ARC
  8
0
  6
CONTINUOUS
 10
126.077835
 20
85.696892
 40
3.000000
 50
-59.999939
 51
239.999893
  0
LINE
  8
0
  6
CONTINUOUS
 10
116.077835
 20
128.946899
 11
116.077835
 21
14.446895
  0
LINE
  8
0
  6
CONTINUOUS
 10
204.077835
 20
129.196899
 11
209.077835
 21
129.196899
  0
LINE
  8
0
  6
CONTINUOUS
 10
204.077835
 20
14.196895
 11
209.077835
 21
14.196895
  0
LINE
  8
0
  6
CONTINUOUS
 10
-0.422167
 20
50.536674
 11
-0.422167
 21
92.857117
  0
LINE
  8
0
  6
CONTINUOUS
 10
7.747893
 20
128.946899
 11
11.077833
 21
128.946899
  0
LINE
  8
0
  6
CONTINUOUS
 10
7.747893
 20
14.446935
 11
11.077833
 21
14.446935
  0
LINE
  8
0
  6
CONTINUOUS
 10
0.247693
 20
48.036674
 11
1.510847
 21
45.848873
  0
ARC
  8
0
  6
CONTINUOUS
 10
203.517838
 20
39.426914
 40
199.999985
 50
180.287292
 51
186.406006
  0
ARC
  8
0
  6
CONTINUOUS
 10
4.577817
 20
50.536674
 40
5.000000
 50
180.000000
 51
210.000305
  0
ARC
  8
0
  6
CONTINUOUS
 10
7.747877
 20
17.446896
 40
3.000000
 50
186.406006
 51
270.000000
  0
LINE
  8
0
  6
CONTINUOUS
 10
5.083967
 20
18.009356
 11
5.083967
 21
124.821999
  0
LINE
  8
0
  6
CONTINUOUS
 10
0.247693
 20
95.357117
 11
1.510953
 21
97.545135
  0
ARC
  8
0
  6
CONTINUOUS
 10
203.517838
 20
103.966873
 40
199.999985
 50
173.593994
 51
179.712601
  0
ARC
  8
0
  6
CONTINUOUS
 10
4.577817
 20
92.857117
 40
5.000000
 50
-210.000305
 51
-180.000000
  0
ARC
  8
0
  6
CONTINUOUS
 10
7.747877
 20
125.946938
 40
3.000000
 50
-270.000000
 51
-186.406006
  0
ARC
  8
0
  6
CONTINUOUS
 10
-11.479449
 20
38.348694
 40
15.000000
 50
0.287328
 51
30.000481
  0
ARC
  8
0
  6
CONTINUOUS
 10
-11.479449
 20
105.045135
 40
15.000000
 50
329.999908
 51
359.713104
  0
LINE
  8
0
  6
CONTINUOUS
 10
11.077833
 20
129.196899
 11
11.077833
 21
14.196895
  0
LINE
  8
0
  6
CONTINUOUS
 10
11.077833
 20
129.196899
 11
116.077835
 21
129.196899
  0
LINE
  8
0
  6
CONTINUOUS
 10
11.077833
 20
14.196895
 11
29.727568
 21
14.196895
  0
LINE
  8
0
  6
CONTINUOUS
 10
19.077833
 20
122.982918
 11
19.077833
 21
118.696892
  0
LINE
  8
0
  6
CONTINUOUS
 10
108.077835
 20
122.982918
 11
108.077835
 21
118.696892
  0
LINE
  8
0
  6
CONTINUOUS
 10
84.077835
 20
98.696892
 11
19.077833
 21
98.696892
  0
LINE
  8
0
  6
CONTINUOUS
 10
84.077835
 20
44.696896
 11
42.393780
 21
44.696896
  0
LINE
  8
0
  6
CONTINUOUS
 10
86.077835
 20
46.696896
 11
86.077835
 21
96.696892
  0
LINE
  8
0
  6
CONTINUOUS
 10
86.077835
 20
78.496880
 11
108.077835
 21
78.496880
  0
LINE
  8
0
  6
CONTINUOUS
 10
86.077835
 20
64.896904
 11
108.077835
 21
64.896904
  0
LINE
  8
0
  6
CONTINUOUS
 10
86.077835
 20
80.496880
 11
108.077835
 21
80.496880
  0
LINE
  8
0
  6
CONTINUOUS
 10
86.077835
 20
62.896908
 11
108.077835
 21
62.896908
  0
LINE
  8
0
  6
CONTINUOUS
 10
86.077835
 20
86.296898
 11
108.077835
 21
86.296898
  0
LINE
  8
0
  6
CONTINUOUS
 10
86.077835
 20
88.296898
 11
108.077835
 21
88.296898
  0
LINE
  8
0
  6
CONTINUOUS
 10
86.077835
 20
57.096889
 11
108.077835
 21
57.096889
  0
LINE
  8
0
  6
CONTINUOUS
 10
86.077835
 20
55.096889
 11
108.077835
 21
55.096889
  0
LINE
  8
0
  6
CONTINUOUS
 10
86.077835
 20
94.096893
 11
108.077835
 21
94.096893
  0
LINE
  8
0
  6
CONTINUOUS
 10
86.077835
 20
49.296894
 11
108.077835
 21
49.296894
  0
LINE
  8
0
  6
CONTINUOUS
 10
86.077835
 20
96.096893
 11
108.077835
 21
96.096893
  0
LINE
  8
0
  6
CONTINUOUS
 10
86.077835
 20
47.296894
 11
108.077835
 21
47.296894
  0
LINE
  8
0
  6
CONTINUOUS
 10
19.077833
 20
102.196892
 11
108.077835
 21
102.196892
  0
LINE
  8
0
  6
CONTINUOUS
 10
19.077833
 20
41.196896
 11
29.727568
 21
41.196896
  0
LINE
  8
0
  6
CONTINUOUS
 10
19.077833
 20
104.196892
 11
108.077835
 21
104.196892
  0
LINE
  8
0
  6
CONTINUOUS
 10
19.077833
 20
39.196896
 11
29.727568
 21
39.196896
  0
LINE
  8
0
  6
CONTINUOUS
 10
19.077833
 20
109.696892
 11
108.077835
 21
109.696892
  0
LINE
  8
0
  6
CONTINUOUS
 10
19.077833
 20
33.696896
 11
29.727568
 21
33.696896
  0
LINE
  8
0
  6
CONTINUOUS
 10
19.077833
 20
111.696892
 11
108.077835
 21
111.696892
  0
LINE
  8
0
  6
CONTINUOUS
 10
19.077833
 20
31.696896
 11
29.727568
 21
31.696896
  0
LINE
  8
0
  6
CONTINUOUS
 10
19.077833
 20
116.696892
 11
108.077835
 21
116.696892
  0
LINE
  8
0
  6
CONTINUOUS
 10
19.077833
 20
26.696896
 11
29.727568
 21
26.696896
  0
LINE
  8
0
  6
CONTINUOUS
 10
19.077833
 20
118.696892
 11
108.077835
 21
118.696892
  0
LINE
  8
0
  6
CONTINUOUS
 10
19.077833
 20
24.696896
 11
29.727568
 21
24.696896
  0
LINE
  8
0
  6
CONTINUOUS
 10
19.077833
 20
122.982918
 11
108.077835
 21
122.982918
  0
LINE
  8
0
  6
CONTINUOUS
 10
19.077833
 20
20.410875
 11
29.727568
 21
20.410875
  0
LINE
  8
0
  6
CONTINUOUS
 10
19.077833
 20
20.410875
 11
19.077833
 21
24.696896
  0
LINE
  8
0
  6
CONTINUOUS
 10
19.077833
 20
116.696892
 11
19.077833
 21
111.696892
  0
LINE
  8
0
  6
CONTINUOUS
 10
19.077833
 20
109.696892
 11
19.077833
 21
104.196892
  0
LINE
  8
0
  6
CONTINUOUS
 10
19.077833
 20
102.196892
 11
19.077833
 21
98.696892
  0
LINE
  8
0
  6
CONTINUOUS
 10
19.077833
 20
39.196896
 11
19.077833
 21
33.696896
  0
LINE
  8
0
  6
CONTINUOUS
 10
19.077833
 20
31.696896
 11
19.077833
 21
26.696896
  0
LINE
  8
0
  6
CONTINUOUS
 10
108.077835
 20
20.410875
 11
108.077835
 21
24.696896
  0
LINE
  8
0
  6
CONTINUOUS
 10
108.077835
 20
26.696896
 11
108.077835
 21
31.696896
  0
LINE
  8
0
  6
CONTINUOUS
 10
108.077835
 20
33.696896
 11
108.077835
 21
39.196896
  0
LINE
  8
0
  6
CONTINUOUS
 10
108.077835
 20
41.196896
 11
108.077835
 21
47.296894
  0
LINE
  8
0
  6
CONTINUOUS
 10
108.077835
 20
49.296894
 11
108.077835
 21
55.096889
  0
LINE
  8
0
  6
CONTINUOUS
 10
108.077835
 20
57.096889
 11
108.077835
 21
62.896908
  0
LINE
  8
0
  6
CONTINUOUS
 10
86.077835
 20
72.696892
 11
108.077835
 21
72.696892
  0
LINE
  8
0
  6
CONTINUOUS
 10
86.077835
 20
70.696892
 11
108.077835
 21
70.696892
  0
LINE
  8
0
  6
CONTINUOUS
 10
108.077835
 20
64.896904
 11
108.077835
 21
70.696892
  0
LINE
  8
0
  6
CONTINUOUS
 10
108.077835
 20
72.696892
 11
108.077835
 21
78.496910
  0
LINE
  8
0
  6
CONTINUOUS
 10
108.077835
 20
80.496880
 11
108.077835
 21
86.296898
  0
LINE
  8
0
  6
CONTINUOUS
 10
108.077835
 20
88.296898
 11
108.077835
 21
94.096893
  0
LINE
  8
0
  6
CONTINUOUS
 10
108.077835
 20
96.096893
 11
108.077835
 21
102.196892
  0
LINE
  8
0
  6
CONTINUOUS
 10
108.077835
 20
104.196892
 11
108.077835
 21
109.696892
  0
LINE
  8
0
  6
CONTINUOUS
 10
108.077835
 20
111.696892
 11
108.077835
 21
116.696892
  0
ARC
  8
0
  6
CONTINUOUS
 10
84.077835
 20
96.696892
 40
2.000000
 50
0.000000
 51
90.000000
  0
ARC
  8
0
  6
CONTINUOUS
 10
84.077835
 20
46.696896
 40
2.000000
 50
-90.000000
 51
0.000000
  0
ARC
  8
0
  6
CONTINUOUS
 10
21.077833
 20
96.696892
 40
2.000000
 50
90.000000
 51
180.000000
  0
ARC
  8
0
  6
CONTINUOUS
 10
21.077833
 20
46.696896
 40
2.000000
 50
180.000000
 51
270.000000
  0
LINE
  8
0
  6
CONTINUOUS
 10
19.077833
 20
41.196896
 11
19.077833
 21
44.696896
  0
LINE
  8
0
  6
CONTINUOUS
 10
19.077826
 20
96.696938
 11
19.077826
 21
46.696896
  0
LINE
  8
0
  6
CONTINUOUS
 10
19.077833
 20
44.696896
 11
29.727568
 21
44.696896
  0
LINE
  8
0
  6
CONTINUOUS
 10
108.077835
 20
41.196896
 11
42.393780
 21
41.196896
  0
LINE
  8
0
  6
CONTINUOUS
 10
108.077835
 20
39.196896
 11
42.393780
 21
39.196896
  0
LINE
  8
0
  6
CONTINUOUS
 10
108.077835
 20
33.696896
 11
42.393780
 21
33.696896
  0
LINE
  8
0
  6
CONTINUOUS
 10
108.077835
 20
31.696896
 11
42.393780
 21
31.696896
  0
LINE
  8
0
  6
CONTINUOUS
 10
108.077835
 20
26.696896
 11
42.393780
 21
26.696896
  0
LINE
  8
0
  6
CONTINUOUS
 10
108.077835
 20
24.696896
 11
42.393780
 21
24.696896
  0
LINE
  8
0
  6
CONTINUOUS
 10
108.077835
 20
20.410875
 11
42.393780
 21
20.410875
  0
LINE
  8
0
  6
CONTINUOUS
 10
116.077835
 20
14.196895
 11
42.393780
 21
14.196895
  0
LINE
  8
0
  6
CONTINUOUS
 10
204.077835
 20
129.196899
 11
204.077835
 21
14.196895
  0
LINE
  8
0
  6
CONTINUOUS
 10
124.577896
 20
286.613129
 11
126.077896
 21
287.041687
  0
LINE
  8
0
  6
CONTINUOUS
 10
126.077896
 20
286.055145
 11
127.577896
 21
286.571533
  0
LINE
  8
0
  6
CONTINUOUS
 10
124.577896
 20
292.757294
 11
124.577896
 21
286.613129
  0
LINE
  8
0
  6
CONTINUOUS
 10
126.077896
 20
292.864868
 11
126.077896
 21
286.055145
  0
LINE
  8
0
  6
CONTINUOUS
 10
127.577896
 20
292.703491
 11
127.577896
 21
286.571533
  0
LINE
  8
0
  6
CONTINUOUS
 10
174.577896
 20
293.321259
 11
174.577896
 21
288.370239
  0
LINE
  8
0
  6
CONTINUOUS
 10
174.577896
 20
288.370239
 11
176.077896
 21
288.798798
  0
LINE
  8
0
  6
CONTINUOUS
 10
176.077896
 20
293.321259
 11
176.077896
 21
287.812256
  0
LINE
  8
0
  6
CONTINUOUS
 10
176.077896
 20
287.812256
 11
177.577896
 21
288.328644
  0
LINE
  8
0
  6
CONTINUOUS
 10
177.577896
 20
293.321259
 11
177.577896
 21
288.328644
  0
LINE
  8
0
  6
CONTINUOUS
 10
127.577896
 20
290.571259
 11
139.077774
 21
290.571259
  0
LINE
  8
0
  6
CONTINUOUS
 10
177.577896
 20
292.821259
 11
194.480896
 21
292.821259
  0
LINE
  8
0
  6
CONTINUOUS
 10
141.077835
 20
16.446833
 11
141.077835
 21
126.946831
  0
LINE
  8
0
  6
CONTINUOUS
 10
196.077835
 20
16.446833
 11
196.077835
 21
126.946831
  0
LINE
  8
0
  6
CONTINUOUS
 10
143.077835
 20
115.696831
 11
194.077835
 21
115.696831
  0
LINE
  8
0
  6
CONTINUOUS
 10
143.077835
 20
23.696833
 11
194.077835
 21
23.696833
  0
LINE
  8
0
  6
CONTINUOUS
 10
133.077835
 20
128.946838
 11
139.077835
 21
128.946838
  0
LINE
  8
0
  6
CONTINUOUS
 10
133.077835
 20
14.446833
 11
139.077835
 21
14.446833
  0
ARC
  8
0
  6
CONTINUOUS
 10
143.077835
 20
117.696831
 40
2.000000
 50
180.000000
 51
270.000000
  0
ARC
  8
0
  6
CONTINUOUS
 10
194.077835
 20
117.696831
 40
2.000000
 50
-90.000000
 51
0.000000
  0
ARC
  8
0
  6
CONTINUOUS
 10
143.077835
 20
21.696854
 40
2.000000
 50
90.000000
 51
180.000000
  0
ARC
  8
0
  6
CONTINUOUS
 10
194.077835
 20
21.696833
 40
2.000000
 50
0.000000
 51
90.000000
  0
ARC
  8
0
  6
CONTINUOUS
 10
139.077835
 20
126.946831
 40
2.000000
 50
0.000000
 51
90.000000
  0
ARC
  8
0
  6
CONTINUOUS
 10
198.077835
 20
126.946854
 40
2.000000
 50
90.000000
 51
180.000000
  0
ARC
  8
0
  6
CONTINUOUS
 10
198.077835
 20
16.446833
 40
2.000000
 50
180.000000
 51
270.000000
  0
ARC
  8
0
  6
CONTINUOUS
 10
139.077835
 20
16.446833
 40
2.000000
 50
-90.000000
 51
0.000000
  0
LINE
  8
0
  6
CONTINUOUS
 10
142.077835
 20
62.696835
 11
142.077835
 21
75.696831
  0
LINE
  8
0
  6
CONTINUOUS
 10
164.077835
 20
75.696831
 11
164.077835
 21
62.696835
  0
LINE
  8
0
  6
CONTINUOUS
 10
195.077835
 20
62.696835
 11
195.077835
 21
75.696831
  0
LINE
  8
0
  6
CONTINUOUS
 10
173.077835
 20
62.696835
 11
173.077835
 21
75.696831
  0
LINE
  8
0
  6
CONTINUOUS
 10
163.077835
 20
76.696831
 11
143.077835
 21
76.696831
  0
LINE
  8
0
  6
CONTINUOUS
 10
163.077835
 20
61.696835
 11
143.077835
 21
61.696835
  0
ARC
  8
0
  6
CONTINUOUS
 10
143.077835
 20
75.696831
 40
1.000000
 50
90.000000
 51
180.000000
  0
ARC
  8
0
  6
CONTINUOUS
 10
143.077835
 20
62.696835
 40
1.000000
 50
180.000000
 51
270.000000
  0
ARC
  8
0
  6
CONTINUOUS
 10
163.077835
 20
62.696835
 40
1.000000
 50
-90.000000
 51
0.000000
  0
ARC
  8
0
  6
CONTINUOUS
 10
163.077835
 20
75.696831
 40
1.000000
 50
0.000000
 51
90.000000
  0
ARC
  8
0
  6
CONTINUOUS
 10
174.077835
 20
75.696831
 40
1.000000
 50
90.000000
 51
180.000000
  0
ARC
  8
0
  6
CONTINUOUS
 10
174.077835
 20
62.696835
 40
1.000000
 50
180.000000
 51
270.000000
  0
ARC
  8
0
  6
CONTINUOUS
 10
194.077835
 20
75.696831
 40
1.000000
 50
0.000000
 51
90.000000
  0
ARC
  8
0
  6
CONTINUOUS
 10
194.077835
 20
62.696835
 40
1.000000
 50
-90.000000
 51
0.000000
  0
LINE
  8
0
  6
CONTINUOUS
 10
176.077835
 20
85.696831
 11
176.077835
 21
59.752888
  0
LINE
  8
0
  6
CONTINUOUS
 10
177.577835
 20
85.696831
 11
177.577835
 21
58.895741
  0
LINE
  8
0
  6
CONTINUOUS
 10
174.577835
 20
85.696831
 11
174.577835
 21
59.637806
  0
LINE
  8
0
  6
CONTINUOUS
 10
174.577835
 20
59.637806
 11
176.077835
 21
60.875294
  0
LINE
  8
0
  6
CONTINUOUS
 10
176.077835
 20
59.752888
 11
177.577835
 21
58.895741
  0
ARC
  8
0
  6
CONTINUOUS
 10
176.827835
 20
85.696831
 40
0.750000
 50
0.000000
 51
180.000000
  0
ARC
  8
0
  6
CONTINUOUS
 10
175.327835
 20
85.696831
 40
0.750000
 50
0.000000
 51
180.000000
  0
LINE
  8
0
  6
CONTINUOUS
 10
174.077835
 20
76.696831
 11
174.577835
 21
76.696831
  0
LINE
  8
0
  6
CONTINUOUS
 10
174.077835
 20
61.696835
 11
174.577835
 21
61.696835
  0
LINE
  8
0
  6
CONTINUOUS
 10
142.970886
 20
58.102592
 11
194.421631
 21
58.102592
  0
LINE
  8
0
  6
CONTINUOUS
 10
198.077835
 20
128.946838
 11
204.077835
 21
128.946838
  0
LINE
  8
0
  6
CONTINUOUS
 10
198.077835
 20
14.446833
 11
204.077835
 21
14.446833
  0
LINE
  8
0
  6
CONTINUOUS
 10
194.077835
 20
61.696835
 11
177.577835
 21
61.696835
  0
LINE
  8
0
  6
CONTINUOUS
 10
194.077835
 20
76.696831
 11
177.577835
 21
76.696831
  0
LINE
  8
0
  6
CONTINUOUS
 10
142.970886
 20
54.696896
 11
194.421631
 21
54.696896
  0
LINE
  8
0
  6
CONTINUOUS
 10
184.077835
 20
41.300896
 11
184.077835
 21
25.696833
  0
LINE
  8
0
  6
CONTINUOUS
 10
153.077835
 20
41.300896
 11
153.077835
 21
25.696833
  0
LINE
  8
0
  6
CONTINUOUS
 10
142.970886
 20
45.032310
 11
151.642212
 21
45.032310
  0
LINE
  8
0
  6
CONTINUOUS
 10
185.535965
 20
45.032310
 11
194.421631
 21
45.032310
  0
ARC
  8
0
  6
CONTINUOUS
 10
151.077835
 20
25.696833
 40
2.000000
 50
-90.000000
 51
0.000000
  0
ARC
  8
0
  6
CONTINUOUS
 10
186.077835
 20
25.696833
 40
2.000000
 50
180.000000
 51
270.000000
  0
LINE
  8
0
  6
CONTINUOUS
 10
153.735641
 20
34.818718
 11
183.243149
 21
34.818718
  0
ARC
  8
0
  6
CONTINUOUS
 10
176.077835
 20
85.696831
 40
4.000000
 50
-67.975685
 51
247.975693
  0
LINE
  8
0
  6
CONTINUOUS
 10
37.375881
 20
44.696896
 11
38.246014
 21
44.696896
  0
LINE
  8
0
  6
CONTINUOUS
 10
37.375881
 20
41.196896
 11
38.246014
 21
41.196896
  0
LINE
  8
0
  6
CONTINUOUS
 10
37.375881
 20
39.196896
 11
38.246014
 21
39.196896
  0
LINE
  8
0
  6
CONTINUOUS
 10
37.375881
 20
33.696896
 11
38.246014
 21
33.696896
  0
LINE
  8
0
  6
CONTINUOUS
 10
37.375881
 20
31.696896
 11
38.246014
 21
31.696896
  0
LINE
  8
0
  6
CONTINUOUS
 10
37.375881
 20
26.696896
 11
38.246014
 21
26.696896
  0
LINE
  8
0
  6
CONTINUOUS
 10
37.375881
 20
24.696896
 11
38.246014
 21
24.696896
  0
LINE
  8
0
  6
CONTINUOUS
 10
37.375881
 20
20.410875
 11
38.246014
 21
20.410875
  0
LINE
  8
0
  6
CONTINUOUS
 10
37.375881
 20
14.196895
 11
38.246014
 21
14.196895
  0
LINE
  8
0
  6
CONTINUOUS
 10
34.745464
 20
14.196895
 11
33.875317
 21
14.196895
  0
LINE
  8
0
  6
CONTINUOUS
 10
34.745464
 20
20.410875
 11
33.875317
 21
20.410875
  0
LINE
  8
0
  6
CONTINUOUS
 10
34.745464
 20
24.696896
 11
33.875317
 21
24.696896
  0
LINE
  8
0
  6
CONTINUOUS
 10
34.745464
 20
26.696896
 11
33.875317
 21
26.696896
  0
LINE
  8
0
  6
CONTINUOUS
 10
34.745464
 20
31.696896
 11
33.875317
 21
31.696896
  0
LINE
  8
0
  6
CONTINUOUS
 10
34.745464
 20
33.696896
 11
33.875317
 21
33.696896
  0
LINE
  8
0
  6
CONTINUOUS
 10
34.745464
 20
39.196896
 11
33.875317
 21
39.196896
  0
LINE
  8
0
  6
CONTINUOUS
 10
34.745464
 20
41.196896
 11
33.875317
 21
41.196896
  0
LINE
  8
0
  6
CONTINUOUS
 10
34.745464
 20
44.696896
 11
33.875317
 21
44.696896
  0
TEXT
  8
0
 10
-10.000000
 20
-44.000000
 40
10.000000
 41
1.000000
  1
G3FE-22-60~200-T010W
 50
0.000000
  0
ENDSEC
  0
EOF
