  0
SECTION
  2
HEADER
  9
$CLAYER
  8
1
  9
$LTSCALE
 40
3.0
  0
ENDSEC
  0
SECTION
  2
TABLES
  0
TABLE
  2
LTYPE
 70
     4
  0
LTYPE
  2
CONTINUOUS
  3
solid line
 70
    64
 72
    65
 73
     0
 40
0.0
  0
LTYPE
  2
DASHED
  3
__ __ __ __ __ __ __ __ __ __ __ __ __ __ __
 70
    64
 72
    65
 73
     2
 40
0.75
 49
0.5
 49
-0.25
  0
LTYPE
  2
CENTER
  3
____ _ ____ _ ____ _ ____ _ ____ _ ____ _ ____
 70
    64
 72
    65
 73
     4
 40
2.0
 49
1.25
 49
-0.25
 49
0.25
 49
-0.25
  0
LTYPE
  2
PHANTOM
  3
_____ _ _ _____ _ _ _____ _ _ _____ _ _ ____
 70
    64
 72
    65
 73
     6
 40
2.5
 49
1.25
 49
-0.25
 49
0.25
 49
-0.25
 49
0.25
 49
-0.25
  0
ENDTAB
  0
TABLE
  2
LAYER
 70
     1
  0
LAYER
  2
0
 70
    64
 62
     7
  6
CONTINUOUS
  0
ENDTAB
  0
TABLE
  2
STYLE
 70
     1
  0
STYLE
  2
STANDARD
 70
     0
 40
0.000000
 41
1.000000
 50
0.000000
 71
     0
 42
3.000000
  3
txt
  4
BIGFONT
  0
ENDTAB
  0
ENDSEC
  0
SECTION
  2
BLOCKS
  0
ENDSEC
  0
SECTION
  2
ENTITIES
  0
LINE
  8
0
  6
CENTER
 10
-2.665625
 20
348.953217
 11
360.691589
 21
348.953217
  0
LINE
  8
0
  6
CONTINUOUS
 10
305.691589
 20
336.953156
 11
307.691589
 21
336.953156
  0
LINE
  8
0
  6
CONTINUOUS
 10
307.691589
 20
360.953217
 11
307.691589
 21
336.953156
  0
LINE
  8
0
  6
CONTINUOUS
 10
305.691589
 20
360.953217
 11
307.691589
 21
360.953217
  0
LINE
  8
0
  6
CONTINUOUS
 10
307.691589
 20
359.953217
 11
347.691589
 21
359.953217
  0
LINE
  8
0
  6
CONTINUOUS
 10
307.691589
 20
337.953156
 11
312.691589
 21
337.953156
  0
LINE
  8
0
  6
CONTINUOUS
 10
347.691589
 20
359.953217
 11
347.691589
 21
337.953156
  0
LINE
  8
0
  6
CONTINUOUS
 10
230.691589
 20
414.953217
 11
230.691589
 21
282.953156
  0
LINE
  8
0
  6
CONTINUOUS
 10
288.691284
 20
270.269348
 11
288.691284
 21
427.637085
  0
LINE
  8
0
  6
CONTINUOUS
 10
300.691589
 20
267.453217
 11
300.691589
 21
430.453156
  0
LINE
  8
0
  6
CONTINUOUS
 10
291.586578
 20
267.271149
 11
300.191895
 21
266.970642
  0
LINE
  8
0
  6
CONTINUOUS
 10
304.691589
 20
422.453156
 11
304.691589
 21
275.453217
  0
LINE
  8
0
  6
CONTINUOUS
 10
304.191589
 20
422.953156
 11
300.691589
 21
422.953156
  0
LINE
  8
0
  6
CONTINUOUS
 10
304.191589
 20
274.953217
 11
300.691589
 21
274.953217
  0
LINE
  8
0
  6
CONTINUOUS
 10
305.691589
 20
378.953217
 11
305.691589
 21
318.953217
  0
LINE
  8
0
  6
CONTINUOUS
 10
304.691589
 20
378.953217
 11
305.691589
 21
378.953217
  0
LINE
  8
0
  6
CONTINUOUS
 10
304.691589
 20
318.953217
 11
305.691589
 21
318.953217
  0
LINE
  8
0
  6
CONTINUOUS
 10
312.691589
 20
338.370209
 11
312.691589
 21
335.453156
  0
LINE
  8
0
  6
CONTINUOUS
 10
347.691589
 20
337.953156
 11
347.691589
 21
335.453156
  0
LINE
  8
0
  6
CONTINUOUS
 10
312.691589
 20
335.453156
 11
347.691589
 21
335.453156
  0
LINE
  8
0
  6
CONTINUOUS
 10
224.691528
 20
412.847778
 11
224.691299
 21
285.094177
  0
LINE
  8
0
  6
CONTINUOUS
 10
221.796295
 20
291.292419
 11
217.191528
 21
291.453217
  0
ARC
  8
0
  6
CONTINUOUS
 10
221.691589
 20
288.294220
 40
3.000000
 50
0.000000
 51
88.000549
  0
LINE
  8
0
  6
CONTINUOUS
 10
221.796295
 20
406.614014
 11
217.191528
 21
406.453156
  0
ARC
  8
0
  6
CONTINUOUS
 10
221.691589
 20
409.612122
 40
3.000000
 50
-87.999634
 51
0.000000
  0
LINE
  8
0
  6
CONTINUOUS
 10
217.191528
 20
406.453156
 11
217.191528
 21
291.453217
  0
LINE
  8
0
  6
CENTER
 10
-13.986875
 20
82.479393
 11
279.264069
 21
82.479393
  0
LINE
  8
0
  6
CONTINUOUS
 10
230.691589
 20
16.479355
 11
230.691360
 21
150.479416
  0
LINE
  8
0
  6
CENTER
 10
355.334198
 20
101.479393
 11
264.956573
 21
101.479393
  0
LINE
  8
0
  6
CONTINUOUS
 10
304.191772
 20
175.479416
 11
300.691589
 21
175.479416
  0
LINE
  8
0
  6
CONTINUOUS
 10
304.191772
 20
27.479395
 11
300.691589
 21
27.479395
  0
LINE
  8
0
  6
CONTINUOUS
 10
305.691772
 20
128.556915
 11
305.691772
 21
74.401787
  0
LINE
  8
0
  6
CONTINUOUS
 10
288.691589
 20
15.795314
 11
288.691376
 21
180.663284
  0
ARC
  8
0
  6
CONTINUOUS
 10
291.691193
 20
-375.998413
 40
530.000000
 50
92.630783
 51
96.609123
  0
ARC
  8
0
  6
CONTINUOUS
 10
291.691589
 20
542.957397
 40
530.000000
 50
263.390900
 51
266.598785
  0
LINE
  8
0
  6
CONTINUOUS
 10
230.691589
 20
45.982513
 11
285.899170
 21
46.464314
  0
LINE
  8
0
  6
CONTINUOUS
 10
230.691589
 20
29.162516
 11
285.407349
 21
27.730116
  0
LINE
  8
0
  6
CONTINUOUS
 10
304.691772
 20
174.979416
 11
304.691772
 21
170.979416
  0
ARC
  8
0
  6
CONTINUOUS
 10
302.691589
 20
74.401787
 40
3.000000
 50
-48.193790
 51
0.000000
  0
ARC
  8
0
  6
CONTINUOUS
 10
302.691589
 20
128.556915
 40
3.000000
 50
0.000000
 51
48.191448
  0
LINE
  8
0
  6
CONTINUOUS
 10
300.691589
 20
183.479416
 11
300.691589
 21
12.979355
  0
LINE
  8
0
  6
CONTINUOUS
 10
304.691772
 20
27.979395
 11
304.691772
 21
170.979416
  0
LINE
  8
0
  6
CONTINUOUS
 10
300.191895
 20
12.496796
 11
260.250977
 21
13.890895
  0
LINE
  8
0
  6
CONTINUOUS
 10
283.822601
 20
153.874222
 11
267.363403
 21
153.443039
  0
ARC
  8
0
  6
CONTINUOUS
 10
283.691589
 20
158.872513
 40
5.000000
 50
-88.499390
 51
0.000000
  0
LINE
  8
0
  6
CONTINUOUS
 10
305.691772
 20
89.479393
 11
307.691772
 21
89.479393
  0
LINE
  8
0
  6
CONTINUOUS
 10
307.691772
 20
113.479393
 11
307.691772
 21
89.479393
  0
LINE
  8
0
  6
CONTINUOUS
 10
305.691589
 20
113.479393
 11
307.691772
 21
113.479393
  0
LINE
  8
0
  6
CONTINUOUS
 10
307.691772
 20
112.479393
 11
347.691589
 21
112.479393
  0
LINE
  8
0
  6
CONTINUOUS
 10
307.691589
 20
90.479393
 11
347.691589
 21
90.479393
  0
LINE
  8
0
  6
CONTINUOUS
 10
347.691589
 20
112.479393
 11
347.691589
 21
90.479393
  0
LINE
  8
0
  6
CONTINUOUS
 10
315.691772
 20
104.479393
 11
347.691589
 21
104.479393
  0
LINE
  8
0
  6
CONTINUOUS
 10
315.691772
 20
98.479393
 11
347.691589
 21
98.479393
  0
ARC
  8
0
  6
CONTINUOUS
 10
315.691772
 20
101.479393
 40
3.000000
 50
90.000000
 51
270.000000
  0
LINE
  8
0
  6
CONTINUOUS
 10
226.639236
 20
16.585510
 11
230.691589
 21
16.479395
  0
LINE
  8
0
  6
CONTINUOUS
 10
224.691589
 20
18.584824
 11
224.691589
 21
148.373978
  0
LINE
  8
0
  6
CONTINUOUS
 10
230.066589
 20
45.982513
 11
225.566589
 21
45.982513
  0
LINE
  8
0
  6
CONTINUOUS
 10
230.066589
 20
29.162495
 11
225.566589
 21
29.162495
  0
LINE
  8
0
  6
CONTINUOUS
 10
217.191589
 20
139.979401
 11
217.191589
 21
24.979395
  0
LINE
  8
0
  6
CONTINUOUS
 10
221.796280
 20
140.140198
 11
217.191589
 21
139.979401
  0
LINE
  8
0
  6
CONTINUOUS
 10
221.796280
 20
24.818596
 11
217.191589
 21
24.979395
  0
LINE
  8
0
  6
CENTER
 10
306.089996
 20
166.886993
 11
284.369507
 21
166.886993
  0
LINE
  8
0
  6
CENTER
 10
306.089996
 20
36.071796
 11
284.369507
 21
36.071796
  0
LINE
  8
0
  6
CONTINUOUS
 10
304.691772
 20
174.979416
 11
304.191772
 21
175.479416
  0
LINE
  8
0
  6
CONTINUOUS
 10
304.191772
 20
27.479395
 11
304.691772
 21
27.979395
  0
LINE
  8
0
  6
CONTINUOUS
 10
300.191895
 20
12.496796
 11
300.691589
 21
12.979355
  0
LINE
  8
0
  6
CONTINUOUS
 10
304.191589
 20
274.953217
 11
304.691589
 21
275.453217
  0
LINE
  8
0
  6
CONTINUOUS
 10
304.191589
 20
422.953156
 11
304.691589
 21
422.453156
  0
LINE
  8
0
  6
CONTINUOUS
 10
300.191895
 20
183.961960
 11
291.586670
 21
183.661469
  0
ARC
  8
0
  6
CONTINUOUS
 10
291.691376
 20
180.663300
 40
3.000000
 50
92.000000
 51
180.000000
  0
LINE
  8
0
  6
CONTINUOUS
 10
300.191895
 20
183.961960
 11
300.691589
 21
183.479416
  0
ARC
  8
0
  6
CONTINUOUS
 10
291.691589
 20
15.795318
 40
3.000000
 50
180.000000
 51
268.000946
  0
LINE
  8
0
  6
CONTINUOUS
 10
300.191895
 20
266.970642
 11
300.691589
 21
267.453217
  0
ARC
  8
0
  6
CONTINUOUS
 10
291.691284
 20
270.269348
 40
3.000000
 50
180.000000
 51
268.000000
  0
LINE
  8
0
  6
CONTINUOUS
 10
291.586578
 20
430.635254
 11
300.191895
 21
430.935760
  0
LINE
  8
0
  6
CONTINUOUS
 10
300.191895
 20
430.935760
 11
300.691589
 21
430.453217
  0
ARC
  8
0
  6
CONTINUOUS
 10
291.691284
 20
427.637085
 40
3.000000
 50
92.000000
 51
180.000000
  0
LINE
  8
0
  6
CENTER
 10
306.089996
 20
36.071316
 11
284.369507
 21
36.071316
  0
LINE
  8
0
  6
CENTER
 10
306.089996
 20
414.360809
 11
284.369507
 21
414.360809
  0
LINE
  8
0
  6
CENTER
 10
306.089996
 20
283.545593
 11
284.369507
 21
283.545593
  0
ARC
  8
0
  6
CONTINUOUS
 10
221.691589
 20
21.820423
 40
3.000000
 50
0.000000
 51
88.000000
  0
ARC
  8
0
  6
CONTINUOUS
 10
221.691589
 20
143.138367
 40
3.000000
 50
-88.000000
 51
0.000000
  0
ARC
  8
0
  6
CONTINUOUS
 10
291.691193
 20
-111.524612
 40
530.000000
 50
92.630783
 51
96.609123
  0
LINE
  8
0
  6
CONTINUOUS
 10
283.822601
 20
418.347992
 11
267.363403
 21
417.916840
  0
ARC
  8
0
  6
CONTINUOUS
 10
283.691589
 20
423.346313
 40
5.000000
 50
-88.499390
 51
0.000000
  0
ARC
  8
0
  6
CONTINUOUS
 10
291.691193
 20
809.431030
 40
530.000000
 50
-96.609123
 51
-92.630783
  0
LINE
  8
0
  6
CONTINUOUS
 10
283.822601
 20
279.558411
 11
267.363403
 21
279.989594
  0
ARC
  8
0
  6
CONTINUOUS
 10
283.691589
 20
274.560120
 40
5.000000
 50
0.000000
 51
88.499390
  0
LINE
  8
0
  6
CONTINUOUS
 10
226.639160
 20
414.847076
 11
230.691589
 21
414.953217
  0
ARC
  8
0
  6
CONTINUOUS
 10
226.691528
 20
412.847778
 40
2.000000
 50
91.500000
 51
180.000000
  0
LINE
  8
0
  6
CONTINUOUS
 10
226.639160
 20
283.059326
 11
230.691589
 21
282.953217
  0
ARC
  8
0
  6
CONTINUOUS
 10
226.691528
 20
285.058624
 40
2.000000
 50
-180.000000
 51
-91.500000
  0
LINE
  8
0
  6
CONTINUOUS
 10
226.639236
 20
150.373291
 11
230.691589
 21
150.479401
  0
ARC
  8
0
  6
CONTINUOUS
 10
226.691589
 20
148.373978
 40
2.000000
 50
91.500000
 51
180.000000
  0
ARC
  8
0
  6
CONTINUOUS
 10
226.691589
 20
18.584824
 40
2.000000
 50
180.000000
 51
268.500000
  0
LINE
  8
0
  6
CONTINUOUS
 10
312.691589
 20
338.370209
 11
347.691589
 21
338.370209
  0
LINE
  8
0
  6
DASHED
 10
300.691589
 20
419.860809
 11
288.691559
 21
419.860809
  0
LINE
  8
0
  6
DASHED
 10
300.691589
 20
408.860809
 11
288.691559
 21
408.860809
  0
LINE
  8
0
  6
DASHED
 10
300.691589
 20
289.045593
 11
288.691559
 21
289.045593
  0
LINE
  8
0
  6
DASHED
 10
300.691589
 20
278.045593
 11
288.691559
 21
278.045593
  0
LINE
  8
0
  6
DASHED
 10
300.691589
 20
172.386993
 11
288.691559
 21
172.386993
  0
LINE
  8
0
  6
DASHED
 10
300.691589
 20
161.386993
 11
288.691559
 21
161.386993
  0
LINE
  8
0
  6
DASHED
 10
300.691589
 20
41.571796
 11
288.691559
 21
41.571796
  0
LINE
  8
0
  6
DASHED
 10
300.691589
 20
30.571795
 11
288.691559
 21
30.571795
  0
LINE
  8
0
  6
CONTINUOUS
 10
124.191399
 20
406.453278
 11
124.191521
 21
291.453217
  0
LINE
  8
0
  6
CONTINUOUS
 10
212.191528
 20
406.453217
 11
217.191528
 21
406.453217
  0
LINE
  8
0
  6
CONTINUOUS
 10
212.191528
 20
291.453217
 11
217.191528
 21
291.453217
  0
LINE
  8
0
  6
CONTINUOUS
 10
212.191528
 20
406.453217
 11
212.191528
 21
291.453217
  0
LINE
  8
0
  6
CONTINUOUS
 10
204.191528
 20
293.703217
 11
204.191528
 21
404.203217
  0
LINE
  8
0
  6
CONTINUOUS
 10
141.191528
 20
291.703217
 11
141.191528
 21
406.203217
  0
LINE
  8
0
  6
CONTINUOUS
 10
149.191528
 20
293.703217
 11
149.191528
 21
404.203217
  0
LINE
  8
0
  6
CONTINUOUS
 10
124.191521
 20
406.203217
 11
147.191528
 21
406.203217
  0
LINE
  8
0
  6
CONTINUOUS
 10
124.191521
 20
291.703217
 11
132.691650
 21
291.703217
  0
LINE
  8
0
  6
CONTINUOUS
 10
206.191528
 20
291.703217
 11
212.191528
 21
291.703217
  0
LINE
  8
0
  6
CONTINUOUS
 10
206.191528
 20
406.203217
 11
212.191528
 21
406.203217
  0
ARC
  8
0
  6
CONTINUOUS
 10
147.191528
 20
404.203217
 40
2.000000
 50
0.000000
 51
90.000000
  0
ARC
  8
0
  6
CONTINUOUS
 10
206.191528
 20
404.203217
 40
2.000000
 50
90.000000
 51
180.000000
  0
LINE
  8
0
  6
CONTINUOUS
 10
150.788391
 20
403.953217
 11
202.594650
 21
403.953217
  0
ARC
  8
0
  6
CONTINUOUS
 10
202.594650
 20
405.953217
 40
2.000000
 50
270.000000
 51
334.055511
  0
ARC
  8
0
  6
CONTINUOUS
 10
150.788391
 20
405.953217
 40
2.000000
 50
205.944473
 51
270.000000
  0
ARC
  8
0
  6
CONTINUOUS
 10
147.191528
 20
293.703217
 40
2.000000
 50
-90.000000
 51
0.000000
  0
ARC
  8
0
  6
CONTINUOUS
 10
206.191528
 20
293.703217
 40
2.000000
 50
-180.000000
 51
-90.000000
  0
LINE
  8
0
  6
CONTINUOUS
 10
150.788391
 20
293.953217
 11
182.691650
 21
293.953217
  0
ARC
  8
0
  6
CONTINUOUS
 10
202.594650
 20
291.953217
 40
2.000000
 50
-334.055511
 51
-270.000000
  0
ARC
  8
0
  6
CONTINUOUS
 10
150.788391
 20
291.953217
 40
2.000000
 50
-270.000000
 51
-205.944473
  0
LINE
  8
0
  6
CONTINUOUS
 10
150.788391
 20
315.953217
 11
202.594650
 21
315.953217
  0
LINE
  8
0
  6
CONTINUOUS
 10
150.788391
 20
381.953217
 11
202.594650
 21
381.953217
  0
LINE
  8
0
  6
CONTINUOUS
 10
180.191528
 20
294.453217
 11
188.191528
 21
294.453217
  0
LINE
  8
0
  6
CONTINUOUS
 10
188.191528
 20
296.982056
 11
188.191528
 21
294.453217
  0
LINE
  8
0
  6
CONTINUOUS
 10
180.191528
 20
296.982056
 11
180.191528
 21
294.453217
  0
LINE
  8
0
  6
CONTINUOUS
 10
133.502640
 20
294.089783
 11
132.689835
 21
294.010498
  0
LINE
  8
0
  6
CONTINUOUS
 10
132.690460
 20
294.008850
 11
132.070038
 21
293.773529
  0
LINE
  8
0
  6
CONTINUOUS
 10
132.055359
 20
293.790283
 11
131.821777
 21
293.585907
  0
LINE
  8
0
  6
CONTINUOUS
 10
131.833069
 20
293.572998
 11
131.854568
 21
293.315033
  0
LINE
  8
0
  6
CONTINUOUS
 10
131.887756
 20
293.317780
 11
132.051819
 21
293.171967
  0
LINE
  8
0
  6
CONTINUOUS
 10
132.045212
 20
293.134521
 11
132.452850
 21
293.062592
  0
LINE
  8
0
  6
CONTINUOUS
 10
132.455658
 20
293.085022
 11
132.691650
 21
293.055511
  0
LINE
  8
0
  6
CONTINUOUS
 10
134.840881
 20
294.119873
 11
135.223694
 21
294.028717
  0
LINE
  8
0
  6
CONTINUOUS
 10
135.223694
 20
294.028717
 11
135.752335
 21
293.937592
  0
LINE
  8
0
  6
CONTINUOUS
 10
135.752335
 20
293.937592
 11
136.098694
 21
293.864655
  0
LINE
  8
0
  6
CONTINUOUS
 10
136.098694
 20
293.864655
 11
136.280975
 21
293.791748
  0
LINE
  8
0
  6
CONTINUOUS
 10
136.312393
 20
293.821930
 11
136.463272
 21
293.645905
  0
LINE
  8
0
  6
CONTINUOUS
 10
136.463272
 20
293.627686
 11
136.548950
 21
293.456329
  0
LINE
  8
0
  6
CONTINUOUS
 10
136.499725
 20
293.408936
 11
136.353897
 21
293.263092
  0
LINE
  8
0
  6
CONTINUOUS
 10
136.342148
 20
293.229126
 11
135.843475
 21
293.099030
  0
LINE
  8
0
  6
CONTINUOUS
 10
135.834702
 20
293.083008
 11
135.691650
 21
293.076172
  0
LINE
  8
0
  6
CONTINUOUS
 10
133.502640
 20
294.089783
 11
133.783585
 21
294.097076
  0
LINE
  8
0
  6
CONTINUOUS
 10
133.783585
 20
294.097076
 11
134.366913
 21
294.106201
  0
LINE
  8
0
  6
CONTINUOUS
 10
134.366913
 20
294.106201
 11
134.840881
 21
294.119873
  0
ARC
  8
0
  6
CONTINUOUS
 10
184.191528
 20
287.816895
 40
10.000000
 50
66.421822
 51
113.578178
  0
LINE
  8
0
  6
CONTINUOUS
 10
141.191589
 20
139.729401
 11
141.191589
 21
25.229395
  0
LINE
  8
0
  6
CONTINUOUS
 10
141.191589
 20
139.729401
 11
124.191582
 21
139.729401
  0
LINE
  8
0
  6
CONTINUOUS
 10
141.191589
 20
25.229395
 11
124.191582
 21
25.229395
  0
LINE
  8
0
  6
CONTINUOUS
 10
134.191589
 20
96.479393
 11
134.191589
 21
70.729393
  0
LINE
  8
0
  6
CONTINUOUS
 10
135.691589
 20
96.479393
 11
135.691589
 21
69.791893
  0
LINE
  8
0
  6
CONTINUOUS
 10
132.691589
 20
96.479393
 11
132.691589
 21
70.189400
  0
LINE
  8
0
  6
CONTINUOUS
 10
132.691589
 20
70.189400
 11
134.166580
 21
71.885643
  0
LINE
  8
0
  6
CONTINUOUS
 10
134.195999
 20
70.736748
 11
135.712540
 21
69.826820
  0
ARC
  8
0
  6
CONTINUOUS
 10
134.941589
 20
96.479393
 40
0.750000
 50
0.000000
 51
180.000000
  0
ARC
  8
0
  6
CONTINUOUS
 10
133.441589
 20
96.479393
 40
0.750000
 50
0.000000
 51
180.000000
  0
ARC
  8
0
  6
CONTINUOUS
 10
134.191589
 20
96.479393
 40
3.000000
 50
-59.999939
 51
239.999893
  0
LINE
  8
0
  6
CONTINUOUS
 10
124.191582
 20
139.729401
 11
124.191582
 21
25.229395
  0
LINE
  8
0
  6
CONTINUOUS
 10
212.191589
 20
139.979401
 11
217.191589
 21
139.979401
  0
LINE
  8
0
  6
CONTINUOUS
 10
212.191589
 20
24.979395
 11
217.191589
 21
24.979395
  0
LINE
  8
0
  6
CONTINUOUS
 10
212.191589
 20
139.979401
 11
212.191589
 21
24.979395
  0
LINE
  8
0
  6
CONTINUOUS
 10
19.191561
 20
406.453217
 11
124.191521
 21
406.453217
  0
LINE
  8
0
  6
CONTINUOUS
 10
19.191561
 20
291.453217
 11
27.191561
 21
291.453217
  0
LINE
  8
0
  6
CONTINUOUS
 10
19.191561
 20
406.453217
 11
19.191561
 21
291.453217
  0
LINE
  8
0
  6
CONTINUOUS
 10
27.191561
 20
406.453217
 11
27.191561
 21
374.953094
  0
LINE
  8
0
  6
CONTINUOUS
 10
27.191561
 20
374.953094
 11
116.191582
 21
374.953094
  0
LINE
  8
0
  6
CONTINUOUS
 10
27.191561
 20
382.723755
 11
116.191582
 21
382.723755
  0
LINE
  8
0
  6
CONTINUOUS
 10
28.191561
 20
386.003174
 11
115.191582
 21
386.003174
  0
LINE
  8
0
  6
CONTINUOUS
 10
27.191561
 20
390.818237
 11
116.191582
 21
390.818237
  0
LINE
  8
0
  6
CONTINUOUS
 10
28.191561
 20
392.806091
 11
115.191582
 21
392.806091
  0
LINE
  8
0
  6
CONTINUOUS
 10
27.191561
 20
396.848816
 11
116.191582
 21
396.848816
  0
LINE
  8
0
  6
CONTINUOUS
 10
27.191561
 20
401.379730
 11
116.191582
 21
401.379730
  0
LINE
  8
0
  6
CONTINUOUS
 10
27.191561
 20
404.256836
 11
116.191582
 21
404.256836
  0
LINE
  8
0
  6
CONTINUOUS
 10
27.191561
 20
405.912170
 11
116.191582
 21
405.912170
  0
LINE
  8
0
  6
CONTINUOUS
 10
116.191582
 20
406.453217
 11
116.191582
 21
374.953094
  0
LINE
  8
0
  6
CONTINUOUS
 10
27.191561
 20
291.453217
 11
27.191561
 21
322.953339
  0
LINE
  8
0
  6
CONTINUOUS
 10
27.191561
 20
322.953339
 11
116.191582
 21
322.953339
  0
LINE
  8
0
  6
CONTINUOUS
 10
27.191561
 20
315.182709
 11
116.191582
 21
315.182709
  0
LINE
  8
0
  6
CONTINUOUS
 10
28.191561
 20
311.903259
 11
115.191582
 21
311.903259
  0
LINE
  8
0
  6
CONTINUOUS
 10
27.191561
 20
307.088196
 11
116.191582
 21
307.088196
  0
LINE
  8
0
  6
CONTINUOUS
 10
28.191561
 20
305.100311
 11
115.191582
 21
305.100311
  0
LINE
  8
0
  6
CONTINUOUS
 10
27.191561
 20
301.057648
 11
116.191582
 21
301.057648
  0
LINE
  8
0
  6
CONTINUOUS
 10
94.191521
 20
296.526733
 11
116.191582
 21
296.526733
  0
LINE
  8
0
  6
CONTINUOUS
 10
94.191521
 20
293.649597
 11
116.191582
 21
293.649597
  0
LINE
  8
0
  6
CONTINUOUS
 10
94.691521
 20
291.994232
 11
116.191582
 21
291.994232
  0
LINE
  8
0
  6
CONTINUOUS
 10
116.191582
 20
291.453217
 11
116.191582
 21
322.953339
  0
LINE
  8
0
  6
CONTINUOUS
 10
28.191561
 20
292.953217
 11
93.191582
 21
292.953217
  0
LINE
  8
0
  6
CONTINUOUS
 10
94.691521
 20
291.453217
 11
124.191521
 21
291.453217
  0
LINE
  8
0
  6
CONTINUOUS
 10
94.191521
 20
291.953247
 11
94.191521
 21
298.151855
  0
ARC
  8
0
  6
CONTINUOUS
 10
94.691521
 20
291.953247
 40
0.500000
 50
-180.000000
 51
-90.000000
  0
ARC
  8
0
  6
CONTINUOUS
 10
94.691521
 20
292.494293
 40
0.500000
 50
-180.000000
 51
-90.000000
  0
LINE
  8
0
  6
CONTINUOUS
 10
27.191561
 20
298.151855
 11
94.191521
 21
298.151855
  0
ARC
  8
0
  6
CONTINUOUS
 10
93.191582
 20
293.953217
 40
1.000000
 50
-90.000000
 51
0.000000
  0
ARC
  8
0
  6
CONTINUOUS
 10
28.191561
 20
293.953217
 40
1.000000
 50
-180.000000
 51
-90.000000
  0
LINE
  8
0
  6
CONTINUOUS
 10
7.691561
 20
370.113434
 11
7.691561
 21
327.792999
  0
LINE
  8
0
  6
CONTINUOUS
 10
15.861561
 20
291.703217
 11
19.191561
 21
291.703217
  0
LINE
  8
0
  6
CONTINUOUS
 10
15.861561
 20
406.203156
 11
19.191561
 21
406.203156
  0
LINE
  8
0
  6
CONTINUOUS
 10
8.361361
 20
372.613434
 11
9.624561
 21
374.801239
  0
ARC
  8
0
  6
CONTINUOUS
 10
211.631516
 20
381.223175
 40
199.999985
 50
-186.406006
 51
-180.287292
  0
ARC
  8
0
  6
CONTINUOUS
 10
12.691561
 20
370.113434
 40
5.000000
 50
-210.000305
 51
-180.000000
  0
ARC
  8
0
  6
CONTINUOUS
 10
15.861561
 20
403.203247
 40
3.000000
 50
-270.000000
 51
-186.406006
  0
LINE
  8
0
  6
CONTINUOUS
 10
13.197761
 20
402.640778
 11
13.197761
 21
295.828156
  0
LINE
  8
0
  6
CONTINUOUS
 10
8.361361
 20
325.292999
 11
9.624761
 21
323.104980
  0
ARC
  8
0
  6
CONTINUOUS
 10
211.631516
 20
316.683258
 40
199.999985
 50
-179.712601
 51
-173.593994
  0
ARC
  8
0
  6
CONTINUOUS
 10
12.691561
 20
327.792999
 40
5.000000
 50
-180.000000
 51
-149.999695
  0
ARC
  8
0
  6
CONTINUOUS
 10
15.861561
 20
294.703156
 40
3.000000
 50
-173.593994
 51
-90.000000
  0
ARC
  8
0
  6
CONTINUOUS
 10
-3.365839
 20
382.301422
 40
15.000000
 50
-30.000500
 51
-0.287300
  0
ARC
  8
0
  6
CONTINUOUS
 10
-3.365839
 20
315.604980
 40
15.000000
 50
-359.713104
 51
-329.999908
  0
LINE
  8
0
  6
CONTINUOUS
 10
21.253906
 20
278.531372
 11
20.191460
 21
238.453201
  0
LINE
  8
0
  6
CONTINUOUS
 10
89.128510
 20
278.531372
 11
90.191460
 21
238.453201
  0
LINE
  8
0
  6
CONTINUOUS
 10
79.217262
 20
291.453217
 11
31.165560
 21
291.453217
  0
LINE
  8
0
  6
CONTINUOUS
 10
86.142761
 20
281.453217
 11
68.502731
 21
281.453217
  0
ARC
  8
0
  6
CONTINUOUS
 10
24.239559
 20
278.453217
 40
3.000000
 50
90.000000
 51
178.500275
  0
ARC
  8
0
  6
CONTINUOUS
 10
86.142761
 20
278.453217
 40
3.000000
 50
1.499900
 51
90.000000
  0
LINE
  8
0
  6
CONTINUOUS
 10
30.165899
 20
290.479370
 11
29.980555
 21
283.400848
  0
LINE
  8
0
  6
CONTINUOUS
 10
80.216919
 20
290.479370
 11
80.402267
 21
283.400848
  0
ARC
  8
0
  6
CONTINUOUS
 10
79.217262
 20
290.453217
 40
1.000000
 50
1.499300
 51
90.000000
  0
ARC
  8
0
  6
CONTINUOUS
 10
31.165560
 20
290.453217
 40
1.000000
 50
90.000000
 51
178.499405
  0
LINE
  8
0
  6
CONTINUOUS
 10
24.239660
 20
281.453217
 11
41.880188
 21
281.453217
  0
ARC
  8
0
  6
CONTINUOUS
 10
55.191460
 20
348.953217
 40
68.800003
 50
-101.155815
 51
-78.844185
  0
LINE
  8
0
  6
CONTINUOUS
 10
22.691460
 20
232.453201
 11
87.691460
 21
232.453201
  0
LINE
  8
0
  6
CONTINUOUS
 10
90.191460
 20
234.953201
 11
90.191460
 21
237.453201
  0
LINE
  8
0
  6
CONTINUOUS
 10
20.191460
 20
234.953201
 11
20.191460
 21
237.453201
  0
LINE
  8
0
  6
CONTINUOUS
 10
90.191460
 20
237.453201
 11
20.191460
 21
237.453201
  0
LINE
  8
0
  6
CONTINUOUS
 10
90.191460
 20
238.453201
 11
20.191460
 21
238.453201
  0
LINE
  8
0
  6
CONTINUOUS
 10
90.191460
 20
237.453201
 11
90.191460
 21
238.453201
  0
LINE
  8
0
  6
CONTINUOUS
 10
20.191460
 20
237.453201
 11
20.191460
 21
238.453201
  0
LINE
  8
0
  6
CONTINUOUS
 10
81.678558
 20
235.453201
 11
89.191460
 21
235.453201
  0
LINE
  8
0
  6
CONTINUOUS
 10
28.704399
 20
235.453201
 11
21.191460
 21
235.453201
  0
LINE
  8
0
  6
CONTINUOUS
 10
81.178757
 20
234.966309
 11
81.138458
 21
233.427002
  0
ARC
  8
0
  6
CONTINUOUS
 10
81.678558
 20
234.953201
 40
0.500000
 50
90.000000
 51
178.500000
  0
ARC
  8
0
  6
CONTINUOUS
 10
80.138763
 20
233.453201
 40
1.000000
 50
-90.000000
 51
-1.499802
  0
ARC
  8
0
  6
CONTINUOUS
 10
89.191460
 20
236.453201
 40
1.000000
 50
-90.000000
 51
0.000000
  0
ARC
  8
0
  6
CONTINUOUS
 10
87.691460
 20
234.953201
 40
2.500000
 50
-90.000000
 51
0.000000
  0
LINE
  8
0
  6
CONTINUOUS
 10
29.204281
 20
234.966309
 11
29.244560
 21
233.427002
  0
ARC
  8
0
  6
CONTINUOUS
 10
30.244190
 20
233.453201
 40
1.000000
 50
-178.499603
 51
-90.000000
  0
ARC
  8
0
  6
CONTINUOUS
 10
28.704399
 20
234.953201
 40
0.500000
 50
1.500198
 51
90.000000
  0
ARC
  8
0
  6
CONTINUOUS
 10
21.191460
 20
236.453201
 40
1.000000
 50
180.000000
 51
270.000000
  0
ARC
  8
0
  6
CONTINUOUS
 10
22.691460
 20
234.953201
 40
2.500000
 50
180.000000
 51
270.000000
  0
ARC
  8
0
  6
CONTINUOUS
 10
85.191460
 20
235.453201
 40
3.000000
 50
-180.000000
 51
0.000000
  0
LINE
  8
0
  6
CONTINUOUS
 10
88.149460
 20
234.953201
 11
82.233459
 21
234.953201
  0
LINE
  8
0
  6
CONTINUOUS
 10
85.191460
 20
232.953201
 11
84.910355
 21
232.466400
  0
LINE
  8
0
  6
CONTINUOUS
 10
85.191460
 20
232.953201
 11
85.472557
 21
232.466400
  0
ARC
  8
0
  6
CONTINUOUS
 10
25.191460
 20
235.453201
 40
3.000000
 50
-180.000000
 51
0.000000
  0
LINE
  8
0
  6
CONTINUOUS
 10
28.149469
 20
234.953201
 11
22.233450
 21
234.953201
  0
LINE
  8
0
  6
CONTINUOUS
 10
25.191460
 20
232.953201
 11
24.910391
 21
232.466400
  0
LINE
  8
0
  6
CONTINUOUS
 10
25.191460
 20
232.953201
 11
25.472588
 21
232.466400
  0
LINE
  8
0
  6
CONTINUOUS
 10
78.191460
 20
291.453217
 11
78.191460
 21
292.953217
  0
LINE
  8
0
  6
CONTINUOUS
 10
32.191460
 20
291.453217
 11
32.191460
 21
292.953217
  0
LINE
  8
0
  6
CONTINUOUS
 10
-7.808490
 20
268.953369
 11
-7.808490
 21
239.953262
  0
LINE
  8
0
  6
CONTINUOUS
 10
0.191510
 20
268.953369
 11
0.191510
 21
239.953262
  0
LINE
  8
0
  6
CONTINUOUS
 10
-7.808490
 20
268.953369
 11
0.191510
 21
268.953369
  0
LINE
  8
0
  6
CONTINUOUS
 10
-7.808490
 20
239.953262
 11
0.191510
 21
239.953262
  0
LINE
  8
0
  6
CONTINUOUS
 10
9.191510
 20
267.453369
 11
9.191510
 21
241.453262
  0
LINE
  8
0
  6
CONTINUOUS
 10
0.191510
 20
267.453369
 11
9.191510
 21
267.453369
  0
LINE
  8
0
  6
CONTINUOUS
 10
0.191510
 20
241.453262
 11
9.191510
 21
241.453262
  0
LINE
  8
0
  6
CONTINUOUS
 10
9.191510
 20
265.953369
 11
14.191510
 21
265.953369
  0
LINE
  8
0
  6
CONTINUOUS
 10
9.191510
 20
242.953262
 11
14.191510
 21
242.953262
  0
LINE
  8
0
  6
CONTINUOUS
 10
14.191510
 20
267.953369
 11
14.191510
 21
240.953262
  0
LINE
  8
0
  6
CONTINUOUS
 10
18.691509
 20
268.953369
 11
18.691509
 21
239.953262
  0
LINE
  8
0
  6
CONTINUOUS
 10
14.191510
 20
267.953369
 11
18.691509
 21
267.953369
  0
LINE
  8
0
  6
CONTINUOUS
 10
14.191510
 20
240.953262
 11
18.691509
 21
240.953262
  0
LINE
  8
0
  6
CONTINUOUS
 10
18.691509
 20
268.953369
 11
21.000000
 21
268.953369
  0
LINE
  8
0
  6
CONTINUOUS
 10
18.691509
 20
239.953262
 11
20.231226
 21
239.953262
  0
LINE
  8
0
  6
CONTINUOUS
 10
-7.808490
 20
262.453369
 11
0.191510
 21
262.453369
  0
LINE
  8
0
  6
CONTINUOUS
 10
-7.808490
 20
246.453262
 11
0.191510
 21
246.453262
  0
ARC
  8
0
  6
CONTINUOUS
 10
27.981237
 20
283.453217
 40
2.000000
 50
-90.000000
 51
-1.499917
  0
ARC
  8
0
  6
CONTINUOUS
 10
82.401581
 20
283.453217
 40
2.000000
 50
-178.500046
 51
-90.000000
  0
LINE
  8
0
  6
CONTINUOUS
 10
7.691583
 20
61.319286
 11
7.691583
 21
69.479355
  0
LINE
  8
0
  6
CONTINUOUS
 10
15.861643
 20
139.729507
 11
19.191584
 21
139.729507
  0
LINE
  8
0
  6
CONTINUOUS
 10
15.861643
 20
25.229546
 11
19.191584
 21
25.229546
  0
LINE
  8
0
  6
CONTINUOUS
 10
8.361443
 20
58.819286
 11
9.624597
 21
56.631485
  0
ARC
  8
0
  6
CONTINUOUS
 10
211.631577
 20
50.209526
 40
199.999985
 50
180.287292
 51
186.406006
  0
ARC
  8
0
  6
CONTINUOUS
 10
12.691567
 20
61.319286
 40
5.000000
 50
180.000000
 51
210.000305
  0
ARC
  8
0
  6
CONTINUOUS
 10
15.861627
 20
28.229506
 40
3.000000
 50
186.406006
 51
270.000000
  0
LINE
  8
0
  6
CONTINUOUS
 10
13.197717
 20
28.791965
 11
13.197717
 21
70.979355
  0
LINE
  8
0
  6
CONTINUOUS
 10
8.361443
 20
106.139725
 11
9.624703
 21
108.327744
  0
ARC
  8
0
  6
CONTINUOUS
 10
211.631577
 20
114.749489
 40
199.999985
 50
173.593994
 51
179.712601
  0
ARC
  8
0
  6
CONTINUOUS
 10
12.691567
 20
103.639725
 40
5.000000
 50
-210.000305
 51
-180.000000
  0
ARC
  8
0
  6
CONTINUOUS
 10
15.861627
 20
136.729553
 40
3.000000
 50
-270.000000
 51
-186.406006
  0
ARC
  8
0
  6
CONTINUOUS
 10
-3.365699
 20
49.131306
 40
15.000000
 50
0.287328
 51
30.000481
  0
ARC
  8
0
  6
CONTINUOUS
 10
-3.365699
 20
115.827744
 40
15.000000
 50
329.999908
 51
359.713104
  0
LINE
  8
0
  6
CONTINUOUS
 10
19.191584
 20
139.979507
 11
19.191584
 21
96.979454
  0
LINE
  8
0
  6
CONTINUOUS
 10
19.191584
 20
139.979507
 11
124.191582
 21
139.979507
  0
LINE
  8
0
  6
CONTINUOUS
 10
19.191584
 20
24.979506
 11
40.691631
 21
24.979506
  0
LINE
  8
0
  6
CONTINUOUS
 10
27.191584
 20
133.765503
 11
27.191584
 21
129.479507
  0
LINE
  8
0
  6
CONTINUOUS
 10
116.191582
 20
133.765503
 11
116.191582
 21
129.479507
  0
LINE
  8
0
  6
CONTINUOUS
 10
92.191582
 20
109.479507
 11
90.191635
 21
109.479507
  0
LINE
  8
0
  6
CONTINUOUS
 10
92.191582
 20
55.479507
 11
90.191635
 21
55.479507
  0
LINE
  8
0
  6
CONTINUOUS
 10
94.191582
 20
57.479507
 11
94.191582
 21
107.479507
  0
LINE
  8
0
  6
CONTINUOUS
 10
94.191582
 20
89.279503
 11
116.191582
 21
89.279503
  0
LINE
  8
0
  6
CONTINUOUS
 10
94.191582
 20
75.679504
 11
116.191582
 21
75.679504
  0
LINE
  8
0
  6
CONTINUOUS
 10
94.191582
 20
91.279503
 11
116.191582
 21
91.279503
  0
LINE
  8
0
  6
CONTINUOUS
 10
94.191582
 20
73.679504
 11
116.191582
 21
73.679504
  0
LINE
  8
0
  6
CONTINUOUS
 10
94.191582
 20
97.079506
 11
116.191582
 21
97.079506
  0
LINE
  8
0
  6
CONTINUOUS
 10
94.191582
 20
99.079506
 11
116.191582
 21
99.079506
  0
LINE
  8
0
  6
CONTINUOUS
 10
94.191582
 20
67.879509
 11
116.191582
 21
67.879509
  0
LINE
  8
0
  6
CONTINUOUS
 10
94.191582
 20
65.879509
 11
116.191582
 21
65.879509
  0
LINE
  8
0
  6
CONTINUOUS
 10
94.191582
 20
104.879509
 11
116.191582
 21
104.879509
  0
LINE
  8
0
  6
CONTINUOUS
 10
94.191582
 20
60.079506
 11
116.191582
 21
60.079506
  0
LINE
  8
0
  6
CONTINUOUS
 10
94.191582
 20
106.879509
 11
116.191582
 21
106.879509
  0
LINE
  8
0
  6
CONTINUOUS
 10
94.191582
 20
58.079506
 11
116.191582
 21
58.079506
  0
LINE
  8
0
  6
CONTINUOUS
 10
27.191584
 20
120.479507
 11
116.191582
 21
120.479507
  0
LINE
  8
0
  6
CONTINUOUS
 10
27.191584
 20
44.479507
 11
68.691734
 21
44.479507
  0
LINE
  8
0
  6
CONTINUOUS
 10
27.191584
 20
122.479507
 11
116.191582
 21
122.479507
  0
LINE
  8
0
  6
CONTINUOUS
 10
27.191584
 20
42.479507
 11
41.691631
 21
42.479507
  0
LINE
  8
0
  6
CONTINUOUS
 10
27.191584
 20
127.479507
 11
116.191582
 21
127.479507
  0
LINE
  8
0
  6
CONTINUOUS
 10
27.191584
 20
37.479507
 11
66.691734
 21
37.479507
  0
LINE
  8
0
  6
CONTINUOUS
 10
27.191584
 20
129.479507
 11
116.191582
 21
129.479507
  0
LINE
  8
0
  6
CONTINUOUS
 10
27.191584
 20
35.479507
 11
42.191631
 21
35.479507
  0
LINE
  8
0
  6
CONTINUOUS
 10
27.191584
 20
133.765503
 11
116.191582
 21
133.765503
  0
LINE
  8
0
  6
CONTINUOUS
 10
27.191584
 20
31.193506
 11
68.191734
 21
31.193506
  0
LINE
  8
0
  6
CONTINUOUS
 10
27.191584
 20
31.193506
 11
27.191584
 21
35.479507
  0
LINE
  8
0
  6
CONTINUOUS
 10
27.191584
 20
127.479507
 11
27.191584
 21
122.479507
  0
LINE
  8
0
  6
CONTINUOUS
 10
27.191584
 20
120.479507
 11
27.191584
 21
117.479507
  0
LINE
  8
0
  6
CONTINUOUS
 10
27.191584
 20
47.479507
 11
27.191584
 21
44.479507
  0
LINE
  8
0
  6
CONTINUOUS
 10
27.191584
 20
42.479507
 11
27.191584
 21
37.479507
  0
LINE
  8
0
  6
CONTINUOUS
 10
116.191582
 20
31.193506
 11
116.191582
 21
35.479507
  0
LINE
  8
0
  6
CONTINUOUS
 10
116.191582
 20
37.479507
 11
116.191582
 21
42.479507
  0
LINE
  8
0
  6
CONTINUOUS
 10
116.191582
 20
44.479507
 11
116.191582
 21
49.979507
  0
LINE
  8
0
  6
CONTINUOUS
 10
116.191582
 20
51.979507
 11
116.191582
 21
58.079506
  0
LINE
  8
0
  6
CONTINUOUS
 10
116.191582
 20
60.079506
 11
116.191582
 21
65.879494
  0
LINE
  8
0
  6
CONTINUOUS
 10
116.191582
 20
67.879501
 11
116.191582
 21
73.679512
  0
LINE
  8
0
  6
CONTINUOUS
 10
94.191582
 20
83.479507
 11
116.191582
 21
83.479507
  0
LINE
  8
0
  6
CONTINUOUS
 10
94.191582
 20
81.479507
 11
116.191582
 21
81.479507
  0
LINE
  8
0
  6
CONTINUOUS
 10
116.191582
 20
75.679512
 11
116.191582
 21
81.479507
  0
LINE
  8
0
  6
CONTINUOUS
 10
116.191582
 20
83.479507
 11
116.191582
 21
89.279510
  0
LINE
  8
0
  6
CONTINUOUS
 10
116.191582
 20
91.279503
 11
116.191582
 21
97.079514
  0
LINE
  8
0
  6
CONTINUOUS
 10
116.191582
 20
99.079506
 11
116.191582
 21
104.879509
  0
LINE
  8
0
  6
CONTINUOUS
 10
116.191582
 20
106.879509
 11
116.191582
 21
112.979507
  0
LINE
  8
0
  6
CONTINUOUS
 10
116.191582
 20
114.979507
 11
116.191582
 21
120.479507
  0
LINE
  8
0
  6
CONTINUOUS
 10
116.191582
 20
122.479507
 11
116.191582
 21
127.479507
  0
ARC
  8
0
  6
CONTINUOUS
 10
92.191582
 20
107.479507
 40
2.000000
 50
0.000000
 51
90.000000
  0
ARC
  8
0
  6
CONTINUOUS
 10
92.191582
 20
57.479507
 40
2.000000
 50
-90.000000
 51
0.000000
  0
LINE
  8
0
  6
CONTINUOUS
 10
116.191582
 20
51.979507
 11
90.191635
 21
51.979507
  0
LINE
  8
0
  6
CONTINUOUS
 10
116.191582
 20
49.979507
 11
90.191635
 21
49.979507
  0
LINE
  8
0
  6
CONTINUOUS
 10
116.191582
 20
44.479507
 11
68.691734
 21
44.479507
  0
LINE
  8
0
  6
CONTINUOUS
 10
116.191582
 20
42.479507
 11
41.691631
 21
42.479507
  0
LINE
  8
0
  6
CONTINUOUS
 10
116.191582
 20
37.479507
 11
66.691734
 21
37.479507
  0
LINE
  8
0
  6
CONTINUOUS
 10
116.191582
 20
35.479507
 11
42.191631
 21
35.479507
  0
LINE
  8
0
  6
CONTINUOUS
 10
116.191582
 20
31.193506
 11
68.191734
 21
31.193506
  0
LINE
  8
0
  6
CONTINUOUS
 10
124.191582
 20
24.979506
 11
40.691631
 21
24.979506
  0
LINE
  8
0
  6
CONTINUOUS
 10
22.691593
 20
117.479507
 11
87.691536
 21
117.479507
  0
LINE
  8
0
  6
CONTINUOUS
 10
87.691635
 20
47.479507
 11
22.691584
 21
47.479507
  0
LINE
  8
0
  6
CONTINUOUS
 10
20.191584
 20
74.752907
 11
20.191584
 21
114.979507
  0
LINE
  8
0
  6
CONTINUOUS
 10
90.191635
 20
74.752907
 11
90.191635
 21
114.979507
  0
ARC
  8
0
  6
CONTINUOUS
 10
87.691635
 20
114.979507
 40
2.500000
 50
0.000000
 51
90.000000
  0
ARC
  8
0
  6
CONTINUOUS
 10
22.691612
 20
114.979507
 40
2.500000
 50
90.000000
 51
180.000000
  0
ARC
  8
0
  6
CONTINUOUS
 10
22.691593
 20
49.979507
 40
2.500000
 50
180.000000
 51
270.000000
  0
ARC
  8
0
  6
CONTINUOUS
 10
87.691635
 20
49.979496
 40
2.500000
 50
-90.000000
 51
0.000000
  0
ARC
  8
0
  6
CONTINUOUS
 10
25.191593
 20
112.479507
 40
4.000000
 50
-90.000000
 51
0.000000
  0
ARC
  8
0
  6
CONTINUOUS
 10
85.191635
 20
112.479507
 40
4.000000
 50
180.000000
 51
270.000000
  0
ARC
  8
0
  6
CONTINUOUS
 10
85.191635
 20
52.479507
 40
4.000000
 50
90.000000
 51
180.000000
  0
ARC
  8
0
  6
CONTINUOUS
 10
25.191593
 20
52.479507
 40
4.000000
 50
0.000000
 51
90.000000
  0
LINE
  8
0
  6
CONTINUOUS
 10
85.191635
 20
108.479507
 11
87.691635
 21
108.479507
  0
LINE
  8
0
  6
CONTINUOUS
 10
25.191584
 20
108.479507
 11
22.691584
 21
108.479507
  0
LINE
  8
0
  6
CONTINUOUS
 10
25.191584
 20
56.479507
 11
22.691612
 21
56.479507
  0
LINE
  8
0
  6
CONTINUOUS
 10
85.191635
 20
56.479507
 11
87.691635
 21
56.479507
  0
LINE
  8
0
  6
CONTINUOUS
 10
81.191635
 20
112.479507
 11
81.191635
 21
114.979507
  0
LINE
  8
0
  6
CONTINUOUS
 10
29.191593
 20
112.479507
 11
29.191593
 21
114.979507
  0
LINE
  8
0
  6
CONTINUOUS
 10
29.191593
 20
52.479507
 11
29.191593
 21
49.979496
  0
LINE
  8
0
  6
CONTINUOUS
 10
81.191635
 20
52.479485
 11
81.191635
 21
49.979496
  0
ARC
  8
0
  6
CONTINUOUS
 10
22.691593
 20
105.979507
 40
2.500000
 50
90.000000
 51
180.000000
  0
ARC
  8
0
  6
CONTINUOUS
 10
31.691612
 20
114.979507
 40
2.500000
 50
90.000000
 51
180.000000
  0
ARC
  8
0
  6
CONTINUOUS
 10
78.691635
 20
114.979507
 40
2.500000
 50
0.000000
 51
90.000000
  0
ARC
  8
0
  6
CONTINUOUS
 10
87.691635
 20
105.979507
 40
2.500000
 50
0.000000
 51
90.000000
  0
ARC
  8
0
  6
CONTINUOUS
 10
22.691593
 20
58.979507
 40
2.500000
 50
180.000000
 51
270.000000
  0
ARC
  8
0
  6
CONTINUOUS
 10
31.691593
 20
49.979507
 40
2.500000
 50
180.000000
 51
270.000000
  0
ARC
  8
0
  6
CONTINUOUS
 10
87.691635
 20
58.979496
 40
2.500000
 50
-90.000000
 51
0.000000
  0
ARC
  8
0
  6
CONTINUOUS
 10
78.691635
 20
49.979496
 40
2.500000
 50
-90.000000
 51
0.000000
  0
LINE
  8
0
  6
CONTINUOUS
 10
90.191635
 20
49.979507
 11
90.191635
 21
74.752907
  0
LINE
  8
0
  6
CONTINUOUS
 10
20.191593
 20
49.979507
 11
20.191584
 21
74.752907
  0
LINE
  8
0
  6
CONTINUOUS
 10
-7.808367
 20
67.979355
 11
-7.808367
 21
96.979454
  0
LINE
  8
0
  6
CONTINUOUS
 10
0.191633
 20
67.979355
 11
0.191633
 21
96.979454
  0
LINE
  8
0
  6
CONTINUOUS
 10
-7.808367
 20
67.979355
 11
0.191633
 21
67.979355
  0
LINE
  8
0
  6
CONTINUOUS
 10
-7.808367
 20
96.979454
 11
0.191633
 21
96.979454
  0
LINE
  8
0
  6
CONTINUOUS
 10
9.191633
 20
69.479355
 11
9.191633
 21
95.479454
  0
LINE
  8
0
  6
CONTINUOUS
 10
0.191633
 20
69.479355
 11
9.191633
 21
69.479355
  0
LINE
  8
0
  6
CONTINUOUS
 10
0.191633
 20
95.479454
 11
9.191633
 21
95.479454
  0
LINE
  8
0
  6
CONTINUOUS
 10
9.191633
 20
70.979355
 11
14.191633
 21
70.979355
  0
LINE
  8
0
  6
CONTINUOUS
 10
9.191633
 20
93.979454
 11
14.191633
 21
93.979454
  0
LINE
  8
0
  6
CONTINUOUS
 10
14.191633
 20
68.979355
 11
14.191633
 21
95.979454
  0
LINE
  8
0
  6
CONTINUOUS
 10
18.691633
 20
67.979355
 11
18.691633
 21
96.979454
  0
LINE
  8
0
  6
CONTINUOUS
 10
14.191633
 20
68.979355
 11
18.691633
 21
68.979355
  0
LINE
  8
0
  6
CONTINUOUS
 10
14.191633
 20
95.979454
 11
18.691633
 21
95.979454
  0
LINE
  8
0
  6
CONTINUOUS
 10
18.691633
 20
67.979355
 11
20.230932
 21
67.979355
  0
LINE
  8
0
  6
CONTINUOUS
 10
18.691633
 20
96.979454
 11
20.191584
 21
96.979454
  0
LINE
  8
0
  6
CONTINUOUS
 10
-7.808367
 20
74.479355
 11
0.191633
 21
74.479355
  0
LINE
  8
0
  6
CONTINUOUS
 10
-7.808367
 20
90.479454
 11
0.191633
 21
90.479454
  0
LINE
  8
0
  6
CONTINUOUS
 10
90.191635
 20
112.979507
 11
116.191582
 21
112.979507
  0
LINE
  8
0
  6
CONTINUOUS
 10
90.191635
 20
114.979507
 11
116.191582
 21
114.979507
  0
LINE
  8
0
  6
CONTINUOUS
 10
7.691583
 20
95.479454
 11
7.691583
 21
103.639725
  0
LINE
  8
0
  6
CONTINUOUS
 10
13.197717
 20
93.979454
 11
13.197717
 21
135.604599
  0
LINE
  8
0
  6
CONTINUOUS
 10
19.191584
 20
67.979355
 11
19.191584
 21
24.979506
  0
LINE
  8
0
  6
CENTER
 10
546.014954
 20
203.599396
 11
546.014954
 21
-4.550605
  0
LINE
  8
0
  6
CENTER
 10
423.500000
 20
82.479393
 11
643.928955
 21
82.479393
  0
LINE
  8
0
  6
CENTER
 10
443.965149
 20
101.479393
 11
643.928955
 21
101.479393
  0
LINE
  8
0
  6
CENTER
 10
467.490753
 20
22.953674
 11
625.959167
 21
181.425156
  0
LINE
  8
0
  6
CENTER
 10
624.694153
 20
22.798635
 11
464.845947
 21
182.650269
  0
CIRCLE
  8
0
  6
CONTINUOUS
 10
611.421753
 20
166.887512
 40
5.500000
  0
CIRCLE
  8
0
  6
CONTINUOUS
 10
480.607758
 20
166.886993
 40
5.500000
  0
CIRCLE
  8
0
  6
CONTINUOUS
 10
480.608368
 20
36.071316
 40
5.500000
  0
CIRCLE
  8
0
  6
CONTINUOUS
 10
611.421753
 20
36.071316
 40
5.500000
  0
ARC
  8
0
  6
CONTINUOUS
 10
546.014954
 20
-346.020599
 40
530.000000
 50
82.751762
 51
97.248253
  0
ARC
  8
0
  6
CONTINUOUS
 10
994.014587
 20
101.479393
 40
530.000000
 50
172.687897
 51
187.450607
  0
ARC
  8
0
  6
CONTINUOUS
 10
98.014977
 20
101.479393
 40
530.000000
 50
-7.435791
 51
7.312139
  0
ARC
  8
0
  6
CONTINUOUS
 10
611.306335
 20
167.344116
 40
12.500000
 50
7.312304
 51
82.751900
  0
ARC
  8
0
  6
CONTINUOUS
 10
480.723572
 20
167.344116
 40
12.500000
 50
97.248528
 51
172.688293
  0
ARC
  8
0
  6
CONTINUOUS
 10
546.015137
 20
252.479431
 40
240.000000
 50
253.359497
 51
286.640594
  0
ARC
  8
0
  6
CONTINUOUS
 10
611.163147
 20
34.507015
 40
12.500000
 50
286.640686
 51
352.564392
  0
ARC
  8
0
  6
CONTINUOUS
 10
480.866974
 20
34.507015
 40
12.500000
 50
188.061401
 51
253.359299
  0
CIRCLE
  8
0
  6
CONTINUOUS
 10
546.014954
 20
101.479393
 40
74.000000
  0
CIRCLE
  8
0
  6
CONTINUOUS
 10
546.014954
 20
101.479393
 40
69.000000
  0
ARC
  8
0
  6
CONTINUOUS
 10
480.608368
 20
36.071316
 40
12.500000
 50
-20.927799
 51
97.746010
  0
ARC
  8
0
  6
CONTINUOUS
 10
611.421753
 20
36.071316
 40
12.500000
 50
82.255692
 51
200.927902
  0
ARC
  8
0
  6
CONTINUOUS
 10
611.421753
 20
166.887512
 40
12.500000
 50
170.626694
 51
277.744293
  0
ARC
  8
0
  6
CONTINUOUS
 10
480.607758
 20
166.886993
 40
12.500000
 50
-97.744598
 51
9.374557
  0
ARC
  8
0
  6
CONTINUOUS
 10
98.014977
 20
101.479393
 40
523.000000
 50
354.675598
 51
355.749115
  0
ARC
  8
0
  6
CONTINUOUS
 10
994.014587
 20
101.479393
 40
523.000000
 50
174.675705
 51
175.749207
  0
ARC
  8
0
  6
CONTINUOUS
 10
546.015137
 20
252.479431
 40
233.000000
 50
257.573792
 51
282.426208
  0
ARC
  8
0
  6
CONTINUOUS
 10
546.014954
 20
-346.020599
 40
523.000000
 50
84.667427
 51
85.866867
  0
ARC
  8
0
  6
CONTINUOUS
 10
994.014587
 20
101.479393
 40
523.000000
 50
184.250793
 51
185.324402
  0
LINE
  8
0
  6
CONTINUOUS
 10
549.014954
 20
167.205994
 11
549.014954
 21
151.218094
  0
LINE
  8
0
  6
CONTINUOUS
 10
543.014954
 20
167.206116
 11
543.014954
 21
151.218094
  0
ARC
  8
0
  6
CONTINUOUS
 10
552.015564
 20
167.205994
 40
3.000000
 50
84.783257
 51
180.000000
  0
ARC
  8
0
  6
CONTINUOUS
 10
540.014954
 20
167.206116
 40
3.000000
 50
0.000000
 51
95.220268
  0
ARC
  8
0
  6
CONTINUOUS
 10
546.014954
 20
101.479393
 40
75.500000
 50
118.067596
 51
151.060104
  0
ARC
  8
0
  6
CONTINUOUS
 10
98.014977
 20
101.479393
 40
523.000000
 50
4.250875
 51
5.324408
  0
ARC
  8
0
  6
CONTINUOUS
 10
546.014954
 20
101.479393
 40
75.500000
 50
28.940559
 51
61.932369
  0
ARC
  8
0
  6
CONTINUOUS
 10
605.557739
 20
152.539612
 40
3.000000
 50
67.770348
 51
209.144806
  0
ARC
  8
0
  6
CONTINUOUS
 10
597.073181
 20
161.024994
 40
3.000000
 50
-141.997299
 51
22.223600
  0
ARC
  8
0
  6
CONTINUOUS
 10
486.469971
 20
152.538193
 40
3.000000
 50
-29.228300
 51
112.222099
  0
ARC
  8
0
  6
CONTINUOUS
 10
494.957153
 20
161.026520
 40
3.000000
 50
157.784302
 51
321.917511
  0
ARC
  8
0
  6
CONTINUOUS
 10
546.014954
 20
-346.020599
 40
523.000000
 50
94.133141
 51
95.332626
  0
ARC
  8
0
  6
CONTINUOUS
 10
546.014954
 20
101.479393
 40
75.500000
 50
208.939804
 51
331.059387
  0
ARC
  8
0
  6
CONTINUOUS
 10
615.587158
 20
63.009098
 40
4.000000
 50
-4.250610
 51
151.059494
  0
ARC
  8
0
  6
CONTINUOUS
 10
476.442352
 20
63.009998
 40
4.000000
 50
28.940149
 51
184.250595
  0
ARC
  8
0
  6
CONTINUOUS
 10
613.779968
 20
53.411716
 40
5.000000
 50
262.255615
 51
354.675812
  0
ARC
  8
0
  6
CONTINUOUS
 10
595.076172
 20
29.820496
 40
5.000000
 50
-77.573517
 51
20.927670
  0
ARC
  8
0
  6
CONTINUOUS
 10
496.953949
 20
29.820496
 40
5.000000
 50
159.072693
 51
257.573486
  0
ARC
  8
0
  6
CONTINUOUS
 10
478.249756
 20
53.411613
 40
5.000000
 50
185.324600
 51
277.746613
  0
CIRCLE
  8
0
  6
CONTINUOUS
 10
546.014954
 20
101.479393
 40
30.000000
  0
ARC
  8
0
  6
CONTINUOUS
 10
546.014954
 20
82.479393
 40
66.000000
 50
28.951040
 51
51.185902
  0
ARC
  8
0
  6
CONTINUOUS
 10
608.142334
 20
116.847794
 40
5.000000
 50
-151.048996
 51
13.894250
  0
ARC
  8
0
  6
CONTINUOUS
 10
483.887573
 20
116.847794
 40
5.000000
 50
166.108307
 51
331.049286
  0
ARC
  8
0
  6
CONTINUOUS
 10
552.014587
 20
151.218094
 40
3.000000
 50
180.000000
 51
265.011505
  0
ARC
  8
0
  6
CONTINUOUS
 10
540.015381
 20
151.218094
 40
3.000000
 50
-85.011467
 51
0.000000
  0
ARC
  8
0
  6
CONTINUOUS
 10
546.014954
 20
82.479393
 40
66.000000
 50
94.988533
 51
118.640198
  0
ARC
  8
0
  6
CONTINUOUS
 10
476.442352
 20
139.948792
 40
4.000000
 50
175.749802
 51
331.060699
  0
ARC
  8
0
  6
CONTINUOUS
 10
508.609375
 20
171.629700
 40
4.000000
 50
-61.931980
 51
94.133713
  0
ARC
  8
0
  6
CONTINUOUS
 10
478.249573
 20
149.546600
 40
5.000000
 50
82.255569
 51
174.676102
  0
ARC
  8
0
  6
CONTINUOUS
 10
497.874176
 20
169.737518
 40
5.000000
 50
95.333099
 51
189.374695
  0
ARC
  8
0
  6
CONTINUOUS
 10
583.420776
 20
171.629700
 40
4.000000
 50
85.867172
 51
241.932693
  0
ARC
  8
0
  6
CONTINUOUS
 10
594.155334
 20
169.737595
 40
5.000000
 50
-9.372955
 51
84.667587
  0
ARC
  8
0
  6
CONTINUOUS
 10
613.779968
 20
149.547119
 40
5.000000
 50
5.324549
 51
97.744431
  0
ARC
  8
0
  6
CONTINUOUS
 10
615.587158
 20
139.949615
 40
4.000000
 50
-151.059494
 51
4.251050
  0
LINE
  8
0
  6
CONTINUOUS
 10
501.661163
 20
150.076996
 11
510.821960
 21
140.916016
  0
LINE
  8
0
  6
CONTINUOUS
 10
497.418365
 20
145.834412
 11
504.887756
 21
138.364792
  0
ARC
  8
0
  6
CONTINUOUS
 10
503.782349
 20
152.198212
 40
3.000000
 50
129.788101
 51
225.000000
  0
ARC
  8
0
  6
CONTINUOUS
 10
495.296570
 20
143.712616
 40
3.000000
 50
44.999950
 51
140.220306
  0
ARC
  8
0
  6
CONTINUOUS
 10
502.765961
 20
136.243011
 40
3.000000
 50
-51.184841
 51
44.999950
  0
ARC
  8
0
  6
CONTINUOUS
 10
512.943176
 20
143.037201
 40
3.000000
 50
225.000000
 51
298.640411
  0
LINE
  8
0
  6
CONTINUOUS
 10
594.611572
 20
145.834320
 11
587.142151
 21
138.364716
  0
LINE
  8
0
  6
CONTINUOUS
 10
590.368958
 20
150.076996
 11
581.208191
 21
140.916016
  0
ARC
  8
0
  6
CONTINUOUS
 10
588.247742
 20
152.198120
 40
3.000000
 50
-44.999111
 51
50.216091
  0
ARC
  8
0
  6
CONTINUOUS
 10
579.086975
 20
143.037094
 40
3.000000
 50
241.359894
 51
315.000885
  0
ARC
  8
0
  6
CONTINUOUS
 10
589.263733
 20
136.243088
 40
3.000000
 50
135.000900
 51
231.186096
  0
ARC
  8
0
  6
CONTINUOUS
 10
596.733154
 20
143.712692
 40
3.000000
 50
39.783890
 51
135.000900
  0
ARC
  8
0
  6
CONTINUOUS
 10
546.014954
 20
82.479393
 40
66.000000
 50
61.359940
 51
85.011787
  0
ARC
  8
0
  6
CONTINUOUS
 10
546.014954
 20
82.479393
 40
66.000000
 50
128.814407
 51
151.048904
  0
CIRCLE
  8
0
  6
CENTER
 10
546.014954
 20
101.479393
 40
92.500000
  0
ARC
  8
0
  6
CONTINUOUS
 10
546.014954
 20
101.479393
 40
11.000000
 50
-164.173401
 51
164.173401
  0
LINE
  8
0
  6
CONTINUOUS
 10
538.514954
 20
104.479393
 11
538.514954
 21
98.479393
  0
LINE
  8
0
  6
CONTINUOUS
 10
532.514954
 20
104.479393
 11
532.514954
 21
98.479393
  0
LINE
  8
0
  6
CONTINUOUS
 10
532.514954
 20
104.479393
 11
538.514954
 21
104.479393
  0
LINE
  8
0
  6
CONTINUOUS
 10
532.514954
 20
98.479393
 11
538.514954
 21
98.479393
  0
LINE
  8
0
  6
CONTINUOUS
 10
466.688690
 20
48.305790
 11
435.514954
 21
47.479397
  0
LINE
  8
0
  6
CONTINUOUS
 10
464.233673
 20
116.717720
 11
435.514954
 21
117.479393
  0
LINE
  8
0
  6
CONTINUOUS
 10
429.514954
 20
49.979397
 11
429.514954
 21
114.979393
  0
LINE
  8
0
  6
CONTINUOUS
 10
432.014954
 20
117.479393
 11
434.514954
 21
117.479393
  0
LINE
  8
0
  6
CONTINUOUS
 10
432.014954
 20
47.479397
 11
434.514954
 21
47.479397
  0
LINE
  8
0
  6
CONTINUOUS
 10
434.514954
 20
117.479393
 11
434.514954
 21
47.479397
  0
LINE
  8
0
  6
CONTINUOUS
 10
435.514954
 20
117.479393
 11
435.514954
 21
47.479397
  0
LINE
  8
0
  6
CONTINUOUS
 10
434.514954
 20
117.479393
 11
435.514954
 21
117.479393
  0
LINE
  8
0
  6
CONTINUOUS
 10
434.514954
 20
47.479397
 11
435.514954
 21
47.479397
  0
LINE
  8
0
  6
CONTINUOUS
 10
432.514954
 20
108.966492
 11
432.514954
 21
116.479393
  0
LINE
  8
0
  6
CONTINUOUS
 10
432.514954
 20
55.992336
 11
432.514954
 21
48.479397
  0
LINE
  8
0
  6
CONTINUOUS
 10
432.028076
 20
108.466698
 11
430.488770
 21
108.426392
  0
ARC
  8
0
  6
CONTINUOUS
 10
432.014954
 20
108.966492
 40
0.500000
 50
-88.500000
 51
0.000000
  0
ARC
  8
0
  6
CONTINUOUS
 10
430.514954
 20
107.426697
 40
1.000000
 50
91.499802
 51
180.000000
  0
ARC
  8
0
  6
CONTINUOUS
 10
433.514954
 20
116.479393
 40
1.000000
 50
90.000000
 51
180.000000
  0
ARC
  8
0
  6
CONTINUOUS
 10
432.014954
 20
114.979393
 40
2.500000
 50
90.000000
 51
180.000000
  0
LINE
  8
0
  6
CONTINUOUS
 10
432.028076
 20
56.492214
 11
430.488770
 21
56.532494
  0
ARC
  8
0
  6
CONTINUOUS
 10
430.514954
 20
57.532124
 40
1.000000
 50
180.000000
 51
268.499603
  0
ARC
  8
0
  6
CONTINUOUS
 10
432.014954
 20
55.992336
 40
0.500000
 50
0.000000
 51
88.499802
  0
ARC
  8
0
  6
CONTINUOUS
 10
433.514954
 20
48.479397
 40
1.000000
 50
180.000000
 51
270.000000
  0
ARC
  8
0
  6
CONTINUOUS
 10
432.014954
 20
49.979397
 40
2.500000
 50
180.000000
 51
270.000000
  0
ARC
  8
0
  6
CONTINUOUS
 10
432.514954
 20
112.479393
 40
3.000000
 50
90.000000
 51
270.000000
  0
LINE
  8
0
  6
CONTINUOUS
 10
432.014954
 20
115.437393
 11
432.014954
 21
109.521393
  0
LINE
  8
0
  6
CONTINUOUS
 10
430.014954
 20
112.479393
 11
429.528168
 21
112.198296
  0
LINE
  8
0
  6
CONTINUOUS
 10
430.014954
 20
112.479393
 11
429.528168
 21
112.760498
  0
ARC
  8
0
  6
CONTINUOUS
 10
432.514954
 20
52.479397
 40
3.000000
 50
90.000000
 51
270.000000
  0
LINE
  8
0
  6
CONTINUOUS
 10
432.014954
 20
55.437405
 11
432.014954
 21
49.521385
  0
LINE
  8
0
  6
CONTINUOUS
 10
430.014954
 20
52.479397
 11
429.528168
 21
52.198326
  0
LINE
  8
0
  6
CONTINUOUS
 10
430.014954
 20
52.479397
 11
429.528168
 21
52.760525
  0
LINE
  8
0
  6
CONTINUOUS
 10
132.691650
 20
287.745087
 11
134.191650
 21
288.173645
  0
LINE
  8
0
  6
CONTINUOUS
 10
134.191650
 20
287.187103
 11
135.691650
 21
287.703491
  0
LINE
  8
0
  6
CONTINUOUS
 10
132.691650
 20
293.889252
 11
132.691650
 21
287.745087
  0
LINE
  8
0
  6
CONTINUOUS
 10
134.191650
 20
293.996826
 11
134.191650
 21
287.187103
  0
LINE
  8
0
  6
CONTINUOUS
 10
135.691650
 20
293.835449
 11
135.691650
 21
287.703491
  0
LINE
  8
0
  6
CONTINUOUS
 10
182.691650
 20
294.453217
 11
182.691650
 21
289.502197
  0
LINE
  8
0
  6
CONTINUOUS
 10
182.691650
 20
289.502197
 11
184.191650
 21
289.930756
  0
LINE
  8
0
  6
CONTINUOUS
 10
184.191650
 20
294.453217
 11
184.191650
 21
288.944214
  0
LINE
  8
0
  6
CONTINUOUS
 10
184.191650
 20
288.944214
 11
185.691650
 21
289.460602
  0
LINE
  8
0
  6
CONTINUOUS
 10
185.691650
 20
294.453217
 11
185.691650
 21
289.460602
  0
LINE
  8
0
  6
CONTINUOUS
 10
135.691650
 20
291.703217
 11
147.191528
 21
291.703217
  0
LINE
  8
0
  6
CONTINUOUS
 10
185.691650
 20
293.953217
 11
202.594650
 21
293.953217
  0
LINE
  8
0
  6
CONTINUOUS
 10
26.941593
 20
112.879501
 11
26.941593
 21
112.079483
  0
LINE
  8
0
  6
CONTINUOUS
 10
24.791569
 20
114.229507
 11
25.591587
 21
114.229507
  0
LINE
  8
0
  6
CONTINUOUS
 10
24.791569
 20
110.729507
 11
25.591587
 21
110.729507
  0
LINE
  8
0
  6
CONTINUOUS
 10
23.441593
 20
112.879501
 11
23.441593
 21
112.079483
  0
CIRCLE
  8
0
  6
CONTINUOUS
 10
25.191593
 20
112.479507
 40
2.750000
  0
ARC
  8
0
  6
CONTINUOUS
 10
23.441593
 20
114.229507
 40
1.350000
 50
-90.000000
 51
0.000000
  0
ARC
  8
0
  6
CONTINUOUS
 10
23.441593
 20
110.729507
 40
1.350000
 50
0.000000
 51
90.000000
  0
ARC
  8
0
  6
CONTINUOUS
 10
26.941593
 20
114.229507
 40
1.350000
 50
180.000000
 51
270.000000
  0
ARC
  8
0
  6
CONTINUOUS
 10
26.941593
 20
110.729507
 40
1.350000
 50
90.000000
 51
180.000000
  0
LINE
  8
0
  6
CONTINUOUS
 10
86.941635
 20
112.879501
 11
86.941635
 21
112.079483
  0
LINE
  8
0
  6
CONTINUOUS
 10
84.791611
 20
114.229507
 11
85.591629
 21
114.229507
  0
LINE
  8
0
  6
CONTINUOUS
 10
84.791611
 20
110.729507
 11
85.591629
 21
110.729507
  0
LINE
  8
0
  6
CONTINUOUS
 10
83.441635
 20
112.879501
 11
83.441635
 21
112.079483
  0
CIRCLE
  8
0
  6
CONTINUOUS
 10
85.191635
 20
112.479507
 40
2.750000
  0
ARC
  8
0
  6
CONTINUOUS
 10
83.441635
 20
114.229507
 40
1.350000
 50
-90.000000
 51
0.000000
  0
ARC
  8
0
  6
CONTINUOUS
 10
83.441635
 20
110.729507
 40
1.350000
 50
0.000000
 51
90.000000
  0
ARC
  8
0
  6
CONTINUOUS
 10
86.941635
 20
114.229507
 40
1.350000
 50
180.000000
 51
270.000000
  0
ARC
  8
0
  6
CONTINUOUS
 10
86.941635
 20
110.729507
 40
1.350000
 50
90.000000
 51
180.000000
  0
LINE
  8
0
  6
CONTINUOUS
 10
86.941635
 20
52.879501
 11
86.941635
 21
52.079483
  0
LINE
  8
0
  6
CONTINUOUS
 10
84.791611
 20
54.229507
 11
85.591629
 21
54.229507
  0
LINE
  8
0
  6
CONTINUOUS
 10
84.791611
 20
50.729507
 11
85.591629
 21
50.729507
  0
LINE
  8
0
  6
CONTINUOUS
 10
83.441635
 20
52.879501
 11
83.441635
 21
52.079483
  0
CIRCLE
  8
0
  6
CONTINUOUS
 10
85.191635
 20
52.479507
 40
2.750000
  0
ARC
  8
0
  6
CONTINUOUS
 10
83.441635
 20
54.229507
 40
1.350000
 50
-90.000000
 51
0.000000
  0
ARC
  8
0
  6
CONTINUOUS
 10
83.441635
 20
50.729507
 40
1.350000
 50
0.000000
 51
90.000000
  0
ARC
  8
0
  6
CONTINUOUS
 10
86.941635
 20
54.229507
 40
1.350000
 50
180.000000
 51
270.000000
  0
ARC
  8
0
  6
CONTINUOUS
 10
86.941635
 20
50.729507
 40
1.350000
 50
90.000000
 51
180.000000
  0
LINE
  8
0
  6
CONTINUOUS
 10
26.941593
 20
52.879501
 11
26.941593
 21
52.079483
  0
LINE
  8
0
  6
CONTINUOUS
 10
24.791569
 20
54.229507
 11
25.591587
 21
54.229507
  0
LINE
  8
0
  6
CONTINUOUS
 10
24.791569
 20
50.729507
 11
25.591587
 21
50.729507
  0
LINE
  8
0
  6
CONTINUOUS
 10
23.441593
 20
52.879501
 11
23.441593
 21
52.079483
  0
CIRCLE
  8
0
  6
CONTINUOUS
 10
25.191593
 20
52.479507
 40
2.750000
  0
ARC
  8
0
  6
CONTINUOUS
 10
23.441593
 20
54.229507
 40
1.350000
 50
-90.000000
 51
0.000000
  0
ARC
  8
0
  6
CONTINUOUS
 10
23.441593
 20
50.729507
 40
1.350000
 50
0.000000
 51
90.000000
  0
ARC
  8
0
  6
CONTINUOUS
 10
26.941593
 20
54.229507
 40
1.350000
 50
180.000000
 51
270.000000
  0
ARC
  8
0
  6
CONTINUOUS
 10
26.941593
 20
50.729507
 40
1.350000
 50
90.000000
 51
180.000000
  0
LINE
  8
0
  6
CENTER
 10
-13.025313
 20
254.453262
 11
28.055937
 21
254.453262
  0
LINE
  8
0
  6
CENTER
 10
55.191509
 20
301.210632
 11
55.191509
 21
225.210312
  0
LINE
  8
0
  6
CENTER
 10
55.191631
 20
121.920311
 11
55.191631
 21
40.638126
  0
LINE
  8
0
  6
CONTINUOUS
 10
149.191589
 20
27.229334
 11
149.191589
 21
137.729340
  0
LINE
  8
0
  6
CONTINUOUS
 10
204.191589
 20
27.229334
 11
204.191589
 21
137.729340
  0
LINE
  8
0
  6
CONTINUOUS
 10
151.191589
 20
126.479332
 11
202.191589
 21
126.479332
  0
LINE
  8
0
  6
CONTINUOUS
 10
151.191589
 20
34.479332
 11
202.191589
 21
34.479332
  0
LINE
  8
0
  6
CONTINUOUS
 10
141.191589
 20
139.729340
 11
147.191589
 21
139.729340
  0
LINE
  8
0
  6
CONTINUOUS
 10
141.191589
 20
25.229334
 11
147.191589
 21
25.229334
  0
ARC
  8
0
  6
CONTINUOUS
 10
151.191589
 20
128.479340
 40
2.000000
 50
180.000000
 51
270.000000
  0
ARC
  8
0
  6
CONTINUOUS
 10
202.191589
 20
128.479340
 40
2.000000
 50
-90.000000
 51
0.000000
  0
ARC
  8
0
  6
CONTINUOUS
 10
151.191589
 20
32.479355
 40
2.000000
 50
90.000000
 51
180.000000
  0
ARC
  8
0
  6
CONTINUOUS
 10
202.191589
 20
32.479332
 40
2.000000
 50
0.000000
 51
90.000000
  0
ARC
  8
0
  6
CONTINUOUS
 10
147.191589
 20
137.729340
 40
2.000000
 50
0.000000
 51
90.000000
  0
ARC
  8
0
  6
CONTINUOUS
 10
206.191589
 20
137.729355
 40
2.000000
 50
90.000000
 51
180.000000
  0
ARC
  8
0
  6
CONTINUOUS
 10
206.191589
 20
27.229334
 40
2.000000
 50
180.000000
 51
270.000000
  0
ARC
  8
0
  6
CONTINUOUS
 10
147.191589
 20
27.229334
 40
2.000000
 50
-90.000000
 51
0.000000
  0
LINE
  8
0
  6
CONTINUOUS
 10
150.191589
 20
73.479332
 11
150.191589
 21
86.479332
  0
LINE
  8
0
  6
CONTINUOUS
 10
172.191589
 20
86.479332
 11
172.191589
 21
73.479332
  0
LINE
  8
0
  6
CONTINUOUS
 10
203.191589
 20
73.479332
 11
203.191589
 21
86.479332
  0
LINE
  8
0
  6
CONTINUOUS
 10
181.191589
 20
73.479332
 11
181.191589
 21
86.479332
  0
LINE
  8
0
  6
CONTINUOUS
 10
171.191589
 20
87.479332
 11
151.191589
 21
87.479332
  0
LINE
  8
0
  6
CONTINUOUS
 10
171.191589
 20
72.479332
 11
151.191589
 21
72.479332
  0
ARC
  8
0
  6
CONTINUOUS
 10
151.191589
 20
86.479332
 40
1.000000
 50
90.000000
 51
180.000000
  0
ARC
  8
0
  6
CONTINUOUS
 10
151.191589
 20
73.479332
 40
1.000000
 50
180.000000
 51
270.000000
  0
ARC
  8
0
  6
CONTINUOUS
 10
171.191589
 20
73.479332
 40
1.000000
 50
-90.000000
 51
0.000000
  0
ARC
  8
0
  6
CONTINUOUS
 10
171.191589
 20
86.479332
 40
1.000000
 50
0.000000
 51
90.000000
  0
ARC
  8
0
  6
CONTINUOUS
 10
182.191589
 20
86.479332
 40
1.000000
 50
90.000000
 51
180.000000
  0
ARC
  8
0
  6
CONTINUOUS
 10
182.191589
 20
73.479332
 40
1.000000
 50
180.000000
 51
270.000000
  0
ARC
  8
0
  6
CONTINUOUS
 10
202.191589
 20
86.479332
 40
1.000000
 50
0.000000
 51
90.000000
  0
ARC
  8
0
  6
CONTINUOUS
 10
202.191589
 20
73.479332
 40
1.000000
 50
-90.000000
 51
0.000000
  0
LINE
  8
0
  6
CONTINUOUS
 10
184.191589
 20
96.479332
 11
184.191589
 21
70.535385
  0
LINE
  8
0
  6
CONTINUOUS
 10
185.691589
 20
96.479332
 11
185.691589
 21
69.678238
  0
LINE
  8
0
  6
CONTINUOUS
 10
182.691589
 20
96.479332
 11
182.691589
 21
70.420303
  0
LINE
  8
0
  6
CONTINUOUS
 10
182.691589
 20
70.420303
 11
184.191589
 21
71.657791
  0
LINE
  8
0
  6
CONTINUOUS
 10
184.191589
 20
70.535385
 11
185.691589
 21
69.678238
  0
ARC
  8
0
  6
CONTINUOUS
 10
184.941589
 20
96.479332
 40
0.750000
 50
0.000000
 51
180.000000
  0
ARC
  8
0
  6
CONTINUOUS
 10
183.441589
 20
96.479332
 40
0.750000
 50
0.000000
 51
180.000000
  0
LINE
  8
0
  6
CONTINUOUS
 10
182.191589
 20
87.479332
 11
182.691589
 21
87.479332
  0
LINE
  8
0
  6
CONTINUOUS
 10
182.191589
 20
72.479332
 11
182.691589
 21
72.479332
  0
LINE
  8
0
  6
CONTINUOUS
 10
151.084641
 20
68.885094
 11
202.535385
 21
68.885094
  0
LINE
  8
0
  6
CONTINUOUS
 10
206.191589
 20
139.729340
 11
212.191589
 21
139.729340
  0
LINE
  8
0
  6
CONTINUOUS
 10
206.191589
 20
25.229334
 11
212.191589
 21
25.229334
  0
LINE
  8
0
  6
CONTINUOUS
 10
202.191589
 20
72.479332
 11
185.691589
 21
72.479332
  0
LINE
  8
0
  6
CONTINUOUS
 10
202.191589
 20
87.479332
 11
185.691589
 21
87.479332
  0
LINE
  8
0
  6
CONTINUOUS
 10
151.084641
 20
65.479393
 11
202.535385
 21
65.479393
  0
LINE
  8
0
  6
CONTINUOUS
 10
192.191589
 20
52.083393
 11
192.191589
 21
36.479332
  0
LINE
  8
0
  6
CONTINUOUS
 10
161.191589
 20
52.083393
 11
161.191589
 21
36.479332
  0
LINE
  8
0
  6
CONTINUOUS
 10
151.084641
 20
55.814812
 11
159.755951
 21
55.814812
  0
LINE
  8
0
  6
CONTINUOUS
 10
193.649704
 20
55.814812
 11
202.535385
 21
55.814812
  0
ARC
  8
0
  6
CONTINUOUS
 10
159.191589
 20
36.479332
 40
2.000000
 50
-90.000000
 51
0.000000
  0
ARC
  8
0
  6
CONTINUOUS
 10
194.191589
 20
36.479332
 40
2.000000
 50
180.000000
 51
270.000000
  0
LINE
  8
0
  6
CONTINUOUS
 10
161.849396
 20
45.601215
 11
191.356888
 21
45.601215
  0
ARC
  8
0
  6
CONTINUOUS
 10
184.191589
 20
96.479332
 40
4.000000
 50
-67.975685
 51
247.975693
  0
LINE
  8
0
  6
CENTER
 10
451.514954
 20
122.500000
 11
451.514954
 21
43.500000
  0
TEXT
  8
0
 10
-13.000000
 20
-19.000000
 40
4.000000
 41
1.000000
  1
G3FE-22-60~200-T010WA
 50
0.000000
  0
ENDSEC
  0
EOF
