  0
SECTION
  2
HEADER
  9
$ACADVER
  1
AC1014
  9
$ACADMAINTVER
 70
     9
  9
$DWGCODEPAGE
  3
ANSI_932
  9
$INSBASE
 10
0.0
 20
0.0
 30
0.0
  9
$EXTMIN
 10
-17.25375
 20
-22.00000000000002
 30
0.0
  9
$EXTMAX
 10
662.5137940000001
 20
420.1225589999999
 30
0.0
  9
$LIMMIN
 10
0.0
 20
0.0
  9
$LIMMAX
 10
12.0
 20
9.0
  9
$ORTHOMODE
 70
     0
  9
$REGENMODE
 70
     1
  9
$FILLMODE
 70
     1
  9
$QTEXTMODE
 70
     0
  9
$MIRRTEXT
 70
     1
  9
$DRAGMODE
 70
     2
  9
$LTSCALE
 40
3.0
  9
$OSMODE
 70
    45
  9
$ATTMODE
 70
     1
  9
$TEXTSIZE
 40
3.0
  9
$TRACEWID
 40
0.05
  9
$TEXTSTYLE
  7
STANDARD
  9
$CLAYER
  8
1
  9
$CELTYPE
  6
CONTINUOUS
  9
$CECOLOR
 62
   256
  9
$CELTSCALE
 40
1.0
  9
$DELOBJ
 70
     1
  9
$DISPSILH
 70
     0
  9
$DIMSCALE
 40
1.0
  9
$DIMASZ
 40
0.18
  9
$DIMEXO
 40
0.0625
  9
$DIMDLI
 40
0.38
  9
$DIMRND
 40
0.0
  9
$DIMDLE
 40
0.0
  9
$DIMEXE
 40
0.18
  9
$DIMTP
 40
0.0
  9
$DIMTM
 40
0.0
  9
$DIMTXT
 40
0.18
  9
$DIMCEN
 40
0.09
  9
$DIMTSZ
 40
0.0
  9
$DIMTOL
 70
     0
  9
$DIMLIM
 70
     0
  9
$DIMTIH
 70
     1
  9
$DIMTOH
 70
     1
  9
$DIMSE1
 70
     0
  9
$DIMSE2
 70
     0
  9
$DIMTAD
 70
     0
  9
$DIMZIN
 70
     0
  9
$DIMBLK
  1

  9
$DIMASO
 70
     1
  9
$DIMSHO
 70
     1
  9
$DIMPOST
  1

  9
$DIMAPOST
  1

  9
$DIMALT
 70
     0
  9
$DIMALTD
 70
     2
  9
$DIMALTF
 40
25.4
  9
$DIMLFAC
 40
1.0
  9
$DIMTOFL
 70
     0
  9
$DIMTVP
 40
0.0
  9
$DIMTIX
 70
     0
  9
$DIMSOXD
 70
     0
  9
$DIMSAH
 70
     0
  9
$DIMBLK1
  1

  9
$DIMBLK2
  1

  9
$DIMSTYLE
  2
STANDARD
  9
$DIMCLRD
 70
     0
  9
$DIMCLRE
 70
     0
  9
$DIMCLRT
 70
     0
  9
$DIMTFAC
 40
1.0
  9
$DIMGAP
 40
0.09
  9
$DIMJUST
 70
     0
  9
$DIMSD1
 70
     0
  9
$DIMSD2
 70
     0
  9
$DIMTOLJ
 70
     1
  9
$DIMTZIN
 70
     0
  9
$DIMALTZ
 70
     0
  9
$DIMALTTZ
 70
     0
  9
$DIMFIT
 70
     3
  9
$DIMUPT
 70
     0
  9
$DIMUNIT
 70
     2
  9
$DIMDEC
 70
     4
  9
$DIMTDEC
 70
     4
  9
$DIMALTU
 70
     2
  9
$DIMALTTD
 70
     2
  9
$DIMTXSTY
  7
STANDARD
  9
$DIMAUNIT
 70
     0
  9
$LUNITS
 70
     2
  9
$LUPREC
 70
     4
  9
$SKETCHINC
 40
0.1
  9
$FILLETRAD
 40
0.0
  9
$AUNITS
 70
     0
  9
$AUPREC
 70
     0
  9
$MENU
  1
.
  9
$ELEVATION
 40
0.0
  9
$PELEVATION
 40
0.0
  9
$THICKNESS
 40
0.0
  9
$LIMCHECK
 70
     0
  9
$BLIPMODE
 70
     0
  9
$CHAMFERA
 40
0.0
  9
$CHAMFERB
 40
0.0
  9
$CHAMFERC
 40
0.0
  9
$CHAMFERD
 40
0.0
  9
$SKPOLY
 70
     0
  9
$TDCREATE
 40
2453349.576594328
  9
$TDUPDATE
 40
2453349.758971632
  9
$TDINDWG
 40
0.0005055324
  9
$TDUSRTIMER
 40
0.0005055324
  9
$USRTIMER
 70
     1
  9
$ANGBASE
 50
0.0
  9
$ANGDIR
 70
     0
  9
$PDMODE
 70
     0
  9
$PDSIZE
 40
0.0
  9
$PLINEWID
 40
0.0
  9
$COORDS
 70
     1
  9
$SPLFRAME
 70
     0
  9
$SPLINETYPE
 70
     6
  9
$SPLINESEGS
 70
     8
  9
$ATTDIA
 70
     0
  9
$ATTREQ
 70
     1
  9
$HANDLING
 70
 22529
  9
$HANDSEED
  5
308
  9
$SURFTAB1
 70
     6
  9
$SURFTAB2
 70
     6
  9
$SURFTYPE
 70
     6
  9
$SURFU
 70
     6
  9
$SURFV
 70
     6
  9
$UCSNAME
  2

  9
$UCSORG
 10
0.0
 20
0.0
 30
0.0
  9
$UCSXDIR
 10
1.0
 20
0.0
 30
0.0
  9
$UCSYDIR
 10
0.0
 20
1.0
 30
0.0
  9
$PUCSNAME
  2

  9
$PUCSORG
 10
0.0
 20
0.0
 30
0.0
  9
$PUCSXDIR
 10
1.0
 20
0.0
 30
0.0
  9
$PUCSYDIR
 10
0.0
 20
1.0
 30
0.0
  9
$USERI1
 70
     0
  9
$USERI2
 70
     0
  9
$USERI3
 70
     0
  9
$USERI4
 70
     0
  9
$USERI5
 70
     0
  9
$USERR1
 40
0.0
  9
$USERR2
 40
0.0
  9
$USERR3
 40
0.0
  9
$USERR4
 40
0.0
  9
$USERR5
 40
0.0
  9
$WORLDVIEW
 70
     1
  9
$SHADEDGE
 70
     3
  9
$SHADEDIF
 70
    70
  9
$TILEMODE
 70
     1
  9
$MAXACTVP
 70
    64
  9
$PINSBASE
 10
0.0
 20
0.0
 30
0.0
  9
$PLIMCHECK
 70
     0
  9
$PEXTMIN
 10
1.000000000000000E+20
 20
1.000000000000000E+20
 30
1.000000000000000E+20
  9
$PEXTMAX
 10
-1.000000000000000E+20
 20
-1.000000000000000E+20
 30
-1.000000000000000E+20
  9
$PLIMMIN
 10
0.0
 20
0.0
  9
$PLIMMAX
 10
12.0
 20
9.0
  9
$UNITMODE
 70
     0
  9
$VISRETAIN
 70
     1
  9
$PLINEGEN
 70
     0
  9
$PSLTSCALE
 70
     1
  9
$TREEDEPTH
 70
  3020
  9
$PICKSTYLE
 70
     1
  9
$CMLSTYLE
  2
STANDARD
  9
$CMLJUST
 70
     0
  9
$CMLSCALE
 40
1.0
  9
$PROXYGRAPHICS
 70
     1
  9
$MEASUREMENT
 70
     0
  0
ENDSEC
  0
SECTION
  2
CLASSES
  0
CLASS
  1
ACDBDICTIONARYWDFLT
  2
AcDbDictionaryWithDefault
  3
AutoCAD 2000
 90
        0
280
     0
281
     0
  0
CLASS
  1
ACDBPLACEHOLDER
  2
AcDbPlaceHolder
  3
AutoCAD 2000
 90
        0
280
     0
281
     0
  0
CLASS
  1
LAYOUT
  2
AcDbLayout
  3
AutoCAD 2000
 90
        0
280
     0
281
     0
  0
CLASS
  1
DICTIONARYVAR
  2
AcDbDictionaryVar
  3
AutoCAD 2000
 90
        0
280
     0
281
     0
  0
CLASS
  1
LONG_TRANSACTION
  2
AcDbLongTransaction
  3
AutoCAD 2000
 90
        0
280
     0
281
     0
  0
CLASS
  1
LWPOLYLINE
  2
AcDbPolyline
  3
AutoCAD 2000
 90
        0
280
     0
281
     1
  0
CLASS
  1
HATCH
  2
AcDbHatch
  3
AutoCAD 2000
 90
        0
280
     0
281
     1
  0
CLASS
  1
XRECORD
  2
AcDbXrecord
  3
AutoCAD 2000
 90
        0
280
     0
281
     0
  0
ENDSEC
  0
SECTION
  2
TABLES
  0
TABLE
  2
VPORT
  5
8
330
0
100
AcDbSymbolTable
 70
     2
  0
VPORT
  5
2E3
330
8
100
AcDbSymbolTableRecord
100
AcDbViewportTableRecord
  2
*ACTIVE
 70
     0
 10
0.0
 20
0.0
 11
1.0
 21
1.0
 12
438.0641732134633
 22
215.4094023125192
 13
0.0
 23
0.0
 14
1.0
 24
1.0
 15
0.0
 25
0.0
 16
0.0
 26
0.0
 36
1.0
 17
0.0
 27
0.0
 37
0.0
 40
623.8530970799094
 41
1.976793248945147
 42
50.0
 43
0.0
 44
0.0
 50
0.0
 51
0.0
 71
     0
 72
   100
 73
     1
 74
     1
 75
     0
 76
     0
 77
     0
 78
     0
  0
ENDTAB
  0
TABLE
  2
LTYPE
  5
5
330
0
100
AcDbSymbolTable
 70
     3
  0
LTYPE
  5
13
330
5
100
AcDbSymbolTableRecord
100
AcDbLinetypeTableRecord
  2
BYBLOCK
 70
     0
  3

 72
    65
 73
     0
 40
0.0
  0
LTYPE
  5
14
330
5
100
AcDbSymbolTableRecord
100
AcDbLinetypeTableRecord
  2
BYLAYER
 70
     0
  3

 72
    65
 73
     0
 40
0.0
  0
LTYPE
  5
15
330
5
100
AcDbSymbolTableRecord
100
AcDbLinetypeTableRecord
  2
CONTINUOUS
 70
     0
  3
solid line
 72
    65
 73
     0
 40
0.0
  0
LTYPE
  5
23
330
5
100
AcDbSymbolTableRecord
100
AcDbLinetypeTableRecord
  2
DASHED
 70
     0
  3
__ __ __ __ __ __ __ __ __ __ __ __ __ __ __
 72
    65
 73
     2
 40
0.75
 49
0.5
 74
     0
 49
-0.25
 74
     0
  0
LTYPE
  5
24
330
5
100
AcDbSymbolTableRecord
100
AcDbLinetypeTableRecord
  2
CENTER
 70
     0
  3
____ _ ____ _ ____ _ ____ _ ____ _ ____ _ ____
 72
    65
 73
     4
 40
2.0
 49
1.25
 74
     0
 49
-0.25
 74
     0
 49
0.25
 74
     0
 49
-0.25
 74
     0
  0
ENDTAB
  0
TABLE
  2
LAYER
  5
2
330
0
100
AcDbSymbolTable
 70
     3
  0
LAYER
  5
10
330
2
100
AcDbSymbolTableRecord
100
AcDbLayerTableRecord
  2
0
 70
     0
 62
     7
  6
CONTINUOUS
  0
LAYER
  5
22
330
2
100
AcDbSymbolTableRecord
100
AcDbLayerTableRecord
  2
1
 70
     0
 62
     7
  6
CONTINUOUS
  0
LAYER
  5
224
330
2
100
AcDbSymbolTableRecord
100
AcDbLayerTableRecord
  2
TOP
 70
     0
 62
     7
  6
CONTINUOUS
  0
ENDTAB
  0
TABLE
  2
STYLE
  5
3
330
0
100
AcDbSymbolTable
 70
     1
  0
STYLE
  5
11
330
3
100
AcDbSymbolTableRecord
100
AcDbTextStyleTableRecord
  2
STANDARD
 70
     0
 40
0.0
 41
1.0
 50
0.0
 71
     0
 42
3.0
  3
txt
  4
BIGFONT
  0
ENDTAB
  0
TABLE
  2
VIEW
  5
6
330
0
100
AcDbSymbolTable
 70
     0
  0
ENDTAB
  0
TABLE
  2
UCS
  5
7
330
0
100
AcDbSymbolTable
 70
     0
  0
ENDTAB
  0
TABLE
  2
APPID
  5
9
330
0
100
AcDbSymbolTable
 70
     1
  0
APPID
  5
12
330
9
100
AcDbSymbolTableRecord
100
AcDbRegAppTableRecord
  2
ACAD
 70
     0
  0
ENDTAB
  0
TABLE
  2
DIMSTYLE
  5
A
330
0
100
AcDbSymbolTable
 70
     1
  0
DIMSTYLE
105
222
330
A
100
AcDbSymbolTableRecord
100
AcDbDimStyleTableRecord
  2
STANDARD
 70
     0
  3

  4

  5

  6

  7

 40
1.0
 41
0.18
 42
0.0625
 43
0.38
 44
0.18
 45
0.0
 46
0.0
 47
0.0
 48
0.0
140
0.18
141
0.09
142
0.0
143
25.4
144
1.0
145
0.0
146
1.0
147
0.09
 71
     0
 72
     0
 73
     1
 74
     1
 75
     0
 76
     0
 77
     0
 78
     0
170
     0
171
     2
172
     0
173
     0
174
     0
175
     0
176
     0
177
     0
178
     0
270
     2
271
     4
272
     4
273
     2
274
     2
340
11
275
     0
280
     0
281
     0
282
     0
283
     1
284
     0
285
     0
286
     0
287
     3
288
     0
  0
ENDTAB
  0
TABLE
  2
BLOCK_RECORD
  5
1
330
0
100
AcDbSymbolTable
 70
     0
  0
BLOCK_RECORD
  5
1E
102
{ACAD_XDICTIONARY
360
306
102
}
330
1
100
AcDbSymbolTableRecord
100
AcDbBlockTableRecord
  2
*MODEL_SPACE
  0
BLOCK_RECORD
  5
1A
102
{ACAD_XDICTIONARY
360
304
102
}
330
1
100
AcDbSymbolTableRecord
100
AcDbBlockTableRecord
  2
*PAPER_SPACE
  0
ENDTAB
  0
ENDSEC
  0
SECTION
  2
BLOCKS
  0
BLOCK
  5
1F
330
1E
100
AcDbEntity
  8
0
100
AcDbBlockBegin
  2
*MODEL_SPACE
 70
     0
 10
0.0
 20
0.0
 30
0.0
  3
*MODEL_SPACE
  1

  0
ENDBLK
  5
20
330
1E
100
AcDbEntity
  8
0
100
AcDbBlockEnd
  0
BLOCK
  5
1B
330
1A
100
AcDbEntity
 67
     1
  8
0
100
AcDbBlockBegin
  2
*PAPER_SPACE
 70
     0
 10
0.0
 20
0.0
 30
0.0
  3
*PAPER_SPACE
  1

  0
ENDBLK
  5
1C
330
1A
100
AcDbEntity
 67
     1
  8
0
100
AcDbBlockEnd
  0
ENDSEC
  0
SECTION
  2
ENTITIES
  0
LINE
  5
29
330
1E
100
AcDbEntity
  8
0
  6
CENTER
100
AcDbLine
 10
-16.536562
 20
338.140015
 30
0.0
 11
394.149841
 21
338.140015
 31
0.0
  0
LINE
  5
2A
330
1E
100
AcDbEntity
  8
0
  6
CONTINUOUS
100
AcDbLine
 10
250.649841
 20
139.4029689999999
 30
0.0
 11
250.649841
 21
24.40296899999999
 31
0.0
  0
LINE
  5
2B
330
1E
100
AcDbEntity
  8
0
  6
CENTER
100
AcDbLine
 10
564.599792
 20
203.0229639999999
 30
0.0
 11
564.599792
 21
-5.127030999999999
 31
0.0
  0
LINE
  5
2C
330
1E
100
AcDbEntity
  8
0
  6
CENTER
100
AcDbLine
 10
462.5499879999999
 20
81.90296899999999
 30
0.0
 11
662.5137940000001
 21
81.90296899999999
 31
0.0
  0
LINE
  5
2D
330
1E
100
AcDbEntity
  8
0
  6
CENTER
100
AcDbLine
 10
462.5499879999999
 20
100.9029689999999
 30
0.0
 11
662.5137940000001
 21
100.9029689999999
 31
0.0
  0
LINE
  5
2E
330
1E
100
AcDbEntity
  8
0
  6
CENTER
100
AcDbLine
 10
486.0755919999999
 20
22.37724899999999
 30
0.0
 11
644.544006
 21
180.848724
 31
0.0
  0
LINE
  5
2F
330
1E
100
AcDbEntity
  8
0
  6
CENTER
100
AcDbLine
 10
643.278992
 20
22.22221
 30
0.0
 11
483.430786
 21
182.073853
 31
0.0
  0
CIRCLE
  5
30
330
1E
100
AcDbEntity
  8
0
  6
CONTINUOUS
100
AcDbCircle
 10
630.0065919999999
 20
166.311096
 30
0.0
 40
5.5
  0
CIRCLE
  5
31
330
1E
100
AcDbEntity
  8
0
  6
CONTINUOUS
100
AcDbCircle
 10
499.1925959999999
 20
166.310562
 30
0.0
 40
5.5
  0
CIRCLE
  5
32
330
1E
100
AcDbEntity
  8
0
  6
CONTINUOUS
100
AcDbCircle
 10
499.193207
 20
35.494888
 30
0.0
 40
5.5
  0
CIRCLE
  5
33
330
1E
100
AcDbEntity
  8
0
  6
CONTINUOUS
100
AcDbCircle
 10
630.0065919999999
 20
35.494888
 30
0.0
 40
5.5
  0
ARC
  5
34
330
1E
100
AcDbEntity
  8
0
  6
CONTINUOUS
100
AcDbCircle
 10
564.599792
 20
-346.5970459999999
 30
0.0
 40
530.0
100
AcDbArc
 50
82.751762
 51
97.248253
  0
ARC
  5
35
330
1E
100
AcDbEntity
  8
0
  6
CONTINUOUS
100
AcDbCircle
 10
1012.599426
 20
100.9029689999999
 30
0.0
 40
530.0
100
AcDbArc
 50
172.687897
 51
187.450607
  0
ARC
  5
36
330
1E
100
AcDbEntity
  8
0
  6
CONTINUOUS
100
AcDbCircle
 10
116.599823
 20
100.9029689999999
 30
0.0
 40
530.0
100
AcDbArc
 50
352.564209
 51
7.312139000000001
  0
ARC
  5
37
330
1E
100
AcDbEntity
  8
0
  6
CONTINUOUS
100
AcDbCircle
 10
629.891174
 20
166.767685
 30
0.0
 40
12.5
100
AcDbArc
 50
7.312303999999999
 51
82.7519
  0
ARC
  5
38
330
1E
100
AcDbEntity
  8
0
  6
CONTINUOUS
100
AcDbCircle
 10
499.308411
 20
166.767685
 30
0.0
 40
12.5
100
AcDbArc
 50
97.24852800000002
 51
172.6882929999999
  0
ARC
  5
39
330
1E
100
AcDbEntity
  8
0
  6
CONTINUOUS
100
AcDbCircle
 10
564.5999759999999
 20
251.9030149999999
 30
0.0
 40
240.0
100
AcDbArc
 50
253.359497
 51
286.640594
  0
ARC
  5
3A
330
1E
100
AcDbEntity
  8
0
  6
CONTINUOUS
100
AcDbCircle
 10
629.7479860000001
 20
33.930588
 30
0.0
 40
12.5
100
AcDbArc
 50
286.6406859999999
 51
352.564392
  0
ARC
  5
3B
330
1E
100
AcDbEntity
  8
0
  6
CONTINUOUS
100
AcDbCircle
 10
499.451813
 20
33.930588
 30
0.0
 40
12.5
100
AcDbArc
 50
188.061401
 51
253.359299
  0
CIRCLE
  5
3C
330
1E
100
AcDbEntity
  8
0
  6
CONTINUOUS
100
AcDbCircle
 10
564.599792
 20
100.9029689999999
 30
0.0
 40
74.0
  0
CIRCLE
  5
3D
330
1E
100
AcDbEntity
  8
0
  6
CONTINUOUS
100
AcDbCircle
 10
564.599792
 20
100.9029689999999
 30
0.0
 40
69.0
  0
ARC
  5
3E
330
1E
100
AcDbEntity
  8
0
  6
CONTINUOUS
100
AcDbCircle
 10
499.193207
 20
35.494888
 30
0.0
 40
12.5
100
AcDbArc
 50
339.072201
 51
97.74601
  0
ARC
  5
3F
330
1E
100
AcDbEntity
  8
0
  6
CONTINUOUS
100
AcDbCircle
 10
630.0065919999999
 20
35.494888
 30
0.0
 40
12.5
100
AcDbArc
 50
82.255692
 51
200.9279019999999
  0
ARC
  5
40
330
1E
100
AcDbEntity
  8
0
  6
CONTINUOUS
100
AcDbCircle
 10
630.0065919999999
 20
166.311096
 30
0.0
 40
12.5
100
AcDbArc
 50
170.6266939999999
 51
277.744293
  0
ARC
  5
41
330
1E
100
AcDbEntity
  8
0
  6
CONTINUOUS
100
AcDbCircle
 10
499.1925959999999
 20
166.310562
 30
0.0
 40
12.5
100
AcDbArc
 50
262.2554019999999
 51
9.374557000000001
  0
ARC
  5
42
330
1E
100
AcDbEntity
  8
0
  6
CONTINUOUS
100
AcDbCircle
 10
116.599823
 20
100.9029689999999
 30
0.0
 40
523.0
100
AcDbArc
 50
354.6755979999999
 51
355.749115
  0
ARC
  5
43
330
1E
100
AcDbEntity
  8
0
  6
CONTINUOUS
100
AcDbCircle
 10
1012.599426
 20
100.9029689999999
 30
0.0
 40
523.0
100
AcDbArc
 50
174.675705
 51
175.749207
  0
ARC
  5
44
330
1E
100
AcDbEntity
  8
0
  6
CONTINUOUS
100
AcDbCircle
 10
564.5999759999999
 20
251.9030149999999
 30
0.0
 40
233.0
100
AcDbArc
 50
257.5737919999999
 51
282.426208
  0
ARC
  5
45
330
1E
100
AcDbEntity
  8
0
  6
CONTINUOUS
100
AcDbCircle
 10
564.599792
 20
-346.5970459999999
 30
0.0
 40
523.0
100
AcDbArc
 50
84.66742700000001
 51
85.86686699999999
  0
ARC
  5
46
330
1E
100
AcDbEntity
  8
0
  6
CONTINUOUS
100
AcDbCircle
 10
1012.599426
 20
100.9029689999999
 30
0.0
 40
523.0
100
AcDbArc
 50
184.250793
 51
185.3244019999999
  0
LINE
  5
47
330
1E
100
AcDbEntity
  8
0
  6
CONTINUOUS
100
AcDbLine
 10
567.5997919999999
 20
166.629562
 30
0.0
 11
567.5997919999999
 21
150.6416629999999
 31
0.0
  0
LINE
  5
48
330
1E
100
AcDbEntity
  8
0
  6
CONTINUOUS
100
AcDbLine
 10
561.5997919999999
 20
166.629684
 30
0.0
 11
561.5997919999999
 21
150.6416629999999
 31
0.0
  0
ARC
  5
49
330
1E
100
AcDbEntity
  8
0
  6
CONTINUOUS
100
AcDbCircle
 10
570.600403
 20
166.629562
 30
0.0
 40
3.0
100
AcDbArc
 50
84.78325699999999
 51
180.0
  0
ARC
  5
4A
330
1E
100
AcDbEntity
  8
0
  6
CONTINUOUS
100
AcDbCircle
 10
558.5997919999999
 20
166.629684
 30
0.0
 40
3.0
100
AcDbArc
 50
0.0
 51
95.22026800000002
  0
ARC
  5
4B
330
1E
100
AcDbEntity
  8
0
  6
CONTINUOUS
100
AcDbCircle
 10
564.599792
 20
100.9029689999999
 30
0.0
 40
75.5
100
AcDbArc
 50
118.067596
 51
151.060104
  0
ARC
  5
4C
330
1E
100
AcDbEntity
  8
0
  6
CONTINUOUS
100
AcDbCircle
 10
116.599823
 20
100.9029689999999
 30
0.0
 40
523.0
100
AcDbArc
 50
4.250874999999999
 51
5.324408
  0
ARC
  5
4D
330
1E
100
AcDbEntity
  8
0
  6
CONTINUOUS
100
AcDbCircle
 10
564.599792
 20
100.9029689999999
 30
0.0
 40
75.5
100
AcDbArc
 50
28.940559
 51
61.93236899999999
  0
ARC
  5
4E
330
1E
100
AcDbEntity
  8
0
  6
CONTINUOUS
100
AcDbCircle
 10
624.1425780000001
 20
151.9631959999999
 30
0.0
 40
3.0
100
AcDbArc
 50
67.770348
 51
209.144806
  0
ARC
  5
4F
330
1E
100
AcDbEntity
  8
0
  6
CONTINUOUS
100
AcDbCircle
 10
615.6580199999999
 20
160.4485629999999
 30
0.0
 40
3.0
100
AcDbArc
 50
218.0027009999999
 51
22.2236
  0
ARC
  5
50
330
1E
100
AcDbEntity
  8
0
  6
CONTINUOUS
100
AcDbCircle
 10
505.0548099999999
 20
151.961761
 30
0.0
 40
3.0
100
AcDbArc
 50
330.7717
 51
112.2220989999999
  0
ARC
  5
51
330
1E
100
AcDbEntity
  8
0
  6
CONTINUOUS
100
AcDbCircle
 10
513.5419919999999
 20
160.4500889999999
 30
0.0
 40
3.0
100
AcDbArc
 50
157.7843019999999
 51
321.917511
  0
ARC
  5
52
330
1E
100
AcDbEntity
  8
0
  6
CONTINUOUS
100
AcDbCircle
 10
564.599792
 20
-346.5970459999999
 30
0.0
 40
523.0
100
AcDbArc
 50
94.133141
 51
95.332626
  0
ARC
  5
53
330
1E
100
AcDbEntity
  8
0
  6
CONTINUOUS
100
AcDbCircle
 10
564.599792
 20
100.9029689999999
 30
0.0
 40
75.5
100
AcDbArc
 50
208.939804
 51
331.059387
  0
ARC
  5
54
330
1E
100
AcDbEntity
  8
0
  6
CONTINUOUS
100
AcDbCircle
 10
634.1719969999999
 20
62.432671
 30
0.0
 40
4.0
100
AcDbArc
 50
355.74939
 51
151.059494
  0
ARC
  5
55
330
1E
100
AcDbEntity
  8
0
  6
CONTINUOUS
100
AcDbCircle
 10
495.027191
 20
62.43357099999999
 30
0.0
 40
4.0
100
AcDbArc
 50
28.940149
 51
184.250595
  0
ARC
  5
56
330
1E
100
AcDbEntity
  8
0
  6
CONTINUOUS
100
AcDbCircle
 10
632.364807
 20
52.835289
 30
0.0
 40
5.0
100
AcDbArc
 50
262.2556149999999
 51
354.675812
  0
ARC
  5
57
330
1E
100
AcDbEntity
  8
0
  6
CONTINUOUS
100
AcDbCircle
 10
613.661011
 20
29.24406799999999
 30
0.0
 40
5.0
100
AcDbArc
 50
282.426483
 51
20.92767
  0
ARC
  5
58
330
1E
100
AcDbEntity
  8
0
  6
CONTINUOUS
100
AcDbCircle
 10
515.538818
 20
29.24406799999999
 30
0.0
 40
5.0
100
AcDbArc
 50
159.0726929999999
 51
257.573486
  0
ARC
  5
59
330
1E
100
AcDbEntity
  8
0
  6
CONTINUOUS
100
AcDbCircle
 10
496.834595
 20
52.83519
 30
0.0
 40
5.0
100
AcDbArc
 50
185.3246
 51
277.7466129999999
  0
CIRCLE
  5
5A
330
1E
100
AcDbEntity
  8
0
  6
CONTINUOUS
100
AcDbCircle
 10
564.599792
 20
100.9029689999999
 30
0.0
 40
30.0
  0
ARC
  5
5B
330
1E
100
AcDbEntity
  8
0
  6
CONTINUOUS
100
AcDbCircle
 10
564.599792
 20
81.90296899999999
 30
0.0
 40
66.0
100
AcDbArc
 50
28.95104
 51
51.18590199999999
  0
ARC
  5
5C
330
1E
100
AcDbEntity
  8
0
  6
CONTINUOUS
100
AcDbCircle
 10
626.727173
 20
116.2713699999999
 30
0.0
 40
5.0
100
AcDbArc
 50
208.9510039999999
 51
13.89425
  0
ARC
  5
5D
330
1E
100
AcDbEntity
  8
0
  6
CONTINUOUS
100
AcDbCircle
 10
502.472412
 20
116.2713699999999
 30
0.0
 40
5.0
100
AcDbArc
 50
166.108307
 51
331.049286
  0
ARC
  5
5E
330
1E
100
AcDbEntity
  8
0
  6
CONTINUOUS
100
AcDbCircle
 10
570.5994259999999
 20
150.6416629999999
 30
0.0
 40
3.0
100
AcDbArc
 50
180.0
 51
265.011505
  0
ARC
  5
5F
330
1E
100
AcDbEntity
  8
0
  6
CONTINUOUS
100
AcDbCircle
 10
558.60022
 20
150.6416629999999
 30
0.0
 40
3.0
100
AcDbArc
 50
274.9885329999999
 51
0.0
  0
ARC
  5
60
330
1E
100
AcDbEntity
  8
0
  6
CONTINUOUS
100
AcDbCircle
 10
564.599792
 20
81.90296899999999
 30
0.0
 40
66.0
100
AcDbArc
 50
94.98853299999998
 51
118.640198
  0
ARC
  5
61
330
1E
100
AcDbEntity
  8
0
  6
CONTINUOUS
100
AcDbCircle
 10
495.027191
 20
139.372375
 30
0.0
 40
4.0
100
AcDbArc
 50
175.7498019999999
 51
331.060699
  0
ARC
  5
62
330
1E
100
AcDbEntity
  8
0
  6
CONTINUOUS
100
AcDbCircle
 10
527.194214
 20
171.053268
 30
0.0
 40
4.0
100
AcDbArc
 50
298.06802
 51
94.13371299999999
  0
ARC
  5
63
330
1E
100
AcDbEntity
  8
0
  6
CONTINUOUS
100
AcDbCircle
 10
496.834412
 20
148.9701689999999
 30
0.0
 40
5.0
100
AcDbArc
 50
82.25556899999999
 51
174.676102
  0
ARC
  5
64
330
1E
100
AcDbEntity
  8
0
  6
CONTINUOUS
100
AcDbCircle
 10
516.4589839999999
 20
169.161087
 30
0.0
 40
5.0
100
AcDbArc
 50
95.333099
 51
189.374695
  0
ARC
  5
65
330
1E
100
AcDbEntity
  8
0
  6
CONTINUOUS
100
AcDbCircle
 10
602.005615
 20
171.053268
 30
0.0
 40
4.0
100
AcDbArc
 50
85.867172
 51
241.932693
  0
ARC
  5
66
330
1E
100
AcDbEntity
  8
0
  6
CONTINUOUS
100
AcDbCircle
 10
612.740173
 20
169.1611629999999
 30
0.0
 40
5.0
100
AcDbArc
 50
350.627045
 51
84.66758699999999
  0
ARC
  5
67
330
1E
100
AcDbEntity
  8
0
  6
CONTINUOUS
100
AcDbCircle
 10
632.364807
 20
148.9706879999999
 30
0.0
 40
5.0
100
AcDbArc
 50
5.324549
 51
97.744431
  0
ARC
  5
68
330
1E
100
AcDbEntity
  8
0
  6
CONTINUOUS
100
AcDbCircle
 10
634.1719969999999
 20
139.373184
 30
0.0
 40
4.0
100
AcDbArc
 50
208.9405059999999
 51
4.25105
  0
LINE
  5
69
330
1E
100
AcDbEntity
  8
0
  6
CONTINUOUS
100
AcDbLine
 10
520.2459719999999
 20
149.5005649999999
 30
0.0
 11
529.406799
 21
140.3395839999999
 31
0.0
  0
LINE
  5
6A
330
1E
100
AcDbEntity
  8
0
  6
CONTINUOUS
100
AcDbLine
 10
516.003174
 20
145.257996
 30
0.0
 11
523.472595
 21
137.788376
 31
0.0
  0
ARC
  5
6B
330
1E
100
AcDbEntity
  8
0
  6
CONTINUOUS
100
AcDbCircle
 10
522.3671879999999
 20
151.6217959999999
 30
0.0
 40
3.0
100
AcDbArc
 50
129.788101
 51
225.0
  0
ARC
  5
6C
330
1E
100
AcDbEntity
  8
0
  6
CONTINUOUS
100
AcDbCircle
 10
513.8814089999999
 20
143.136185
 30
0.0
 40
3.0
100
AcDbArc
 50
44.99995
 51
140.2203059999999
  0
ARC
  5
6D
330
1E
100
AcDbEntity
  8
0
  6
CONTINUOUS
100
AcDbCircle
 10
521.3508299999999
 20
135.666595
 30
0.0
 40
3.0
100
AcDbArc
 50
308.8151589999999
 51
44.99995
  0
ARC
  5
6E
330
1E
100
AcDbEntity
  8
0
  6
CONTINUOUS
100
AcDbCircle
 10
531.5280149999999
 20
142.4607699999999
 30
0.0
 40
3.0
100
AcDbArc
 50
225.0
 51
298.6404109999999
  0
LINE
  5
6F
330
1E
100
AcDbEntity
  8
0
  6
CONTINUOUS
100
AcDbLine
 10
613.196411
 20
145.2578889999999
 30
0.0
 11
605.72699
 21
137.788284
 31
0.0
  0
LINE
  5
70
330
1E
100
AcDbEntity
  8
0
  6
CONTINUOUS
100
AcDbLine
 10
608.953796
 20
149.5005649999999
 30
0.0
 11
599.7930299999999
 21
140.3395839999999
 31
0.0
  0
ARC
  5
71
330
1E
100
AcDbEntity
  8
0
  6
CONTINUOUS
100
AcDbCircle
 10
606.832581
 20
151.621689
 30
0.0
 40
3.0
100
AcDbArc
 50
315.0008889999999
 51
50.216091
  0
ARC
  5
72
330
1E
100
AcDbEntity
  8
0
  6
CONTINUOUS
100
AcDbCircle
 10
597.6718139999999
 20
142.4606629999999
 30
0.0
 40
3.0
100
AcDbArc
 50
241.3598939999999
 51
315.000885
  0
ARC
  5
73
330
1E
100
AcDbEntity
  8
0
  6
CONTINUOUS
100
AcDbCircle
 10
607.8485719999999
 20
135.6666719999999
 30
0.0
 40
3.0
100
AcDbArc
 50
135.0009
 51
231.186096
  0
ARC
  5
74
330
1E
100
AcDbEntity
  8
0
  6
CONTINUOUS
100
AcDbCircle
 10
615.317993
 20
143.136276
 30
0.0
 40
3.0
100
AcDbArc
 50
39.78388999999999
 51
135.0009
  0
ARC
  5
75
330
1E
100
AcDbEntity
  8
0
  6
CONTINUOUS
100
AcDbCircle
 10
564.599792
 20
81.90296899999999
 30
0.0
 40
66.0
100
AcDbArc
 50
61.35994
 51
85.011787
  0
ARC
  5
76
330
1E
100
AcDbEntity
  8
0
  6
CONTINUOUS
100
AcDbCircle
 10
564.599792
 20
81.90296899999999
 30
0.0
 40
66.0
100
AcDbArc
 50
128.814407
 51
151.0489039999999
  0
CIRCLE
  5
77
330
1E
100
AcDbEntity
  8
0
  6
CENTER
100
AcDbCircle
 10
564.599792
 20
100.9029689999999
 30
0.0
 40
92.5
  0
ARC
  5
78
330
1E
100
AcDbEntity
  8
0
  6
CONTINUOUS
100
AcDbCircle
 10
564.599792
 20
100.9029689999999
 30
0.0
 40
11.0
100
AcDbArc
 50
195.8265989999999
 51
164.173401
  0
LINE
  5
79
330
1E
100
AcDbEntity
  8
0
  6
CONTINUOUS
100
AcDbLine
 10
557.0997919999999
 20
103.902969
 30
0.0
 11
557.0997919999999
 21
97.90296900000001
 31
0.0
  0
LINE
  5
7A
330
1E
100
AcDbEntity
  8
0
  6
CONTINUOUS
100
AcDbLine
 10
551.099792
 20
103.902969
 30
0.0
 11
551.099792
 21
97.90296900000001
 31
0.0
  0
LINE
  5
7B
330
1E
100
AcDbEntity
  8
0
  6
CONTINUOUS
100
AcDbLine
 10
551.099792
 20
103.902969
 30
0.0
 11
557.0997919999999
 21
103.902969
 31
0.0
  0
LINE
  5
7C
330
1E
100
AcDbEntity
  8
0
  6
CONTINUOUS
100
AcDbLine
 10
551.099792
 20
97.90296900000001
 30
0.0
 11
557.0997919999999
 21
97.90296900000001
 31
0.0
  0
LINE
  5
7D
330
1E
100
AcDbEntity
  8
0
  6
CONTINUOUS
100
AcDbLine
 10
250.6497799999999
 20
395.640015
 30
0.0
 11
250.6497799999999
 21
280.6400149999999
 31
0.0
  0
LINE
  5
7E
330
1E
100
AcDbEntity
  8
0
  6
CONTINUOUS
100
AcDbLine
 10
339.149841
 20
326.139923
 30
0.0
 11
341.149841
 21
326.139923
 31
0.0
  0
LINE
  5
7F
330
1E
100
AcDbEntity
  8
0
  6
CONTINUOUS
100
AcDbLine
 10
341.149841
 20
350.140015
 30
0.0
 11
341.149841
 21
326.139923
 31
0.0
  0
LINE
  5
80
330
1E
100
AcDbEntity
  8
0
  6
CONTINUOUS
100
AcDbLine
 10
339.149841
 20
350.140015
 30
0.0
 11
341.149841
 21
350.140015
 31
0.0
  0
LINE
  5
81
330
1E
100
AcDbEntity
  8
0
  6
CONTINUOUS
100
AcDbLine
 10
341.149841
 20
349.140015
 30
0.0
 11
381.149841
 21
349.140015
 31
0.0
  0
LINE
  5
82
330
1E
100
AcDbEntity
  8
0
  6
CONTINUOUS
100
AcDbLine
 10
341.149841
 20
327.139923
 30
0.0
 11
346.149841
 21
327.139923
 31
0.0
  0
LINE
  5
83
330
1E
100
AcDbEntity
  8
0
  6
CONTINUOUS
100
AcDbLine
 10
381.149841
 20
349.140015
 30
0.0
 11
381.149841
 21
327.139923
 31
0.0
  0
LINE
  5
84
330
1E
100
AcDbEntity
  8
0
  6
CONTINUOUS
100
AcDbLine
 10
264.149841
 20
404.140015
 30
0.0
 11
264.149841
 21
272.1399539999999
 31
0.0
  0
LINE
  5
85
330
1E
100
AcDbEntity
  8
0
  6
CONTINUOUS
100
AcDbLine
 10
322.149536
 20
259.4561459999999
 30
0.0
 11
322.149536
 21
416.8238829999999
 31
0.0
  0
LINE
  5
86
330
1E
100
AcDbEntity
  8
0
  6
CONTINUOUS
100
AcDbLine
 10
334.149841
 20
256.640015
 30
0.0
 11
334.149841
 21
419.6399539999999
 31
0.0
  0
LINE
  5
87
330
1E
100
AcDbEntity
  8
0
  6
CONTINUOUS
100
AcDbLine
 10
325.0448609999999
 20
256.457947
 30
0.0
 11
333.650146
 21
256.15744
 31
0.0
  0
LINE
  5
88
330
1E
100
AcDbEntity
  8
0
  6
CONTINUOUS
100
AcDbLine
 10
338.149841
 20
411.6399539999999
 30
0.0
 11
338.149841
 21
264.640015
 31
0.0
  0
LINE
  5
89
330
1E
100
AcDbEntity
  8
0
  6
CONTINUOUS
100
AcDbLine
 10
337.649841
 20
412.1399539999999
 30
0.0
 11
334.149841
 21
412.1399539999999
 31
0.0
  0
LINE
  5
8A
330
1E
100
AcDbEntity
  8
0
  6
CONTINUOUS
100
AcDbLine
 10
337.649841
 20
264.1400149999999
 30
0.0
 11
334.149841
 21
264.1400149999999
 31
0.0
  0
LINE
  5
8B
330
1E
100
AcDbEntity
  8
0
  6
CONTINUOUS
100
AcDbLine
 10
339.149841
 20
368.1400149999999
 30
0.0
 11
339.149841
 21
308.140015
 31
0.0
  0
LINE
  5
8C
330
1E
100
AcDbEntity
  8
0
  6
CONTINUOUS
100
AcDbLine
 10
338.149841
 20
368.1400149999999
 30
0.0
 11
339.149841
 21
368.1400149999999
 31
0.0
  0
LINE
  5
8D
330
1E
100
AcDbEntity
  8
0
  6
CONTINUOUS
100
AcDbLine
 10
338.149841
 20
308.140015
 30
0.0
 11
339.149841
 21
308.140015
 31
0.0
  0
LINE
  5
8E
330
1E
100
AcDbEntity
  8
0
  6
CONTINUOUS
100
AcDbLine
 10
346.149841
 20
327.557007
 30
0.0
 11
346.149841
 21
324.639923
 31
0.0
  0
LINE
  5
8F
330
1E
100
AcDbEntity
  8
0
  6
CONTINUOUS
100
AcDbLine
 10
381.149841
 20
327.139923
 30
0.0
 11
381.149841
 21
324.639923
 31
0.0
  0
LINE
  5
90
330
1E
100
AcDbEntity
  8
0
  6
CONTINUOUS
100
AcDbLine
 10
346.149841
 20
324.639923
 30
0.0
 11
381.149841
 21
324.639923
 31
0.0
  0
LINE
  5
91
330
1E
100
AcDbEntity
  8
0
  6
CONTINUOUS
100
AcDbLine
 10
258.1497799999999
 20
402.0345759999999
 30
0.0
 11
258.1497799999999
 21
274.245422
 31
0.0
  0
ARC
  5
92
330
1E
100
AcDbEntity
  8
0
  6
CONTINUOUS
100
AcDbCircle
 10
255.149841
 20
277.4809879999999
 30
0.0
 40
3.0
100
AcDbArc
 50
0.0
 51
88.00054899999999
  0
ARC
  5
93
330
1E
100
AcDbEntity
  8
0
  6
CONTINUOUS
100
AcDbCircle
 10
255.149841
 20
398.798889
 30
0.0
 40
3.0
100
AcDbArc
 50
272.0003659999999
 51
0.0
  0
LINE
  5
94
330
1E
100
AcDbEntity
  8
0
  6
CONTINUOUS
100
AcDbLine
 10
337.649841
 20
264.1400149999999
 30
0.0
 11
338.149841
 21
264.640015
 31
0.0
  0
LINE
  5
95
330
1E
100
AcDbEntity
  8
0
  6
CONTINUOUS
100
AcDbLine
 10
337.649841
 20
412.1399539999999
 30
0.0
 11
338.149841
 21
411.6399539999999
 31
0.0
  0
LINE
  5
96
330
1E
100
AcDbEntity
  8
0
  6
CONTINUOUS
100
AcDbLine
 10
333.650146
 20
256.15744
 30
0.0
 11
334.149841
 21
256.640015
 31
0.0
  0
ARC
  5
97
330
1E
100
AcDbEntity
  8
0
  6
CONTINUOUS
100
AcDbCircle
 10
325.149536
 20
259.456116
 30
0.0
 40
3.0
100
AcDbArc
 50
180.0
 51
268.0
  0
LINE
  5
98
330
1E
100
AcDbEntity
  8
0
  6
CONTINUOUS
100
AcDbLine
 10
325.0448609999999
 20
419.8220519999999
 30
0.0
 11
333.650146
 21
420.1225589999999
 31
0.0
  0
LINE
  5
99
330
1E
100
AcDbEntity
  8
0
  6
CONTINUOUS
100
AcDbLine
 10
333.650146
 20
420.1225589999999
 30
0.0
 11
334.149841
 21
419.640015
 31
0.0
  0
ARC
  5
9A
330
1E
100
AcDbEntity
  8
0
  6
CONTINUOUS
100
AcDbCircle
 10
325.149536
 20
416.8238829999999
 30
0.0
 40
3.0
100
AcDbArc
 50
91.99999999999999
 51
180.0
  0
LINE
  5
9B
330
1E
100
AcDbEntity
  8
0
  6
CENTER
100
AcDbLine
 10
339.548248
 20
403.5476069999999
 30
0.0
 11
317.8277589999999
 21
403.5476069999999
 31
0.0
  0
LINE
  5
9C
330
1E
100
AcDbEntity
  8
0
  6
CENTER
100
AcDbLine
 10
339.548248
 20
272.7323909999999
 30
0.0
 11
317.8277589999999
 21
272.7323909999999
 31
0.0
  0
LINE
  5
9D
330
1E
100
AcDbEntity
  8
0
  6
CONTINUOUS
100
AcDbLine
 10
255.254547
 20
395.800812
 30
0.0
 11
250.6497799999999
 21
395.639923
 31
0.0
  0
LINE
  5
9E
330
1E
100
AcDbEntity
  8
0
  6
CONTINUOUS
100
AcDbLine
 10
255.254547
 20
280.479187
 30
0.0
 11
250.6497799999999
 21
280.6400149999999
 31
0.0
  0
LINE
  5
9F
330
1E
100
AcDbEntity
  8
0
  6
CENTER
100
AcDbLine
 10
-17.25375
 20
81.90296899999999
 30
0.0
 11
312.722351
 21
81.90296899999999
 31
0.0
  0
LINE
  5
A0
330
1E
100
AcDbEntity
  8
0
  6
CONTINUOUS
100
AcDbLine
 10
264.149841
 20
15.902929
 30
0.0
 11
264.149628
 21
149.902985
 31
0.0
  0
LINE
  5
A1
330
1E
100
AcDbEntity
  8
0
  6
CENTER
100
AcDbLine
 10
388.79245
 20
100.9029689999999
 30
0.0
 11
298.4148559999999
 21
100.9029689999999
 31
0.0
  0
LINE
  5
A2
330
1E
100
AcDbEntity
  8
0
  6
CONTINUOUS
100
AcDbLine
 10
337.650055
 20
174.902985
 30
0.0
 11
334.149841
 21
174.902985
 31
0.0
  0
LINE
  5
A3
330
1E
100
AcDbEntity
  8
0
  6
CONTINUOUS
100
AcDbLine
 10
337.650055
 20
26.90296899999999
 30
0.0
 11
334.149841
 21
26.90296899999999
 31
0.0
  0
LINE
  5
A4
330
1E
100
AcDbEntity
  8
0
  6
CONTINUOUS
100
AcDbLine
 10
339.1500549999999
 20
127.9804919999999
 30
0.0
 11
339.1500549999999
 21
73.82536299999999
 31
0.0
  0
LINE
  5
A5
330
1E
100
AcDbEntity
  8
0
  6
CONTINUOUS
100
AcDbLine
 10
322.149841
 20
15.218888
 30
0.0
 11
322.149628
 21
180.0868679999999
 31
0.0
  0
ARC
  5
A6
330
1E
100
AcDbEntity
  8
0
  6
CONTINUOUS
100
AcDbCircle
 10
325.149445
 20
-376.574829
 30
0.0
 40
530.0
100
AcDbArc
 50
92.63078300000001
 51
96.60912299999999
  0
ARC
  5
A7
330
1E
100
AcDbEntity
  8
0
  6
CONTINUOUS
100
AcDbCircle
 10
325.149841
 20
542.3809809999998
 30
0.0
 40
530.0
100
AcDbArc
 50
263.3909
 51
266.598785
  0
LINE
  5
A8
330
1E
100
AcDbEntity
  8
0
  6
CONTINUOUS
100
AcDbLine
 10
264.149841
 20
45.40608999999999
 30
0.0
 11
319.357452
 21
45.88789000000001
 31
0.0
  0
LINE
  5
A9
330
1E
100
AcDbEntity
  8
0
  6
CONTINUOUS
100
AcDbLine
 10
264.149841
 20
28.586088
 30
0.0
 11
318.865631
 21
27.153688
 31
0.0
  0
LINE
  5
AA
330
1E
100
AcDbEntity
  8
0
  6
CONTINUOUS
100
AcDbLine
 10
338.150055
 20
174.4029849999999
 30
0.0
 11
338.150055
 21
170.4029849999999
 31
0.0
  0
ARC
  5
AB
330
1E
100
AcDbEntity
  8
0
  6
CONTINUOUS
100
AcDbCircle
 10
336.149841
 20
73.82536299999999
 30
0.0
 40
3.0
100
AcDbArc
 50
311.80621
 51
0.0
  0
ARC
  5
AC
330
1E
100
AcDbEntity
  8
0
  6
CONTINUOUS
100
AcDbCircle
 10
336.149841
 20
127.9804919999999
 30
0.0
 40
3.0
100
AcDbArc
 50
0.0
 51
48.191448
  0
LINE
  5
AD
330
1E
100
AcDbEntity
  8
0
  6
CONTINUOUS
100
AcDbLine
 10
334.149841
 20
182.9029849999999
 30
0.0
 11
334.149841
 21
12.402929
 31
0.0
  0
LINE
  5
AE
330
1E
100
AcDbEntity
  8
0
  6
CONTINUOUS
100
AcDbLine
 10
338.150055
 20
27.402969
 30
0.0
 11
338.150055
 21
170.4029849999999
 31
0.0
  0
LINE
  5
AF
330
1E
100
AcDbEntity
  8
0
  6
CONTINUOUS
100
AcDbLine
 10
333.650146
 20
11.92037
 30
0.0
 11
293.7092289999999
 21
13.314469
 31
0.0
  0
LINE
  5
B0
330
1E
100
AcDbEntity
  8
0
  6
CONTINUOUS
100
AcDbLine
 10
317.2808529999999
 20
153.2977909999999
 30
0.0
 11
300.8216549999999
 21
152.866608
 31
0.0
  0
ARC
  5
B1
330
1E
100
AcDbEntity
  8
0
  6
CONTINUOUS
100
AcDbCircle
 10
317.149841
 20
158.296082
 30
0.0
 40
5.0
100
AcDbArc
 50
271.50061
 51
0.0
  0
LINE
  5
B2
330
1E
100
AcDbEntity
  8
0
  6
CONTINUOUS
100
AcDbLine
 10
339.1500549999999
 20
88.902969
 30
0.0
 11
341.1500549999999
 21
88.902969
 31
0.0
  0
LINE
  5
B3
330
1E
100
AcDbEntity
  8
0
  6
CONTINUOUS
100
AcDbLine
 10
341.1500549999999
 20
112.902969
 30
0.0
 11
341.1500549999999
 21
88.902969
 31
0.0
  0
LINE
  5
B4
330
1E
100
AcDbEntity
  8
0
  6
CONTINUOUS
100
AcDbLine
 10
339.149841
 20
112.902969
 30
0.0
 11
341.1500549999999
 21
112.902969
 31
0.0
  0
LINE
  5
B5
330
1E
100
AcDbEntity
  8
0
  6
CONTINUOUS
100
AcDbLine
 10
341.1500549999999
 20
111.902969
 30
0.0
 11
381.149841
 21
111.902969
 31
0.0
  0
LINE
  5
B6
330
1E
100
AcDbEntity
  8
0
  6
CONTINUOUS
100
AcDbLine
 10
341.149841
 20
89.902969
 30
0.0
 11
381.149841
 21
89.902969
 31
0.0
  0
LINE
  5
B7
330
1E
100
AcDbEntity
  8
0
  6
CONTINUOUS
100
AcDbLine
 10
381.149841
 20
111.902969
 30
0.0
 11
381.149841
 21
89.902969
 31
0.0
  0
LINE
  5
B8
330
1E
100
AcDbEntity
  8
0
  6
CONTINUOUS
100
AcDbLine
 10
349.150055
 20
103.902969
 30
0.0
 11
381.149841
 21
103.902969
 31
0.0
  0
LINE
  5
B9
330
1E
100
AcDbEntity
  8
0
  6
CONTINUOUS
100
AcDbLine
 10
349.150055
 20
97.90296900000001
 30
0.0
 11
381.149841
 21
97.90296900000001
 31
0.0
  0
ARC
  5
BA
330
1E
100
AcDbEntity
  8
0
  6
CONTINUOUS
100
AcDbCircle
 10
349.150055
 20
100.9029689999999
 30
0.0
 40
3.0
100
AcDbArc
 50
90.0
 51
270.0
  0
LINE
  5
BB
330
1E
100
AcDbEntity
  8
0
  6
CONTINUOUS
100
AcDbLine
 10
260.097504
 20
149.79686
 30
0.0
 11
264.149841
 21
149.9029689999999
 31
0.0
  0
LINE
  5
BC
330
1E
100
AcDbEntity
  8
0
  6
CONTINUOUS
100
AcDbLine
 10
260.097504
 20
16.009085
 30
0.0
 11
264.149841
 21
15.902969
 31
0.0
  0
LINE
  5
BD
330
1E
100
AcDbEntity
  8
0
  6
CONTINUOUS
100
AcDbLine
 10
258.149841
 20
18.008398
 30
0.0
 11
258.149841
 21
147.7975459999999
 31
0.0
  0
LINE
  5
BE
330
1E
100
AcDbEntity
  8
0
  6
CONTINUOUS
100
AcDbLine
 10
263.524841
 20
45.40608999999999
 30
0.0
 11
259.024841
 21
45.40608999999999
 31
0.0
  0
LINE
  5
BF
330
1E
100
AcDbEntity
  8
0
  6
CONTINUOUS
100
AcDbLine
 10
263.524841
 20
28.586069
 30
0.0
 11
259.024841
 21
28.586069
 31
0.0
  0
LINE
  5
C0
330
1E
100
AcDbEntity
  8
0
  6
CENTER
100
AcDbLine
 10
339.548248
 20
166.310562
 30
0.0
 11
317.8277589999999
 21
166.310562
 31
0.0
  0
LINE
  5
C1
330
1E
100
AcDbEntity
  8
0
  6
CENTER
100
AcDbLine
 10
339.548248
 20
35.495369
 30
0.0
 11
317.8277589999999
 21
35.495369
 31
0.0
  0
LINE
  5
C2
330
1E
100
AcDbEntity
  8
0
  6
CONTINUOUS
100
AcDbLine
 10
338.150055
 20
174.4029849999999
 30
0.0
 11
337.650055
 21
174.902985
 31
0.0
  0
LINE
  5
C3
330
1E
100
AcDbEntity
  8
0
  6
CONTINUOUS
100
AcDbLine
 10
337.650055
 20
26.90296899999999
 30
0.0
 11
338.150055
 21
27.402969
 31
0.0
  0
LINE
  5
C4
330
1E
100
AcDbEntity
  8
0
  6
CONTINUOUS
100
AcDbLine
 10
333.650146
 20
11.92037
 30
0.0
 11
334.149841
 21
12.402929
 31
0.0
  0
LINE
  5
C5
330
1E
100
AcDbEntity
  8
0
  6
CONTINUOUS
100
AcDbLine
 10
333.650146
 20
183.3855439999999
 30
0.0
 11
325.044952
 21
183.085037
 31
0.0
  0
ARC
  5
C6
330
1E
100
AcDbEntity
  8
0
  6
CONTINUOUS
100
AcDbCircle
 10
325.149628
 20
180.0868679999999
 30
0.0
 40
3.0
100
AcDbArc
 50
91.99999999999999
 51
180.0
  0
LINE
  5
C7
330
1E
100
AcDbEntity
  8
0
  6
CONTINUOUS
100
AcDbLine
 10
333.650146
 20
183.3855439999999
 30
0.0
 11
334.149841
 21
182.9029849999999
 31
0.0
  0
ARC
  5
C8
330
1E
100
AcDbEntity
  8
0
  6
CONTINUOUS
100
AcDbCircle
 10
325.149841
 20
15.218892
 30
0.0
 40
3.0
100
AcDbArc
 50
180.0
 51
268.0009459999999
  0
LINE
  5
C9
330
1E
100
AcDbEntity
  8
0
  6
CENTER
100
AcDbLine
 10
339.548248
 20
35.494888
 30
0.0
 11
317.8277589999999
 21
35.494888
 31
0.0
  0
LINE
  5
CA
330
1E
100
AcDbEntity
  8
0
  6
CONTINUOUS
100
AcDbLine
 10
255.254547
 20
24.24216799999999
 30
0.0
 11
250.649841
 21
24.40296899999999
 31
0.0
  0
LINE
  5
CB
330
1E
100
AcDbEntity
  8
0
  6
CONTINUOUS
100
AcDbLine
 10
255.254547
 20
139.563766
 30
0.0
 11
250.649841
 21
139.4029689999999
 31
0.0
  0
ARC
  5
CC
330
1E
100
AcDbEntity
  8
0
  6
CONTINUOUS
100
AcDbCircle
 10
255.149841
 20
142.561935
 30
0.0
 40
3.0
100
AcDbArc
 50
272.0
 51
0.0
  0
ARC
  5
CD
330
1E
100
AcDbEntity
  8
0
  6
CONTINUOUS
100
AcDbCircle
 10
255.149841
 20
21.243998
 30
0.0
 40
3.0
100
AcDbArc
 50
0.0
 51
88.0
  0
ARC
  5
CE
330
1E
100
AcDbEntity
  8
0
  6
CONTINUOUS
100
AcDbCircle
 10
325.149445
 20
-122.337822
 30
0.0
 40
530.0
100
AcDbArc
 50
92.63078300000001
 51
96.60912299999999
  0
LINE
  5
CF
330
1E
100
AcDbEntity
  8
0
  6
CONTINUOUS
100
AcDbLine
 10
317.2808529999999
 20
407.5347899999999
 30
0.0
 11
300.8216549999999
 21
407.1036069999999
 31
0.0
  0
ARC
  5
D0
330
1E
100
AcDbEntity
  8
0
  6
CONTINUOUS
100
AcDbCircle
 10
317.149841
 20
412.533112
 30
0.0
 40
5.0
100
AcDbArc
 50
271.50061
 51
0.0
  0
ARC
  5
D1
330
1E
100
AcDbEntity
  8
0
  6
CONTINUOUS
100
AcDbCircle
 10
325.149445
 20
798.6177979999999
 30
0.0
 40
530.0
100
AcDbArc
 50
263.390877
 51
267.3692169999999
  0
LINE
  5
D2
330
1E
100
AcDbEntity
  8
0
  6
CONTINUOUS
100
AcDbLine
 10
317.2808529999999
 20
268.7452089999999
 30
0.0
 11
300.8216549999999
 21
269.1763919999999
 31
0.0
  0
ARC
  5
D3
330
1E
100
AcDbEntity
  8
0
  6
CONTINUOUS
100
AcDbCircle
 10
317.149841
 20
263.746887
 30
0.0
 40
5.0
100
AcDbArc
 50
0.0
 51
88.49939
  0
LINE
  5
D4
330
1E
100
AcDbEntity
  8
0
  6
CONTINUOUS
100
AcDbLine
 10
260.0974429999999
 20
404.033875
 30
0.0
 11
264.149841
 21
404.140015
 31
0.0
  0
ARC
  5
D5
330
1E
100
AcDbEntity
  8
0
  6
CONTINUOUS
100
AcDbCircle
 10
260.1497799999999
 20
402.0345759999999
 30
0.0
 40
2.0
100
AcDbArc
 50
91.5
 51
180.0
  0
LINE
  5
D6
330
1E
100
AcDbEntity
  8
0
  6
CONTINUOUS
100
AcDbLine
 10
260.0974429999999
 20
272.246124
 30
0.0
 11
264.149841
 21
272.140015
 31
0.0
  0
ARC
  5
D7
330
1E
100
AcDbEntity
  8
0
  6
CONTINUOUS
100
AcDbCircle
 10
260.1497799999999
 20
274.245422
 30
0.0
 40
2.0
100
AcDbArc
 50
180.0
 51
268.5
  0
ARC
  5
D8
330
1E
100
AcDbEntity
  8
0
  6
CONTINUOUS
100
AcDbCircle
 10
260.149841
 20
147.7975459999999
 30
0.0
 40
2.0
100
AcDbArc
 50
91.5
 51
180.0
  0
ARC
  5
D9
330
1E
100
AcDbEntity
  8
0
  6
CONTINUOUS
100
AcDbCircle
 10
260.149841
 20
18.008398
 30
0.0
 40
2.0
100
AcDbArc
 50
180.0
 51
268.5
  0
LINE
  5
DA
330
1E
100
AcDbEntity
  8
0
  6
CONTINUOUS
100
AcDbLine
 10
346.149841
 20
327.557007
 30
0.0
 11
381.149841
 21
327.557007
 31
0.0
  0
LINE
  5
DB
330
1E
100
AcDbEntity
  8
0
  6
DASHED
100
AcDbLine
 10
334.149841
 20
409.0476069999999
 30
0.0
 11
322.149811
 21
409.0476069999999
 31
0.0
  0
LINE
  5
DC
330
1E
100
AcDbEntity
  8
0
  6
DASHED
100
AcDbLine
 10
334.149841
 20
398.0476069999999
 30
0.0
 11
322.149811
 21
398.0476069999999
 31
0.0
  0
LINE
  5
DD
330
1E
100
AcDbEntity
  8
0
  6
DASHED
100
AcDbLine
 10
334.149841
 20
278.232391
 30
0.0
 11
322.149811
 21
278.232391
 31
0.0
  0
LINE
  5
DE
330
1E
100
AcDbEntity
  8
0
  6
DASHED
100
AcDbLine
 10
334.149841
 20
267.232391
 30
0.0
 11
322.149811
 21
267.232391
 31
0.0
  0
LINE
  5
DF
330
1E
100
AcDbEntity
  8
0
  6
DASHED
100
AcDbLine
 10
334.149841
 20
171.810562
 30
0.0
 11
322.149811
 21
171.810562
 31
0.0
  0
LINE
  5
E0
330
1E
100
AcDbEntity
  8
0
  6
DASHED
100
AcDbLine
 10
334.149841
 20
160.810562
 30
0.0
 11
322.149811
 21
160.810562
 31
0.0
  0
LINE
  5
E1
330
1E
100
AcDbEntity
  8
0
  6
DASHED
100
AcDbLine
 10
334.149841
 20
40.995369
 30
0.0
 11
322.149811
 21
40.995369
 31
0.0
  0
LINE
  5
E2
330
1E
100
AcDbEntity
  8
0
  6
DASHED
100
AcDbLine
 10
334.149841
 20
29.995369
 30
0.0
 11
322.149811
 21
29.995369
 31
0.0
  0
LINE
  5
E3
330
1E
100
AcDbEntity
  8
0
  6
CONTINUOUS
100
AcDbLine
 10
157.64978
 20
395.640015
 30
0.0
 11
157.64978
 21
280.6400149999999
 31
0.0
  0
LINE
  5
EA
330
1E
100
AcDbEntity
  8
0
  6
CONTINUOUS
100
AcDbLine
 10
45.64977999999999
 20
395.640015
 30
0.0
 11
157.64978
 21
395.640015
 31
0.0
  0
LINE
  5
EB
330
1E
100
AcDbEntity
  8
0
  6
CONTINUOUS
100
AcDbLine
 10
157.64978
 20
280.6400149999999
 30
0.0
 11
113.124153
 21
280.6400149999999
 31
0.0
  0
LINE
  5
EC
330
1E
100
AcDbEntity
  8
0
  6
CONTINUOUS
100
AcDbLine
 10
45.64977999999999
 20
364.1394959999999
 30
0.0
 11
149.6235809999999
 21
364.1394959999999
 31
0.0
  0
LINE
  5
ED
330
1E
100
AcDbEntity
  8
0
  6
CONTINUOUS
100
AcDbLine
 10
45.64977999999999
 20
371.910004
 30
0.0
 11
149.6235809999999
 21
371.910004
 31
0.0
  0
LINE
  5
EE
330
1E
100
AcDbEntity
  8
0
  6
CONTINUOUS
100
AcDbLine
 10
46.64978
 20
375.189392
 30
0.0
 11
148.6235959999999
 21
375.189392
 31
0.0
  0
LINE
  5
EF
330
1E
100
AcDbEntity
  8
0
  6
CONTINUOUS
100
AcDbLine
 10
45.64977999999999
 20
380.004364
 30
0.0
 11
149.6235809999999
 21
380.004364
 31
0.0
  0
LINE
  5
F0
330
1E
100
AcDbEntity
  8
0
  6
CONTINUOUS
100
AcDbLine
 10
46.64978
 20
381.9921879999999
 30
0.0
 11
148.6235959999999
 21
381.9921879999999
 31
0.0
  0
LINE
  5
F1
330
1E
100
AcDbEntity
  8
0
  6
CONTINUOUS
100
AcDbLine
 10
45.64977999999999
 20
386.034821
 30
0.0
 11
149.6235809999999
 21
386.034821
 31
0.0
  0
LINE
  5
F2
330
1E
100
AcDbEntity
  8
0
  6
CONTINUOUS
100
AcDbLine
 10
45.64977999999999
 20
390.5656739999999
 30
0.0
 11
149.6235809999999
 21
390.5656739999999
 31
0.0
  0
LINE
  5
F3
330
1E
100
AcDbEntity
  8
0
  6
CONTINUOUS
100
AcDbLine
 10
45.64977999999999
 20
393.442749
 30
0.0
 11
149.6235809999999
 21
393.442749
 31
0.0
  0
LINE
  5
F4
330
1E
100
AcDbEntity
  8
0
  6
CONTINUOUS
100
AcDbLine
 10
45.64977999999999
 20
395.098083
 30
0.0
 11
149.6235809999999
 21
395.098083
 31
0.0
  0
LINE
  5
F5
330
1E
100
AcDbEntity
  8
0
  6
CONTINUOUS
100
AcDbLine
 10
149.6235809999999
 20
395.640015
 30
0.0
 11
149.6235809999999
 21
364.1394959999999
 31
0.0
  0
LINE
  5
F6
330
1E
100
AcDbEntity
  8
0
  6
CONTINUOUS
100
AcDbLine
 10
45.64977999999999
 20
312.1405029999999
 30
0.0
 11
149.6235809999999
 21
312.1405029999999
 31
0.0
  0
LINE
  5
F7
330
1E
100
AcDbEntity
  8
0
  6
CONTINUOUS
100
AcDbLine
 10
45.64977999999999
 20
304.369995
 30
0.0
 11
149.6235809999999
 21
304.369995
 31
0.0
  0
LINE
  5
F8
330
1E
100
AcDbEntity
  8
0
  6
CONTINUOUS
100
AcDbLine
 10
45.64977999999999
 20
296.275635
 30
0.0
 11
149.6235809999999
 21
296.275635
 31
0.0
  0
LINE
  5
F9
330
1E
100
AcDbEntity
  8
0
  6
CONTINUOUS
100
AcDbLine
 10
112.624153
 20
285.714294
 30
0.0
 11
149.6235809999999
 21
285.714294
 31
0.0
  0
LINE
  5
FA
330
1E
100
AcDbEntity
  8
0
  6
CONTINUOUS
100
AcDbLine
 10
112.624153
 20
282.83725
 30
0.0
 11
149.6235809999999
 21
282.83725
 31
0.0
  0
LINE
  5
FB
330
1E
100
AcDbEntity
  8
0
  6
CONTINUOUS
100
AcDbLine
 10
113.124146
 20
281.181915
 30
0.0
 11
149.6235809999999
 21
281.181915
 31
0.0
  0
LINE
  5
FC
330
1E
100
AcDbEntity
  8
0
  6
CONTINUOUS
100
AcDbLine
 10
149.6235809999999
 20
280.6400149999999
 30
0.0
 11
149.6235809999999
 21
312.1405029999999
 31
0.0
  0
LINE
  5
FD
330
1E
100
AcDbEntity
  8
0
  6
CONTINUOUS
100
AcDbLine
 10
112.624153
 20
281.140015
 30
0.0
 11
112.624153
 21
287.3394169999999
 31
0.0
  0
ARC
  5
FE
330
1E
100
AcDbEntity
  8
0
  6
CONTINUOUS
100
AcDbCircle
 10
113.124146
 20
281.681915
 30
0.0
 40
0.499992
100
AcDbArc
 50
180.0
 51
270.0
  0
ARC
  5
FF
330
1E
100
AcDbEntity
  8
0
  6
CONTINUOUS
100
AcDbCircle
 10
111.6241679999999
 20
283.1408689999999
 30
0.0
 40
0.9999839999999998
100
AcDbArc
 50
270.0
 51
0.0
  0
LINE
  5
100
330
1E
100
AcDbEntity
  8
0
  6
CONTINUOUS
100
AcDbLine
 10
46.64978
 20
301.0906069999999
 30
0.0
 11
148.6235959999999
 21
301.0906069999999
 31
0.0
  0
LINE
  5
101
330
1E
100
AcDbEntity
  8
0
  6
CONTINUOUS
100
AcDbLine
 10
46.64978
 20
294.2878109999999
 30
0.0
 11
148.6235959999999
 21
294.2878109999999
 31
0.0
  0
LINE
  5
102
330
1E
100
AcDbEntity
  8
0
  6
CONTINUOUS
100
AcDbLine
 10
45.64977999999999
 20
290.2451779999999
 30
0.0
 11
149.6235809999999
 21
290.2451779999999
 31
0.0
  0
LINE
  5
103
330
1E
100
AcDbEntity
  8
0
  6
CONTINUOUS
100
AcDbLine
 10
45.64977999999999
 20
287.3394169999999
 30
0.0
 11
112.624153
 21
287.3394169999999
 31
0.0
  0
LINE
  5
104
330
1E
100
AcDbEntity
  8
0
  6
CONTINUOUS
100
AcDbLine
 10
45.64977999999999
 20
282.140869
 30
0.0
 11
92.172157
 21
282.140869
 31
0.0
  0
LINE
  5
105
330
1E
100
AcDbEntity
  8
0
  6
CONTINUOUS
100
AcDbLine
 10
111.6241679999999
 20
282.140869
 30
0.0
 11
92.172157
 21
282.1408079999999
 31
0.0
  0
LINE
  5
106
330
1E
100
AcDbEntity
  8
0
  6
CONTINUOUS
100
AcDbLine
 10
74.624741
 20
279.1409299999999
 30
0.0
 11
74.624741
 21
282.140869
 31
0.0
  0
LINE
  5
107
330
1E
100
AcDbEntity
  8
0
  6
CONTINUOUS
100
AcDbLine
 10
50.625111
 20
279.1409299999999
 30
0.0
 11
50.625111
 21
282.140869
 31
0.0
  0
LINE
  5
108
330
1E
100
AcDbEntity
  8
0
  6
CONTINUOUS
100
AcDbLine
 10
74.624741
 20
279.1409299999999
 30
0.0
 11
50.625111
 21
279.1409299999999
 31
0.0
  0
ARC
  5
109
330
1E
100
AcDbEntity
  8
0
  6
CONTINUOUS
100
AcDbCircle
 10
113.124153
 20
281.140015
 30
0.0
 40
0.5
100
AcDbArc
 50
180.0
 51
270.0
  0
LINE
  5
112
330
1E
100
AcDbEntity
  8
0
  6
CONTINUOUS
100
AcDbLine
 10
245.64978
 20
395.640015
 30
0.0
 11
250.6497799999999
 21
395.640015
 31
0.0
  0
LINE
  5
113
330
1E
100
AcDbEntity
  8
0
  6
CONTINUOUS
100
AcDbLine
 10
245.64978
 20
280.6400149999999
 30
0.0
 11
250.6497799999999
 21
280.6400149999999
 31
0.0
  0
LINE
  5
114
330
1E
100
AcDbEntity
  8
0
  6
CONTINUOUS
100
AcDbLine
 10
245.64978
 20
395.640015
 30
0.0
 11
245.64978
 21
280.6400149999999
 31
0.0
  0
LINE
  5
115
330
1E
100
AcDbEntity
  8
0
  6
CONTINUOUS
100
AcDbLine
 10
237.64978
 20
282.8900149999999
 30
0.0
 11
237.64978
 21
393.3900149999999
 31
0.0
  0
LINE
  5
116
330
1E
100
AcDbEntity
  8
0
  6
CONTINUOUS
100
AcDbLine
 10
174.64978
 20
280.8900149999999
 30
0.0
 11
174.64978
 21
395.3900149999999
 31
0.0
  0
LINE
  5
117
330
1E
100
AcDbEntity
  8
0
  6
CONTINUOUS
100
AcDbLine
 10
182.64978
 20
282.8900149999999
 30
0.0
 11
182.64978
 21
393.3900149999999
 31
0.0
  0
LINE
  5
118
330
1E
100
AcDbEntity
  8
0
  6
CONTINUOUS
100
AcDbLine
 10
157.64978
 20
395.3900149999999
 30
0.0
 11
180.6497799999999
 21
395.3900149999999
 31
0.0
  0
LINE
  5
119
330
1E
100
AcDbEntity
  8
0
  6
CONTINUOUS
100
AcDbLine
 10
157.64978
 20
280.8900149999999
 30
0.0
 11
166.1499629999999
 21
280.8900149999999
 31
0.0
  0
LINE
  5
11A
330
1E
100
AcDbEntity
  8
0
  6
CONTINUOUS
100
AcDbLine
 10
239.64978
 20
280.8900149999999
 30
0.0
 11
245.64978
 21
280.8900149999999
 31
0.0
  0
LINE
  5
11B
330
1E
100
AcDbEntity
  8
0
  6
CONTINUOUS
100
AcDbLine
 10
239.64978
 20
395.3900149999999
 30
0.0
 11
245.64978
 21
395.3900149999999
 31
0.0
  0
ARC
  5
11C
330
1E
100
AcDbEntity
  8
0
  6
CONTINUOUS
100
AcDbCircle
 10
180.6497799999999
 20
393.3900149999999
 30
0.0
 40
2.0
100
AcDbArc
 50
0.0
 51
90.0
  0
ARC
  5
11D
330
1E
100
AcDbEntity
  8
0
  6
CONTINUOUS
100
AcDbCircle
 10
239.64978
 20
393.3900149999999
 30
0.0
 40
2.0
100
AcDbArc
 50
90.0
 51
180.0
  0
LINE
  5
11E
330
1E
100
AcDbEntity
  8
0
  6
CONTINUOUS
100
AcDbLine
 10
184.2466579999999
 20
393.1400149999999
 30
0.0
 11
236.0529019999999
 21
393.1400149999999
 31
0.0
  0
ARC
  5
11F
330
1E
100
AcDbEntity
  8
0
  6
CONTINUOUS
100
AcDbCircle
 10
236.0529019999999
 20
395.1400149999999
 30
0.0
 40
2.0
100
AcDbArc
 50
270.0
 51
334.0555109999999
  0
ARC
  5
120
330
1E
100
AcDbEntity
  8
0
  6
CONTINUOUS
100
AcDbCircle
 10
184.2466579999999
 20
395.1400149999999
 30
0.0
 40
2.0
100
AcDbArc
 50
205.944473
 51
270.0
  0
ARC
  5
121
330
1E
100
AcDbEntity
  8
0
  6
CONTINUOUS
100
AcDbCircle
 10
180.6497799999999
 20
282.8900149999999
 30
0.0
 40
2.0
100
AcDbArc
 50
270.0
 51
0.0
  0
ARC
  5
122
330
1E
100
AcDbEntity
  8
0
  6
CONTINUOUS
100
AcDbCircle
 10
239.64978
 20
282.8900149999999
 30
0.0
 40
2.0
100
AcDbArc
 50
180.0
 51
270.0
  0
LINE
  5
123
330
1E
100
AcDbEntity
  8
0
  6
CONTINUOUS
100
AcDbLine
 10
184.2466579999999
 20
283.1400149999999
 30
0.0
 11
216.1499629999999
 21
283.1400149999999
 31
0.0
  0
ARC
  5
124
330
1E
100
AcDbEntity
  8
0
  6
CONTINUOUS
100
AcDbCircle
 10
236.0529019999999
 20
281.140015
 30
0.0
 40
2.0
100
AcDbArc
 50
25.94448900000003
 51
90.0
  0
ARC
  5
125
330
1E
100
AcDbEntity
  8
0
  6
CONTINUOUS
100
AcDbCircle
 10
184.2466579999999
 20
281.140015
 30
0.0
 40
2.0
100
AcDbArc
 50
90.0
 51
154.055527
  0
LINE
  5
126
330
1E
100
AcDbEntity
  8
0
  6
CONTINUOUS
100
AcDbLine
 10
184.2466579999999
 20
305.140015
 30
0.0
 11
236.0529019999999
 21
305.140015
 31
0.0
  0
LINE
  5
127
330
1E
100
AcDbEntity
  8
0
  6
CONTINUOUS
100
AcDbLine
 10
184.2466579999999
 20
371.140015
 30
0.0
 11
236.0529019999999
 21
371.140015
 31
0.0
  0
LINE
  5
128
330
1E
100
AcDbEntity
  8
0
  6
CONTINUOUS
100
AcDbLine
 10
213.6497799999999
 20
283.640015
 30
0.0
 11
221.6497799999999
 21
283.640015
 31
0.0
  0
LINE
  5
129
330
1E
100
AcDbEntity
  8
0
  6
CONTINUOUS
100
AcDbLine
 10
221.6497799999999
 20
286.168854
 30
0.0
 11
221.6497799999999
 21
283.640015
 31
0.0
  0
LINE
  5
12A
330
1E
100
AcDbEntity
  8
0
  6
CONTINUOUS
100
AcDbLine
 10
213.6497799999999
 20
286.168854
 30
0.0
 11
213.6497799999999
 21
283.640015
 31
0.0
  0
LINE
  5
12B
330
1E
100
AcDbEntity
  8
0
  6
CONTINUOUS
100
AcDbLine
 10
166.9608919999999
 20
283.276581
 30
0.0
 11
166.148102
 21
283.1972959999999
 31
0.0
  0
LINE
  5
12C
330
1E
100
AcDbEntity
  8
0
  6
CONTINUOUS
100
AcDbLine
 10
166.148727
 20
283.195648
 30
0.0
 11
165.528305
 21
282.960327
 31
0.0
  0
LINE
  5
12D
330
1E
100
AcDbEntity
  8
0
  6
CONTINUOUS
100
AcDbLine
 10
165.5136259999999
 20
282.9770809999999
 30
0.0
 11
165.280029
 21
282.7727049999999
 31
0.0
  0
LINE
  5
12E
330
1E
100
AcDbEntity
  8
0
  6
CONTINUOUS
100
AcDbLine
 10
165.2913209999999
 20
282.7597959999999
 30
0.0
 11
165.3128199999999
 21
282.5018309999999
 31
0.0
  0
LINE
  5
12F
330
1E
100
AcDbEntity
  8
0
  6
CONTINUOUS
100
AcDbLine
 10
165.346008
 20
282.5045779999999
 30
0.0
 11
165.5100709999999
 21
282.3587339999999
 31
0.0
  0
LINE
  5
130
330
1E
100
AcDbEntity
  8
0
  6
CONTINUOUS
100
AcDbLine
 10
165.5034639999999
 20
282.32132
 30
0.0
 11
165.911118
 21
282.2493899999999
 31
0.0
  0
LINE
  5
131
330
1E
100
AcDbEntity
  8
0
  6
CONTINUOUS
100
AcDbLine
 10
165.913925
 20
282.27182
 30
0.0
 11
166.1499629999999
 21
282.24231
 31
0.0
  0
LINE
  5
132
330
1E
100
AcDbEntity
  8
0
  6
CONTINUOUS
100
AcDbLine
 10
168.299133
 20
283.306671
 30
0.0
 11
168.6819459999999
 21
283.2155149999999
 31
0.0
  0
LINE
  5
133
330
1E
100
AcDbEntity
  8
0
  6
CONTINUOUS
100
AcDbLine
 10
168.6819459999999
 20
283.2155149999999
 30
0.0
 11
169.2106019999999
 21
283.12439
 31
0.0
  0
LINE
  5
134
330
1E
100
AcDbEntity
  8
0
  6
CONTINUOUS
100
AcDbLine
 10
169.2106019999999
 20
283.12439
 30
0.0
 11
169.5569459999999
 21
283.0514529999999
 31
0.0
  0
LINE
  5
135
330
1E
100
AcDbEntity
  8
0
  6
CONTINUOUS
100
AcDbLine
 10
169.5569459999999
 20
283.0514529999999
 30
0.0
 11
169.7392429999999
 21
282.978546
 31
0.0
  0
LINE
  5
136
330
1E
100
AcDbEntity
  8
0
  6
CONTINUOUS
100
AcDbLine
 10
169.77066
 20
283.0087279999999
 30
0.0
 11
169.9215389999999
 21
282.832703
 31
0.0
  0
LINE
  5
137
330
1E
100
AcDbEntity
  8
0
  6
CONTINUOUS
100
AcDbLine
 10
169.9215389999999
 20
282.8144839999999
 30
0.0
 11
170.007217
 21
282.643127
 31
0.0
  0
LINE
  5
138
330
1E
100
AcDbEntity
  8
0
  6
CONTINUOUS
100
AcDbLine
 10
169.9579929999999
 20
282.595734
 30
0.0
 11
169.812164
 21
282.44989
 31
0.0
  0
LINE
  5
139
330
1E
100
AcDbEntity
  8
0
  6
CONTINUOUS
100
AcDbLine
 10
169.8004149999999
 20
282.415924
 30
0.0
 11
169.3017429999999
 21
282.2858279999999
 31
0.0
  0
LINE
  5
13A
330
1E
100
AcDbEntity
  8
0
  6
CONTINUOUS
100
AcDbLine
 10
169.292953
 20
282.269806
 30
0.0
 11
169.1499629999999
 21
282.2629699999999
 31
0.0
  0
LINE
  5
13B
330
1E
100
AcDbEntity
  8
0
  6
CONTINUOUS
100
AcDbLine
 10
166.9608919999999
 20
283.276581
 30
0.0
 11
167.2418519999999
 21
283.283875
 31
0.0
  0
LINE
  5
13C
330
1E
100
AcDbEntity
  8
0
  6
CONTINUOUS
100
AcDbLine
 10
167.2418519999999
 20
283.283875
 30
0.0
 11
167.82518
 21
283.292999
 31
0.0
  0
LINE
  5
13D
330
1E
100
AcDbEntity
  8
0
  6
CONTINUOUS
100
AcDbLine
 10
167.82518
 20
283.292999
 30
0.0
 11
168.299133
 21
283.306671
 31
0.0
  0
ARC
  5
13E
330
1E
100
AcDbEntity
  8
0
  6
CONTINUOUS
100
AcDbCircle
 10
217.6497799999999
 20
277.0036929999999
 30
0.0
 40
10.0
100
AcDbArc
 50
66.42182199999999
 51
113.578178
  0
ARC
  5
13F
330
1E
100
AcDbEntity
  8
0
  6
CONTINUOUS
100
AcDbCircle
 10
445.149841
 20
81.90308399999999
 30
0.0
 40
450.0
100
AcDbArc
 50
173.2476039999999
 51
186.752502
  0
LINE
  5
140
330
1E
100
AcDbEntity
  8
0
  6
CONTINUOUS
100
AcDbLine
 10
10.188082
 20
145.403076
 30
0.0
 11
13.88605
 21
145.403076
 31
0.0
  0
LINE
  5
141
330
1E
100
AcDbEntity
  8
0
  6
CONTINUOUS
100
AcDbLine
 10
10.18814399999999
 20
18.403082
 30
0.0
 11
13.88605
 21
18.403082
 31
0.0
  0
LINE
  5
142
330
1E
100
AcDbEntity
  8
0
  6
CONTINUOUS
100
AcDbLine
 10
14.909548
 20
149.403076
 30
0.0
 11
45.649845
 21
149.403076
 31
0.0
  0
LINE
  5
143
330
1E
100
AcDbEntity
  8
0
  6
CONTINUOUS
100
AcDbLine
 10
45.649845
 20
149.403076
 30
0.0
 11
45.649845
 21
17.403082
 31
0.0
  0
ARC
  5
144
330
1E
100
AcDbEntity
  8
0
  6
CONTINUOUS
100
AcDbCircle
 10
-304.8501589999999
 20
81.90308399999999
 30
0.0
 40
325.0
100
AcDbArc
 50
348.73281
 51
11.66233999999999
  0
ARC
  5
145
330
1E
100
AcDbEntity
  8
0
  6
CONTINUOUS
100
AcDbCircle
 10
10.188114
 20
133.403076
 30
0.0
 40
12.0
100
AcDbArc
 50
90.0
 51
173.247894
  0
ARC
  5
146
330
1E
100
AcDbEntity
  8
0
  6
CONTINUOUS
100
AcDbCircle
 10
14.909548
 20
147.903076
 30
0.0
 40
1.5
100
AcDbArc
 50
90.0
 51
191.662598
  0
ARC
  5
147
330
1E
100
AcDbEntity
  8
0
  6
CONTINUOUS
100
AcDbCircle
 10
10.188082
 20
30.403082
 30
0.0
 40
12.0
100
AcDbArc
 50
186.752396
 51
270.0
  0
LINE
  5
148
330
1E
100
AcDbEntity
  8
0
  6
CONTINUOUS
100
AcDbLine
 10
45.649845
 20
139.4030759999999
 30
0.0
 11
157.6498409999999
 21
139.4030759999999
 31
0.0
  0
LINE
  5
149
330
1E
100
AcDbEntity
  8
0
  6
CONTINUOUS
100
AcDbLine
 10
45.649845
 20
24.403082
 30
0.0
 11
57.83484300000001
 21
24.403082
 31
0.0
  0
LINE
  5
14A
330
1E
100
AcDbEntity
  8
0
  6
CONTINUOUS
100
AcDbLine
 10
149.6498409999999
 20
133.189102
 30
0.0
 11
149.6498409999999
 21
128.9030759999999
 31
0.0
  0
LINE
  5
14B
330
1E
100
AcDbEntity
  8
0
  6
CONTINUOUS
100
AcDbLine
 10
110.6498409999999
 20
108.903084
 30
0.0
 11
45.649845
 21
108.903084
 31
0.0
  0
LINE
  5
14C
330
1E
100
AcDbEntity
  8
0
  6
CONTINUOUS
100
AcDbLine
 10
110.6498409999999
 20
54.90308399999999
 30
0.0
 11
67.46484399999999
 21
54.90308399999999
 31
0.0
  0
LINE
  5
14D
330
1E
100
AcDbEntity
  8
0
  6
CONTINUOUS
100
AcDbLine
 10
112.6498409999999
 20
56.903084
 30
0.0
 11
112.6498409999999
 21
106.903084
 31
0.0
  0
LINE
  5
14E
330
1E
100
AcDbEntity
  8
0
  6
CONTINUOUS
100
AcDbLine
 10
112.6498409999999
 20
88.70307199999999
 30
0.0
 11
149.6498409999999
 21
88.70307199999999
 31
0.0
  0
LINE
  5
14F
330
1E
100
AcDbEntity
  8
0
  6
CONTINUOUS
100
AcDbLine
 10
112.6498409999999
 20
75.10309599999999
 30
0.0
 11
149.6498409999999
 21
75.10309599999999
 31
0.0
  0
LINE
  5
150
330
1E
100
AcDbEntity
  8
0
  6
CONTINUOUS
100
AcDbLine
 10
112.6498409999999
 20
90.703072
 30
0.0
 11
149.6498409999999
 21
90.703072
 31
0.0
  0
LINE
  5
151
330
1E
100
AcDbEntity
  8
0
  6
CONTINUOUS
100
AcDbLine
 10
112.6498409999999
 20
73.103096
 30
0.0
 11
149.6498409999999
 21
73.103096
 31
0.0
  0
LINE
  5
152
330
1E
100
AcDbEntity
  8
0
  6
CONTINUOUS
100
AcDbLine
 10
112.6498409999999
 20
96.50309
 30
0.0
 11
149.6498409999999
 21
96.50309
 31
0.0
  0
LINE
  5
153
330
1E
100
AcDbEntity
  8
0
  6
CONTINUOUS
100
AcDbLine
 10
112.6498409999999
 20
98.50309000000001
 30
0.0
 11
149.6498409999999
 21
98.50309000000001
 31
0.0
  0
LINE
  5
154
330
1E
100
AcDbEntity
  8
0
  6
CONTINUOUS
100
AcDbLine
 10
112.6498409999999
 20
67.303078
 30
0.0
 11
149.6498409999999
 21
67.303078
 31
0.0
  0
LINE
  5
155
330
1E
100
AcDbEntity
  8
0
  6
CONTINUOUS
100
AcDbLine
 10
112.6498409999999
 20
65.303078
 30
0.0
 11
149.6498409999999
 21
65.303078
 31
0.0
  0
LINE
  5
156
330
1E
100
AcDbEntity
  8
0
  6
CONTINUOUS
100
AcDbLine
 10
112.6498409999999
 20
104.303085
 30
0.0
 11
149.6498409999999
 21
104.303085
 31
0.0
  0
LINE
  5
157
330
1E
100
AcDbEntity
  8
0
  6
CONTINUOUS
100
AcDbLine
 10
112.6498409999999
 20
59.50308199999999
 30
0.0
 11
149.6498409999999
 21
59.50308199999999
 31
0.0
  0
LINE
  5
158
330
1E
100
AcDbEntity
  8
0
  6
CONTINUOUS
100
AcDbLine
 10
112.6498409999999
 20
106.303085
 30
0.0
 11
149.6498409999999
 21
106.303085
 31
0.0
  0
LINE
  5
159
330
1E
100
AcDbEntity
  8
0
  6
CONTINUOUS
100
AcDbLine
 10
112.6498409999999
 20
57.50308199999999
 30
0.0
 11
149.6498409999999
 21
57.50308199999999
 31
0.0
  0
LINE
  5
15A
330
1E
100
AcDbEntity
  8
0
  6
CONTINUOUS
100
AcDbLine
 10
45.649845
 20
112.403084
 30
0.0
 11
149.6498409999999
 21
112.403084
 31
0.0
  0
LINE
  5
15B
330
1E
100
AcDbEntity
  8
0
  6
CONTINUOUS
100
AcDbLine
 10
45.649845
 20
51.403084
 30
0.0
 11
57.83484300000001
 21
51.403084
 31
0.0
  0
LINE
  5
15C
330
1E
100
AcDbEntity
  8
0
  6
CONTINUOUS
100
AcDbLine
 10
45.649845
 20
114.403084
 30
0.0
 11
149.6498409999999
 21
114.403084
 31
0.0
  0
LINE
  5
15D
330
1E
100
AcDbEntity
  8
0
  6
CONTINUOUS
100
AcDbLine
 10
45.649845
 20
49.403084
 30
0.0
 11
57.83484300000001
 21
49.403084
 31
0.0
  0
LINE
  5
15E
330
1E
100
AcDbEntity
  8
0
  6
CONTINUOUS
100
AcDbLine
 10
45.649845
 20
119.903084
 30
0.0
 11
149.6498409999999
 21
119.903084
 31
0.0
  0
LINE
  5
15F
330
1E
100
AcDbEntity
  8
0
  6
CONTINUOUS
100
AcDbLine
 10
45.649845
 20
43.903084
 30
0.0
 11
57.83484300000001
 21
43.903084
 31
0.0
  0
LINE
  5
160
330
1E
100
AcDbEntity
  8
0
  6
CONTINUOUS
100
AcDbLine
 10
45.649845
 20
121.903084
 30
0.0
 11
149.6498409999999
 21
121.903084
 31
0.0
  0
LINE
  5
161
330
1E
100
AcDbEntity
  8
0
  6
CONTINUOUS
100
AcDbLine
 10
45.649845
 20
41.903084
 30
0.0
 11
57.83484300000001
 21
41.903084
 31
0.0
  0
LINE
  5
162
330
1E
100
AcDbEntity
  8
0
  6
CONTINUOUS
100
AcDbLine
 10
45.649845
 20
126.903084
 30
0.0
 11
149.6498409999999
 21
126.903084
 31
0.0
  0
LINE
  5
163
330
1E
100
AcDbEntity
  8
0
  6
CONTINUOUS
100
AcDbLine
 10
45.649845
 20
36.903084
 30
0.0
 11
57.83484300000001
 21
36.903084
 31
0.0
  0
LINE
  5
164
330
1E
100
AcDbEntity
  8
0
  6
CONTINUOUS
100
AcDbLine
 10
45.649845
 20
128.9030759999999
 30
0.0
 11
149.6498409999999
 21
128.9030759999999
 31
0.0
  0
LINE
  5
165
330
1E
100
AcDbEntity
  8
0
  6
CONTINUOUS
100
AcDbLine
 10
45.649845
 20
34.90308399999999
 30
0.0
 11
57.83484300000001
 21
34.90308399999999
 31
0.0
  0
LINE
  5
166
330
1E
100
AcDbEntity
  8
0
  6
CONTINUOUS
100
AcDbLine
 10
45.649845
 20
133.189102
 30
0.0
 11
149.6498409999999
 21
133.189102
 31
0.0
  0
LINE
  5
167
330
1E
100
AcDbEntity
  8
0
  6
CONTINUOUS
100
AcDbLine
 10
45.649845
 20
30.617062
 30
0.0
 11
57.83484300000001
 21
30.617062
 31
0.0
  0
LINE
  5
168
330
1E
100
AcDbEntity
  8
0
  6
CONTINUOUS
100
AcDbLine
 10
149.6498409999999
 20
30.617062
 30
0.0
 11
149.6498409999999
 21
34.90308399999999
 31
0.0
  0
LINE
  5
169
330
1E
100
AcDbEntity
  8
0
  6
CONTINUOUS
100
AcDbLine
 10
149.6498409999999
 20
36.903084
 30
0.0
 11
149.6498409999999
 21
41.903084
 31
0.0
  0
LINE
  5
16A
330
1E
100
AcDbEntity
  8
0
  6
CONTINUOUS
100
AcDbLine
 10
149.6498409999999
 20
43.903084
 30
0.0
 11
149.6498409999999
 21
49.403084
 31
0.0
  0
LINE
  5
16B
330
1E
100
AcDbEntity
  8
0
  6
CONTINUOUS
100
AcDbLine
 10
149.6498409999999
 20
51.403084
 30
0.0
 11
149.6498409999999
 21
57.50308199999999
 31
0.0
  0
LINE
  5
16C
330
1E
100
AcDbEntity
  8
0
  6
CONTINUOUS
100
AcDbLine
 10
149.6498409999999
 20
59.50308199999999
 30
0.0
 11
149.6498409999999
 21
65.303078
 31
0.0
  0
LINE
  5
16D
330
1E
100
AcDbEntity
  8
0
  6
CONTINUOUS
100
AcDbLine
 10
149.6498409999999
 20
67.303078
 30
0.0
 11
149.6498409999999
 21
73.103096
 31
0.0
  0
LINE
  5
16E
330
1E
100
AcDbEntity
  8
0
  6
CONTINUOUS
100
AcDbLine
 10
112.6498409999999
 20
82.90308399999998
 30
0.0
 11
149.6498409999999
 21
82.90308399999998
 31
0.0
  0
LINE
  5
16F
330
1E
100
AcDbEntity
  8
0
  6
CONTINUOUS
100
AcDbLine
 10
112.6498409999999
 20
80.90308399999999
 30
0.0
 11
149.6498409999999
 21
80.90308399999999
 31
0.0
  0
LINE
  5
170
330
1E
100
AcDbEntity
  8
0
  6
CONTINUOUS
100
AcDbLine
 10
149.6498409999999
 20
75.10309599999999
 30
0.0
 11
149.6498409999999
 21
80.90308399999999
 31
0.0
  0
LINE
  5
171
330
1E
100
AcDbEntity
  8
0
  6
CONTINUOUS
100
AcDbLine
 10
149.6498409999999
 20
82.90308399999998
 30
0.0
 11
149.6498409999999
 21
88.703102
 31
0.0
  0
LINE
  5
172
330
1E
100
AcDbEntity
  8
0
  6
CONTINUOUS
100
AcDbLine
 10
149.6498409999999
 20
90.703072
 30
0.0
 11
149.6498409999999
 21
96.50309
 31
0.0
  0
LINE
  5
173
330
1E
100
AcDbEntity
  8
0
  6
CONTINUOUS
100
AcDbLine
 10
149.6498409999999
 20
98.50309000000001
 30
0.0
 11
149.6498409999999
 21
104.303085
 31
0.0
  0
LINE
  5
174
330
1E
100
AcDbEntity
  8
0
  6
CONTINUOUS
100
AcDbLine
 10
149.6498409999999
 20
106.303085
 30
0.0
 11
149.6498409999999
 21
112.403084
 31
0.0
  0
LINE
  5
175
330
1E
100
AcDbEntity
  8
0
  6
CONTINUOUS
100
AcDbLine
 10
149.6498409999999
 20
114.403084
 30
0.0
 11
149.6498409999999
 21
119.903084
 31
0.0
  0
LINE
  5
176
330
1E
100
AcDbEntity
  8
0
  6
CONTINUOUS
100
AcDbLine
 10
149.6498409999999
 20
121.903084
 30
0.0
 11
149.6498409999999
 21
126.903084
 31
0.0
  0
ARC
  5
177
330
1E
100
AcDbEntity
  8
0
  6
CONTINUOUS
100
AcDbCircle
 10
110.6498409999999
 20
106.903084
 30
0.0
 40
2.0
100
AcDbArc
 50
0.0
 51
90.0
  0
ARC
  5
178
330
1E
100
AcDbEntity
  8
0
  6
CONTINUOUS
100
AcDbCircle
 10
110.6498409999999
 20
56.903084
 30
0.0
 40
2.0
100
AcDbArc
 50
270.0
 51
0.0
  0
ARC
  5
179
330
1E
100
AcDbEntity
  8
0
  6
CONTINUOUS
100
AcDbCircle
 10
47.64984499999999
 20
106.903084
 30
0.0
 40
2.0
100
AcDbArc
 50
90.0
 51
180.0
  0
ARC
  5
17A
330
1E
100
AcDbEntity
  8
0
  6
CONTINUOUS
100
AcDbCircle
 10
47.64984499999999
 20
56.903084
 30
0.0
 40
2.0
100
AcDbArc
 50
180.0
 51
270.0
  0
ARC
  5
17B
330
1E
100
AcDbEntity
  8
0
  6
CONTINUOUS
100
AcDbCircle
 10
62.64984499999999
 20
81.90308399999999
 30
0.0
 40
12.0
100
AcDbArc
 50
259.508698
 51
263.7084959999999
  0
ARC
  5
17C
330
1E
100
AcDbEntity
  8
0
  6
CONTINUOUS
100
AcDbCircle
 10
62.64984499999999
 20
85.90308399999999
 30
0.0
 40
1.5
100
AcDbArc
 50
331.24268
 51
208.757202
  0
LINE
  5
17D
330
1E
100
AcDbEntity
  8
0
  6
CONTINUOUS
100
AcDbLine
 10
61.334843
 20
85.90308399999999
 30
0.0
 11
61.334843
 21
21.528082
 31
0.0
  0
LINE
  5
17E
330
1E
100
AcDbEntity
  8
0
  6
CONTINUOUS
100
AcDbLine
 10
63.96484399999999
 20
85.90308399999999
 30
0.0
 11
63.96484399999999
 21
21.528082
 31
0.0
  0
CIRCLE
  5
17F
330
1E
100
AcDbEntity
  8
0
  6
CONTINUOUS
100
AcDbCircle
 10
62.64984499999999
 20
8.528082000000001
 30
0.0
 40
2.149999999999999
  0
ARC
  5
180
330
1E
100
AcDbEntity
  8
0
  6
CONTINUOUS
100
AcDbCircle
 10
62.64984499999999
 20
8.528082000000001
 30
0.0
 40
3.75
100
AcDbArc
 50
129.736893
 51
50.263371
  0
LINE
  5
181
330
1E
100
AcDbEntity
  8
0
  6
CONTINUOUS
100
AcDbLine
 10
60.83484300000001
 20
21.528082
 30
0.0
 11
64.464844
 21
21.528082
 31
0.0
  0
LINE
  5
182
330
1E
100
AcDbEntity
  8
0
  6
CONTINUOUS
100
AcDbLine
 10
61.334843
 20
14.32806199999999
 30
0.0
 11
63.96484399999999
 21
14.32806199999999
 31
0.0
  0
ARC
  5
183
330
1E
100
AcDbEntity
  8
0
  6
CONTINUOUS
100
AcDbCircle
 10
58.33484300000001
 20
13.71876199999999
 30
0.0
 40
3.0
100
AcDbArc
 50
309.736389
 51
0.0
  0
ARC
  5
184
330
1E
100
AcDbEntity
  8
0
  6
CONTINUOUS
100
AcDbCircle
 10
66.964844
 20
13.71876199999999
 30
0.0
 40
3.0
100
AcDbArc
 50
180.0
 51
230.263306
  0
LINE
  5
185
330
1E
100
AcDbEntity
  8
0
  6
CONTINUOUS
100
AcDbLine
 10
60.83484300000001
 20
18.528082
 30
0.0
 11
64.464844
 21
18.528082
 31
0.0
  0
LINE
  5
186
330
1E
100
AcDbEntity
  8
0
  6
CONTINUOUS
100
AcDbLine
 10
60.83484300000001
 20
21.528082
 30
0.0
 11
60.83484300000001
 21
18.528082
 31
0.0
  0
LINE
  5
187
330
1E
100
AcDbEntity
  8
0
  6
CONTINUOUS
100
AcDbLine
 10
64.464844
 20
21.528082
 30
0.0
 11
64.464844
 21
18.528082
 31
0.0
  0
LINE
  5
188
330
1E
100
AcDbEntity
  8
0
  6
CONTINUOUS
100
AcDbLine
 10
61.334843
 20
13.71876199999999
 30
0.0
 11
61.334843
 21
18.528082
 31
0.0
  0
LINE
  5
189
330
1E
100
AcDbEntity
  8
0
  6
CONTINUOUS
100
AcDbLine
 10
63.96484399999999
 20
13.71876199999999
 30
0.0
 11
63.96484399999999
 21
18.528082
 31
0.0
  0
ARC
  5
18A
330
1E
100
AcDbEntity
  8
0
  6
CONTINUOUS
100
AcDbCircle
 10
62.64984499999999
 20
85.90308399999999
 30
0.0
 40
1.314999999999999
100
AcDbArc
 50
0.0
 51
180.0
  0
ARC
  5
18B
330
1E
100
AcDbEntity
  8
0
  6
CONTINUOUS
100
AcDbCircle
 10
66.149841
 20
79.90308399999999
 30
0.0
 40
1.5
100
AcDbArc
 50
331.24268
 51
208.757202
  0
LINE
  5
18C
330
1E
100
AcDbEntity
  8
0
  6
CONTINUOUS
100
AcDbLine
 10
64.834846
 20
79.90308399999999
 30
0.0
 11
64.834846
 21
15.528082
 31
0.0
  0
LINE
  5
18D
330
1E
100
AcDbEntity
  8
0
  6
CONTINUOUS
100
AcDbLine
 10
67.46484399999999
 20
79.90308399999999
 30
0.0
 11
67.46484399999999
 21
15.528082
 31
0.0
  0
CIRCLE
  5
18E
330
1E
100
AcDbEntity
  8
0
  6
CONTINUOUS
100
AcDbCircle
 10
66.149841
 20
2.528081999999999
 30
0.0
 40
2.149999999999999
  0
ARC
  5
18F
330
1E
100
AcDbEntity
  8
0
  6
CONTINUOUS
100
AcDbCircle
 10
66.149841
 20
2.528081999999999
 30
0.0
 40
3.75
100
AcDbArc
 50
142.411804
 51
158.967697
  0
LINE
  5
190
330
1E
100
AcDbEntity
  8
0
  6
CONTINUOUS
100
AcDbLine
 10
64.33484599999999
 20
15.528082
 30
0.0
 11
67.964844
 21
15.528082
 31
0.0
  0
LINE
  5
191
330
1E
100
AcDbEntity
  8
0
  6
CONTINUOUS
100
AcDbLine
 10
66.39450100000001
 20
8.328061999999999
 30
0.0
 11
67.46484399999999
 21
8.328061999999999
 31
0.0
  0
ARC
  5
192
330
1E
100
AcDbEntity
  8
0
  6
CONTINUOUS
100
AcDbCircle
 10
70.464844
 20
7.718761999999999
 30
0.0
 40
3.0
100
AcDbArc
 50
180.0
 51
230.263306
  0
LINE
  5
193
330
1E
100
AcDbEntity
  8
0
  6
CONTINUOUS
100
AcDbLine
 10
64.33484599999999
 20
12.528082
 30
0.0
 11
67.964844
 21
12.528082
 31
0.0
  0
LINE
  5
194
330
1E
100
AcDbEntity
  8
0
  6
CONTINUOUS
100
AcDbLine
 10
64.33484599999999
 20
15.528082
 30
0.0
 11
64.33484599999999
 21
12.528082
 31
0.0
  0
LINE
  5
195
330
1E
100
AcDbEntity
  8
0
  6
CONTINUOUS
100
AcDbLine
 10
67.964844
 20
15.528082
 30
0.0
 11
67.964844
 21
12.528082
 31
0.0
  0
LINE
  5
196
330
1E
100
AcDbEntity
  8
0
  6
CONTINUOUS
100
AcDbLine
 10
64.834846
 20
11.606142
 30
0.0
 11
64.834846
 21
12.528082
 31
0.0
  0
LINE
  5
197
330
1E
100
AcDbEntity
  8
0
  6
CONTINUOUS
100
AcDbLine
 10
67.46484399999999
 20
7.718761999999999
 30
0.0
 11
67.46484399999999
 21
12.528082
 31
0.0
  0
ARC
  5
198
330
1E
100
AcDbEntity
  8
0
  6
CONTINUOUS
100
AcDbCircle
 10
66.149841
 20
79.90308399999999
 30
0.0
 40
1.314999999999999
100
AcDbArc
 50
0.0
 51
180.0
  0
ARC
  5
199
330
1E
100
AcDbEntity
  8
0
  6
CONTINUOUS
100
AcDbCircle
 10
59.14984499999999
 20
79.90308399999999
 30
0.0
 40
1.5
100
AcDbArc
 50
331.24268
 51
208.757202
  0
LINE
  5
19A
330
1E
100
AcDbEntity
  8
0
  6
CONTINUOUS
100
AcDbLine
 10
57.83484300000001
 20
79.90308399999999
 30
0.0
 11
57.83484300000001
 21
15.528082
 31
0.0
  0
LINE
  5
19B
330
1E
100
AcDbEntity
  8
0
  6
CONTINUOUS
100
AcDbLine
 10
60.46484399999999
 20
79.90308399999999
 30
0.0
 11
60.46484399999999
 21
15.528082
 31
0.0
  0
CIRCLE
  5
19C
330
1E
100
AcDbEntity
  8
0
  6
CONTINUOUS
100
AcDbCircle
 10
59.14984499999999
 20
2.528081999999999
 30
0.0
 40
2.149999999999999
  0
ARC
  5
19D
330
1E
100
AcDbEntity
  8
0
  6
CONTINUOUS
100
AcDbCircle
 10
59.14984499999999
 20
2.528081999999999
 30
0.0
 40
3.75
100
AcDbArc
 50
129.736893
 51
37.58773
  0
LINE
  5
19E
330
1E
100
AcDbEntity
  8
0
  6
CONTINUOUS
100
AcDbLine
 10
57.334843
 20
15.528082
 30
0.0
 11
60.96484399999999
 21
15.528082
 31
0.0
  0
LINE
  5
19F
330
1E
100
AcDbEntity
  8
0
  6
CONTINUOUS
100
AcDbLine
 10
57.83484300000001
 20
8.328061999999999
 30
0.0
 11
58.89984499999999
 21
8.328061999999999
 31
0.0
  0
ARC
  5
1A0
330
1E
100
AcDbEntity
  8
0
  6
CONTINUOUS
100
AcDbCircle
 10
54.834843
 20
7.718761999999999
 30
0.0
 40
3.0
100
AcDbArc
 50
309.736389
 51
0.0
  0
LINE
  5
1A1
330
1E
100
AcDbEntity
  8
0
  6
CONTINUOUS
100
AcDbLine
 10
57.334843
 20
12.528082
 30
0.0
 11
60.96484399999999
 21
12.528082
 31
0.0
  0
LINE
  5
1A2
330
1E
100
AcDbEntity
  8
0
  6
CONTINUOUS
100
AcDbLine
 10
57.334843
 20
15.528082
 30
0.0
 11
57.334843
 21
12.528082
 31
0.0
  0
LINE
  5
1A3
330
1E
100
AcDbEntity
  8
0
  6
CONTINUOUS
100
AcDbLine
 10
60.96484399999999
 20
15.528082
 30
0.0
 11
60.96484399999999
 21
12.528082
 31
0.0
  0
LINE
  5
1A4
330
1E
100
AcDbEntity
  8
0
  6
CONTINUOUS
100
AcDbLine
 10
57.83484300000001
 20
7.718761999999999
 30
0.0
 11
57.83484300000001
 21
12.528082
 31
0.0
  0
LINE
  5
1A5
330
1E
100
AcDbEntity
  8
0
  6
CONTINUOUS
100
AcDbLine
 10
60.46484399999999
 20
11.606142
 30
0.0
 11
60.46484399999999
 21
12.528082
 31
0.0
  0
ARC
  5
1A6
330
1E
100
AcDbEntity
  8
0
  6
CONTINUOUS
100
AcDbCircle
 10
59.14984499999999
 20
79.90308399999999
 30
0.0
 40
1.314999999999999
100
AcDbArc
 50
0.0
 51
180.0
  0
ARC
  5
1A7
330
1E
100
AcDbEntity
  8
0
  6
CONTINUOUS
100
AcDbCircle
 10
66.149841
 20
2.528081999999999
 30
0.0
 40
3.75
100
AcDbArc
 50
201.0317989999999
 51
50.263371
  0
ARC
  5
1A8
330
1E
100
AcDbEntity
  8
0
  6
CONTINUOUS
100
AcDbCircle
 10
62.64984499999999
 20
81.90308399999999
 30
0.0
 40
12.0
100
AcDbArc
 50
276.2912899999999
 51
280.4912109999999
  0
ARC
  5
1A9
330
1E
100
AcDbEntity
  8
0
  6
CONTINUOUS
100
AcDbCircle
 10
62.64984499999999
 20
81.90308399999999
 30
0.0
 40
12.0
100
AcDbArc
 50
293.656342
 51
246.343506
  0
LINE
  5
1AA
330
1E
100
AcDbEntity
  8
0
  6
CONTINUOUS
100
AcDbLine
 10
45.649845
 20
54.90308399999999
 30
0.0
 11
57.83484300000001
 21
54.90308399999999
 31
0.0
  0
LINE
  5
1AB
330
1E
100
AcDbEntity
  8
0
  6
CONTINUOUS
100
AcDbLine
 10
60.46484399999999
 20
54.90308399999999
 30
0.0
 11
61.334843
 21
54.90308399999999
 31
0.0
  0
LINE
  5
1AC
330
1E
100
AcDbEntity
  8
0
  6
CONTINUOUS
100
AcDbLine
 10
63.96484399999999
 20
54.90308399999999
 30
0.0
 11
64.834846
 21
54.90308399999999
 31
0.0
  0
LINE
  5
1AD
330
1E
100
AcDbEntity
  8
0
  6
CONTINUOUS
100
AcDbLine
 10
149.6498409999999
 20
51.403084
 30
0.0
 11
67.46484399999999
 21
51.403084
 31
0.0
  0
LINE
  5
1AE
330
1E
100
AcDbEntity
  8
0
  6
CONTINUOUS
100
AcDbLine
 10
60.46484399999999
 20
51.403084
 30
0.0
 11
61.334843
 21
51.403084
 31
0.0
  0
LINE
  5
1AF
330
1E
100
AcDbEntity
  8
0
  6
CONTINUOUS
100
AcDbLine
 10
63.96484399999999
 20
51.403084
 30
0.0
 11
64.834846
 21
51.403084
 31
0.0
  0
LINE
  5
1B0
330
1E
100
AcDbEntity
  8
0
  6
CONTINUOUS
100
AcDbLine
 10
149.6498409999999
 20
49.403084
 30
0.0
 11
67.46484399999999
 21
49.403084
 31
0.0
  0
LINE
  5
1B1
330
1E
100
AcDbEntity
  8
0
  6
CONTINUOUS
100
AcDbLine
 10
60.46484399999999
 20
49.403084
 30
0.0
 11
61.334843
 21
49.403084
 31
0.0
  0
LINE
  5
1B2
330
1E
100
AcDbEntity
  8
0
  6
CONTINUOUS
100
AcDbLine
 10
63.96484399999999
 20
49.403084
 30
0.0
 11
64.834846
 21
49.403084
 31
0.0
  0
LINE
  5
1B3
330
1E
100
AcDbEntity
  8
0
  6
CONTINUOUS
100
AcDbLine
 10
149.6498409999999
 20
43.903084
 30
0.0
 11
67.46484399999999
 21
43.903084
 31
0.0
  0
LINE
  5
1B4
330
1E
100
AcDbEntity
  8
0
  6
CONTINUOUS
100
AcDbLine
 10
60.46484399999999
 20
43.903084
 30
0.0
 11
61.334843
 21
43.903084
 31
0.0
  0
LINE
  5
1B5
330
1E
100
AcDbEntity
  8
0
  6
CONTINUOUS
100
AcDbLine
 10
63.96484399999999
 20
43.903084
 30
0.0
 11
64.834846
 21
43.903084
 31
0.0
  0
LINE
  5
1B6
330
1E
100
AcDbEntity
  8
0
  6
CONTINUOUS
100
AcDbLine
 10
149.6498409999999
 20
41.903084
 30
0.0
 11
67.46484399999999
 21
41.903084
 31
0.0
  0
LINE
  5
1B7
330
1E
100
AcDbEntity
  8
0
  6
CONTINUOUS
100
AcDbLine
 10
60.46484399999999
 20
41.903084
 30
0.0
 11
61.334843
 21
41.903084
 31
0.0
  0
LINE
  5
1B8
330
1E
100
AcDbEntity
  8
0
  6
CONTINUOUS
100
AcDbLine
 10
63.96484399999999
 20
41.903084
 30
0.0
 11
64.834846
 21
41.903084
 31
0.0
  0
LINE
  5
1B9
330
1E
100
AcDbEntity
  8
0
  6
CONTINUOUS
100
AcDbLine
 10
149.6498409999999
 20
36.903084
 30
0.0
 11
67.46484399999999
 21
36.903084
 31
0.0
  0
LINE
  5
1BA
330
1E
100
AcDbEntity
  8
0
  6
CONTINUOUS
100
AcDbLine
 10
60.46484399999999
 20
36.903084
 30
0.0
 11
61.334843
 21
36.903084
 31
0.0
  0
LINE
  5
1BB
330
1E
100
AcDbEntity
  8
0
  6
CONTINUOUS
100
AcDbLine
 10
63.96484399999999
 20
36.903084
 30
0.0
 11
64.834846
 21
36.903084
 31
0.0
  0
LINE
  5
1BC
330
1E
100
AcDbEntity
  8
0
  6
CONTINUOUS
100
AcDbLine
 10
149.6498409999999
 20
34.90308399999999
 30
0.0
 11
67.46484399999999
 21
34.90308399999999
 31
0.0
  0
LINE
  5
1BD
330
1E
100
AcDbEntity
  8
0
  6
CONTINUOUS
100
AcDbLine
 10
60.46484399999999
 20
34.90308399999999
 30
0.0
 11
61.334843
 21
34.90308399999999
 31
0.0
  0
LINE
  5
1BE
330
1E
100
AcDbEntity
  8
0
  6
CONTINUOUS
100
AcDbLine
 10
63.96484399999999
 20
34.90308399999999
 30
0.0
 11
64.834846
 21
34.90308399999999
 31
0.0
  0
LINE
  5
1BF
330
1E
100
AcDbEntity
  8
0
  6
CONTINUOUS
100
AcDbLine
 10
149.6498409999999
 20
30.617062
 30
0.0
 11
67.46484399999999
 21
30.617062
 31
0.0
  0
LINE
  5
1C0
330
1E
100
AcDbEntity
  8
0
  6
CONTINUOUS
100
AcDbLine
 10
60.46484399999999
 20
30.617062
 30
0.0
 11
61.334843
 21
30.617062
 31
0.0
  0
LINE
  5
1C1
330
1E
100
AcDbEntity
  8
0
  6
CONTINUOUS
100
AcDbLine
 10
63.96484399999999
 20
30.617062
 30
0.0
 11
64.834846
 21
30.617062
 31
0.0
  0
LINE
  5
1C2
330
1E
100
AcDbEntity
  8
0
  6
CONTINUOUS
100
AcDbLine
 10
157.6498409999999
 20
24.403082
 30
0.0
 11
67.46484399999999
 21
24.403082
 31
0.0
  0
LINE
  5
1C3
330
1E
100
AcDbEntity
  8
0
  6
CONTINUOUS
100
AcDbLine
 10
60.46484399999999
 20
24.403082
 30
0.0
 11
61.334843
 21
24.403082
 31
0.0
  0
LINE
  5
1C4
330
1E
100
AcDbEntity
  8
0
  6
CONTINUOUS
100
AcDbLine
 10
63.96484399999999
 20
24.403082
 30
0.0
 11
64.834846
 21
24.403082
 31
0.0
  0
LINE
  5
1C5
330
1E
100
AcDbEntity
  8
0
  6
CONTINUOUS
100
AcDbLine
 10
45.649845
 20
17.403082
 30
0.0
 11
14.905612
 21
17.403082
 31
0.0
  0
ARC
  5
1C6
330
1E
100
AcDbEntity
  8
0
  6
CONTINUOUS
100
AcDbCircle
 10
14.905612
 20
18.403082
 30
0.0
 40
1.0
100
AcDbArc
 50
168.767807
 51
270.0
  0
LINE
  5
1C7
330
1E
100
AcDbEntity
  8
0
  6
CONTINUOUS
100
AcDbLine
 10
174.6498409999999
 20
139.1530759999999
 30
0.0
 11
174.6498409999999
 21
24.653082
 31
0.0
  0
LINE
  5
1C8
330
1E
100
AcDbEntity
  8
0
  6
CONTINUOUS
100
AcDbLine
 10
174.6498409999999
 20
139.1530759999999
 30
0.0
 11
157.6498409999999
 21
139.1530759999999
 31
0.0
  0
LINE
  5
1C9
330
1E
100
AcDbEntity
  8
0
  6
CONTINUOUS
100
AcDbLine
 10
174.6498409999999
 20
24.653082
 30
0.0
 11
157.6498409999999
 21
24.653082
 31
0.0
  0
LINE
  5
1CA
330
1E
100
AcDbEntity
  8
0
  6
CONTINUOUS
100
AcDbLine
 10
167.6498409999999
 20
95.90308399999999
 30
0.0
 11
167.6498409999999
 21
70.15308399999999
 31
0.0
  0
LINE
  5
1CB
330
1E
100
AcDbEntity
  8
0
  6
CONTINUOUS
100
AcDbLine
 10
169.1498409999999
 20
95.90308399999999
 30
0.0
 11
169.1498409999999
 21
69.21558399999999
 31
0.0
  0
LINE
  5
1CC
330
1E
100
AcDbEntity
  8
0
  6
CONTINUOUS
100
AcDbLine
 10
166.1498409999999
 20
95.90308399999999
 30
0.0
 11
166.1498409999999
 21
69.613091
 31
0.0
  0
LINE
  5
1CD
330
1E
100
AcDbEntity
  8
0
  6
CONTINUOUS
100
AcDbLine
 10
166.1498409999999
 20
69.613091
 30
0.0
 11
167.6248469999999
 21
71.30933399999999
 31
0.0
  0
LINE
  5
1CE
330
1E
100
AcDbEntity
  8
0
  6
CONTINUOUS
100
AcDbLine
 10
167.6542659999999
 20
70.16043899999999
 30
0.0
 11
169.1708069999999
 21
69.25051100000001
 31
0.0
  0
ARC
  5
1CF
330
1E
100
AcDbEntity
  8
0
  6
CONTINUOUS
100
AcDbCircle
 10
168.3998409999999
 20
95.90308399999999
 30
0.0
 40
0.75
100
AcDbArc
 50
0.0
 51
180.0
  0
ARC
  5
1D0
330
1E
100
AcDbEntity
  8
0
  6
CONTINUOUS
100
AcDbCircle
 10
166.8998409999999
 20
95.90308399999999
 30
0.0
 40
0.75
100
AcDbArc
 50
0.0
 51
180.0
  0
ARC
  5
1D1
330
1E
100
AcDbEntity
  8
0
  6
CONTINUOUS
100
AcDbCircle
 10
167.6498409999999
 20
95.90308399999999
 30
0.0
 40
3.0
100
AcDbArc
 50
300.0000609999999
 51
239.999893
  0
LINE
  5
1D2
330
1E
100
AcDbEntity
  8
0
  6
CONTINUOUS
100
AcDbLine
 10
157.6498409999999
 20
139.4030759999999
 30
0.0
 11
157.6498409999999
 21
24.403082
 31
0.0
  0
LINE
  5
1D3
330
1E
100
AcDbEntity
  8
0
  6
CONTINUOUS
100
AcDbLine
 10
245.649841
 20
139.4030759999999
 30
0.0
 11
250.649841
 21
139.4030759999999
 31
0.0
  0
LINE
  5
1D4
330
1E
100
AcDbEntity
  8
0
  6
CONTINUOUS
100
AcDbLine
 10
245.649841
 20
24.403082
 30
0.0
 11
250.649841
 21
24.403082
 31
0.0
  0
LINE
  5
1D5
330
1E
100
AcDbEntity
  8
0
  6
CONTINUOUS
100
AcDbLine
 10
245.649841
 20
139.4030759999999
 30
0.0
 11
245.649841
 21
24.403082
 31
0.0
  0
LINE
  5
1D6
330
1E
100
AcDbEntity
  8
0
  6
CONTINUOUS
100
AcDbLine
 10
57.81004300000001
 20
279.1409299999999
 30
0.0
 11
57.81004300000001
 21
271.42392
 31
0.0
  0
LINE
  5
1D7
330
1E
100
AcDbEntity
  8
0
  6
CONTINUOUS
100
AcDbLine
 10
60.440041
 20
279.1409299999999
 30
0.0
 11
60.440041
 21
271.612732
 31
0.0
  0
LINE
  5
1D8
330
1E
100
AcDbEntity
  8
0
  6
CONTINUOUS
100
AcDbLine
 10
61.310043
 20
279.1409299999999
 30
0.0
 11
61.310043
 21
271.361389
 31
0.0
  0
LINE
  5
1D9
330
1E
100
AcDbEntity
  8
0
  6
CONTINUOUS
100
AcDbLine
 10
63.940041
 20
279.1409299999999
 30
0.0
 11
63.940041
 21
271.092712
 31
0.0
  0
LINE
  5
1DA
330
1E
100
AcDbEntity
  8
0
  6
CONTINUOUS
100
AcDbLine
 10
64.81004300000001
 20
279.1409299999999
 30
0.0
 11
64.81004300000001
 21
271.20871
 31
0.0
  0
LINE
  5
1DB
330
1E
100
AcDbEntity
  8
0
  6
CONTINUOUS
100
AcDbLine
 10
67.44004100000001
 20
279.1409299999999
 30
0.0
 11
67.44004100000001
 21
270.81897
 31
0.0
  0
LINE
  5
1DC
330
1E
100
AcDbEntity
  8
0
  6
CONTINUOUS
100
AcDbLine
 10
57.81004300000001
 20
271.42392
 30
0.0
 11
59.549595
 21
271.869965
 31
0.0
  0
LINE
  5
1DD
330
1E
100
AcDbEntity
  8
0
  6
CONTINUOUS
100
AcDbLine
 10
59.549595
 20
271.869965
 30
0.0
 11
60.440041
 21
271.612732
 31
0.0
  0
LINE
  5
1DE
330
1E
100
AcDbEntity
  8
0
  6
CONTINUOUS
100
AcDbLine
 10
62.776936
 20
270.937622
 30
0.0
 11
63.940041
 21
271.092712
 31
0.0
  0
LINE
  5
1DF
330
1E
100
AcDbEntity
  8
0
  6
CONTINUOUS
100
AcDbLine
 10
66.00428
 20
271.36795
 30
0.0
 11
67.44004100000001
 21
270.81897
 31
0.0
  0
LINE
  5
1E0
330
1E
100
AcDbEntity
  8
0
  6
CONTINUOUS
100
AcDbLine
 10
61.310043
 20
271.361389
 30
0.0
 11
62.776936
 21
270.937622
 31
0.0
  0
LINE
  5
1E1
330
1E
100
AcDbEntity
  8
0
  6
CONTINUOUS
100
AcDbLine
 10
64.81004300000001
 20
271.20871
 30
0.0
 11
66.00428
 21
271.36795
 31
0.0
  0
LINE
  5
1E2
330
1E
100
AcDbEntity
  8
0
  6
CONTINUOUS
100
AcDbLine
 10
166.1499629999999
 20
276.931885
 30
0.0
 11
167.6499629999999
 21
277.360443
 31
0.0
  0
LINE
  5
1E3
330
1E
100
AcDbEntity
  8
0
  6
CONTINUOUS
100
AcDbLine
 10
167.6499629999999
 20
276.373901
 30
0.0
 11
169.1499629999999
 21
276.890289
 31
0.0
  0
LINE
  5
1E4
330
1E
100
AcDbEntity
  8
0
  6
CONTINUOUS
100
AcDbLine
 10
166.1499629999999
 20
283.07605
 30
0.0
 11
166.1499629999999
 21
276.931885
 31
0.0
  0
LINE
  5
1E5
330
1E
100
AcDbEntity
  8
0
  6
CONTINUOUS
100
AcDbLine
 10
167.6499629999999
 20
283.183624
 30
0.0
 11
167.6499629999999
 21
276.373901
 31
0.0
  0
LINE
  5
1E6
330
1E
100
AcDbEntity
  8
0
  6
CONTINUOUS
100
AcDbLine
 10
169.1499629999999
 20
283.0222469999999
 30
0.0
 11
169.1499629999999
 21
276.890289
 31
0.0
  0
LINE
  5
1E7
330
1E
100
AcDbEntity
  8
0
  6
CONTINUOUS
100
AcDbLine
 10
216.1499629999999
 20
283.640015
 30
0.0
 11
216.1499629999999
 21
278.688995
 31
0.0
  0
LINE
  5
1E8
330
1E
100
AcDbEntity
  8
0
  6
CONTINUOUS
100
AcDbLine
 10
217.6499629999999
 20
283.640015
 30
0.0
 11
217.6499629999999
 21
278.131012
 31
0.0
  0
LINE
  5
1E9
330
1E
100
AcDbEntity
  8
0
  6
CONTINUOUS
100
AcDbLine
 10
219.149963
 20
283.640015
 30
0.0
 11
219.149963
 21
278.6474
 31
0.0
  0
LINE
  5
1EA
330
1E
100
AcDbEntity
  8
0
  6
CONTINUOUS
100
AcDbLine
 10
217.6499629999999
 20
278.131012
 30
0.0
 11
219.149963
 21
278.6474
 31
0.0
  0
LINE
  5
1EB
330
1E
100
AcDbEntity
  8
0
  6
CONTINUOUS
100
AcDbLine
 10
216.1499629999999
 20
278.688995
 30
0.0
 11
217.6499629999999
 21
279.1175539999999
 31
0.0
  0
LINE
  5
1EC
330
1E
100
AcDbEntity
  8
0
  6
CONTINUOUS
100
AcDbLine
 10
219.149963
 20
283.1400149999999
 30
0.0
 11
236.0529019999999
 21
283.1400149999999
 31
0.0
  0
LINE
  5
1ED
330
1E
100
AcDbEntity
  8
0
  6
CONTINUOUS
100
AcDbLine
 10
169.1499629999999
 20
280.8900149999999
 30
0.0
 11
180.6497799999999
 21
280.8900149999999
 31
0.0
  0
LINE
  5
1EE
330
1E
100
AcDbEntity
  8
0
  6
CONTINUOUS
100
AcDbLine
 10
182.6498409999999
 20
26.652906
 30
0.0
 11
182.6498409999999
 21
137.1529079999999
 31
0.0
  0
LINE
  5
1EF
330
1E
100
AcDbEntity
  8
0
  6
CONTINUOUS
100
AcDbLine
 10
237.6498409999999
 20
26.652906
 30
0.0
 11
237.6498409999999
 21
137.1529079999999
 31
0.0
  0
LINE
  5
1F0
330
1E
100
AcDbEntity
  8
0
  6
CONTINUOUS
100
AcDbLine
 10
184.6498409999999
 20
125.902908
 30
0.0
 11
235.6498409999999
 21
125.902908
 31
0.0
  0
LINE
  5
1F1
330
1E
100
AcDbEntity
  8
0
  6
CONTINUOUS
100
AcDbLine
 10
184.6498409999999
 20
33.902908
 30
0.0
 11
235.6498409999999
 21
33.902908
 31
0.0
  0
LINE
  5
1F2
330
1E
100
AcDbEntity
  8
0
  6
CONTINUOUS
100
AcDbLine
 10
174.6498409999999
 20
139.1529079999999
 30
0.0
 11
180.6498409999999
 21
139.1529079999999
 31
0.0
  0
LINE
  5
1F3
330
1E
100
AcDbEntity
  8
0
  6
CONTINUOUS
100
AcDbLine
 10
174.6498409999999
 20
24.652906
 30
0.0
 11
180.6498409999999
 21
24.652906
 31
0.0
  0
ARC
  5
1F4
330
1E
100
AcDbEntity
  8
0
  6
CONTINUOUS
100
AcDbCircle
 10
184.6498409999999
 20
127.902908
 30
0.0
 40
2.0
100
AcDbArc
 50
180.0
 51
270.0
  0
ARC
  5
1F5
330
1E
100
AcDbEntity
  8
0
  6
CONTINUOUS
100
AcDbCircle
 10
235.6498409999999
 20
127.902908
 30
0.0
 40
2.0
100
AcDbArc
 50
270.0
 51
0.0
  0
ARC
  5
1F6
330
1E
100
AcDbEntity
  8
0
  6
CONTINUOUS
100
AcDbCircle
 10
184.6498409999999
 20
31.902927
 30
0.0
 40
2.0
100
AcDbArc
 50
90.0
 51
180.0
  0
ARC
  5
1F7
330
1E
100
AcDbEntity
  8
0
  6
CONTINUOUS
100
AcDbCircle
 10
235.6498409999999
 20
31.902906
 30
0.0
 40
2.0
100
AcDbArc
 50
0.0
 51
90.0
  0
ARC
  5
1F8
330
1E
100
AcDbEntity
  8
0
  6
CONTINUOUS
100
AcDbCircle
 10
180.6498409999999
 20
137.1529079999999
 30
0.0
 40
2.0
100
AcDbArc
 50
0.0
 51
90.0
  0
ARC
  5
1F9
330
1E
100
AcDbEntity
  8
0
  6
CONTINUOUS
100
AcDbCircle
 10
239.6498409999999
 20
137.152924
 30
0.0
 40
2.0
100
AcDbArc
 50
90.0
 51
180.0
  0
ARC
  5
1FA
330
1E
100
AcDbEntity
  8
0
  6
CONTINUOUS
100
AcDbCircle
 10
239.6498409999999
 20
26.652906
 30
0.0
 40
2.0
100
AcDbArc
 50
180.0
 51
270.0
  0
ARC
  5
1FB
330
1E
100
AcDbEntity
  8
0
  6
CONTINUOUS
100
AcDbCircle
 10
180.6498409999999
 20
26.652906
 30
0.0
 40
2.0
100
AcDbArc
 50
270.0
 51
0.0
  0
LINE
  5
1FC
330
1E
100
AcDbEntity
  8
0
  6
CONTINUOUS
100
AcDbLine
 10
183.6498409999999
 20
72.902908
 30
0.0
 11
183.6498409999999
 21
85.902908
 31
0.0
  0
LINE
  5
1FD
330
1E
100
AcDbEntity
  8
0
  6
CONTINUOUS
100
AcDbLine
 10
205.6498409999999
 20
85.902908
 30
0.0
 11
205.6498409999999
 21
72.902908
 31
0.0
  0
LINE
  5
1FE
330
1E
100
AcDbEntity
  8
0
  6
CONTINUOUS
100
AcDbLine
 10
236.649841
 20
72.902908
 30
0.0
 11
236.649841
 21
85.902908
 31
0.0
  0
LINE
  5
1FF
330
1E
100
AcDbEntity
  8
0
  6
CONTINUOUS
100
AcDbLine
 10
214.6498409999999
 20
72.902908
 30
0.0
 11
214.6498409999999
 21
85.902908
 31
0.0
  0
LINE
  5
200
330
1E
100
AcDbEntity
  8
0
  6
CONTINUOUS
100
AcDbLine
 10
204.6498409999999
 20
86.90290799999999
 30
0.0
 11
184.6498409999999
 21
86.90290799999999
 31
0.0
  0
LINE
  5
201
330
1E
100
AcDbEntity
  8
0
  6
CONTINUOUS
100
AcDbLine
 10
204.6498409999999
 20
71.90290799999999
 30
0.0
 11
184.6498409999999
 21
71.90290799999999
 31
0.0
  0
ARC
  5
202
330
1E
100
AcDbEntity
  8
0
  6
CONTINUOUS
100
AcDbCircle
 10
184.6498409999999
 20
85.902908
 30
0.0
 40
1.0
100
AcDbArc
 50
90.0
 51
180.0
  0
ARC
  5
203
330
1E
100
AcDbEntity
  8
0
  6
CONTINUOUS
100
AcDbCircle
 10
184.6498409999999
 20
72.902908
 30
0.0
 40
1.0
100
AcDbArc
 50
180.0
 51
270.0
  0
ARC
  5
204
330
1E
100
AcDbEntity
  8
0
  6
CONTINUOUS
100
AcDbCircle
 10
204.6498409999999
 20
72.902908
 30
0.0
 40
1.0
100
AcDbArc
 50
270.0
 51
0.0
  0
ARC
  5
205
330
1E
100
AcDbEntity
  8
0
  6
CONTINUOUS
100
AcDbCircle
 10
204.6498409999999
 20
85.902908
 30
0.0
 40
1.0
100
AcDbArc
 50
0.0
 51
90.0
  0
ARC
  5
206
330
1E
100
AcDbEntity
  8
0
  6
CONTINUOUS
100
AcDbCircle
 10
215.649841
 20
85.902908
 30
0.0
 40
1.0
100
AcDbArc
 50
90.0
 51
180.0
  0
ARC
  5
207
330
1E
100
AcDbEntity
  8
0
  6
CONTINUOUS
100
AcDbCircle
 10
215.649841
 20
72.902908
 30
0.0
 40
1.0
100
AcDbArc
 50
180.0
 51
270.0
  0
ARC
  5
208
330
1E
100
AcDbEntity
  8
0
  6
CONTINUOUS
100
AcDbCircle
 10
235.6498409999999
 20
85.902908
 30
0.0
 40
1.0
100
AcDbArc
 50
0.0
 51
90.0
  0
ARC
  5
209
330
1E
100
AcDbEntity
  8
0
  6
CONTINUOUS
100
AcDbCircle
 10
235.6498409999999
 20
72.902908
 30
0.0
 40
1.0
100
AcDbArc
 50
270.0
 51
0.0
  0
LINE
  5
20A
330
1E
100
AcDbEntity
  8
0
  6
CONTINUOUS
100
AcDbLine
 10
217.649841
 20
95.902908
 30
0.0
 11
217.649841
 21
69.958961
 31
0.0
  0
LINE
  5
20B
330
1E
100
AcDbEntity
  8
0
  6
CONTINUOUS
100
AcDbLine
 10
219.149841
 20
95.902908
 30
0.0
 11
219.149841
 21
69.101814
 31
0.0
  0
LINE
  5
20C
330
1E
100
AcDbEntity
  8
0
  6
CONTINUOUS
100
AcDbLine
 10
216.149841
 20
95.902908
 30
0.0
 11
216.149841
 21
69.84388
 31
0.0
  0
LINE
  5
20D
330
1E
100
AcDbEntity
  8
0
  6
CONTINUOUS
100
AcDbLine
 10
216.149841
 20
69.84388
 30
0.0
 11
217.649841
 21
71.081367
 31
0.0
  0
LINE
  5
20E
330
1E
100
AcDbEntity
  8
0
  6
CONTINUOUS
100
AcDbLine
 10
217.649841
 20
69.958961
 30
0.0
 11
219.149841
 21
69.101814
 31
0.0
  0
ARC
  5
20F
330
1E
100
AcDbEntity
  8
0
  6
CONTINUOUS
100
AcDbCircle
 10
218.399841
 20
95.902908
 30
0.0
 40
0.75
100
AcDbArc
 50
0.0
 51
180.0
  0
ARC
  5
210
330
1E
100
AcDbEntity
  8
0
  6
CONTINUOUS
100
AcDbCircle
 10
216.8998409999999
 20
95.902908
 30
0.0
 40
0.75
100
AcDbArc
 50
0.0
 51
180.0
  0
LINE
  5
211
330
1E
100
AcDbEntity
  8
0
  6
CONTINUOUS
100
AcDbLine
 10
215.649841
 20
86.90290799999999
 30
0.0
 11
216.149841
 21
86.90290799999999
 31
0.0
  0
LINE
  5
212
330
1E
100
AcDbEntity
  8
0
  6
CONTINUOUS
100
AcDbLine
 10
215.649841
 20
71.90290799999999
 30
0.0
 11
216.149841
 21
71.90290799999999
 31
0.0
  0
LINE
  5
213
330
1E
100
AcDbEntity
  8
0
  6
CONTINUOUS
100
AcDbLine
 10
184.542908
 20
68.30866199999999
 30
0.0
 11
235.993637
 21
68.30866199999999
 31
0.0
  0
LINE
  5
214
330
1E
100
AcDbEntity
  8
0
  6
CONTINUOUS
100
AcDbLine
 10
239.6498409999999
 20
139.1529079999999
 30
0.0
 11
245.649841
 21
139.1529079999999
 31
0.0
  0
LINE
  5
215
330
1E
100
AcDbEntity
  8
0
  6
CONTINUOUS
100
AcDbLine
 10
239.6498409999999
 20
24.652906
 30
0.0
 11
245.649841
 21
24.652906
 31
0.0
  0
LINE
  5
216
330
1E
100
AcDbEntity
  8
0
  6
CONTINUOUS
100
AcDbLine
 10
235.6498409999999
 20
71.90290799999999
 30
0.0
 11
219.149841
 21
71.90290799999999
 31
0.0
  0
LINE
  5
217
330
1E
100
AcDbEntity
  8
0
  6
CONTINUOUS
100
AcDbLine
 10
235.6498409999999
 20
86.90290799999999
 30
0.0
 11
219.149841
 21
86.90290799999999
 31
0.0
  0
LINE
  5
218
330
1E
100
AcDbEntity
  8
0
  6
CONTINUOUS
100
AcDbLine
 10
184.542908
 20
64.902969
 30
0.0
 11
235.993637
 21
64.902969
 31
0.0
  0
LINE
  5
219
330
1E
100
AcDbEntity
  8
0
  6
CONTINUOUS
100
AcDbLine
 10
225.649841
 20
51.50696899999999
 30
0.0
 11
225.649841
 21
35.902908
 31
0.0
  0
LINE
  5
21A
330
1E
100
AcDbEntity
  8
0
  6
CONTINUOUS
100
AcDbLine
 10
194.6498409999999
 20
51.50696899999999
 30
0.0
 11
194.6498409999999
 21
35.902908
 31
0.0
  0
LINE
  5
21B
330
1E
100
AcDbEntity
  8
0
  6
CONTINUOUS
100
AcDbLine
 10
184.542908
 20
55.23838399999999
 30
0.0
 11
193.2142179999999
 21
55.23838399999999
 31
0.0
  0
LINE
  5
21C
330
1E
100
AcDbEntity
  8
0
  6
CONTINUOUS
100
AcDbLine
 10
227.1079709999999
 20
55.23838399999999
 30
0.0
 11
235.993637
 21
55.23838399999999
 31
0.0
  0
ARC
  5
21D
330
1E
100
AcDbEntity
  8
0
  6
CONTINUOUS
100
AcDbCircle
 10
192.6498409999999
 20
35.902908
 30
0.0
 40
2.0
100
AcDbArc
 50
270.0
 51
0.0
  0
ARC
  5
21E
330
1E
100
AcDbEntity
  8
0
  6
CONTINUOUS
100
AcDbCircle
 10
227.649841
 20
35.902908
 30
0.0
 40
2.0
100
AcDbArc
 50
180.0
 51
270.0
  0
LINE
  5
21F
330
1E
100
AcDbEntity
  8
0
  6
CONTINUOUS
100
AcDbLine
 10
195.3076629999999
 20
45.02479199999999
 30
0.0
 11
224.8151549999999
 21
45.02479199999999
 31
0.0
  0
ARC
  5
220
330
1E
100
AcDbEntity
  8
0
  6
CONTINUOUS
100
AcDbCircle
 10
217.649841
 20
95.902908
 30
0.0
 40
4.0
100
AcDbArc
 50
292.024315
 51
247.9756929999999
  0
TEXT
  5
221
330
1E
100
AcDbEntity
  8
0
100
AcDbText
 10
-17.0
 20
-22.0
 30
0.0
 40
4.0
  1
G3FE-22-30~100-T020
100
AcDbText
  0
ARC
  5
285
330
1E
100
AcDbEntity
  8
TOP
100
AcDbCircle
 10
11.21807423472614
 20
389.640015
 30
0.0
 40
12.0
100
AcDbArc
 50
90.49999999999805
 51
170.9664843358174
  0
ARC
  5
286
330
1E
100
AcDbEntity
  8
0
100
AcDbCircle
 10
338.1469504791912
 20
338.1400149999998
 30
0.0
 40
325.0
100
AcDbArc
 50
168.2484724111569
 51
191.751527588843
  0
LINE
  5
287
330
1E
100
AcDbEntity
  8
TOP
100
AcDbLine
 10
45.64977999999996
 20
404.5265657187202
 30
0.0
 11
45.64977999999996
 21
271.7534642812798
 31
0.0
  0
ARC
  5
2B0
330
1E
100
AcDbEntity
  8
TOP
100
AcDbCircle
 10
335.1497799999999
 20
338.1400149999998
 30
0.0
 40
340.0
100
AcDbArc
 50
170.9664843358174
 51
189.0335156641825
  0
LINE
  5
2B1
330
1E
100
AcDbEntity
  8
0
100
AcDbLine
 10
44.64977999999996
 20
270.7534642812798
 30
0.0
 11
21.42749664916596
 21
270.7534642812798
 31
0.0
  0
ARC
  5
2B2
330
1E
100
AcDbEntity
  8
TOP
100
AcDbCircle
 10
11.21807423472614
 20
286.640015
 30
0.0
 40
12.0
100
AcDbArc
 50
189.0335156641825
 51
269.5000000000019
  0
LINE
  5
2B3
330
1E
100
AcDbEntity
  8
TOP
100
AcDbLine
 10
11.11335580874561
 20
274.6404719232298
 30
0.0
 11
18.59468146379595
 21
274.6304156468482
 31
0.0
  0
ARC
  5
2B4
330
1E
100
AcDbEntity
  8
0
100
AcDbCircle
 10
18.59333728125932
 20
273.630416550262
 30
0.0
 40
1.0
100
AcDbArc
 50
11.41314332739548
 51
89.92298399056364
  0
ARC
  5
2B5
330
1E
100
AcDbEntity
  8
0
100
AcDbCircle
 10
21.42749664916607
 20
272.2534642812798
 30
0.0
 40
1.5
100
AcDbArc
 50
191.751527588843
 51
270.0
  0
ARC
  5
2B6
330
1E
100
AcDbEntity
  8
0
100
AcDbCircle
 10
44.64978000000008
 20
271.7534642812798
 30
0.0
 40
1.0
100
AcDbArc
 50
270.0
 51
0.0
  0
LINE
  5
2D0
330
1E
100
AcDbEntity
  8
0
100
AcDbLine
 10
44.64977999999996
 20
405.5265657187201
 30
0.0
 11
21.42749664916596
 21
405.5265657187201
 31
0.0
  0
LINE
  5
2D1
330
1E
100
AcDbEntity
  8
TOP
100
AcDbLine
 10
11.11335580874561
 20
401.6395580767701
 30
0.0
 11
18.59468146379595
 21
401.6496143531517
 31
0.0
  0
ARC
  5
2D2
330
1E
100
AcDbEntity
  8
0
100
AcDbCircle
 10
21.42749664916607
 20
404.0265657187202
 30
0.0
 40
1.5
100
AcDbArc
 50
90.0
 51
168.2484724111498
  0
ARC
  5
2D3
330
1E
100
AcDbEntity
  8
0
100
AcDbCircle
 10
18.59333728125932
 20
402.6496134497379
 30
0.0
 40
1.0
100
AcDbArc
 50
270.0770160094363
 51
348.5868566726044
  0
ARC
  5
2D4
330
1E
100
AcDbEntity
  8
0
100
AcDbCircle
 10
44.64978000000008
 20
404.5265657187202
 30
0.0
 40
1.0
100
AcDbArc
 50
0.0
 51
90.0
  0
ENDSEC
  0
SECTION
  2
OBJECTS
  0
DICTIONARY
  5
C
330
0
100
AcDbDictionary
  3
ACAD_GROUP
350
D
  3
ACAD_LAYOUT
350
19
  3
ACAD_MLINESTYLE
350
16
  3
ACAD_PLOTSETTINGS
350
18
  3
ACAD_PLOTSTYLENAME
350
E
  3
ACDBHEADERROUNDTRIPXREC
350
2E4
  3
ACDBVARIABLEDICTIONARY
350
2E1
  0
DICTIONARY
  5
306
330
1E
100
AcDbDictionary
280
     1
  3
ACAD_LAYOUTSELFREF
360
307
  0
DICTIONARY
  5
304
330
1A
100
AcDbDictionary
280
     1
  3
ACAD_LAYOUTSELFREF
360
305
  0
DICTIONARY
  5
D
102
{ACAD_REACTORS
330
C
102
}
330
C
100
AcDbDictionary
  0
DICTIONARY
  5
19
102
{ACAD_REACTORS
330
C
102
}
330
C
100
AcDbDictionary
  0
DICTIONARY
  5
16
102
{ACAD_REACTORS
330
C
102
}
330
C
100
AcDbDictionary
  3
STANDARD
350
17
  0
DICTIONARY
  5
18
102
{ACAD_REACTORS
330
C
102
}
330
C
100
AcDbDictionary
  0
ACDBDICTIONARYWDFLT
  5
E
102
{ACAD_REACTORS
330
C
102
}
330
C
100
AcDbDictionary
281
     1
  3
Normal
350
F
100
AcDbDictionaryWithDefault
340
F
  0
DICTIONARY
  5
2E4
102
{ACAD_REACTORS
330
C
102
}
330
C
100
AcDbDictionary
  3
CEPSNTYPE
350
2EE
  3
FINGERPRINTGUID
350
2EF
  3
HYPERLINKBASE
350
2E7
  3
INSUNITS
350
2ED
  3
LAYOUTDICT
350
2E9
  3
LWETCUNION
350
2EC
  3
PLOTSETDICT
350
2EA
  3
PLOTSTYLNAMDICT
350
2EB
  3
PSVPSCALE
350
2F1
  3
PUCSBASE
350
2F4
  3
PUCSORGBACK
350
2FA
  3
PUCSORGBOTTOM
350
2F6
  3
PUCSORGFRONT
350
2F9
  3
PUCSORGLEFT
350
2F7
  3
PUCSORGRIGHT
350
2F8
  3
PUCSORGTOP
350
2F5
  3
PUCSORTHOREF
350
2F2
  3
PUCSORTHOVIEW
350
2F3
  3
STYLESHEET
350
2E8
  3
TSTACKALIGN
350
2E5
  3
TSTACKSIZE
350
2E6
  3
UCSBASE
350
2FD
  3
UCSORGBACK
350
303
  3
UCSORGBOTTOM
350
2FF
  3
UCSORGFRONT
350
302
  3
UCSORGLEFT
350
300
  3
UCSORGRIGHT
350
301
  3
UCSORGTOP
350
2FE
  3
UCSORTHOREF
350
2FB
  3
UCSORTHOVIEW
350
2FC
  3
VERSIONGUID
350
2F0
  0
DICTIONARY
  5
2E1
102
{ACAD_REACTORS
330
C
102
}
330
C
100
AcDbDictionary
  3
DIMASSOC
350
2E2
  0
XRECORD
  5
307
102
{ACAD_REACTORS
330
306
102
}
330
306
100
AcDbXrecord
340
1E
  0
XRECORD
  5
305
102
{ACAD_REACTORS
330
304
102
}
330
304
100
AcDbXrecord
340
1A
  0
MLINESTYLE
  5
17
102
{ACAD_REACTORS
330
16
102
}
330
16
100
AcDbMlineStyle
  2
STANDARD
 70
     0
  3

 62
   256
 51
90.0
 52
90.0
 71
     2
 49
0.5
 62
   256
  6
BYLAYER
 49
-0.5
 62
   256
  6
BYLAYER
  0
ACDBPLACEHOLDER
  5
F
102
{ACAD_REACTORS
330
E
102
}
330
E
100
AcDbPlaceHolder
280
     0
  0
XRECORD
  5
2EE
102
{ACAD_REACTORS
330
2E4
102
}
330
2E4
100
AcDbXrecord
 90
        0
  0
XRECORD
  5
2EF
102
{ACAD_REACTORS
330
2E4
102
}
330
2E4
100
AcDbXrecord
  1
{8329AD9D-4CDA-4FD3-8962-6EEC2D374669}
  0
XRECORD
  5
2E7
102
{ACAD_REACTORS
330
2E4
102
}
330
2E4
100
AcDbXrecord
  1

  0
XRECORD
  5
2ED
102
{ACAD_REACTORS
330
2E4
102
}
330
2E4
100
AcDbXrecord
 90
        0
  0
XRECORD
  5
2E9
102
{ACAD_REACTORS
330
2E4
102
}
330
2E4
100
AcDbXrecord
340
19
  0
XRECORD
  5
2EC
102
{ACAD_REACTORS
330
2E4
102
}
330
2E4
100
AcDbXrecord
 90
    10781
  0
XRECORD
  5
2EA
102
{ACAD_REACTORS
330
2E4
102
}
330
2E4
100
AcDbXrecord
340
18
  0
XRECORD
  5
2EB
102
{ACAD_REACTORS
330
2E4
102
}
330
2E4
100
AcDbXrecord
340
E
  0
XRECORD
  5
2F1
102
{ACAD_REACTORS
330
2E4
102
}
330
2E4
100
AcDbXrecord
 40
0.0
  0
XRECORD
  5
2F4
102
{ACAD_REACTORS
330
2E4
102
}
330
2E4
100
AcDbXrecord
340
0
  0
XRECORD
  5
2FA
102
{ACAD_REACTORS
330
2E4
102
}
330
2E4
100
AcDbXrecord
 10
0.0
 20
0.0
 30
0.0
  0
XRECORD
  5
2F6
102
{ACAD_REACTORS
330
2E4
102
}
330
2E4
100
AcDbXrecord
 10
0.0
 20
0.0
 30
0.0
  0
XRECORD
  5
2F9
102
{ACAD_REACTORS
330
2E4
102
}
330
2E4
100
AcDbXrecord
 10
0.0
 20
0.0
 30
0.0
  0
XRECORD
  5
2F7
102
{ACAD_REACTORS
330
2E4
102
}
330
2E4
100
AcDbXrecord
 10
0.0
 20
0.0
 30
0.0
  0
XRECORD
  5
2F8
102
{ACAD_REACTORS
330
2E4
102
}
330
2E4
100
AcDbXrecord
 10
0.0
 20
0.0
 30
0.0
  0
XRECORD
  5
2F5
102
{ACAD_REACTORS
330
2E4
102
}
330
2E4
100
AcDbXrecord
 10
0.0
 20
0.0
 30
0.0
  0
XRECORD
  5
2F2
102
{ACAD_REACTORS
330
2E4
102
}
330
2E4
100
AcDbXrecord
340
0
  0
XRECORD
  5
2F3
102
{ACAD_REACTORS
330
2E4
102
}
330
2E4
100
AcDbXrecord
 70
     0
  0
XRECORD
  5
2E8
102
{ACAD_REACTORS
330
2E4
102
}
330
2E4
100
AcDbXrecord
  1

  0
XRECORD
  5
2E5
102
{ACAD_REACTORS
330
2E4
102
}
330
2E4
100
AcDbXrecord
 90
        1
  0
XRECORD
  5
2E6
102
{ACAD_REACTORS
330
2E4
102
}
330
2E4
100
AcDbXrecord
 90
       70
  0
XRECORD
  5
2FD
102
{ACAD_REACTORS
330
2E4
102
}
330
2E4
100
AcDbXrecord
340
0
  0
XRECORD
  5
303
102
{ACAD_REACTORS
330
2E4
102
}
330
2E4
100
AcDbXrecord
 10
0.0
 20
0.0
 30
0.0
  0
XRECORD
  5
2FF
102
{ACAD_REACTORS
330
2E4
102
}
330
2E4
100
AcDbXrecord
 10
0.0
 20
0.0
 30
0.0
  0
XRECORD
  5
302
102
{ACAD_REACTORS
330
2E4
102
}
330
2E4
100
AcDbXrecord
 10
0.0
 20
0.0
 30
0.0
  0
XRECORD
  5
300
102
{ACAD_REACTORS
330
2E4
102
}
330
2E4
100
AcDbXrecord
 10
0.0
 20
0.0
 30
0.0
  0
XRECORD
  5
301
102
{ACAD_REACTORS
330
2E4
102
}
330
2E4
100
AcDbXrecord
 10
0.0
 20
0.0
 30
0.0
  0
XRECORD
  5
2FE
102
{ACAD_REACTORS
330
2E4
102
}
330
2E4
100
AcDbXrecord
 10
0.0
 20
0.0
 30
0.0
  0
XRECORD
  5
2FB
102
{ACAD_REACTORS
330
2E4
102
}
330
2E4
100
AcDbXrecord
340
0
  0
XRECORD
  5
2FC
102
{ACAD_REACTORS
330
2E4
102
}
330
2E4
100
AcDbXrecord
 70
     0
  0
XRECORD
  5
2F0
102
{ACAD_REACTORS
330
2E4
102
}
330
2E4
100
AcDbXrecord
  1
{953DC338-4427-4A61-A75C-D0A7E155F025}
  0
DICTIONARYVAR
  5
2E2
102
{ACAD_REACTORS
330
2E1
102
}
330
2E1
100
DictionaryVariables
280
     0
  1
1
  0
ENDSEC
  0
EOF
