  0
SECTION
  2
HEADER
  9
$ACADVER
  1
AC1014
  9
$ACADMAINTVER
 70
     9
  9
$DWGCODEPAGE
  3
ANSI_932
  9
$INSBASE
 10
0.0
 20
0.0
 30
0.0
  9
$EXTMIN
 10
-8.67375
 20
-25.00000000000002
 30
0.0
  9
$EXTMAX
 10
700.3200679999999
 20
450.840759
 30
0.0
  9
$LIMMIN
 10
0.0
 20
0.0
  9
$LIMMAX
 10
12.0
 20
9.0
  9
$ORTHOMODE
 70
     0
  9
$REGENMODE
 70
     1
  9
$FILLMODE
 70
     1
  9
$QTEXTMODE
 70
     0
  9
$MIRRTEXT
 70
     1
  9
$DRAGMODE
 70
     2
  9
$LTSCALE
 40
3.0
  9
$OSMODE
 70
    45
  9
$ATTMODE
 70
     1
  9
$TEXTSIZE
 40
3.0
  9
$TRACEWID
 40
0.05
  9
$TEXTSTYLE
  7
STANDARD
  9
$CLAYER
  8
1
  9
$CELTYPE
  6
CONTINUOUS
  9
$CECOLOR
 62
   256
  9
$CELTSCALE
 40
1.0
  9
$DELOBJ
 70
     1
  9
$DISPSILH
 70
     0
  9
$DIMSCALE
 40
1.0
  9
$DIMASZ
 40
0.18
  9
$DIMEXO
 40
0.0625
  9
$DIMDLI
 40
0.38
  9
$DIMRND
 40
0.0
  9
$DIMDLE
 40
0.0
  9
$DIMEXE
 40
0.18
  9
$DIMTP
 40
0.0
  9
$DIMTM
 40
0.0
  9
$DIMTXT
 40
0.18
  9
$DIMCEN
 40
0.09
  9
$DIMTSZ
 40
0.0
  9
$DIMTOL
 70
     0
  9
$DIMLIM
 70
     0
  9
$DIMTIH
 70
     1
  9
$DIMTOH
 70
     1
  9
$DIMSE1
 70
     0
  9
$DIMSE2
 70
     0
  9
$DIMTAD
 70
     0
  9
$DIMZIN
 70
     0
  9
$DIMBLK
  1

  9
$DIMASO
 70
     1
  9
$DIMSHO
 70
     1
  9
$DIMPOST
  1

  9
$DIMAPOST
  1

  9
$DIMALT
 70
     0
  9
$DIMALTD
 70
     2
  9
$DIMALTF
 40
25.4
  9
$DIMLFAC
 40
1.0
  9
$DIMTOFL
 70
     0
  9
$DIMTVP
 40
0.0
  9
$DIMTIX
 70
     0
  9
$DIMSOXD
 70
     0
  9
$DIMSAH
 70
     0
  9
$DIMBLK1
  1

  9
$DIMBLK2
  1

  9
$DIMSTYLE
  2
STANDARD
  9
$DIMCLRD
 70
     0
  9
$DIMCLRE
 70
     0
  9
$DIMCLRT
 70
     0
  9
$DIMTFAC
 40
1.0
  9
$DIMGAP
 40
0.09
  9
$DIMJUST
 70
     0
  9
$DIMSD1
 70
     0
  9
$DIMSD2
 70
     0
  9
$DIMTOLJ
 70
     1
  9
$DIMTZIN
 70
     0
  9
$DIMALTZ
 70
     0
  9
$DIMALTTZ
 70
     0
  9
$DIMFIT
 70
     3
  9
$DIMUPT
 70
     0
  9
$DIMUNIT
 70
     2
  9
$DIMDEC
 70
     4
  9
$DIMTDEC
 70
     4
  9
$DIMALTU
 70
     2
  9
$DIMALTTD
 70
     2
  9
$DIMTXSTY
  7
STANDARD
  9
$DIMAUNIT
 70
     0
  9
$LUNITS
 70
     2
  9
$LUPREC
 70
     4
  9
$SKETCHINC
 40
0.1
  9
$FILLETRAD
 40
0.0
  9
$AUNITS
 70
     0
  9
$AUPREC
 70
     0
  9
$MENU
  1
.
  9
$ELEVATION
 40
0.0
  9
$PELEVATION
 40
0.0
  9
$THICKNESS
 40
0.0
  9
$LIMCHECK
 70
     0
  9
$BLIPMODE
 70
     0
  9
$CHAMFERA
 40
0.0
  9
$CHAMFERB
 40
0.0
  9
$CHAMFERC
 40
0.0
  9
$CHAMFERD
 40
0.0
  9
$SKPOLY
 70
     0
  9
$TDCREATE
 40
2453349.577247893
  9
$TDUPDATE
 40
2453349.759028194
  9
$TDINDWG
 40
0.0004678588
  9
$TDUSRTIMER
 40
0.0004678588
  9
$USRTIMER
 70
     1
  9
$ANGBASE
 50
0.0
  9
$ANGDIR
 70
     0
  9
$PDMODE
 70
     0
  9
$PDSIZE
 40
0.0
  9
$PLINEWID
 40
0.0
  9
$COORDS
 70
     1
  9
$SPLFRAME
 70
     0
  9
$SPLINETYPE
 70
     6
  9
$SPLINESEGS
 70
     8
  9
$ATTDIA
 70
     0
  9
$ATTREQ
 70
     1
  9
$HANDLING
 70
 22529
  9
$HANDSEED
  5
364
  9
$SURFTAB1
 70
     6
  9
$SURFTAB2
 70
     6
  9
$SURFTYPE
 70
     6
  9
$SURFU
 70
     6
  9
$SURFV
 70
     6
  9
$UCSNAME
  2

  9
$UCSORG
 10
0.0
 20
0.0
 30
0.0
  9
$UCSXDIR
 10
1.0
 20
0.0
 30
0.0
  9
$UCSYDIR
 10
0.0
 20
1.0
 30
0.0
  9
$PUCSNAME
  2

  9
$PUCSORG
 10
0.0
 20
0.0
 30
0.0
  9
$PUCSXDIR
 10
1.0
 20
0.0
 30
0.0
  9
$PUCSYDIR
 10
0.0
 20
1.0
 30
0.0
  9
$USERI1
 70
     0
  9
$USERI2
 70
     0
  9
$USERI3
 70
     0
  9
$USERI4
 70
     0
  9
$USERI5
 70
     0
  9
$USERR1
 40
0.0
  9
$USERR2
 40
0.0
  9
$USERR3
 40
0.0
  9
$USERR4
 40
0.0
  9
$USERR5
 40
0.0
  9
$WORLDVIEW
 70
     1
  9
$SHADEDGE
 70
     3
  9
$SHADEDIF
 70
    70
  9
$TILEMODE
 70
     1
  9
$MAXACTVP
 70
    64
  9
$PINSBASE
 10
0.0
 20
0.0
 30
0.0
  9
$PLIMCHECK
 70
     0
  9
$PEXTMIN
 10
1.000000000000000E+20
 20
1.000000000000000E+20
 30
1.000000000000000E+20
  9
$PEXTMAX
 10
-1.000000000000000E+20
 20
-1.000000000000000E+20
 30
-1.000000000000000E+20
  9
$PLIMMIN
 10
0.0
 20
0.0
  9
$PLIMMAX
 10
12.0
 20
9.0
  9
$UNITMODE
 70
     0
  9
$VISRETAIN
 70
     1
  9
$PLINEGEN
 70
     0
  9
$PSLTSCALE
 70
     1
  9
$TREEDEPTH
 70
  3020
  9
$PICKSTYLE
 70
     1
  9
$CMLSTYLE
  2
STANDARD
  9
$CMLJUST
 70
     0
  9
$CMLSCALE
 40
1.0
  9
$PROXYGRAPHICS
 70
     1
  9
$MEASUREMENT
 70
     0
  0
ENDSEC
  0
SECTION
  2
CLASSES
  0
CLASS
  1
ACDBDICTIONARYWDFLT
  2
AcDbDictionaryWithDefault
  3
AutoCAD 2000
 90
        0
280
     0
281
     0
  0
CLASS
  1
ACDBPLACEHOLDER
  2
AcDbPlaceHolder
  3
AutoCAD 2000
 90
        0
280
     0
281
     0
  0
CLASS
  1
LAYOUT
  2
AcDbLayout
  3
AutoCAD 2000
 90
        0
280
     0
281
     0
  0
CLASS
  1
DICTIONARYVAR
  2
AcDbDictionaryVar
  3
AutoCAD 2000
 90
        0
280
     0
281
     0
  0
CLASS
  1
LONG_TRANSACTION
  2
AcDbLongTransaction
  3
AutoCAD 2000
 90
        0
280
     0
281
     0
  0
CLASS
  1
LWPOLYLINE
  2
AcDbPolyline
  3
AutoCAD 2000
 90
        0
280
     0
281
     1
  0
CLASS
  1
HATCH
  2
AcDbHatch
  3
AutoCAD 2000
 90
        0
280
     0
281
     1
  0
CLASS
  1
XRECORD
  2
AcDbXrecord
  3
AutoCAD 2000
 90
        0
280
     0
281
     0
  0
ENDSEC
  0
SECTION
  2
TABLES
  0
TABLE
  2
VPORT
  5
8
330
0
100
AcDbSymbolTable
 70
     2
  0
VPORT
  5
33F
330
8
100
AcDbSymbolTableRecord
100
AcDbViewportTableRecord
  2
*ACTIVE
 70
     0
 10
0.0
 20
0.0
 11
1.0
 21
1.0
 12
485.6459214852399
 22
224.7662459176006
 13
0.0
 23
0.0
 14
1.0
 24
1.0
 15
0.0
 25
0.0
 16
0.0
 26
0.0
 36
1.0
 17
0.0
 27
0.0
 37
0.0
 40
671.4002816000044
 41
1.976793248945147
 42
50.0
 43
0.0
 44
0.0
 50
0.0
 51
0.0
 71
     0
 72
   100
 73
     1
 74
     1
 75
     0
 76
     0
 77
     0
 78
     0
  0
ENDTAB
  0
TABLE
  2
LTYPE
  5
5
330
0
100
AcDbSymbolTable
 70
     3
  0
LTYPE
  5
13
330
5
100
AcDbSymbolTableRecord
100
AcDbLinetypeTableRecord
  2
BYBLOCK
 70
     0
  3

 72
    65
 73
     0
 40
0.0
  0
LTYPE
  5
14
330
5
100
AcDbSymbolTableRecord
100
AcDbLinetypeTableRecord
  2
BYLAYER
 70
     0
  3

 72
    65
 73
     0
 40
0.0
  0
LTYPE
  5
15
330
5
100
AcDbSymbolTableRecord
100
AcDbLinetypeTableRecord
  2
CONTINUOUS
 70
     0
  3
solid line
 72
    65
 73
     0
 40
0.0
  0
LTYPE
  5
23
330
5
100
AcDbSymbolTableRecord
100
AcDbLinetypeTableRecord
  2
DASHED
 70
     0
  3
__ __ __ __ __ __ __ __ __ __ __ __ __ __ __
 72
    65
 73
     2
 40
0.75
 49
0.5
 74
     0
 49
-0.25
 74
     0
  0
LTYPE
  5
24
330
5
100
AcDbSymbolTableRecord
100
AcDbLinetypeTableRecord
  2
CENTER
 70
     0
  3
____ _ ____ _ ____ _ ____ _ ____ _ ____ _ ____
 72
    65
 73
     4
 40
2.0
 49
1.25
 74
     0
 49
-0.25
 74
     0
 49
0.25
 74
     0
 49
-0.25
 74
     0
  0
ENDTAB
  0
TABLE
  2
LAYER
  5
2
330
0
100
AcDbSymbolTable
 70
     3
  0
LAYER
  5
10
330
2
100
AcDbSymbolTableRecord
100
AcDbLayerTableRecord
  2
0
 70
     0
 62
     7
  6
CONTINUOUS
  0
LAYER
  5
22
330
2
100
AcDbSymbolTableRecord
100
AcDbLayerTableRecord
  2
1
 70
     0
 62
     7
  6
CONTINUOUS
  0
LAYER
  5
281
330
2
100
AcDbSymbolTableRecord
100
AcDbLayerTableRecord
  2
TOP
 70
     0
 62
     7
  6
CONTINUOUS
  0
ENDTAB
  0
TABLE
  2
STYLE
  5
3
330
0
100
AcDbSymbolTable
 70
     1
  0
STYLE
  5
11
330
3
100
AcDbSymbolTableRecord
100
AcDbTextStyleTableRecord
  2
STANDARD
 70
     0
 40
0.0
 41
1.0
 50
0.0
 71
     0
 42
3.0
  3
txt
  4
BIGFONT
  0
ENDTAB
  0
TABLE
  2
VIEW
  5
6
330
0
100
AcDbSymbolTable
 70
     0
  0
ENDTAB
  0
TABLE
  2
UCS
  5
7
330
0
100
AcDbSymbolTable
 70
     0
  0
ENDTAB
  0
TABLE
  2
APPID
  5
9
330
0
100
AcDbSymbolTable
 70
     1
  0
APPID
  5
12
330
9
100
AcDbSymbolTableRecord
100
AcDbRegAppTableRecord
  2
ACAD
 70
     0
  0
ENDTAB
  0
TABLE
  2
DIMSTYLE
  5
A
330
0
100
AcDbSymbolTable
 70
     1
  0
DIMSTYLE
105
27F
330
A
100
AcDbSymbolTableRecord
100
AcDbDimStyleTableRecord
  2
STANDARD
 70
     0
  3

  4

  5

  6

  7

 40
1.0
 41
0.18
 42
0.0625
 43
0.38
 44
0.18
 45
0.0
 46
0.0
 47
0.0
 48
0.0
140
0.18
141
0.09
142
0.0
143
25.4
144
1.0
145
0.0
146
1.0
147
0.09
 71
     0
 72
     0
 73
     1
 74
     1
 75
     0
 76
     0
 77
     0
 78
     0
170
     0
171
     2
172
     0
173
     0
174
     0
175
     0
176
     0
177
     0
178
     0
270
     2
271
     4
272
     4
273
     2
274
     2
340
11
275
     0
280
     0
281
     0
282
     0
283
     1
284
     0
285
     0
286
     0
287
     3
288
     0
  0
ENDTAB
  0
TABLE
  2
BLOCK_RECORD
  5
1
330
0
100
AcDbSymbolTable
 70
     0
  0
BLOCK_RECORD
  5
1E
102
{ACAD_XDICTIONARY
360
362
102
}
330
1
100
AcDbSymbolTableRecord
100
AcDbBlockTableRecord
  2
*MODEL_SPACE
  0
BLOCK_RECORD
  5
1A
102
{ACAD_XDICTIONARY
360
360
102
}
330
1
100
AcDbSymbolTableRecord
100
AcDbBlockTableRecord
  2
*PAPER_SPACE
  0
ENDTAB
  0
ENDSEC
  0
SECTION
  2
BLOCKS
  0
BLOCK
  5
1F
330
1E
100
AcDbEntity
  8
0
100
AcDbBlockBegin
  2
*MODEL_SPACE
 70
     0
 10
0.0
 20
0.0
 30
0.0
  3
*MODEL_SPACE
  1

  0
ENDBLK
  5
20
330
1E
100
AcDbEntity
  8
0
100
AcDbBlockEnd
  0
BLOCK
  5
1B
330
1A
100
AcDbEntity
 67
     1
  8
0
100
AcDbBlockBegin
  2
*PAPER_SPACE
 70
     0
 10
0.0
 20
0.0
 30
0.0
  3
*PAPER_SPACE
  1

  0
ENDBLK
  5
1C
330
1A
100
AcDbEntity
 67
     1
  8
0
100
AcDbBlockEnd
  0
ENDSEC
  0
SECTION
  2
ENTITIES
  0
LINE
  5
29
330
1E
100
AcDbEntity
  8
0
  6
CENTER
100
AcDbLine
 10
-7.956561999999999
 20
368.8582149999999
 30
0.0
 11
402.729858
 21
368.8582149999999
 31
0.0
  0
LINE
  5
2A
330
1E
100
AcDbEntity
  8
0
  6
CONTINUOUS
100
AcDbLine
 10
259.229858
 20
135.957962
 30
0.0
 11
259.229858
 21
20.95797
 31
0.0
  0
LINE
  5
2B
330
1E
100
AcDbEntity
  8
0
  6
CONTINUOUS
100
AcDbLine
 10
259.2297669999999
 20
426.358215
 30
0.0
 11
259.2297669999999
 21
311.3582149999999
 31
0.0
  0
LINE
  5
2C
330
1E
100
AcDbEntity
  8
0
  6
CONTINUOUS
100
AcDbLine
 10
347.729858
 20
356.858154
 30
0.0
 11
349.729858
 21
356.858154
 31
0.0
  0
LINE
  5
2D
330
1E
100
AcDbEntity
  8
0
  6
CONTINUOUS
100
AcDbLine
 10
349.729858
 20
380.8582149999999
 30
0.0
 11
349.729858
 21
356.858154
 31
0.0
  0
LINE
  5
2E
330
1E
100
AcDbEntity
  8
0
  6
CONTINUOUS
100
AcDbLine
 10
347.729858
 20
380.8582149999999
 30
0.0
 11
349.729858
 21
380.8582149999999
 31
0.0
  0
LINE
  5
2F
330
1E
100
AcDbEntity
  8
0
  6
CONTINUOUS
100
AcDbLine
 10
349.729858
 20
379.8582149999999
 30
0.0
 11
389.729858
 21
379.8582149999999
 31
0.0
  0
LINE
  5
30
330
1E
100
AcDbEntity
  8
0
  6
CONTINUOUS
100
AcDbLine
 10
349.729858
 20
357.858154
 30
0.0
 11
354.729858
 21
357.858154
 31
0.0
  0
LINE
  5
31
330
1E
100
AcDbEntity
  8
0
  6
CONTINUOUS
100
AcDbLine
 10
389.729858
 20
379.8582149999999
 30
0.0
 11
389.729858
 21
357.858154
 31
0.0
  0
LINE
  5
32
330
1E
100
AcDbEntity
  8
0
  6
CONTINUOUS
100
AcDbLine
 10
272.729858
 20
434.858215
 30
0.0
 11
272.729858
 21
302.858154
 31
0.0
  0
LINE
  5
33
330
1E
100
AcDbEntity
  8
0
  6
CONTINUOUS
100
AcDbLine
 10
330.7295529999999
 20
290.1743469999999
 30
0.0
 11
330.7295529999999
 21
447.5420839999999
 31
0.0
  0
LINE
  5
34
330
1E
100
AcDbEntity
  8
0
  6
CONTINUOUS
100
AcDbLine
 10
342.729858
 20
287.3582149999999
 30
0.0
 11
342.729858
 21
450.3581539999999
 31
0.0
  0
LINE
  5
35
330
1E
100
AcDbEntity
  8
0
  6
CONTINUOUS
100
AcDbLine
 10
333.624847
 20
287.176147
 30
0.0
 11
342.230164
 21
286.8756709999999
 31
0.0
  0
LINE
  5
36
330
1E
100
AcDbEntity
  8
0
  6
CONTINUOUS
100
AcDbLine
 10
346.729858
 20
442.3581539999999
 30
0.0
 11
346.729858
 21
295.3582149999999
 31
0.0
  0
LINE
  5
37
330
1E
100
AcDbEntity
  8
0
  6
CONTINUOUS
100
AcDbLine
 10
346.229858
 20
442.858154
 30
0.0
 11
342.729858
 21
442.858154
 31
0.0
  0
LINE
  5
38
330
1E
100
AcDbEntity
  8
0
  6
CONTINUOUS
100
AcDbLine
 10
346.229858
 20
294.8582149999999
 30
0.0
 11
342.729858
 21
294.8582149999999
 31
0.0
  0
LINE
  5
39
330
1E
100
AcDbEntity
  8
0
  6
CONTINUOUS
100
AcDbLine
 10
347.729858
 20
398.8582149999999
 30
0.0
 11
347.729858
 21
338.8582149999999
 31
0.0
  0
LINE
  5
3A
330
1E
100
AcDbEntity
  8
0
  6
CONTINUOUS
100
AcDbLine
 10
346.729858
 20
398.8582149999999
 30
0.0
 11
347.729858
 21
398.8582149999999
 31
0.0
  0
LINE
  5
3B
330
1E
100
AcDbEntity
  8
0
  6
CONTINUOUS
100
AcDbLine
 10
346.729858
 20
338.8582149999999
 30
0.0
 11
347.729858
 21
338.8582149999999
 31
0.0
  0
LINE
  5
3C
330
1E
100
AcDbEntity
  8
0
  6
CONTINUOUS
100
AcDbLine
 10
354.729858
 20
358.275208
 30
0.0
 11
354.729858
 21
355.358154
 31
0.0
  0
LINE
  5
3D
330
1E
100
AcDbEntity
  8
0
  6
CONTINUOUS
100
AcDbLine
 10
389.729858
 20
357.858154
 30
0.0
 11
389.729858
 21
355.358154
 31
0.0
  0
LINE
  5
3E
330
1E
100
AcDbEntity
  8
0
  6
CONTINUOUS
100
AcDbLine
 10
354.729858
 20
355.358154
 30
0.0
 11
389.729858
 21
355.358154
 31
0.0
  0
LINE
  5
3F
330
1E
100
AcDbEntity
  8
0
  6
CONTINUOUS
100
AcDbLine
 10
266.7297669999999
 20
432.7527769999999
 30
0.0
 11
266.7297669999999
 21
304.9636229999999
 31
0.0
  0
ARC
  5
40
330
1E
100
AcDbEntity
  8
0
  6
CONTINUOUS
100
AcDbCircle
 10
263.729858
 20
308.1992189999999
 30
0.0
 40
3.0
100
AcDbArc
 50
0.0
 51
88.00054899999999
  0
ARC
  5
41
330
1E
100
AcDbEntity
  8
0
  6
CONTINUOUS
100
AcDbCircle
 10
263.729858
 20
429.51712
 30
0.0
 40
3.0
100
AcDbArc
 50
272.0003659999999
 51
0.0
  0
LINE
  5
42
330
1E
100
AcDbEntity
  8
0
  6
CONTINUOUS
100
AcDbLine
 10
346.229858
 20
294.8582149999999
 30
0.0
 11
346.729858
 21
295.3582149999999
 31
0.0
  0
LINE
  5
43
330
1E
100
AcDbEntity
  8
0
  6
CONTINUOUS
100
AcDbLine
 10
346.229858
 20
442.858154
 30
0.0
 11
346.729858
 21
442.3581539999999
 31
0.0
  0
LINE
  5
44
330
1E
100
AcDbEntity
  8
0
  6
CONTINUOUS
100
AcDbLine
 10
342.230164
 20
286.8756709999999
 30
0.0
 11
342.729858
 21
287.3582149999999
 31
0.0
  0
ARC
  5
45
330
1E
100
AcDbEntity
  8
0
  6
CONTINUOUS
100
AcDbCircle
 10
333.7295529999999
 20
290.1743469999999
 30
0.0
 40
3.0
100
AcDbArc
 50
180.0
 51
268.0
  0
LINE
  5
46
330
1E
100
AcDbEntity
  8
0
  6
CONTINUOUS
100
AcDbLine
 10
333.624847
 20
450.540253
 30
0.0
 11
342.230164
 21
450.840759
 31
0.0
  0
LINE
  5
47
330
1E
100
AcDbEntity
  8
0
  6
CONTINUOUS
100
AcDbLine
 10
342.230164
 20
450.840759
 30
0.0
 11
342.729858
 21
450.358215
 31
0.0
  0
ARC
  5
48
330
1E
100
AcDbEntity
  8
0
  6
CONTINUOUS
100
AcDbCircle
 10
333.7295529999999
 20
447.5420839999999
 30
0.0
 40
3.0
100
AcDbArc
 50
91.99999999999999
 51
180.0
  0
LINE
  5
49
330
1E
100
AcDbEntity
  8
0
  6
CENTER
100
AcDbLine
 10
348.128265
 20
434.2658079999999
 30
0.0
 11
326.4077759999999
 21
434.2658079999999
 31
0.0
  0
LINE
  5
4A
330
1E
100
AcDbEntity
  8
0
  6
CENTER
100
AcDbLine
 10
348.128265
 20
303.4505919999999
 30
0.0
 11
326.4077759999999
 21
303.4505919999999
 31
0.0
  0
LINE
  5
4B
330
1E
100
AcDbEntity
  8
0
  6
CONTINUOUS
100
AcDbLine
 10
263.834564
 20
426.519012
 30
0.0
 11
259.2297669999999
 21
426.358154
 31
0.0
  0
LINE
  5
4C
330
1E
100
AcDbEntity
  8
0
  6
CONTINUOUS
100
AcDbLine
 10
263.834564
 20
311.197418
 30
0.0
 11
259.2297669999999
 21
311.3582149999999
 31
0.0
  0
LINE
  5
4D
330
1E
100
AcDbEntity
  8
0
  6
CENTER
100
AcDbLine
 10
-8.67375
 20
78.45796999999999
 30
0.0
 11
321.3023379999999
 21
78.45796999999999
 31
0.0
  0
LINE
  5
4E
330
1E
100
AcDbEntity
  8
0
  6
CONTINUOUS
100
AcDbLine
 10
272.729858
 20
12.457929
 30
0.0
 11
272.729614
 21
146.457993
 31
0.0
  0
LINE
  5
4F
330
1E
100
AcDbEntity
  8
0
  6
CENTER
100
AcDbLine
 10
397.3724369999999
 20
97.45796999999999
 30
0.0
 11
306.994843
 21
97.45796999999999
 31
0.0
  0
LINE
  5
50
330
1E
100
AcDbEntity
  8
0
  6
CONTINUOUS
100
AcDbLine
 10
346.2300419999999
 20
171.457993
 30
0.0
 11
342.729858
 21
171.457993
 31
0.0
  0
LINE
  5
51
330
1E
100
AcDbEntity
  8
0
  6
CONTINUOUS
100
AcDbLine
 10
346.2300419999999
 20
23.45797
 30
0.0
 11
342.729858
 21
23.45797
 31
0.0
  0
LINE
  5
52
330
1E
100
AcDbEntity
  8
0
  6
CONTINUOUS
100
AcDbLine
 10
347.7300419999999
 20
124.535492
 30
0.0
 11
347.7300419999999
 21
70.380363
 31
0.0
  0
LINE
  5
53
330
1E
100
AcDbEntity
  8
0
  6
CONTINUOUS
100
AcDbLine
 10
330.729858
 20
11.773888
 30
0.0
 11
330.7296449999999
 21
176.641861
 31
0.0
  0
ARC
  5
54
330
1E
100
AcDbEntity
  8
0
  6
CONTINUOUS
100
AcDbCircle
 10
333.729431
 20
-380.0198359999999
 30
0.0
 40
530.0
100
AcDbArc
 50
92.63078300000001
 51
96.60912299999999
  0
ARC
  5
55
330
1E
100
AcDbEntity
  8
0
  6
CONTINUOUS
100
AcDbCircle
 10
333.729858
 20
538.9359739999999
 30
0.0
 40
530.0
100
AcDbArc
 50
263.3909
 51
266.598785
  0
LINE
  5
56
330
1E
100
AcDbEntity
  8
0
  6
CONTINUOUS
100
AcDbLine
 10
272.729858
 20
41.96109
 30
0.0
 11
327.937439
 21
42.44289000000001
 31
0.0
  0
LINE
  5
57
330
1E
100
AcDbEntity
  8
0
  6
CONTINUOUS
100
AcDbLine
 10
272.729858
 20
25.141088
 30
0.0
 11
327.445618
 21
23.708689
 31
0.0
  0
LINE
  5
58
330
1E
100
AcDbEntity
  8
0
  6
CONTINUOUS
100
AcDbLine
 10
346.7300419999999
 20
170.9579929999999
 30
0.0
 11
346.7300419999999
 21
166.9579929999999
 31
0.0
  0
ARC
  5
59
330
1E
100
AcDbEntity
  8
0
  6
CONTINUOUS
100
AcDbCircle
 10
344.729858
 20
70.380363
 30
0.0
 40
3.0
100
AcDbArc
 50
311.80621
 51
0.0
  0
ARC
  5
5A
330
1E
100
AcDbEntity
  8
0
  6
CONTINUOUS
100
AcDbCircle
 10
344.729858
 20
124.535492
 30
0.0
 40
3.0
100
AcDbArc
 50
0.0
 51
48.191448
  0
LINE
  5
5B
330
1E
100
AcDbEntity
  8
0
  6
CONTINUOUS
100
AcDbLine
 10
342.729858
 20
179.4579929999999
 30
0.0
 11
342.729858
 21
8.957929
 31
0.0
  0
LINE
  5
5C
330
1E
100
AcDbEntity
  8
0
  6
CONTINUOUS
100
AcDbLine
 10
346.7300419999999
 20
23.95796999999999
 30
0.0
 11
346.7300419999999
 21
166.9579929999999
 31
0.0
  0
LINE
  5
5D
330
1E
100
AcDbEntity
  8
0
  6
CONTINUOUS
100
AcDbLine
 10
342.230133
 20
8.475369999999999
 30
0.0
 11
302.289215
 21
9.869469
 31
0.0
  0
LINE
  5
5E
330
1E
100
AcDbEntity
  8
0
  6
CONTINUOUS
100
AcDbLine
 10
325.86087
 20
149.852783
 30
0.0
 11
309.401672
 21
149.421616
 31
0.0
  0
ARC
  5
5F
330
1E
100
AcDbEntity
  8
0
  6
CONTINUOUS
100
AcDbCircle
 10
325.729858
 20
154.851089
 30
0.0
 40
5.0
100
AcDbArc
 50
271.50061
 51
0.0
  0
LINE
  5
60
330
1E
100
AcDbEntity
  8
0
  6
CONTINUOUS
100
AcDbLine
 10
347.7300419999999
 20
85.45796999999998
 30
0.0
 11
349.7300419999999
 21
85.45796999999998
 31
0.0
  0
LINE
  5
61
330
1E
100
AcDbEntity
  8
0
  6
CONTINUOUS
100
AcDbLine
 10
349.7300419999999
 20
109.4579699999999
 30
0.0
 11
349.7300419999999
 21
85.45796999999998
 31
0.0
  0
LINE
  5
62
330
1E
100
AcDbEntity
  8
0
  6
CONTINUOUS
100
AcDbLine
 10
347.729858
 20
109.4579699999999
 30
0.0
 11
349.7300419999999
 21
109.4579699999999
 31
0.0
  0
LINE
  5
63
330
1E
100
AcDbEntity
  8
0
  6
CONTINUOUS
100
AcDbLine
 10
349.7300419999999
 20
108.4579699999999
 30
0.0
 11
389.729858
 21
108.4579699999999
 31
0.0
  0
LINE
  5
64
330
1E
100
AcDbEntity
  8
0
  6
CONTINUOUS
100
AcDbLine
 10
349.729858
 20
86.45796999999999
 30
0.0
 11
389.729858
 21
86.45796999999999
 31
0.0
  0
LINE
  5
65
330
1E
100
AcDbEntity
  8
0
  6
CONTINUOUS
100
AcDbLine
 10
389.729858
 20
108.4579699999999
 30
0.0
 11
389.729858
 21
86.45796999999999
 31
0.0
  0
LINE
  5
66
330
1E
100
AcDbEntity
  8
0
  6
CONTINUOUS
100
AcDbLine
 10
357.7300419999999
 20
100.4579699999999
 30
0.0
 11
389.729858
 21
100.4579699999999
 31
0.0
  0
LINE
  5
67
330
1E
100
AcDbEntity
  8
0
  6
CONTINUOUS
100
AcDbLine
 10
357.7300419999999
 20
94.45796999999998
 30
0.0
 11
389.729858
 21
94.45796999999998
 31
0.0
  0
ARC
  5
68
330
1E
100
AcDbEntity
  8
0
  6
CONTINUOUS
100
AcDbCircle
 10
357.7300419999999
 20
97.45796999999999
 30
0.0
 40
3.0
100
AcDbArc
 50
90.0
 51
270.0
  0
LINE
  5
69
330
1E
100
AcDbEntity
  8
0
  6
CONTINUOUS
100
AcDbLine
 10
268.6774899999999
 20
146.351852
 30
0.0
 11
272.729858
 21
146.457977
 31
0.0
  0
LINE
  5
6A
330
1E
100
AcDbEntity
  8
0
  6
CONTINUOUS
100
AcDbLine
 10
268.6774899999999
 20
12.56408399999999
 30
0.0
 11
272.729858
 21
12.457969
 31
0.0
  0
LINE
  5
6B
330
1E
100
AcDbEntity
  8
0
  6
CONTINUOUS
100
AcDbLine
 10
266.729858
 20
14.563398
 30
0.0
 11
266.729858
 21
144.3525389999999
 31
0.0
  0
LINE
  5
6C
330
1E
100
AcDbEntity
  8
0
  6
CONTINUOUS
100
AcDbLine
 10
272.104858
 20
41.96109
 30
0.0
 11
267.604858
 21
41.96109
 31
0.0
  0
LINE
  5
6D
330
1E
100
AcDbEntity
  8
0
  6
CONTINUOUS
100
AcDbLine
 10
272.104858
 20
25.141069
 30
0.0
 11
267.604858
 21
25.141069
 31
0.0
  0
LINE
  5
6E
330
1E
100
AcDbEntity
  8
0
  6
CENTER
100
AcDbLine
 10
348.128265
 20
162.8655699999999
 30
0.0
 11
326.4077759999999
 21
162.8655699999999
 31
0.0
  0
LINE
  5
6F
330
1E
100
AcDbEntity
  8
0
  6
CENTER
100
AcDbLine
 10
348.128265
 20
32.050369
 30
0.0
 11
326.4077759999999
 21
32.050369
 31
0.0
  0
LINE
  5
70
330
1E
100
AcDbEntity
  8
0
  6
CONTINUOUS
100
AcDbLine
 10
346.7300419999999
 20
170.9579929999999
 30
0.0
 11
346.2300419999999
 21
171.457993
 31
0.0
  0
LINE
  5
71
330
1E
100
AcDbEntity
  8
0
  6
CONTINUOUS
100
AcDbLine
 10
346.2300419999999
 20
23.45797
 30
0.0
 11
346.7300419999999
 21
23.95796999999999
 31
0.0
  0
LINE
  5
72
330
1E
100
AcDbEntity
  8
0
  6
CONTINUOUS
100
AcDbLine
 10
342.230133
 20
8.475369999999999
 30
0.0
 11
342.729858
 21
8.957929
 31
0.0
  0
LINE
  5
73
330
1E
100
AcDbEntity
  8
0
  6
CONTINUOUS
100
AcDbLine
 10
342.230164
 20
179.940536
 30
0.0
 11
333.624939
 21
179.6400449999999
 31
0.0
  0
ARC
  5
74
330
1E
100
AcDbEntity
  8
0
  6
CONTINUOUS
100
AcDbCircle
 10
333.729645
 20
176.641861
 30
0.0
 40
3.0
100
AcDbArc
 50
91.99999999999999
 51
180.0
  0
LINE
  5
75
330
1E
100
AcDbEntity
  8
0
  6
CONTINUOUS
100
AcDbLine
 10
342.230164
 20
179.940536
 30
0.0
 11
342.729858
 21
179.4579929999999
 31
0.0
  0
ARC
  5
76
330
1E
100
AcDbEntity
  8
0
  6
CONTINUOUS
100
AcDbCircle
 10
333.729858
 20
11.773892
 30
0.0
 40
3.0
100
AcDbArc
 50
180.0
 51
268.0009459999999
  0
LINE
  5
77
330
1E
100
AcDbEntity
  8
0
  6
CENTER
100
AcDbLine
 10
348.128265
 20
32.049889
 30
0.0
 11
326.4077759999999
 21
32.049889
 31
0.0
  0
LINE
  5
78
330
1E
100
AcDbEntity
  8
0
  6
CONTINUOUS
100
AcDbLine
 10
263.8345339999999
 20
20.797169
 30
0.0
 11
259.229858
 21
20.95797
 31
0.0
  0
LINE
  5
79
330
1E
100
AcDbEntity
  8
0
  6
CONTINUOUS
100
AcDbLine
 10
263.8345339999999
 20
136.118774
 30
0.0
 11
259.229858
 21
135.957962
 31
0.0
  0
ARC
  5
7A
330
1E
100
AcDbEntity
  8
0
  6
CONTINUOUS
100
AcDbCircle
 10
263.729858
 20
139.1169429999999
 30
0.0
 40
3.0
100
AcDbArc
 50
272.0
 51
0.0
  0
ARC
  5
7B
330
1E
100
AcDbEntity
  8
0
  6
CONTINUOUS
100
AcDbCircle
 10
263.729858
 20
17.798998
 30
0.0
 40
3.0
100
AcDbArc
 50
0.0
 51
88.0
  0
ARC
  5
7C
330
1E
100
AcDbEntity
  8
0
  6
CONTINUOUS
100
AcDbCircle
 10
333.729431
 20
-91.619614
 30
0.0
 40
530.0
100
AcDbArc
 50
92.63078300000001
 51
96.60912299999999
  0
LINE
  5
7D
330
1E
100
AcDbEntity
  8
0
  6
CONTINUOUS
100
AcDbLine
 10
325.86087
 20
438.2530209999999
 30
0.0
 11
309.401672
 21
437.8218379999999
 31
0.0
  0
ARC
  5
7E
330
1E
100
AcDbEntity
  8
0
  6
CONTINUOUS
100
AcDbCircle
 10
325.729858
 20
443.251312
 30
0.0
 40
5.0
100
AcDbArc
 50
271.50061
 51
0.0
  0
ARC
  5
7F
330
1E
100
AcDbEntity
  8
0
  6
CONTINUOUS
100
AcDbCircle
 10
333.729431
 20
829.335999
 30
0.0
 40
530.0
100
AcDbArc
 50
263.390877
 51
267.3692169999999
  0
LINE
  5
80
330
1E
100
AcDbEntity
  8
0
  6
CONTINUOUS
100
AcDbLine
 10
325.86087
 20
299.463409
 30
0.0
 11
309.401672
 21
299.894592
 31
0.0
  0
ARC
  5
81
330
1E
100
AcDbEntity
  8
0
  6
CONTINUOUS
100
AcDbCircle
 10
325.729858
 20
294.465118
 30
0.0
 40
5.0
100
AcDbArc
 50
0.0
 51
88.49939
  0
LINE
  5
82
330
1E
100
AcDbEntity
  8
0
  6
CONTINUOUS
100
AcDbLine
 10
268.677429
 20
434.752106
 30
0.0
 11
272.729858
 21
434.858215
 31
0.0
  0
ARC
  5
83
330
1E
100
AcDbEntity
  8
0
  6
CONTINUOUS
100
AcDbCircle
 10
268.7297669999999
 20
432.7527769999999
 30
0.0
 40
2.0
100
AcDbArc
 50
91.5
 51
180.0
  0
LINE
  5
84
330
1E
100
AcDbEntity
  8
0
  6
CONTINUOUS
100
AcDbLine
 10
268.677429
 20
302.9643249999999
 30
0.0
 11
272.729858
 21
302.8582149999999
 31
0.0
  0
ARC
  5
85
330
1E
100
AcDbEntity
  8
0
  6
CONTINUOUS
100
AcDbCircle
 10
268.7297669999999
 20
304.9636229999999
 30
0.0
 40
2.0
100
AcDbArc
 50
180.0
 51
268.5
  0
ARC
  5
86
330
1E
100
AcDbEntity
  8
0
  6
CONTINUOUS
100
AcDbCircle
 10
268.729858
 20
144.3525389999999
 30
0.0
 40
2.0
100
AcDbArc
 50
91.5
 51
180.0
  0
ARC
  5
87
330
1E
100
AcDbEntity
  8
0
  6
CONTINUOUS
100
AcDbCircle
 10
268.729858
 20
14.563398
 30
0.0
 40
2.0
100
AcDbArc
 50
180.0
 51
268.5
  0
LINE
  5
88
330
1E
100
AcDbEntity
  8
0
  6
CONTINUOUS
100
AcDbLine
 10
354.729858
 20
358.275208
 30
0.0
 11
389.729858
 21
358.275208
 31
0.0
  0
LINE
  5
89
330
1E
100
AcDbEntity
  8
0
  6
DASHED
100
AcDbLine
 10
342.729858
 20
439.765808
 30
0.0
 11
330.7298279999999
 21
439.765808
 31
0.0
  0
LINE
  5
8A
330
1E
100
AcDbEntity
  8
0
  6
DASHED
100
AcDbLine
 10
342.729858
 20
428.7658079999999
 30
0.0
 11
330.7298279999999
 21
428.7658079999999
 31
0.0
  0
LINE
  5
8B
330
1E
100
AcDbEntity
  8
0
  6
DASHED
100
AcDbLine
 10
342.729858
 20
308.9505919999999
 30
0.0
 11
330.7298279999999
 21
308.9505919999999
 31
0.0
  0
LINE
  5
8C
330
1E
100
AcDbEntity
  8
0
  6
DASHED
100
AcDbLine
 10
342.729858
 20
297.9505919999999
 30
0.0
 11
330.7298279999999
 21
297.9505919999999
 31
0.0
  0
LINE
  5
8D
330
1E
100
AcDbEntity
  8
0
  6
DASHED
100
AcDbLine
 10
342.729858
 20
168.3655699999999
 30
0.0
 11
330.7298279999999
 21
168.3655699999999
 31
0.0
  0
LINE
  5
8E
330
1E
100
AcDbEntity
  8
0
  6
DASHED
100
AcDbLine
 10
342.729858
 20
157.3655699999999
 30
0.0
 11
330.7298279999999
 21
157.3655699999999
 31
0.0
  0
LINE
  5
8F
330
1E
100
AcDbEntity
  8
0
  6
DASHED
100
AcDbLine
 10
342.729858
 20
37.550369
 30
0.0
 11
330.7298279999999
 21
37.550369
 31
0.0
  0
LINE
  5
90
330
1E
100
AcDbEntity
  8
0
  6
DASHED
100
AcDbLine
 10
342.729858
 20
26.550369
 30
0.0
 11
330.7298279999999
 21
26.550369
 31
0.0
  0
LINE
  5
91
330
1E
100
AcDbEntity
  8
0
  6
CONTINUOUS
100
AcDbLine
 10
166.229782
 20
426.358215
 30
0.0
 11
166.229782
 21
311.3582149999999
 31
0.0
  0
LINE
  5
92
330
1E
100
AcDbEntity
  8
0
  6
CONTINUOUS
100
AcDbLine
 10
254.2297819999999
 20
426.358215
 30
0.0
 11
259.2297669999999
 21
426.358215
 31
0.0
  0
LINE
  5
93
330
1E
100
AcDbEntity
  8
0
  6
CONTINUOUS
100
AcDbLine
 10
254.2297819999999
 20
311.3582149999999
 30
0.0
 11
259.2297669999999
 21
311.3582149999999
 31
0.0
  0
LINE
  5
94
330
1E
100
AcDbEntity
  8
0
  6
CONTINUOUS
100
AcDbLine
 10
254.2297819999999
 20
426.358215
 30
0.0
 11
254.2297819999999
 21
311.3582149999999
 31
0.0
  0
LINE
  5
95
330
1E
100
AcDbEntity
  8
0
  6
CONTINUOUS
100
AcDbLine
 10
246.2297819999999
 20
313.608215
 30
0.0
 11
246.2297819999999
 21
424.108215
 31
0.0
  0
LINE
  5
96
330
1E
100
AcDbEntity
  8
0
  6
CONTINUOUS
100
AcDbLine
 10
183.2297819999999
 20
311.6082149999999
 30
0.0
 11
183.2297819999999
 21
426.108215
 31
0.0
  0
LINE
  5
97
330
1E
100
AcDbEntity
  8
0
  6
CONTINUOUS
100
AcDbLine
 10
191.229782
 20
313.608215
 30
0.0
 11
191.229782
 21
424.108215
 31
0.0
  0
LINE
  5
98
330
1E
100
AcDbEntity
  8
0
  6
CONTINUOUS
100
AcDbLine
 10
166.229782
 20
426.108215
 30
0.0
 11
189.2297819999999
 21
426.108215
 31
0.0
  0
LINE
  5
99
330
1E
100
AcDbEntity
  8
0
  6
CONTINUOUS
100
AcDbLine
 10
166.229782
 20
311.6082149999999
 30
0.0
 11
174.7299649999999
 21
311.6082149999999
 31
0.0
  0
LINE
  5
9A
330
1E
100
AcDbEntity
  8
0
  6
CONTINUOUS
100
AcDbLine
 10
248.2297819999999
 20
311.6082149999999
 30
0.0
 11
254.2297819999999
 21
311.6082149999999
 31
0.0
  0
LINE
  5
9B
330
1E
100
AcDbEntity
  8
0
  6
CONTINUOUS
100
AcDbLine
 10
248.2297819999999
 20
426.108215
 30
0.0
 11
254.2297819999999
 21
426.108215
 31
0.0
  0
ARC
  5
9C
330
1E
100
AcDbEntity
  8
0
  6
CONTINUOUS
100
AcDbCircle
 10
189.2297819999999
 20
424.108215
 30
0.0
 40
2.0
100
AcDbArc
 50
0.0
 51
90.0
  0
ARC
  5
9D
330
1E
100
AcDbEntity
  8
0
  6
CONTINUOUS
100
AcDbCircle
 10
248.2297819999999
 20
424.108215
 30
0.0
 40
2.0
100
AcDbArc
 50
90.0
 51
180.0
  0
LINE
  5
9E
330
1E
100
AcDbEntity
  8
0
  6
CONTINUOUS
100
AcDbLine
 10
192.82666
 20
423.858215
 30
0.0
 11
244.632904
 21
423.858215
 31
0.0
  0
ARC
  5
9F
330
1E
100
AcDbEntity
  8
0
  6
CONTINUOUS
100
AcDbCircle
 10
244.632904
 20
425.858215
 30
0.0
 40
2.0
100
AcDbArc
 50
270.0
 51
334.0555109999999
  0
ARC
  5
A0
330
1E
100
AcDbEntity
  8
0
  6
CONTINUOUS
100
AcDbCircle
 10
192.82666
 20
425.858215
 30
0.0
 40
2.0
100
AcDbArc
 50
205.944473
 51
270.0
  0
ARC
  5
A1
330
1E
100
AcDbEntity
  8
0
  6
CONTINUOUS
100
AcDbCircle
 10
189.2297819999999
 20
313.608215
 30
0.0
 40
2.0
100
AcDbArc
 50
270.0
 51
0.0
  0
ARC
  5
A2
330
1E
100
AcDbEntity
  8
0
  6
CONTINUOUS
100
AcDbCircle
 10
248.2297819999999
 20
313.608215
 30
0.0
 40
2.0
100
AcDbArc
 50
180.0
 51
270.0
  0
LINE
  5
A3
330
1E
100
AcDbEntity
  8
0
  6
CONTINUOUS
100
AcDbLine
 10
192.82666
 20
313.8582149999999
 30
0.0
 11
224.7299649999999
 21
313.8582149999999
 31
0.0
  0
ARC
  5
A4
330
1E
100
AcDbEntity
  8
0
  6
CONTINUOUS
100
AcDbCircle
 10
244.632904
 20
311.8582149999999
 30
0.0
 40
2.0
100
AcDbArc
 50
25.94448900000003
 51
90.0
  0
ARC
  5
A5
330
1E
100
AcDbEntity
  8
0
  6
CONTINUOUS
100
AcDbCircle
 10
192.82666
 20
311.8582149999999
 30
0.0
 40
2.0
100
AcDbArc
 50
90.0
 51
154.055527
  0
LINE
  5
A6
330
1E
100
AcDbEntity
  8
0
  6
CONTINUOUS
100
AcDbLine
 10
192.82666
 20
335.8582149999999
 30
0.0
 11
244.632904
 21
335.8582149999999
 31
0.0
  0
LINE
  5
A7
330
1E
100
AcDbEntity
  8
0
  6
CONTINUOUS
100
AcDbLine
 10
192.82666
 20
401.8582149999999
 30
0.0
 11
244.632904
 21
401.8582149999999
 31
0.0
  0
LINE
  5
A8
330
1E
100
AcDbEntity
  8
0
  6
CONTINUOUS
100
AcDbLine
 10
222.2297819999999
 20
314.3582149999999
 30
0.0
 11
230.2297819999999
 21
314.3582149999999
 31
0.0
  0
LINE
  5
A9
330
1E
100
AcDbEntity
  8
0
  6
CONTINUOUS
100
AcDbLine
 10
230.2297819999999
 20
316.8870539999999
 30
0.0
 11
230.2297819999999
 21
314.3582149999999
 31
0.0
  0
LINE
  5
AA
330
1E
100
AcDbEntity
  8
0
  6
CONTINUOUS
100
AcDbLine
 10
222.2297819999999
 20
316.8870539999999
 30
0.0
 11
222.2297819999999
 21
314.3582149999999
 31
0.0
  0
LINE
  5
AB
330
1E
100
AcDbEntity
  8
0
  6
CONTINUOUS
100
AcDbLine
 10
175.5408939999999
 20
313.9947809999999
 30
0.0
 11
174.7280879999999
 21
313.915497
 31
0.0
  0
LINE
  5
AC
330
1E
100
AcDbEntity
  8
0
  6
CONTINUOUS
100
AcDbLine
 10
174.728729
 20
313.913849
 30
0.0
 11
174.1083069999999
 21
313.6785279999999
 31
0.0
  0
LINE
  5
AD
330
1E
100
AcDbEntity
  8
0
  6
CONTINUOUS
100
AcDbLine
 10
174.0936279999999
 20
313.6952819999999
 30
0.0
 11
173.8600309999999
 21
313.490906
 31
0.0
  0
LINE
  5
AE
330
1E
100
AcDbEntity
  8
0
  6
CONTINUOUS
100
AcDbLine
 10
173.8713229999999
 20
313.477997
 30
0.0
 11
173.892822
 21
313.2200319999999
 31
0.0
  0
LINE
  5
AF
330
1E
100
AcDbEntity
  8
0
  6
CONTINUOUS
100
AcDbLine
 10
173.92601
 20
313.222778
 30
0.0
 11
174.0900729999999
 21
313.0769649999999
 31
0.0
  0
LINE
  5
B0
330
1E
100
AcDbEntity
  8
0
  6
CONTINUOUS
100
AcDbLine
 10
174.0834659999999
 20
313.03952
 30
0.0
 11
174.491119
 21
312.9675899999999
 31
0.0
  0
LINE
  5
B1
330
1E
100
AcDbEntity
  8
0
  6
CONTINUOUS
100
AcDbLine
 10
174.493927
 20
312.990021
 30
0.0
 11
174.7299649999999
 21
312.96051
 31
0.0
  0
LINE
  5
B2
330
1E
100
AcDbEntity
  8
0
  6
CONTINUOUS
100
AcDbLine
 10
176.879135
 20
314.024872
 30
0.0
 11
177.2619479999999
 21
313.933716
 31
0.0
  0
LINE
  5
B3
330
1E
100
AcDbEntity
  8
0
  6
CONTINUOUS
100
AcDbLine
 10
177.2619479999999
 20
313.933716
 30
0.0
 11
177.7905879999999
 21
313.8425899999999
 31
0.0
  0
LINE
  5
B4
330
1E
100
AcDbEntity
  8
0
  6
CONTINUOUS
100
AcDbLine
 10
177.7905879999999
 20
313.8425899999999
 30
0.0
 11
178.1369479999999
 21
313.7696529999999
 31
0.0
  0
LINE
  5
B5
330
1E
100
AcDbEntity
  8
0
  6
CONTINUOUS
100
AcDbLine
 10
178.1369479999999
 20
313.7696529999999
 30
0.0
 11
178.319244
 21
313.696747
 31
0.0
  0
LINE
  5
B6
330
1E
100
AcDbEntity
  8
0
  6
CONTINUOUS
100
AcDbLine
 10
178.3506619999999
 20
313.7269289999999
 30
0.0
 11
178.501526
 21
313.550903
 31
0.0
  0
LINE
  5
B7
330
1E
100
AcDbEntity
  8
0
  6
CONTINUOUS
100
AcDbLine
 10
178.501526
 20
313.5326839999999
 30
0.0
 11
178.587204
 21
313.3613279999999
 31
0.0
  0
LINE
  5
B8
330
1E
100
AcDbEntity
  8
0
  6
CONTINUOUS
100
AcDbLine
 10
178.537994
 20
313.3139339999999
 30
0.0
 11
178.392151
 21
313.168091
 31
0.0
  0
LINE
  5
B9
330
1E
100
AcDbEntity
  8
0
  6
CONTINUOUS
100
AcDbLine
 10
178.3804169999999
 20
313.1341249999999
 30
0.0
 11
177.881744
 21
313.004028
 31
0.0
  0
LINE
  5
BA
330
1E
100
AcDbEntity
  8
0
  6
CONTINUOUS
100
AcDbLine
 10
177.872955
 20
312.988007
 30
0.0
 11
177.7299649999999
 21
312.981201
 31
0.0
  0
LINE
  5
BB
330
1E
100
AcDbEntity
  8
0
  6
CONTINUOUS
100
AcDbLine
 10
175.5408939999999
 20
313.9947809999999
 30
0.0
 11
175.8218379999999
 21
314.002075
 31
0.0
  0
LINE
  5
BC
330
1E
100
AcDbEntity
  8
0
  6
CONTINUOUS
100
AcDbLine
 10
175.8218379999999
 20
314.002075
 30
0.0
 11
176.4051819999999
 21
314.0111999999999
 31
0.0
  0
LINE
  5
BD
330
1E
100
AcDbEntity
  8
0
  6
CONTINUOUS
100
AcDbLine
 10
176.4051819999999
 20
314.0111999999999
 30
0.0
 11
176.879135
 21
314.024872
 31
0.0
  0
ARC
  5
BE
330
1E
100
AcDbEntity
  8
0
  6
CONTINUOUS
100
AcDbCircle
 10
226.2297819999999
 20
307.721924
 30
0.0
 40
10.0
100
AcDbArc
 50
66.42182199999999
 51
113.578178
  0
LINE
  5
BF
330
1E
100
AcDbEntity
  8
0
  6
CONTINUOUS
100
AcDbLine
 10
183.2298429999999
 20
135.708084
 30
0.0
 11
183.2298429999999
 21
21.208082
 31
0.0
  0
LINE
  5
C0
330
1E
100
AcDbEntity
  8
0
  6
CONTINUOUS
100
AcDbLine
 10
183.2298429999999
 20
135.708084
 30
0.0
 11
166.2298429999999
 21
135.708084
 31
0.0
  0
LINE
  5
C1
330
1E
100
AcDbEntity
  8
0
  6
CONTINUOUS
100
AcDbLine
 10
183.2298429999999
 20
21.208082
 30
0.0
 11
166.2298429999999
 21
21.208082
 31
0.0
  0
LINE
  5
C2
330
1E
100
AcDbEntity
  8
0
  6
CONTINUOUS
100
AcDbLine
 10
176.2298429999999
 20
92.45808399999999
 30
0.0
 11
176.2298429999999
 21
66.708084
 31
0.0
  0
LINE
  5
C3
330
1E
100
AcDbEntity
  8
0
  6
CONTINUOUS
100
AcDbLine
 10
177.7298429999999
 20
92.45808399999999
 30
0.0
 11
177.7298429999999
 21
65.770584
 31
0.0
  0
LINE
  5
C4
330
1E
100
AcDbEntity
  8
0
  6
CONTINUOUS
100
AcDbLine
 10
174.7298429999999
 20
92.45808399999999
 30
0.0
 11
174.7298429999999
 21
66.16809100000001
 31
0.0
  0
LINE
  5
C5
330
1E
100
AcDbEntity
  8
0
  6
CONTINUOUS
100
AcDbLine
 10
174.7298429999999
 20
66.16809100000001
 30
0.0
 11
176.2048489999999
 21
67.86433399999999
 31
0.0
  0
LINE
  5
C6
330
1E
100
AcDbEntity
  8
0
  6
CONTINUOUS
100
AcDbLine
 10
176.2342679999999
 20
66.715439
 30
0.0
 11
177.7508089999999
 21
65.805511
 31
0.0
  0
ARC
  5
C7
330
1E
100
AcDbEntity
  8
0
  6
CONTINUOUS
100
AcDbCircle
 10
176.9798429999999
 20
92.45808399999999
 30
0.0
 40
0.75
100
AcDbArc
 50
0.0
 51
180.0
  0
ARC
  5
C8
330
1E
100
AcDbEntity
  8
0
  6
CONTINUOUS
100
AcDbCircle
 10
175.4798429999999
 20
92.45808399999999
 30
0.0
 40
0.75
100
AcDbArc
 50
0.0
 51
180.0
  0
ARC
  5
C9
330
1E
100
AcDbEntity
  8
0
  6
CONTINUOUS
100
AcDbCircle
 10
176.2298429999999
 20
92.45808399999999
 30
0.0
 40
3.0
100
AcDbArc
 50
300.0000609999999
 51
239.999893
  0
LINE
  5
CA
330
1E
100
AcDbEntity
  8
0
  6
CONTINUOUS
100
AcDbLine
 10
166.2298429999999
 20
135.958084
 30
0.0
 11
166.2298429999999
 21
20.958082
 31
0.0
  0
LINE
  5
CB
330
1E
100
AcDbEntity
  8
0
  6
CONTINUOUS
100
AcDbLine
 10
254.229843
 20
135.958084
 30
0.0
 11
259.229858
 21
135.958084
 31
0.0
  0
LINE
  5
CC
330
1E
100
AcDbEntity
  8
0
  6
CONTINUOUS
100
AcDbLine
 10
254.229843
 20
20.958082
 30
0.0
 11
259.229858
 21
20.958082
 31
0.0
  0
LINE
  5
CD
330
1E
100
AcDbEntity
  8
0
  6
CONTINUOUS
100
AcDbLine
 10
254.229843
 20
135.958084
 30
0.0
 11
254.229843
 21
20.958082
 31
0.0
  0
LINE
  5
CE
330
1E
100
AcDbEntity
  8
0
  6
CENTER
100
AcDbLine
 10
602.4060669999999
 20
199.5779719999999
 30
0.0
 11
602.4060669999999
 21
-8.572030999999999
 31
0.0
  0
LINE
  5
CF
330
1E
100
AcDbEntity
  8
0
  6
CENTER
100
AcDbLine
 10
479.054993
 20
78.45796999999999
 30
0.0
 11
700.3200679999999
 21
78.45796999999999
 31
0.0
  0
LINE
  5
D0
330
1E
100
AcDbEntity
  8
0
  6
CENTER
100
AcDbLine
 10
500.356293
 20
97.45796999999999
 30
0.0
 11
700.3200679999999
 21
97.45796999999999
 31
0.0
  0
LINE
  5
D1
330
1E
100
AcDbEntity
  8
0
  6
CENTER
100
AcDbLine
 10
523.8818969999999
 20
18.93224899999999
 30
0.0
 11
682.3502809999999
 21
177.403732
 31
0.0
  0
LINE
  5
D2
330
1E
100
AcDbEntity
  8
0
  6
CENTER
100
AcDbLine
 10
681.0852660000001
 20
18.77720799999999
 30
0.0
 11
521.237122
 21
178.6288449999999
 31
0.0
  0
CIRCLE
  5
D3
330
1E
100
AcDbEntity
  8
0
  6
CONTINUOUS
100
AcDbCircle
 10
667.8128659999999
 20
162.8660889999999
 30
0.0
 40
5.5
  0
CIRCLE
  5
D4
330
1E
100
AcDbEntity
  8
0
  6
CONTINUOUS
100
AcDbCircle
 10
536.9989009999999
 20
162.8655699999999
 30
0.0
 40
5.5
  0
CIRCLE
  5
D5
330
1E
100
AcDbEntity
  8
0
  6
CONTINUOUS
100
AcDbCircle
 10
536.9995119999999
 20
32.049889
 30
0.0
 40
5.5
  0
CIRCLE
  5
D6
330
1E
100
AcDbEntity
  8
0
  6
CONTINUOUS
100
AcDbCircle
 10
667.8128659999999
 20
32.049889
 30
0.0
 40
5.5
  0
ARC
  5
D7
330
1E
100
AcDbEntity
  8
0
  6
CONTINUOUS
100
AcDbCircle
 10
602.4060669999999
 20
-350.0420229999999
 30
0.0
 40
530.0
100
AcDbArc
 50
82.751762
 51
97.248253
  0
ARC
  5
D8
330
1E
100
AcDbEntity
  8
0
  6
CONTINUOUS
100
AcDbCircle
 10
1050.405639999999
 20
97.45796999999999
 30
0.0
 40
530.0
100
AcDbArc
 50
172.687897
 51
187.450607
  0
ARC
  5
D9
330
1E
100
AcDbEntity
  8
0
  6
CONTINUOUS
100
AcDbCircle
 10
154.4061129999999
 20
97.45796999999999
 30
0.0
 40
530.0
100
AcDbArc
 50
352.564209
 51
7.312139000000001
  0
ARC
  5
DA
330
1E
100
AcDbEntity
  8
0
  6
CONTINUOUS
100
AcDbCircle
 10
667.6975099999999
 20
163.322693
 30
0.0
 40
12.5
100
AcDbArc
 50
7.312303999999999
 51
82.7519
  0
ARC
  5
DB
330
1E
100
AcDbEntity
  8
0
  6
CONTINUOUS
100
AcDbCircle
 10
537.114685
 20
163.322693
 30
0.0
 40
12.5
100
AcDbArc
 50
97.24852800000002
 51
172.6882929999999
  0
ARC
  5
DC
330
1E
100
AcDbEntity
  8
0
  6
CONTINUOUS
100
AcDbCircle
 10
602.4063110000001
 20
248.458008
 30
0.0
 40
240.0
100
AcDbArc
 50
253.359497
 51
286.640594
  0
ARC
  5
DD
330
1E
100
AcDbEntity
  8
0
  6
CONTINUOUS
100
AcDbCircle
 10
667.5543209999999
 20
30.485588
 30
0.0
 40
12.5
100
AcDbArc
 50
286.6406859999999
 51
352.564392
  0
ARC
  5
DE
330
1E
100
AcDbEntity
  8
0
  6
CONTINUOUS
100
AcDbCircle
 10
537.258118
 20
30.485588
 30
0.0
 40
12.5
100
AcDbArc
 50
188.061401
 51
253.359299
  0
CIRCLE
  5
DF
330
1E
100
AcDbEntity
  8
0
  6
CONTINUOUS
100
AcDbCircle
 10
602.4060669999999
 20
97.45796999999999
 30
0.0
 40
74.0
  0
CIRCLE
  5
E0
330
1E
100
AcDbEntity
  8
0
  6
CONTINUOUS
100
AcDbCircle
 10
602.4060669999999
 20
97.45796999999999
 30
0.0
 40
69.0
  0
ARC
  5
E1
330
1E
100
AcDbEntity
  8
0
  6
CONTINUOUS
100
AcDbCircle
 10
536.9995119999999
 20
32.049889
 30
0.0
 40
12.5
100
AcDbArc
 50
339.072201
 51
97.74601
  0
ARC
  5
E2
330
1E
100
AcDbEntity
  8
0
  6
CONTINUOUS
100
AcDbCircle
 10
667.8128659999999
 20
32.049889
 30
0.0
 40
12.5
100
AcDbArc
 50
82.255692
 51
200.9279019999999
  0
ARC
  5
E3
330
1E
100
AcDbEntity
  8
0
  6
CONTINUOUS
100
AcDbCircle
 10
667.8128659999999
 20
162.8660889999999
 30
0.0
 40
12.5
100
AcDbArc
 50
170.6266939999999
 51
277.744293
  0
ARC
  5
E4
330
1E
100
AcDbEntity
  8
0
  6
CONTINUOUS
100
AcDbCircle
 10
536.9989009999999
 20
162.8655699999999
 30
0.0
 40
12.5
100
AcDbArc
 50
262.2554019999999
 51
9.374557000000001
  0
ARC
  5
E5
330
1E
100
AcDbEntity
  8
0
  6
CONTINUOUS
100
AcDbCircle
 10
154.4061129999999
 20
97.45796999999999
 30
0.0
 40
523.0
100
AcDbArc
 50
354.6755979999999
 51
355.749115
  0
ARC
  5
E6
330
1E
100
AcDbEntity
  8
0
  6
CONTINUOUS
100
AcDbCircle
 10
1050.405639999999
 20
97.45796999999999
 30
0.0
 40
523.0
100
AcDbArc
 50
174.675705
 51
175.749207
  0
ARC
  5
E7
330
1E
100
AcDbEntity
  8
0
  6
CONTINUOUS
100
AcDbCircle
 10
602.4063110000001
 20
248.458008
 30
0.0
 40
233.0
100
AcDbArc
 50
257.5737919999999
 51
282.426208
  0
ARC
  5
E8
330
1E
100
AcDbEntity
  8
0
  6
CONTINUOUS
100
AcDbCircle
 10
602.4060669999999
 20
-350.0420229999999
 30
0.0
 40
523.0
100
AcDbArc
 50
84.66742700000001
 51
85.86686699999999
  0
ARC
  5
E9
330
1E
100
AcDbEntity
  8
0
  6
CONTINUOUS
100
AcDbCircle
 10
1050.405639999999
 20
97.45796999999999
 30
0.0
 40
523.0
100
AcDbArc
 50
184.250793
 51
185.3244019999999
  0
LINE
  5
EA
330
1E
100
AcDbEntity
  8
0
  6
CONTINUOUS
100
AcDbLine
 10
605.406067
 20
163.18457
 30
0.0
 11
605.406067
 21
147.196671
 31
0.0
  0
LINE
  5
EB
330
1E
100
AcDbEntity
  8
0
  6
CONTINUOUS
100
AcDbLine
 10
599.406067
 20
163.1846919999999
 30
0.0
 11
599.406067
 21
147.196671
 31
0.0
  0
ARC
  5
EC
330
1E
100
AcDbEntity
  8
0
  6
CONTINUOUS
100
AcDbCircle
 10
608.4066769999999
 20
163.18457
 30
0.0
 40
3.0
100
AcDbArc
 50
84.78325699999999
 51
180.0
  0
ARC
  5
ED
330
1E
100
AcDbEntity
  8
0
  6
CONTINUOUS
100
AcDbCircle
 10
596.406067
 20
163.1846919999999
 30
0.0
 40
3.0
100
AcDbArc
 50
0.0
 51
95.22026800000002
  0
ARC
  5
EE
330
1E
100
AcDbEntity
  8
0
  6
CONTINUOUS
100
AcDbCircle
 10
602.4060669999999
 20
97.45796999999999
 30
0.0
 40
75.5
100
AcDbArc
 50
118.067596
 51
151.060104
  0
ARC
  5
EF
330
1E
100
AcDbEntity
  8
0
  6
CONTINUOUS
100
AcDbCircle
 10
154.4061129999999
 20
97.45796999999999
 30
0.0
 40
523.0
100
AcDbArc
 50
4.250874999999999
 51
5.324408
  0
ARC
  5
F0
330
1E
100
AcDbEntity
  8
0
  6
CONTINUOUS
100
AcDbCircle
 10
602.4060669999999
 20
97.45796999999999
 30
0.0
 40
75.5
100
AcDbArc
 50
28.940559
 51
61.93236899999999
  0
ARC
  5
F1
330
1E
100
AcDbEntity
  8
0
  6
CONTINUOUS
100
AcDbCircle
 10
661.9489139999999
 20
148.5181879999999
 30
0.0
 40
3.0
100
AcDbArc
 50
67.770348
 51
209.144806
  0
ARC
  5
F2
330
1E
100
AcDbEntity
  8
0
  6
CONTINUOUS
100
AcDbCircle
 10
653.464294
 20
157.0035709999999
 30
0.0
 40
3.0
100
AcDbArc
 50
218.0027009999999
 51
22.2236
  0
ARC
  5
F3
330
1E
100
AcDbEntity
  8
0
  6
CONTINUOUS
100
AcDbCircle
 10
542.861084
 20
148.5167689999999
 30
0.0
 40
3.0
100
AcDbArc
 50
330.7717
 51
112.2220989999999
  0
ARC
  5
F4
330
1E
100
AcDbEntity
  8
0
  6
CONTINUOUS
100
AcDbCircle
 10
551.348267
 20
157.005096
 30
0.0
 40
3.0
100
AcDbArc
 50
157.7843019999999
 51
321.917511
  0
ARC
  5
F5
330
1E
100
AcDbEntity
  8
0
  6
CONTINUOUS
100
AcDbCircle
 10
602.4060669999999
 20
-350.0420229999999
 30
0.0
 40
523.0
100
AcDbArc
 50
94.133141
 51
95.332626
  0
ARC
  5
F6
330
1E
100
AcDbEntity
  8
0
  6
CONTINUOUS
100
AcDbCircle
 10
602.4060669999999
 20
97.45796999999999
 30
0.0
 40
75.5
100
AcDbArc
 50
208.939804
 51
331.059387
  0
ARC
  5
F7
330
1E
100
AcDbEntity
  8
0
  6
CONTINUOUS
100
AcDbCircle
 10
671.9782709999999
 20
58.987671
 30
0.0
 40
4.0
100
AcDbArc
 50
355.74939
 51
151.059494
  0
ARC
  5
F8
330
1E
100
AcDbEntity
  8
0
  6
CONTINUOUS
100
AcDbCircle
 10
532.8334959999999
 20
58.98857099999999
 30
0.0
 40
4.0
100
AcDbArc
 50
28.940149
 51
184.250595
  0
ARC
  5
F9
330
1E
100
AcDbEntity
  8
0
  6
CONTINUOUS
100
AcDbCircle
 10
670.171082
 20
49.390289
 30
0.0
 40
5.0
100
AcDbArc
 50
262.2556149999999
 51
354.675812
  0
ARC
  5
FA
330
1E
100
AcDbEntity
  8
0
  6
CONTINUOUS
100
AcDbCircle
 10
651.4672849999999
 20
25.79906799999999
 30
0.0
 40
5.0
100
AcDbArc
 50
282.426483
 51
20.92767
  0
ARC
  5
FB
330
1E
100
AcDbEntity
  8
0
  6
CONTINUOUS
100
AcDbCircle
 10
553.3450929999999
 20
25.79906799999999
 30
0.0
 40
5.0
100
AcDbArc
 50
159.0726929999999
 51
257.573486
  0
ARC
  5
FC
330
1E
100
AcDbEntity
  8
0
  6
CONTINUOUS
100
AcDbCircle
 10
534.640869
 20
49.39019
 30
0.0
 40
5.0
100
AcDbArc
 50
185.3246
 51
277.7466129999999
  0
CIRCLE
  5
FD
330
1E
100
AcDbEntity
  8
0
  6
CONTINUOUS
100
AcDbCircle
 10
602.4060669999999
 20
97.45796999999999
 30
0.0
 40
30.0
  0
ARC
  5
FE
330
1E
100
AcDbEntity
  8
0
  6
CONTINUOUS
100
AcDbCircle
 10
602.4060669999999
 20
78.45796999999999
 30
0.0
 40
66.0
100
AcDbArc
 50
28.95104
 51
51.18590199999999
  0
ARC
  5
FF
330
1E
100
AcDbEntity
  8
0
  6
CONTINUOUS
100
AcDbCircle
 10
664.5335079999999
 20
112.8263699999999
 30
0.0
 40
5.0
100
AcDbArc
 50
208.9510039999999
 51
13.89425
  0
ARC
  5
100
330
1E
100
AcDbEntity
  8
0
  6
CONTINUOUS
100
AcDbCircle
 10
540.2786869999999
 20
112.8263699999999
 30
0.0
 40
5.0
100
AcDbArc
 50
166.108307
 51
331.049286
  0
ARC
  5
101
330
1E
100
AcDbEntity
  8
0
  6
CONTINUOUS
100
AcDbCircle
 10
608.405701
 20
147.196671
 30
0.0
 40
3.0
100
AcDbArc
 50
180.0
 51
265.011505
  0
ARC
  5
102
330
1E
100
AcDbEntity
  8
0
  6
CONTINUOUS
100
AcDbCircle
 10
596.406494
 20
147.196671
 30
0.0
 40
3.0
100
AcDbArc
 50
274.9885329999999
 51
0.0
  0
ARC
  5
103
330
1E
100
AcDbEntity
  8
0
  6
CONTINUOUS
100
AcDbCircle
 10
602.4060669999999
 20
78.45796999999999
 30
0.0
 40
66.0
100
AcDbArc
 50
94.98853299999998
 51
118.640198
  0
ARC
  5
104
330
1E
100
AcDbEntity
  8
0
  6
CONTINUOUS
100
AcDbCircle
 10
532.8334959999999
 20
135.927368
 30
0.0
 40
4.0
100
AcDbArc
 50
175.7498019999999
 51
331.060699
  0
ARC
  5
105
330
1E
100
AcDbEntity
  8
0
  6
CONTINUOUS
100
AcDbCircle
 10
565.000488
 20
167.6082759999999
 30
0.0
 40
4.0
100
AcDbArc
 50
298.06802
 51
94.13371299999999
  0
ARC
  5
106
330
1E
100
AcDbEntity
  8
0
  6
CONTINUOUS
100
AcDbCircle
 10
534.640686
 20
145.525162
 30
0.0
 40
5.0
100
AcDbArc
 50
82.25556899999999
 51
174.676102
  0
ARC
  5
107
330
1E
100
AcDbEntity
  8
0
  6
CONTINUOUS
100
AcDbCircle
 10
554.26532
 20
165.7160949999999
 30
0.0
 40
5.0
100
AcDbArc
 50
95.333099
 51
189.374695
  0
ARC
  5
108
330
1E
100
AcDbEntity
  8
0
  6
CONTINUOUS
100
AcDbCircle
 10
639.81189
 20
167.6082759999999
 30
0.0
 40
4.0
100
AcDbArc
 50
85.867172
 51
241.932693
  0
ARC
  5
109
330
1E
100
AcDbEntity
  8
0
  6
CONTINUOUS
100
AcDbCircle
 10
650.546509
 20
165.716171
 30
0.0
 40
5.0
100
AcDbArc
 50
350.627045
 51
84.66758699999999
  0
ARC
  5
10A
330
1E
100
AcDbEntity
  8
0
  6
CONTINUOUS
100
AcDbCircle
 10
670.171082
 20
145.5256959999999
 30
0.0
 40
5.0
100
AcDbArc
 50
5.324549
 51
97.744431
  0
ARC
  5
10B
330
1E
100
AcDbEntity
  8
0
  6
CONTINUOUS
100
AcDbCircle
 10
671.9782709999999
 20
135.9281919999999
 30
0.0
 40
4.0
100
AcDbArc
 50
208.9405059999999
 51
4.25105
  0
LINE
  5
10C
330
1E
100
AcDbEntity
  8
0
  6
CONTINUOUS
100
AcDbLine
 10
558.052307
 20
146.055573
 30
0.0
 11
567.213074
 21
136.8945919999999
 31
0.0
  0
LINE
  5
10D
330
1E
100
AcDbEntity
  8
0
  6
CONTINUOUS
100
AcDbLine
 10
553.8095089999999
 20
141.8129879999999
 30
0.0
 11
561.27887
 21
134.3433689999999
 31
0.0
  0
ARC
  5
10E
330
1E
100
AcDbEntity
  8
0
  6
CONTINUOUS
100
AcDbCircle
 10
560.173523
 20
148.1767879999999
 30
0.0
 40
3.0
100
AcDbArc
 50
129.788101
 51
225.0
  0
ARC
  5
10F
330
1E
100
AcDbEntity
  8
0
  6
CONTINUOUS
100
AcDbCircle
 10
551.687683
 20
139.6911929999999
 30
0.0
 40
3.0
100
AcDbArc
 50
44.99995
 51
140.2203059999999
  0
ARC
  5
110
330
1E
100
AcDbEntity
  8
0
  6
CONTINUOUS
100
AcDbCircle
 10
559.1571039999999
 20
132.2215879999999
 30
0.0
 40
3.0
100
AcDbArc
 50
308.8151589999999
 51
44.99995
  0
ARC
  5
111
330
1E
100
AcDbEntity
  8
0
  6
CONTINUOUS
100
AcDbCircle
 10
569.33429
 20
139.015762
 30
0.0
 40
3.0
100
AcDbArc
 50
225.0
 51
298.6404109999999
  0
LINE
  5
112
330
1E
100
AcDbEntity
  8
0
  6
CONTINUOUS
100
AcDbLine
 10
651.002686
 20
141.8128809999999
 30
0.0
 11
643.5332639999999
 21
134.3432919999999
 31
0.0
  0
LINE
  5
113
330
1E
100
AcDbEntity
  8
0
  6
CONTINUOUS
100
AcDbLine
 10
646.760071
 20
146.055573
 30
0.0
 11
637.599304
 21
136.8945919999999
 31
0.0
  0
ARC
  5
114
330
1E
100
AcDbEntity
  8
0
  6
CONTINUOUS
100
AcDbCircle
 10
644.6389159999999
 20
148.1766819999999
 30
0.0
 40
3.0
100
AcDbArc
 50
315.0008889999999
 51
50.216091
  0
ARC
  5
115
330
1E
100
AcDbEntity
  8
0
  6
CONTINUOUS
100
AcDbCircle
 10
635.4780879999999
 20
139.015671
 30
0.0
 40
3.0
100
AcDbArc
 50
241.3598939999999
 51
315.000885
  0
ARC
  5
116
330
1E
100
AcDbEntity
  8
0
  6
CONTINUOUS
100
AcDbCircle
 10
645.654907
 20
132.2216639999999
 30
0.0
 40
3.0
100
AcDbArc
 50
135.0009
 51
231.186096
  0
ARC
  5
117
330
1E
100
AcDbEntity
  8
0
  6
CONTINUOUS
100
AcDbCircle
 10
653.1242679999999
 20
139.691269
 30
0.0
 40
3.0
100
AcDbArc
 50
39.78388999999999
 51
135.0009
  0
ARC
  5
118
330
1E
100
AcDbEntity
  8
0
  6
CONTINUOUS
100
AcDbCircle
 10
602.4060669999999
 20
78.45796999999999
 30
0.0
 40
66.0
100
AcDbArc
 50
61.35994
 51
85.011787
  0
ARC
  5
119
330
1E
100
AcDbEntity
  8
0
  6
CONTINUOUS
100
AcDbCircle
 10
602.4060669999999
 20
78.45796999999999
 30
0.0
 40
66.0
100
AcDbArc
 50
128.814407
 51
151.0489039999999
  0
CIRCLE
  5
11A
330
1E
100
AcDbEntity
  8
0
  6
CENTER
100
AcDbCircle
 10
602.4060669999999
 20
97.45796999999999
 30
0.0
 40
92.5
  0
ARC
  5
11B
330
1E
100
AcDbEntity
  8
0
  6
CONTINUOUS
100
AcDbCircle
 10
602.4060669999999
 20
97.45796999999999
 30
0.0
 40
11.0
100
AcDbArc
 50
195.8265989999999
 51
164.173401
  0
LINE
  5
11C
330
1E
100
AcDbEntity
  8
0
  6
CONTINUOUS
100
AcDbLine
 10
594.906067
 20
100.4579699999999
 30
0.0
 11
594.906067
 21
94.45796999999998
 31
0.0
  0
LINE
  5
11D
330
1E
100
AcDbEntity
  8
0
  6
CONTINUOUS
100
AcDbLine
 10
588.906067
 20
100.4579699999999
 30
0.0
 11
588.906067
 21
94.45796999999998
 31
0.0
  0
LINE
  5
11E
330
1E
100
AcDbEntity
  8
0
  6
CONTINUOUS
100
AcDbLine
 10
588.906067
 20
100.4579699999999
 30
0.0
 11
594.906067
 21
100.4579699999999
 31
0.0
  0
LINE
  5
11F
330
1E
100
AcDbEntity
  8
0
  6
CONTINUOUS
100
AcDbLine
 10
588.906067
 20
94.45796999999998
 30
0.0
 11
594.906067
 21
94.45796999999998
 31
0.0
  0
LINE
  5
120
330
1E
100
AcDbEntity
  8
0
  6
CONTINUOUS
100
AcDbLine
 10
523.0798339999999
 20
44.28436699999999
 30
0.0
 11
491.906097
 21
43.45797
 31
0.0
  0
LINE
  5
121
330
1E
100
AcDbEntity
  8
0
  6
CONTINUOUS
100
AcDbLine
 10
520.624817
 20
112.696297
 30
0.0
 11
491.906097
 21
113.4579699999999
 31
0.0
  0
LINE
  5
122
330
1E
100
AcDbEntity
  8
0
  6
CONTINUOUS
100
AcDbLine
 10
485.9060969999999
 20
45.95797
 30
0.0
 11
485.9060969999999
 21
110.9579699999999
 31
0.0
  0
LINE
  5
123
330
1E
100
AcDbEntity
  8
0
  6
CONTINUOUS
100
AcDbLine
 10
488.406097
 20
113.4579699999999
 30
0.0
 11
490.9060969999999
 21
113.4579699999999
 31
0.0
  0
LINE
  5
124
330
1E
100
AcDbEntity
  8
0
  6
CONTINUOUS
100
AcDbLine
 10
488.406097
 20
43.45797
 30
0.0
 11
490.9060969999999
 21
43.45797
 31
0.0
  0
LINE
  5
125
330
1E
100
AcDbEntity
  8
0
  6
CONTINUOUS
100
AcDbLine
 10
490.9060969999999
 20
113.4579699999999
 30
0.0
 11
490.9060969999999
 21
43.45797
 31
0.0
  0
LINE
  5
126
330
1E
100
AcDbEntity
  8
0
  6
CONTINUOUS
100
AcDbLine
 10
491.906097
 20
113.4579699999999
 30
0.0
 11
491.906097
 21
43.45797
 31
0.0
  0
LINE
  5
127
330
1E
100
AcDbEntity
  8
0
  6
CONTINUOUS
100
AcDbLine
 10
490.9060969999999
 20
113.4579699999999
 30
0.0
 11
491.906097
 21
113.4579699999999
 31
0.0
  0
LINE
  5
128
330
1E
100
AcDbEntity
  8
0
  6
CONTINUOUS
100
AcDbLine
 10
490.9060969999999
 20
43.45797
 30
0.0
 11
491.906097
 21
43.45797
 31
0.0
  0
LINE
  5
129
330
1E
100
AcDbEntity
  8
0
  6
CONTINUOUS
100
AcDbLine
 10
488.906097
 20
104.9450679999999
 30
0.0
 11
488.906097
 21
112.4579699999999
 31
0.0
  0
LINE
  5
12A
330
1E
100
AcDbEntity
  8
0
  6
CONTINUOUS
100
AcDbLine
 10
488.906097
 20
51.970909
 30
0.0
 11
488.906097
 21
44.45797
 31
0.0
  0
LINE
  5
12B
330
1E
100
AcDbEntity
  8
0
  6
CONTINUOUS
100
AcDbLine
 10
488.4191889999999
 20
104.445267
 30
0.0
 11
486.879883
 21
104.404968
 31
0.0
  0
ARC
  5
12C
330
1E
100
AcDbEntity
  8
0
  6
CONTINUOUS
100
AcDbCircle
 10
488.406097
 20
104.9450679999999
 30
0.0
 40
0.5
100
AcDbArc
 50
271.4999999999999
 51
0.0
  0
ARC
  5
12D
330
1E
100
AcDbEntity
  8
0
  6
CONTINUOUS
100
AcDbCircle
 10
486.9060969999999
 20
103.4052659999999
 30
0.0
 40
1.0
100
AcDbArc
 50
91.49980199999999
 51
180.0
  0
ARC
  5
12E
330
1E
100
AcDbEntity
  8
0
  6
CONTINUOUS
100
AcDbCircle
 10
489.9060969999999
 20
112.4579699999999
 30
0.0
 40
1.0
100
AcDbArc
 50
90.0
 51
180.0
  0
ARC
  5
12F
330
1E
100
AcDbEntity
  8
0
  6
CONTINUOUS
100
AcDbCircle
 10
488.406097
 20
110.9579699999999
 30
0.0
 40
2.5
100
AcDbArc
 50
90.0
 51
180.0
  0
LINE
  5
130
330
1E
100
AcDbEntity
  8
0
  6
CONTINUOUS
100
AcDbLine
 10
488.4191889999999
 20
52.470791
 30
0.0
 11
486.879883
 21
52.51107
 31
0.0
  0
ARC
  5
131
330
1E
100
AcDbEntity
  8
0
  6
CONTINUOUS
100
AcDbCircle
 10
486.9060969999999
 20
53.51069999999999
 30
0.0
 40
1.0
100
AcDbArc
 50
180.0
 51
268.4996029999999
  0
ARC
  5
132
330
1E
100
AcDbEntity
  8
0
  6
CONTINUOUS
100
AcDbCircle
 10
488.406097
 20
51.970909
 30
0.0
 40
0.5
100
AcDbArc
 50
0.0
 51
88.49980200000002
  0
ARC
  5
133
330
1E
100
AcDbEntity
  8
0
  6
CONTINUOUS
100
AcDbCircle
 10
489.9060969999999
 20
44.45797
 30
0.0
 40
1.0
100
AcDbArc
 50
180.0
 51
270.0
  0
ARC
  5
134
330
1E
100
AcDbEntity
  8
0
  6
CONTINUOUS
100
AcDbCircle
 10
488.406097
 20
45.95797
 30
0.0
 40
2.5
100
AcDbArc
 50
180.0
 51
270.0
  0
ARC
  5
135
330
1E
100
AcDbEntity
  8
0
  6
CONTINUOUS
100
AcDbCircle
 10
488.906097
 20
108.4579699999999
 30
0.0
 40
3.0
100
AcDbArc
 50
90.0
 51
270.0
  0
LINE
  5
136
330
1E
100
AcDbEntity
  8
0
  6
CONTINUOUS
100
AcDbLine
 10
488.406097
 20
111.41597
 30
0.0
 11
488.406097
 21
105.499969
 31
0.0
  0
LINE
  5
137
330
1E
100
AcDbEntity
  8
0
  6
CONTINUOUS
100
AcDbLine
 10
486.4060969999999
 20
108.4579699999999
 30
0.0
 11
485.9192809999999
 21
108.1768649999999
 31
0.0
  0
LINE
  5
138
330
1E
100
AcDbEntity
  8
0
  6
CONTINUOUS
100
AcDbLine
 10
486.4060969999999
 20
108.4579699999999
 30
0.0
 11
485.9192809999999
 21
108.739067
 31
0.0
  0
ARC
  5
139
330
1E
100
AcDbEntity
  8
0
  6
CONTINUOUS
100
AcDbCircle
 10
488.906097
 20
48.45797000000001
 30
0.0
 40
3.0
100
AcDbArc
 50
90.0
 51
270.0
  0
LINE
  5
13A
330
1E
100
AcDbEntity
  8
0
  6
CONTINUOUS
100
AcDbLine
 10
488.406097
 20
51.41597700000001
 30
0.0
 11
488.406097
 21
45.499958
 31
0.0
  0
LINE
  5
13B
330
1E
100
AcDbEntity
  8
0
  6
CONTINUOUS
100
AcDbLine
 10
486.4060969999999
 20
48.45797000000001
 30
0.0
 11
485.9192809999999
 21
48.176899
 31
0.0
  0
LINE
  5
13C
330
1E
100
AcDbEntity
  8
0
  6
CONTINUOUS
100
AcDbLine
 10
486.4060969999999
 20
48.45797000000001
 30
0.0
 11
485.9192809999999
 21
48.73909799999999
 31
0.0
  0
LINE
  5
13D
330
1E
100
AcDbEntity
  8
0
  6
CENTER
100
AcDbLine
 10
507.9060969999999
 20
120.9149699999999
 30
0.0
 11
507.9060969999999
 21
25.08297
 31
0.0
  0
LINE
  5
144
330
1E
100
AcDbEntity
  8
0
  6
CONTINUOUS
100
AcDbLine
 10
54.22978199999999
 20
426.358215
 30
0.0
 11
166.229782
 21
426.358215
 31
0.0
  0
LINE
  5
145
330
1E
100
AcDbEntity
  8
0
  6
CONTINUOUS
100
AcDbLine
 10
166.229782
 20
311.3582149999999
 30
0.0
 11
121.704155
 21
311.3582149999999
 31
0.0
  0
LINE
  5
146
330
1E
100
AcDbEntity
  8
0
  6
CONTINUOUS
100
AcDbLine
 10
54.22978199999999
 20
394.857697
 30
0.0
 11
158.203583
 21
394.857697
 31
0.0
  0
LINE
  5
147
330
1E
100
AcDbEntity
  8
0
  6
CONTINUOUS
100
AcDbLine
 10
54.22978199999999
 20
402.6282039999999
 30
0.0
 11
158.203583
 21
402.6282039999999
 31
0.0
  0
LINE
  5
148
330
1E
100
AcDbEntity
  8
0
  6
CONTINUOUS
100
AcDbLine
 10
55.22978199999999
 20
405.907593
 30
0.0
 11
157.203598
 21
405.907593
 31
0.0
  0
LINE
  5
149
330
1E
100
AcDbEntity
  8
0
  6
CONTINUOUS
100
AcDbLine
 10
54.22978199999999
 20
410.722565
 30
0.0
 11
158.203583
 21
410.722565
 31
0.0
  0
LINE
  5
14A
330
1E
100
AcDbEntity
  8
0
  6
CONTINUOUS
100
AcDbLine
 10
55.22978199999999
 20
412.7103879999999
 30
0.0
 11
157.203598
 21
412.7103879999999
 31
0.0
  0
LINE
  5
14B
330
1E
100
AcDbEntity
  8
0
  6
CONTINUOUS
100
AcDbLine
 10
54.22978199999999
 20
416.753052
 30
0.0
 11
158.203583
 21
416.753052
 31
0.0
  0
LINE
  5
14C
330
1E
100
AcDbEntity
  8
0
  6
CONTINUOUS
100
AcDbLine
 10
54.22978199999999
 20
421.283905
 30
0.0
 11
158.203583
 21
421.283905
 31
0.0
  0
LINE
  5
14D
330
1E
100
AcDbEntity
  8
0
  6
CONTINUOUS
100
AcDbLine
 10
54.22978199999999
 20
424.1609799999999
 30
0.0
 11
158.203583
 21
424.1609799999999
 31
0.0
  0
LINE
  5
14E
330
1E
100
AcDbEntity
  8
0
  6
CONTINUOUS
100
AcDbLine
 10
54.22978199999999
 20
425.8162839999999
 30
0.0
 11
158.203583
 21
425.8162839999999
 31
0.0
  0
LINE
  5
14F
330
1E
100
AcDbEntity
  8
0
  6
CONTINUOUS
100
AcDbLine
 10
158.203583
 20
426.358215
 30
0.0
 11
158.203583
 21
394.857697
 31
0.0
  0
LINE
  5
150
330
1E
100
AcDbEntity
  8
0
  6
CONTINUOUS
100
AcDbLine
 10
54.22978199999999
 20
342.858704
 30
0.0
 11
158.203583
 21
342.858704
 31
0.0
  0
LINE
  5
151
330
1E
100
AcDbEntity
  8
0
  6
CONTINUOUS
100
AcDbLine
 10
54.22978199999999
 20
335.0881959999999
 30
0.0
 11
158.203583
 21
335.0881959999999
 31
0.0
  0
LINE
  5
152
330
1E
100
AcDbEntity
  8
0
  6
CONTINUOUS
100
AcDbLine
 10
54.22978199999999
 20
326.9938349999999
 30
0.0
 11
158.203583
 21
326.9938349999999
 31
0.0
  0
LINE
  5
153
330
1E
100
AcDbEntity
  8
0
  6
CONTINUOUS
100
AcDbLine
 10
121.204155
 20
316.432495
 30
0.0
 11
158.203583
 21
316.432495
 31
0.0
  0
LINE
  5
154
330
1E
100
AcDbEntity
  8
0
  6
CONTINUOUS
100
AcDbLine
 10
121.204155
 20
313.55545
 30
0.0
 11
158.203583
 21
313.55545
 31
0.0
  0
LINE
  5
155
330
1E
100
AcDbEntity
  8
0
  6
CONTINUOUS
100
AcDbLine
 10
121.7041469999999
 20
311.900146
 30
0.0
 11
158.203583
 21
311.900146
 31
0.0
  0
LINE
  5
156
330
1E
100
AcDbEntity
  8
0
  6
CONTINUOUS
100
AcDbLine
 10
158.203583
 20
311.3582149999999
 30
0.0
 11
158.203583
 21
342.858704
 31
0.0
  0
LINE
  5
157
330
1E
100
AcDbEntity
  8
0
  6
CONTINUOUS
100
AcDbLine
 10
121.204155
 20
311.8582149999999
 30
0.0
 11
121.204155
 21
318.0576479999999
 31
0.0
  0
ARC
  5
158
330
1E
100
AcDbEntity
  8
0
  6
CONTINUOUS
100
AcDbCircle
 10
121.7041469999999
 20
312.400116
 30
0.0
 40
0.499992
100
AcDbArc
 50
180.0
 51
270.0
  0
ARC
  5
159
330
1E
100
AcDbEntity
  8
0
  6
CONTINUOUS
100
AcDbCircle
 10
120.2041699999999
 20
313.85907
 30
0.0
 40
0.9999839999999998
100
AcDbArc
 50
270.0
 51
0.0
  0
LINE
  5
15A
330
1E
100
AcDbEntity
  8
0
  6
CONTINUOUS
100
AcDbLine
 10
55.22978199999999
 20
331.8088069999999
 30
0.0
 11
157.203598
 21
331.8088069999999
 31
0.0
  0
LINE
  5
15B
330
1E
100
AcDbEntity
  8
0
  6
CONTINUOUS
100
AcDbLine
 10
55.22978199999999
 20
325.006012
 30
0.0
 11
157.203598
 21
325.006012
 31
0.0
  0
LINE
  5
15C
330
1E
100
AcDbEntity
  8
0
  6
CONTINUOUS
100
AcDbLine
 10
54.22978199999999
 20
320.963379
 30
0.0
 11
158.203583
 21
320.963379
 31
0.0
  0
LINE
  5
15D
330
1E
100
AcDbEntity
  8
0
  6
CONTINUOUS
100
AcDbLine
 10
54.22978199999999
 20
318.0576479999999
 30
0.0
 11
121.204155
 21
318.0576479999999
 31
0.0
  0
LINE
  5
15E
330
1E
100
AcDbEntity
  8
0
  6
CONTINUOUS
100
AcDbLine
 10
54.22978199999999
 20
312.8591
 30
0.0
 11
100.7521589999999
 21
312.8591
 31
0.0
  0
LINE
  5
15F
330
1E
100
AcDbEntity
  8
0
  6
CONTINUOUS
100
AcDbLine
 10
120.2041699999999
 20
312.8591
 30
0.0
 11
100.7521589999999
 21
312.8590089999999
 31
0.0
  0
ARC
  5
160
330
1E
100
AcDbEntity
  8
0
  6
CONTINUOUS
100
AcDbCircle
 10
121.704155
 20
311.8582149999999
 30
0.0
 40
0.5
100
AcDbArc
 50
180.0
 51
270.0
  0
LINE
  5
169
330
1E
100
AcDbEntity
  8
0
  6
CONTINUOUS
100
AcDbLine
 10
48.292183
 20
298.4364009999999
 30
0.0
 11
47.229782
 21
258.3582149999999
 31
0.0
  0
LINE
  5
16A
330
1E
100
AcDbEntity
  8
0
  6
CONTINUOUS
100
AcDbLine
 10
116.166779
 20
298.4364009999999
 30
0.0
 11
117.229782
 21
258.3582149999999
 31
0.0
  0
LINE
  5
16B
330
1E
100
AcDbEntity
  8
0
  6
CONTINUOUS
100
AcDbLine
 10
58.20398299999999
 20
311.3582149999999
 30
0.0
 11
70.729782
 21
311.3582149999999
 31
0.0
  0
LINE
  5
16C
330
1E
100
AcDbEntity
  8
0
  6
CONTINUOUS
100
AcDbLine
 10
106.255585
 20
311.3582149999999
 30
0.0
 11
70.729782
 21
311.3582149999999
 31
0.0
  0
LINE
  5
16D
330
1E
100
AcDbEntity
  8
0
  6
CONTINUOUS
100
AcDbLine
 10
113.180984
 20
301.3582149999999
 30
0.0
 11
95.540985
 21
301.3582149999999
 31
0.0
  0
ARC
  5
16E
330
1E
100
AcDbEntity
  8
0
  6
CONTINUOUS
100
AcDbCircle
 10
51.277782
 20
298.3582149999999
 30
0.0
 40
3.0
100
AcDbArc
 50
90.0
 51
178.5002749999999
  0
ARC
  5
16F
330
1E
100
AcDbEntity
  8
0
  6
CONTINUOUS
100
AcDbCircle
 10
113.180984
 20
298.3582149999999
 30
0.0
 40
3.0
100
AcDbArc
 50
1.4999
 51
90.0
  0
LINE
  5
170
330
1E
100
AcDbEntity
  8
0
  6
CONTINUOUS
100
AcDbLine
 10
57.204224
 20
310.384399
 30
0.0
 11
57.018875
 21
303.305847
 31
0.0
  0
LINE
  5
171
330
1E
100
AcDbEntity
  8
0
  6
CONTINUOUS
100
AcDbLine
 10
107.2548899999999
 20
310.384369
 30
0.0
 11
107.4406659999999
 21
303.305725
 31
0.0
  0
ARC
  5
172
330
1E
100
AcDbEntity
  8
0
  6
CONTINUOUS
100
AcDbCircle
 10
106.255585
 20
310.3582149999999
 30
0.0
 40
1.0
100
AcDbArc
 50
1.4993
 51
90.0
  0
ARC
  5
173
330
1E
100
AcDbEntity
  8
0
  6
CONTINUOUS
100
AcDbCircle
 10
58.20398299999999
 20
310.3582149999999
 30
0.0
 40
1.0
100
AcDbArc
 50
90.0
 51
178.4994049999999
  0
LINE
  5
174
330
1E
100
AcDbEntity
  8
0
  6
CONTINUOUS
100
AcDbLine
 10
51.27798099999999
 20
301.3582149999999
 30
0.0
 11
68.91857900000001
 21
301.3582149999999
 31
0.0
  0
ARC
  5
175
330
1E
100
AcDbEntity
  8
0
  6
CONTINUOUS
100
AcDbCircle
 10
82.229782
 20
368.8582149999999
 30
0.0
 40
68.800003
100
AcDbArc
 50
258.8442
 51
281.1558
  0
LINE
  5
176
330
1E
100
AcDbEntity
  8
0
  6
CONTINUOUS
100
AcDbLine
 10
49.729782
 20
252.3582
 30
0.0
 11
114.729782
 21
252.3582
 31
0.0
  0
LINE
  5
177
330
1E
100
AcDbEntity
  8
0
  6
CONTINUOUS
100
AcDbLine
 10
117.229782
 20
254.8582
 30
0.0
 11
117.229782
 21
257.3582149999999
 31
0.0
  0
LINE
  5
178
330
1E
100
AcDbEntity
  8
0
  6
CONTINUOUS
100
AcDbLine
 10
47.229782
 20
254.8582
 30
0.0
 11
47.229782
 21
257.3582149999999
 31
0.0
  0
LINE
  5
179
330
1E
100
AcDbEntity
  8
0
  6
CONTINUOUS
100
AcDbLine
 10
117.229782
 20
257.3582149999999
 30
0.0
 11
47.229782
 21
257.3582149999999
 31
0.0
  0
LINE
  5
17A
330
1E
100
AcDbEntity
  8
0
  6
CONTINUOUS
100
AcDbLine
 10
117.229782
 20
258.3582149999999
 30
0.0
 11
47.229782
 21
258.3582149999999
 31
0.0
  0
LINE
  5
17B
330
1E
100
AcDbEntity
  8
0
  6
CONTINUOUS
100
AcDbLine
 10
117.229782
 20
257.3582149999999
 30
0.0
 11
117.229782
 21
258.3582149999999
 31
0.0
  0
LINE
  5
17C
330
1E
100
AcDbEntity
  8
0
  6
CONTINUOUS
100
AcDbLine
 10
47.229782
 20
257.3582149999999
 30
0.0
 11
47.229782
 21
258.3582149999999
 31
0.0
  0
LINE
  5
17D
330
1E
100
AcDbEntity
  8
0
  6
CONTINUOUS
100
AcDbLine
 10
108.71698
 20
255.3582
 30
0.0
 11
116.229782
 21
255.3582
 31
0.0
  0
LINE
  5
17E
330
1E
100
AcDbEntity
  8
0
  6
CONTINUOUS
100
AcDbLine
 10
55.74278299999999
 20
255.3582
 30
0.0
 11
48.229782
 21
255.3582
 31
0.0
  0
LINE
  5
17F
330
1E
100
AcDbEntity
  8
0
  6
CONTINUOUS
100
AcDbLine
 10
108.21698
 20
254.871414
 30
0.0
 11
108.176781
 21
253.332001
 31
0.0
  0
ARC
  5
180
330
1E
100
AcDbEntity
  8
0
  6
CONTINUOUS
100
AcDbCircle
 10
108.71698
 20
254.8582
 30
0.0
 40
0.5
100
AcDbArc
 50
90.0
 51
178.5
  0
ARC
  5
181
330
1E
100
AcDbEntity
  8
0
  6
CONTINUOUS
100
AcDbCircle
 10
107.177185
 20
253.3582
 30
0.0
 40
1.0
100
AcDbArc
 50
270.0
 51
358.5002
  0
ARC
  5
182
330
1E
100
AcDbEntity
  8
0
  6
CONTINUOUS
100
AcDbCircle
 10
116.229782
 20
256.3582149999999
 30
0.0
 40
1.0
100
AcDbArc
 50
270.0
 51
0.0
  0
ARC
  5
183
330
1E
100
AcDbEntity
  8
0
  6
CONTINUOUS
100
AcDbCircle
 10
114.729782
 20
254.8582
 30
0.0
 40
2.5
100
AcDbArc
 50
270.0
 51
0.0
  0
LINE
  5
184
330
1E
100
AcDbEntity
  8
0
  6
CONTINUOUS
100
AcDbLine
 10
56.24258000000001
 20
254.871414
 30
0.0
 11
56.282784
 21
253.332001
 31
0.0
  0
ARC
  5
185
330
1E
100
AcDbEntity
  8
0
  6
CONTINUOUS
100
AcDbCircle
 10
57.28258100000001
 20
253.3582
 30
0.0
 40
1.0
100
AcDbArc
 50
181.500397
 51
270.0
  0
ARC
  5
186
330
1E
100
AcDbEntity
  8
0
  6
CONTINUOUS
100
AcDbCircle
 10
55.74278299999999
 20
254.8582
 30
0.0
 40
0.5
100
AcDbArc
 50
1.500199999999999
 51
90.0
  0
ARC
  5
187
330
1E
100
AcDbEntity
  8
0
  6
CONTINUOUS
100
AcDbCircle
 10
48.229782
 20
256.3582149999999
 30
0.0
 40
1.0
100
AcDbArc
 50
180.0
 51
270.0
  0
ARC
  5
188
330
1E
100
AcDbEntity
  8
0
  6
CONTINUOUS
100
AcDbCircle
 10
49.729782
 20
254.8582
 30
0.0
 40
2.5
100
AcDbArc
 50
180.0
 51
270.0
  0
ARC
  5
189
330
1E
100
AcDbEntity
  8
0
  6
CONTINUOUS
100
AcDbCircle
 10
112.229782
 20
255.3582
 30
0.0
 40
3.0
100
AcDbArc
 50
180.0
 51
0.0
  0
LINE
  5
18A
330
1E
100
AcDbEntity
  8
0
  6
CONTINUOUS
100
AcDbLine
 10
115.187782
 20
254.8582
 30
0.0
 11
109.271782
 21
254.8582
 31
0.0
  0
LINE
  5
18B
330
1E
100
AcDbEntity
  8
0
  6
CONTINUOUS
100
AcDbLine
 10
112.229782
 20
252.8582
 30
0.0
 11
111.948784
 21
252.371414
 31
0.0
  0
LINE
  5
18C
330
1E
100
AcDbEntity
  8
0
  6
CONTINUOUS
100
AcDbLine
 10
112.229782
 20
252.8582
 30
0.0
 11
112.5109789999999
 21
252.371414
 31
0.0
  0
ARC
  5
18D
330
1E
100
AcDbEntity
  8
0
  6
CONTINUOUS
100
AcDbCircle
 10
52.229782
 20
255.3582
 30
0.0
 40
3.0
100
AcDbArc
 50
180.0
 51
0.0
  0
LINE
  5
18E
330
1E
100
AcDbEntity
  8
0
  6
CONTINUOUS
100
AcDbLine
 10
55.18778199999999
 20
254.8582
 30
0.0
 11
49.271782
 21
254.8582
 31
0.0
  0
LINE
  5
18F
330
1E
100
AcDbEntity
  8
0
  6
CONTINUOUS
100
AcDbLine
 10
52.229782
 20
252.8582
 30
0.0
 11
51.948784
 21
252.371414
 31
0.0
  0
LINE
  5
190
330
1E
100
AcDbEntity
  8
0
  6
CONTINUOUS
100
AcDbLine
 10
52.229782
 20
252.8582
 30
0.0
 11
52.51098299999999
 21
252.371414
 31
0.0
  0
LINE
  5
191
330
1E
100
AcDbEntity
  8
0
  6
CONTINUOUS
100
AcDbLine
 10
105.2297819999999
 20
311.3582149999999
 30
0.0
 11
105.2297819999999
 21
312.8582149999999
 31
0.0
  0
LINE
  5
192
330
1E
100
AcDbEntity
  8
0
  6
CONTINUOUS
100
AcDbLine
 10
59.22978199999999
 20
311.3582149999999
 30
0.0
 11
59.22978199999999
 21
312.8582149999999
 31
0.0
  0
LINE
  5
193
330
1E
100
AcDbEntity
  8
0
  6
CONTINUOUS
100
AcDbLine
 10
19.229782
 20
288.858398
 30
0.0
 11
19.229782
 21
259.8582149999999
 31
0.0
  0
LINE
  5
194
330
1E
100
AcDbEntity
  8
0
  6
CONTINUOUS
100
AcDbLine
 10
27.229782
 20
288.858398
 30
0.0
 11
27.229782
 21
259.8582149999999
 31
0.0
  0
LINE
  5
195
330
1E
100
AcDbEntity
  8
0
  6
CONTINUOUS
100
AcDbLine
 10
19.229782
 20
288.858398
 30
0.0
 11
27.229782
 21
288.858398
 31
0.0
  0
LINE
  5
196
330
1E
100
AcDbEntity
  8
0
  6
CONTINUOUS
100
AcDbLine
 10
19.229782
 20
259.8582149999999
 30
0.0
 11
27.229782
 21
259.8582149999999
 31
0.0
  0
LINE
  5
197
330
1E
100
AcDbEntity
  8
0
  6
CONTINUOUS
100
AcDbLine
 10
36.229782
 20
287.358398
 30
0.0
 11
36.229782
 21
261.3582149999999
 31
0.0
  0
LINE
  5
198
330
1E
100
AcDbEntity
  8
0
  6
CONTINUOUS
100
AcDbLine
 10
27.229782
 20
287.358398
 30
0.0
 11
36.229782
 21
287.358398
 31
0.0
  0
LINE
  5
199
330
1E
100
AcDbEntity
  8
0
  6
CONTINUOUS
100
AcDbLine
 10
27.229782
 20
261.3582149999999
 30
0.0
 11
36.229782
 21
261.3582149999999
 31
0.0
  0
LINE
  5
19A
330
1E
100
AcDbEntity
  8
0
  6
CONTINUOUS
100
AcDbLine
 10
36.229782
 20
285.858398
 30
0.0
 11
41.229782
 21
285.858398
 31
0.0
  0
LINE
  5
19B
330
1E
100
AcDbEntity
  8
0
  6
CONTINUOUS
100
AcDbLine
 10
36.229782
 20
262.8582149999999
 30
0.0
 11
41.229782
 21
262.8582149999999
 31
0.0
  0
LINE
  5
19C
330
1E
100
AcDbEntity
  8
0
  6
CONTINUOUS
100
AcDbLine
 10
41.229782
 20
287.858398
 30
0.0
 11
41.229782
 21
260.8582149999999
 31
0.0
  0
LINE
  5
19D
330
1E
100
AcDbEntity
  8
0
  6
CONTINUOUS
100
AcDbLine
 10
45.729782
 20
288.858398
 30
0.0
 11
45.729782
 21
259.8582149999999
 31
0.0
  0
LINE
  5
19E
330
1E
100
AcDbEntity
  8
0
  6
CONTINUOUS
100
AcDbLine
 10
41.229782
 20
287.858398
 30
0.0
 11
45.729782
 21
287.858398
 31
0.0
  0
LINE
  5
19F
330
1E
100
AcDbEntity
  8
0
  6
CONTINUOUS
100
AcDbLine
 10
41.229782
 20
260.8582149999999
 30
0.0
 11
45.729782
 21
260.8582149999999
 31
0.0
  0
LINE
  5
1A0
330
1E
100
AcDbEntity
  8
0
  6
CONTINUOUS
100
AcDbLine
 10
45.729782
 20
288.858398
 30
0.0
 11
48.038383
 21
288.858398
 31
0.0
  0
LINE
  5
1A1
330
1E
100
AcDbEntity
  8
0
  6
CONTINUOUS
100
AcDbLine
 10
45.729782
 20
259.8582149999999
 30
0.0
 11
47.269581
 21
259.8582149999999
 31
0.0
  0
LINE
  5
1A2
330
1E
100
AcDbEntity
  8
0
  6
CONTINUOUS
100
AcDbLine
 10
19.229782
 20
282.358398
 30
0.0
 11
27.229782
 21
282.358398
 31
0.0
  0
LINE
  5
1A3
330
1E
100
AcDbEntity
  8
0
  6
CONTINUOUS
100
AcDbLine
 10
19.229782
 20
266.3582149999999
 30
0.0
 11
27.229782
 21
266.3582149999999
 31
0.0
  0
LINE
  5
1A4
330
1E
100
AcDbEntity
  8
0
  6
CONTINUOUS
100
AcDbLine
 10
36.229782
 20
284.358398
 30
0.0
 11
41.229782
 21
284.358398
 31
0.0
  0
LINE
  5
1A5
330
1E
100
AcDbEntity
  8
0
  6
CONTINUOUS
100
AcDbLine
 10
36.229782
 20
264.3582149999999
 30
0.0
 11
41.229782
 21
264.3582149999999
 31
0.0
  0
ARC
  5
1A6
330
1E
100
AcDbEntity
  8
0
  6
CONTINUOUS
100
AcDbCircle
 10
109.43998
 20
303.3582149999999
 30
0.0
 40
2.0
100
AcDbArc
 50
181.5033719999999
 51
270.0
  0
ARC
  5
1A7
330
1E
100
AcDbEntity
  8
0
  6
CONTINUOUS
100
AcDbCircle
 10
55.019562
 20
303.3582149999999
 30
0.0
 40
2.0
100
AcDbArc
 50
270.0
 51
358.500092
  0
ARC
  5
1A8
330
1E
100
AcDbEntity
  8
0
  6
CONTINUOUS
100
AcDbCircle
 10
453.729858
 20
78.458084
 30
0.0
 40
450.0
100
AcDbArc
 50
173.2476039999999
 51
186.752502
  0
LINE
  5
1A9
330
1E
100
AcDbEntity
  8
0
  6
CONTINUOUS
100
AcDbLine
 10
18.768089
 20
141.958084
 30
0.0
 11
22.46604899999999
 21
141.958084
 31
0.0
  0
LINE
  5
1AA
330
1E
100
AcDbEntity
  8
0
  6
CONTINUOUS
100
AcDbLine
 10
18.76814699999999
 20
14.958082
 30
0.0
 11
22.46604899999999
 21
14.958082
 31
0.0
  0
LINE
  5
1AB
330
1E
100
AcDbEntity
  8
0
  6
CONTINUOUS
100
AcDbLine
 10
23.489546
 20
145.958084
 30
0.0
 11
54.229843
 21
145.958084
 31
0.0
  0
LINE
  5
1AC
330
1E
100
AcDbEntity
  8
0
  6
CONTINUOUS
100
AcDbLine
 10
54.229843
 20
145.958084
 30
0.0
 11
54.229843
 21
113.458076
 31
0.0
  0
ARC
  5
1AD
330
1E
100
AcDbEntity
  8
0
  6
CONTINUOUS
100
AcDbCircle
 10
18.768114
 20
129.958084
 30
0.0
 40
12.0
100
AcDbArc
 50
90.0
 51
173.247894
  0
ARC
  5
1AE
330
1E
100
AcDbEntity
  8
0
  6
CONTINUOUS
100
AcDbCircle
 10
23.489548
 20
144.458084
 30
0.0
 40
1.5
100
AcDbArc
 50
90.0
 51
191.662598
  0
ARC
  5
1AF
330
1E
100
AcDbEntity
  8
0
  6
CONTINUOUS
100
AcDbCircle
 10
18.768082
 20
26.958082
 30
0.0
 40
12.0
100
AcDbArc
 50
186.752396
 51
270.0
  0
LINE
  5
1B0
330
1E
100
AcDbEntity
  8
0
  6
CONTINUOUS
100
AcDbLine
 10
54.229843
 20
135.958084
 30
0.0
 11
166.2298429999999
 21
135.958084
 31
0.0
  0
LINE
  5
1B1
330
1E
100
AcDbEntity
  8
0
  6
CONTINUOUS
100
AcDbLine
 10
158.2298429999999
 20
129.7440799999999
 30
0.0
 11
158.2298429999999
 21
125.458084
 31
0.0
  0
LINE
  5
1B2
330
1E
100
AcDbEntity
  8
0
  6
CONTINUOUS
100
AcDbLine
 10
119.2298429999999
 20
105.458084
 30
0.0
 11
117.2298429999999
 21
105.458084
 31
0.0
  0
LINE
  5
1B3
330
1E
100
AcDbEntity
  8
0
  6
CONTINUOUS
100
AcDbLine
 10
119.2298429999999
 20
51.45807999999999
 30
0.0
 11
117.2298429999999
 21
51.45807999999999
 31
0.0
  0
LINE
  5
1B4
330
1E
100
AcDbEntity
  8
0
  6
CONTINUOUS
100
AcDbLine
 10
121.2298429999999
 20
53.45808
 30
0.0
 11
121.2298429999999
 21
103.458084
 31
0.0
  0
LINE
  5
1B5
330
1E
100
AcDbEntity
  8
0
  6
CONTINUOUS
100
AcDbLine
 10
54.229843
 20
116.458084
 30
0.0
 11
158.2298429999999
 21
116.458084
 31
0.0
  0
LINE
  5
1B6
330
1E
100
AcDbEntity
  8
0
  6
CONTINUOUS
100
AcDbLine
 10
54.229843
 20
118.458084
 30
0.0
 11
158.2298429999999
 21
118.458084
 31
0.0
  0
LINE
  5
1B7
330
1E
100
AcDbEntity
  8
0
  6
CONTINUOUS
100
AcDbLine
 10
54.229843
 20
123.458084
 30
0.0
 11
158.2298429999999
 21
123.458084
 31
0.0
  0
LINE
  5
1B8
330
1E
100
AcDbEntity
  8
0
  6
CONTINUOUS
100
AcDbLine
 10
54.229843
 20
125.458084
 30
0.0
 11
158.2298429999999
 21
125.458084
 31
0.0
  0
LINE
  5
1B9
330
1E
100
AcDbEntity
  8
0
  6
CONTINUOUS
100
AcDbLine
 10
54.229843
 20
129.7440799999999
 30
0.0
 11
158.2298429999999
 21
129.7440799999999
 31
0.0
  0
LINE
  5
1BA
330
1E
100
AcDbEntity
  8
0
  6
CONTINUOUS
100
AcDbLine
 10
158.2298429999999
 20
27.172083
 30
0.0
 11
158.2298429999999
 21
31.458082
 31
0.0
  0
LINE
  5
1BB
330
1E
100
AcDbEntity
  8
0
  6
CONTINUOUS
100
AcDbLine
 10
158.2298429999999
 20
33.45807999999999
 30
0.0
 11
158.2298429999999
 21
38.45807999999999
 31
0.0
  0
LINE
  5
1BC
330
1E
100
AcDbEntity
  8
0
  6
CONTINUOUS
100
AcDbLine
 10
158.2298429999999
 20
40.45808
 30
0.0
 11
158.2298429999999
 21
45.95807999999999
 31
0.0
  0
LINE
  5
1BD
330
1E
100
AcDbEntity
  8
0
  6
CONTINUOUS
100
AcDbLine
 10
158.2298429999999
 20
47.95808
 30
0.0
 11
158.2298429999999
 21
54.058083
 31
0.0
  0
LINE
  5
1BE
330
1E
100
AcDbEntity
  8
0
  6
CONTINUOUS
100
AcDbLine
 10
158.2298429999999
 20
56.05808299999999
 30
0.0
 11
158.2298429999999
 21
61.85807
 31
0.0
  0
LINE
  5
1BF
330
1E
100
AcDbEntity
  8
0
  6
CONTINUOUS
100
AcDbLine
 10
158.2298429999999
 20
63.858074
 30
0.0
 11
158.2298429999999
 21
69.658089
 31
0.0
  0
LINE
  5
1C0
330
1E
100
AcDbEntity
  8
0
  6
CONTINUOUS
100
AcDbLine
 10
158.2298429999999
 20
71.658089
 30
0.0
 11
158.2298429999999
 21
77.458084
 31
0.0
  0
LINE
  5
1C1
330
1E
100
AcDbEntity
  8
0
  6
CONTINUOUS
100
AcDbLine
 10
158.2298429999999
 20
79.458084
 30
0.0
 11
158.2298429999999
 21
85.258087
 31
0.0
  0
LINE
  5
1C2
330
1E
100
AcDbEntity
  8
0
  6
CONTINUOUS
100
AcDbLine
 10
158.2298429999999
 20
87.25808
 30
0.0
 11
158.2298429999999
 21
93.058083
 31
0.0
  0
LINE
  5
1C3
330
1E
100
AcDbEntity
  8
0
  6
CONTINUOUS
100
AcDbLine
 10
158.2298429999999
 20
95.05808299999999
 30
0.0
 11
158.2298429999999
 21
100.8580859999999
 31
0.0
  0
LINE
  5
1C4
330
1E
100
AcDbEntity
  8
0
  6
CONTINUOUS
100
AcDbLine
 10
158.2298429999999
 20
102.8580859999999
 30
0.0
 11
158.2298429999999
 21
108.958084
 31
0.0
  0
LINE
  5
1C5
330
1E
100
AcDbEntity
  8
0
  6
CONTINUOUS
100
AcDbLine
 10
158.2298429999999
 20
110.958084
 30
0.0
 11
158.2298429999999
 21
116.458084
 31
0.0
  0
LINE
  5
1C6
330
1E
100
AcDbEntity
  8
0
  6
CONTINUOUS
100
AcDbLine
 10
158.2298429999999
 20
118.458084
 30
0.0
 11
158.2298429999999
 21
123.458084
 31
0.0
  0
ARC
  5
1C7
330
1E
100
AcDbEntity
  8
0
  6
CONTINUOUS
100
AcDbCircle
 10
119.2298429999999
 20
103.458084
 30
0.0
 40
2.0
100
AcDbArc
 50
0.0
 51
90.0
  0
ARC
  5
1C8
330
1E
100
AcDbEntity
  8
0
  6
CONTINUOUS
100
AcDbCircle
 10
119.2298429999999
 20
53.45808
 30
0.0
 40
2.0
100
AcDbArc
 50
270.0
 51
0.0
  0
LINE
  5
1C9
330
1E
100
AcDbEntity
  8
0
  6
CONTINUOUS
100
AcDbLine
 10
158.2298429999999
 20
47.95808
 30
0.0
 11
117.2298429999999
 21
47.95808
 31
0.0
  0
LINE
  5
1CA
330
1E
100
AcDbEntity
  8
0
  6
CONTINUOUS
100
AcDbLine
 10
158.2298429999999
 20
45.95807999999999
 30
0.0
 11
117.2298429999999
 21
45.95813399999999
 31
0.0
  0
LINE
  5
1CB
330
1E
100
AcDbEntity
  8
0
  6
CONTINUOUS
100
AcDbLine
 10
158.2298429999999
 20
40.45808
 30
0.0
 11
68.72989699999999
 21
40.45808
 31
0.0
  0
LINE
  5
1CC
330
1E
100
AcDbEntity
  8
0
  6
CONTINUOUS
100
AcDbLine
 10
158.2298429999999
 20
38.45807999999999
 30
0.0
 11
95.72999600000001
 21
38.45807999999999
 31
0.0
  0
LINE
  5
1CD
330
1E
100
AcDbEntity
  8
0
  6
CONTINUOUS
100
AcDbLine
 10
158.2298429999999
 20
33.45807999999999
 30
0.0
 11
70.72989699999999
 21
33.45807999999999
 31
0.0
  0
LINE
  5
1CE
330
1E
100
AcDbEntity
  8
0
  6
CONTINUOUS
100
AcDbLine
 10
158.2298429999999
 20
31.458082
 30
0.0
 11
95.229996
 21
31.458082
 31
0.0
  0
LINE
  5
1CF
330
1E
100
AcDbEntity
  8
0
  6
CONTINUOUS
100
AcDbLine
 10
158.2298429999999
 20
27.172083
 30
0.0
 11
69.22989699999999
 21
27.172083
 31
0.0
  0
LINE
  5
1D0
330
1E
100
AcDbEntity
  8
0
  6
CONTINUOUS
100
AcDbLine
 10
166.2298429999999
 20
20.958082
 30
0.0
 11
96.729996
 21
20.958082
 31
0.0
  0
LINE
  5
1D1
330
1E
100
AcDbEntity
  8
0
  6
CONTINUOUS
100
AcDbLine
 10
117.2298429999999
 20
110.958069
 30
0.0
 11
117.2298429999999
 21
45.95813399999999
 31
0.0
  0
LINE
  5
1D2
330
1E
100
AcDbEntity
  8
0
  6
CONTINUOUS
100
AcDbLine
 10
47.229843
 20
45.958031
 30
0.0
 11
47.229843
 21
110.958084
 31
0.0
  0
LINE
  5
1D3
330
1E
100
AcDbEntity
  8
0
  6
CONTINUOUS
100
AcDbLine
 10
49.729843
 20
113.458084
 30
0.0
 11
114.7298429999999
 21
113.458084
 31
0.0
  0
LINE
  5
1D4
330
1E
100
AcDbEntity
  8
0
  6
CONTINUOUS
100
AcDbLine
 10
49.729836
 20
43.458031
 30
0.0
 11
114.7298429999999
 21
43.458031
 31
0.0
  0
ARC
  5
1D5
330
1E
100
AcDbEntity
  8
0
  6
CONTINUOUS
100
AcDbCircle
 10
114.7298429999999
 20
45.958031
 30
0.0
 40
2.5
100
AcDbArc
 50
270.0
 51
0.0
  0
ARC
  5
1D6
330
1E
100
AcDbEntity
  8
0
  6
CONTINUOUS
100
AcDbCircle
 10
114.7298429999999
 20
110.958054
 30
0.0
 40
2.5
100
AcDbArc
 50
0.0
 51
90.0
  0
ARC
  5
1D7
330
1E
100
AcDbEntity
  8
0
  6
CONTINUOUS
100
AcDbCircle
 10
49.729843
 20
110.958069
 30
0.0
 40
2.5
100
AcDbArc
 50
90.0
 51
180.0
  0
ARC
  5
1D8
330
1E
100
AcDbEntity
  8
0
  6
CONTINUOUS
100
AcDbCircle
 10
49.729836
 20
45.958031
 30
0.0
 40
2.5
100
AcDbArc
 50
180.0
 51
270.0
  0
ARC
  5
1D9
330
1E
100
AcDbEntity
  8
0
  6
CONTINUOUS
100
AcDbCircle
 10
112.2298429999999
 20
108.4580689999999
 30
0.0
 40
4.0
100
AcDbArc
 50
180.0
 51
270.0
  0
ARC
  5
1DA
330
1E
100
AcDbEntity
  8
0
  6
CONTINUOUS
100
AcDbCircle
 10
112.2298429999999
 20
48.458031
 30
0.0
 40
4.0
100
AcDbArc
 50
90.0
 51
180.0
  0
ARC
  5
1DB
330
1E
100
AcDbEntity
  8
0
  6
CONTINUOUS
100
AcDbCircle
 10
52.229843
 20
48.458031
 30
0.0
 40
4.0
100
AcDbArc
 50
0.0
 51
90.0
  0
ARC
  5
1DC
330
1E
100
AcDbEntity
  8
0
  6
CONTINUOUS
100
AcDbCircle
 10
52.229843
 20
108.4580689999999
 30
0.0
 40
4.0
100
AcDbArc
 50
270.0
 51
0.0
  0
LINE
  5
1DD
330
1E
100
AcDbEntity
  8
0
  6
CONTINUOUS
100
AcDbLine
 10
108.2298429999999
 20
48.458031
 30
0.0
 11
108.2298429999999
 21
45.958031
 31
0.0
  0
LINE
  5
1DE
330
1E
100
AcDbEntity
  8
0
  6
CONTINUOUS
100
AcDbLine
 10
108.2298429999999
 20
108.458084
 30
0.0
 11
108.2298429999999
 21
110.958084
 31
0.0
  0
LINE
  5
1DF
330
1E
100
AcDbEntity
  8
0
  6
CONTINUOUS
100
AcDbLine
 10
56.229843
 20
108.458084
 30
0.0
 11
56.229843
 21
110.958054
 31
0.0
  0
LINE
  5
1E0
330
1E
100
AcDbEntity
  8
0
  6
CONTINUOUS
100
AcDbLine
 10
56.229843
 20
48.458031
 30
0.0
 11
56.229843
 21
45.958031
 31
0.0
  0
LINE
  5
1E1
330
1E
100
AcDbEntity
  8
0
  6
CONTINUOUS
100
AcDbLine
 10
112.2298429999999
 20
52.458031
 30
0.0
 11
114.7298429999999
 21
52.458031
 31
0.0
  0
LINE
  5
1E2
330
1E
100
AcDbEntity
  8
0
  6
CONTINUOUS
100
AcDbLine
 10
112.2298429999999
 20
104.4580689999999
 30
0.0
 11
114.7298429999999
 21
104.4580689999999
 31
0.0
  0
LINE
  5
1E3
330
1E
100
AcDbEntity
  8
0
  6
CONTINUOUS
100
AcDbLine
 10
52.229843
 20
104.4580689999999
 30
0.0
 11
49.729836
 21
104.4580689999999
 31
0.0
  0
LINE
  5
1E4
330
1E
100
AcDbEntity
  8
0
  6
CONTINUOUS
100
AcDbLine
 10
52.229824
 20
52.458031
 30
0.0
 11
49.729836
 21
52.458031
 31
0.0
  0
ARC
  5
1E5
330
1E
100
AcDbEntity
  8
0
  6
CONTINUOUS
100
AcDbCircle
 10
105.7298429999999
 20
110.958069
 30
0.0
 40
2.5
100
AcDbArc
 50
0.0
 51
90.0
  0
ARC
  5
1E6
330
1E
100
AcDbEntity
  8
0
  6
CONTINUOUS
100
AcDbCircle
 10
114.7298429999999
 20
101.9580539999999
 30
0.0
 40
2.5
100
AcDbArc
 50
0.0
 51
90.0
  0
ARC
  5
1E7
330
1E
100
AcDbEntity
  8
0
  6
CONTINUOUS
100
AcDbCircle
 10
114.7298429999999
 20
54.958031
 30
0.0
 40
2.5
100
AcDbArc
 50
270.0
 51
0.0
  0
ARC
  5
1E8
330
1E
100
AcDbEntity
  8
0
  6
CONTINUOUS
100
AcDbCircle
 10
105.7298429999999
 20
45.958031
 30
0.0
 40
2.5
100
AcDbArc
 50
270.0
 51
0.0
  0
ARC
  5
1E9
330
1E
100
AcDbEntity
  8
0
  6
CONTINUOUS
100
AcDbCircle
 10
58.729843
 20
110.958069
 30
0.0
 40
2.5
100
AcDbArc
 50
90.0
 51
180.0
  0
ARC
  5
1EA
330
1E
100
AcDbEntity
  8
0
  6
CONTINUOUS
100
AcDbCircle
 10
49.729843
 20
101.9580689999999
 30
0.0
 40
2.5
100
AcDbArc
 50
90.0
 51
180.0
  0
ARC
  5
1EB
330
1E
100
AcDbEntity
  8
0
  6
CONTINUOUS
100
AcDbCircle
 10
58.729836
 20
45.958031
 30
0.0
 40
2.5
100
AcDbArc
 50
180.0
 51
270.0
  0
ARC
  5
1EC
330
1E
100
AcDbEntity
  8
0
  6
CONTINUOUS
100
AcDbCircle
 10
49.729836
 20
54.958031
 30
0.0
 40
2.5
100
AcDbArc
 50
180.0
 51
270.0
  0
LINE
  5
1ED
330
1E
100
AcDbEntity
  8
0
  6
CONTINUOUS
100
AcDbLine
 10
19.229895
 20
63.95793199999999
 30
0.0
 11
19.229895
 21
92.958031
 31
0.0
  0
LINE
  5
1EE
330
1E
100
AcDbEntity
  8
0
  6
CONTINUOUS
100
AcDbLine
 10
27.229895
 20
63.95793199999999
 30
0.0
 11
27.229895
 21
92.958031
 31
0.0
  0
LINE
  5
1EF
330
1E
100
AcDbEntity
  8
0
  6
CONTINUOUS
100
AcDbLine
 10
19.229895
 20
63.95793199999999
 30
0.0
 11
27.229895
 21
63.95793199999999
 31
0.0
  0
LINE
  5
1F0
330
1E
100
AcDbEntity
  8
0
  6
CONTINUOUS
100
AcDbLine
 10
19.229895
 20
92.958031
 30
0.0
 11
27.229895
 21
92.958031
 31
0.0
  0
LINE
  5
1F1
330
1E
100
AcDbEntity
  8
0
  6
CONTINUOUS
100
AcDbLine
 10
36.22989299999999
 20
65.457932
 30
0.0
 11
36.22989299999999
 21
91.458031
 31
0.0
  0
LINE
  5
1F2
330
1E
100
AcDbEntity
  8
0
  6
CONTINUOUS
100
AcDbLine
 10
27.229895
 20
65.457932
 30
0.0
 11
36.22989299999999
 21
65.457932
 31
0.0
  0
LINE
  5
1F3
330
1E
100
AcDbEntity
  8
0
  6
CONTINUOUS
100
AcDbLine
 10
27.229895
 20
91.458031
 30
0.0
 11
36.22989299999999
 21
91.458031
 31
0.0
  0
LINE
  5
1F4
330
1E
100
AcDbEntity
  8
0
  6
CONTINUOUS
100
AcDbLine
 10
36.22989299999999
 20
66.957932
 30
0.0
 11
41.22989299999999
 21
66.957932
 31
0.0
  0
LINE
  5
1F5
330
1E
100
AcDbEntity
  8
0
  6
CONTINUOUS
100
AcDbLine
 10
36.22989299999999
 20
89.95803100000001
 30
0.0
 11
41.22989299999999
 21
89.95803100000001
 31
0.0
  0
LINE
  5
1F6
330
1E
100
AcDbEntity
  8
0
  6
CONTINUOUS
100
AcDbLine
 10
41.22989299999999
 20
64.957932
 30
0.0
 11
41.22989299999999
 21
91.958031
 31
0.0
  0
LINE
  5
1F7
330
1E
100
AcDbEntity
  8
0
  6
CONTINUOUS
100
AcDbLine
 10
45.72989299999999
 20
63.95793199999999
 30
0.0
 11
45.72989299999999
 21
92.958031
 31
0.0
  0
LINE
  5
1F8
330
1E
100
AcDbEntity
  8
0
  6
CONTINUOUS
100
AcDbLine
 10
41.22989299999999
 20
64.957932
 30
0.0
 11
45.72989299999999
 21
64.957932
 31
0.0
  0
LINE
  5
1F9
330
1E
100
AcDbEntity
  8
0
  6
CONTINUOUS
100
AcDbLine
 10
41.22989299999999
 20
91.958031
 30
0.0
 11
45.72989299999999
 21
91.958031
 31
0.0
  0
LINE
  5
1FA
330
1E
100
AcDbEntity
  8
0
  6
CONTINUOUS
100
AcDbLine
 10
45.72989299999999
 20
63.95793199999999
 30
0.0
 11
47.269196
 21
63.95793199999999
 31
0.0
  0
LINE
  5
1FB
330
1E
100
AcDbEntity
  8
0
  6
CONTINUOUS
100
AcDbLine
 10
45.72989299999999
 20
92.958031
 30
0.0
 11
47.229843
 21
92.958031
 31
0.0
  0
LINE
  5
1FC
330
1E
100
AcDbEntity
  8
0
  6
CONTINUOUS
100
AcDbLine
 10
19.229895
 20
70.457932
 30
0.0
 11
27.229895
 21
70.457932
 31
0.0
  0
LINE
  5
1FD
330
1E
100
AcDbEntity
  8
0
  6
CONTINUOUS
100
AcDbLine
 10
19.229895
 20
86.458031
 30
0.0
 11
27.229895
 21
86.458031
 31
0.0
  0
ARC
  5
1FE
330
1E
100
AcDbEntity
  8
0
  6
CONTINUOUS
100
AcDbCircle
 10
-296.2701419999999
 20
78.458084
 30
0.0
 40
325.0
100
AcDbArc
 50
348.552979
 51
357.70752
  0
LINE
  5
1FF
330
1E
100
AcDbEntity
  8
0
  6
CONTINUOUS
100
AcDbLine
 10
54.229843
 20
13.958082
 30
0.0
 11
22.265163
 21
13.958082
 31
0.0
  0
LINE
  5
200
330
1E
100
AcDbEntity
  8
0
  6
CONTINUOUS
100
AcDbLine
 10
117.2298429999999
 20
110.958069
 30
0.0
 11
158.2298429999999
 21
110.958084
 31
0.0
  0
LINE
  5
201
330
1E
100
AcDbEntity
  8
0
  6
CONTINUOUS
100
AcDbLine
 10
117.2298429999999
 20
108.958084
 30
0.0
 11
158.2298429999999
 21
108.958084
 31
0.0
  0
LINE
  5
202
330
1E
100
AcDbEntity
  8
0
  6
CONTINUOUS
100
AcDbLine
 10
121.2298429999999
 20
102.8580859999999
 30
0.0
 11
158.2298429999999
 21
102.8580859999999
 31
0.0
  0
LINE
  5
203
330
1E
100
AcDbEntity
  8
0
  6
CONTINUOUS
100
AcDbLine
 10
121.2298429999999
 20
100.8580859999999
 30
0.0
 11
158.2298429999999
 21
100.8580859999999
 31
0.0
  0
LINE
  5
204
330
1E
100
AcDbEntity
  8
0
  6
CONTINUOUS
100
AcDbLine
 10
121.2298429999999
 20
95.05808299999999
 30
0.0
 11
158.2298429999999
 21
95.05808299999999
 31
0.0
  0
LINE
  5
205
330
1E
100
AcDbEntity
  8
0
  6
CONTINUOUS
100
AcDbLine
 10
121.2298429999999
 20
93.058083
 30
0.0
 11
158.2298429999999
 21
93.058083
 31
0.0
  0
LINE
  5
206
330
1E
100
AcDbEntity
  8
0
  6
CONTINUOUS
100
AcDbLine
 10
121.2298429999999
 20
87.25808
 30
0.0
 11
158.2298429999999
 21
87.25808
 31
0.0
  0
LINE
  5
207
330
1E
100
AcDbEntity
  8
0
  6
CONTINUOUS
100
AcDbLine
 10
121.2298429999999
 20
85.25808000000001
 30
0.0
 11
158.2298429999999
 21
85.25808000000001
 31
0.0
  0
LINE
  5
208
330
1E
100
AcDbEntity
  8
0
  6
CONTINUOUS
100
AcDbLine
 10
121.2298429999999
 20
79.458084
 30
0.0
 11
158.2298429999999
 21
79.458084
 31
0.0
  0
LINE
  5
209
330
1E
100
AcDbEntity
  8
0
  6
CONTINUOUS
100
AcDbLine
 10
121.2298429999999
 20
77.458084
 30
0.0
 11
158.2298429999999
 21
77.458084
 31
0.0
  0
LINE
  5
20A
330
1E
100
AcDbEntity
  8
0
  6
CONTINUOUS
100
AcDbLine
 10
121.2298429999999
 20
71.65808100000001
 30
0.0
 11
158.2298429999999
 21
71.65808100000001
 31
0.0
  0
LINE
  5
20B
330
1E
100
AcDbEntity
  8
0
  6
CONTINUOUS
100
AcDbLine
 10
121.2298429999999
 20
69.65808100000001
 30
0.0
 11
158.2298429999999
 21
69.65808100000001
 31
0.0
  0
LINE
  5
20C
330
1E
100
AcDbEntity
  8
0
  6
CONTINUOUS
100
AcDbLine
 10
121.2298429999999
 20
63.858086
 30
0.0
 11
158.2298429999999
 21
63.858086
 31
0.0
  0
LINE
  5
20D
330
1E
100
AcDbEntity
  8
0
  6
CONTINUOUS
100
AcDbLine
 10
121.2298429999999
 20
61.858086
 30
0.0
 11
158.2298429999999
 21
61.858086
 31
0.0
  0
LINE
  5
20E
330
1E
100
AcDbEntity
  8
0
  6
CONTINUOUS
100
AcDbLine
 10
121.2298429999999
 20
56.05808299999999
 30
0.0
 11
158.2298429999999
 21
56.05808299999999
 31
0.0
  0
LINE
  5
20F
330
1E
100
AcDbEntity
  8
0
  6
CONTINUOUS
100
AcDbLine
 10
121.2298429999999
 20
54.058083
 30
0.0
 11
158.2298429999999
 21
54.058083
 31
0.0
  0
LINE
  5
210
330
1E
100
AcDbEntity
  8
0
  6
CONTINUOUS
100
AcDbLine
 10
54.229843
 20
43.458031
 30
0.0
 11
54.229843
 21
13.958082
 31
0.0
  0
LINE
  5
211
330
1E
100
AcDbEntity
  8
0
  6
CONTINUOUS
100
AcDbLine
 10
68.72989699999999
 20
40.45808
 30
0.0
 11
54.229843
 21
40.45808
 31
0.0
  0
LINE
  5
212
330
1E
100
AcDbEntity
  8
0
  6
CONTINUOUS
100
AcDbLine
 10
95.72999600000001
 20
38.45807999999999
 30
0.0
 11
54.229843
 21
38.45807999999999
 31
0.0
  0
LINE
  5
213
330
1E
100
AcDbEntity
  8
0
  6
CONTINUOUS
100
AcDbLine
 10
95.229996
 20
31.458082
 30
0.0
 11
54.229843
 21
31.458082
 31
0.0
  0
LINE
  5
214
330
1E
100
AcDbEntity
  8
0
  6
CONTINUOUS
100
AcDbLine
 10
70.72989699999999
 20
33.45807999999999
 30
0.0
 11
54.229843
 21
33.45807999999999
 31
0.0
  0
LINE
  5
215
330
1E
100
AcDbEntity
  8
0
  6
CONTINUOUS
100
AcDbLine
 10
69.22989699999999
 20
27.172083
 30
0.0
 11
54.229843
 21
27.172083
 31
0.0
  0
LINE
  5
216
330
1E
100
AcDbEntity
  8
0
  6
CONTINUOUS
100
AcDbLine
 10
96.729996
 20
20.958082
 30
0.0
 11
54.229843
 21
20.958082
 31
0.0
  0
ARC
  5
217
330
1E
100
AcDbEntity
  8
0
  6
CONTINUOUS
100
AcDbCircle
 10
-296.2701419999999
 20
78.458084
 30
0.0
 40
325.0
100
AcDbArc
 50
2.292434
 51
11.66233999999999
  0
LINE
  5
218
330
1E
100
AcDbEntity
  8
0
  6
CONTINUOUS
100
AcDbLine
 10
113.9798429999999
 20
108.8580629999999
 30
0.0
 11
113.9798429999999
 21
108.058044
 31
0.0
  0
LINE
  5
219
330
1E
100
AcDbEntity
  8
0
  6
CONTINUOUS
100
AcDbLine
 10
111.8298189999999
 20
110.2080689999999
 30
0.0
 11
112.629837
 21
110.2080689999999
 31
0.0
  0
LINE
  5
21A
330
1E
100
AcDbEntity
  8
0
  6
CONTINUOUS
100
AcDbLine
 10
111.8298189999999
 20
106.708069
 30
0.0
 11
112.629837
 21
106.708069
 31
0.0
  0
LINE
  5
21B
330
1E
100
AcDbEntity
  8
0
  6
CONTINUOUS
100
AcDbLine
 10
110.4798429999999
 20
108.8580629999999
 30
0.0
 11
110.4798429999999
 21
108.058044
 31
0.0
  0
CIRCLE
  5
21C
330
1E
100
AcDbEntity
  8
0
  6
CONTINUOUS
100
AcDbCircle
 10
112.2298429999999
 20
108.4580689999999
 30
0.0
 40
2.75
  0
ARC
  5
21D
330
1E
100
AcDbEntity
  8
0
  6
CONTINUOUS
100
AcDbCircle
 10
110.4798429999999
 20
110.2080689999999
 30
0.0
 40
1.35
100
AcDbArc
 50
270.0
 51
0.0
  0
ARC
  5
21E
330
1E
100
AcDbEntity
  8
0
  6
CONTINUOUS
100
AcDbCircle
 10
110.4798429999999
 20
106.708069
 30
0.0
 40
1.35
100
AcDbArc
 50
0.0
 51
90.0
  0
ARC
  5
21F
330
1E
100
AcDbEntity
  8
0
  6
CONTINUOUS
100
AcDbCircle
 10
113.9798429999999
 20
110.2080689999999
 30
0.0
 40
1.35
100
AcDbArc
 50
180.0
 51
270.0
  0
ARC
  5
220
330
1E
100
AcDbEntity
  8
0
  6
CONTINUOUS
100
AcDbCircle
 10
113.9798429999999
 20
106.708069
 30
0.0
 40
1.35
100
AcDbArc
 50
90.0
 51
180.0
  0
LINE
  5
221
330
1E
100
AcDbEntity
  8
0
  6
CONTINUOUS
100
AcDbLine
 10
53.979843
 20
108.8580629999999
 30
0.0
 11
53.979843
 21
108.058044
 31
0.0
  0
LINE
  5
222
330
1E
100
AcDbEntity
  8
0
  6
CONTINUOUS
100
AcDbLine
 10
51.829819
 20
110.2080689999999
 30
0.0
 11
52.629837
 21
110.2080689999999
 31
0.0
  0
LINE
  5
223
330
1E
100
AcDbEntity
  8
0
  6
CONTINUOUS
100
AcDbLine
 10
51.829819
 20
106.708069
 30
0.0
 11
52.629837
 21
106.708069
 31
0.0
  0
LINE
  5
224
330
1E
100
AcDbEntity
  8
0
  6
CONTINUOUS
100
AcDbLine
 10
50.479843
 20
108.8580629999999
 30
0.0
 11
50.479843
 21
108.058044
 31
0.0
  0
CIRCLE
  5
225
330
1E
100
AcDbEntity
  8
0
  6
CONTINUOUS
100
AcDbCircle
 10
52.229843
 20
108.4580689999999
 30
0.0
 40
2.75
  0
ARC
  5
226
330
1E
100
AcDbEntity
  8
0
  6
CONTINUOUS
100
AcDbCircle
 10
50.479843
 20
110.2080689999999
 30
0.0
 40
1.35
100
AcDbArc
 50
270.0
 51
0.0
  0
ARC
  5
227
330
1E
100
AcDbEntity
  8
0
  6
CONTINUOUS
100
AcDbCircle
 10
50.479843
 20
106.708069
 30
0.0
 40
1.35
100
AcDbArc
 50
0.0
 51
90.0
  0
ARC
  5
228
330
1E
100
AcDbEntity
  8
0
  6
CONTINUOUS
100
AcDbCircle
 10
53.979843
 20
110.2080689999999
 30
0.0
 40
1.35
100
AcDbArc
 50
180.0
 51
270.0
  0
ARC
  5
229
330
1E
100
AcDbEntity
  8
0
  6
CONTINUOUS
100
AcDbCircle
 10
53.979843
 20
106.708069
 30
0.0
 40
1.35
100
AcDbArc
 50
90.0
 51
180.0
  0
LINE
  5
22A
330
1E
100
AcDbEntity
  8
0
  6
CONTINUOUS
100
AcDbLine
 10
53.979843
 20
48.858025
 30
0.0
 11
53.979843
 21
48.058006
 31
0.0
  0
LINE
  5
22B
330
1E
100
AcDbEntity
  8
0
  6
CONTINUOUS
100
AcDbLine
 10
51.829819
 20
50.208031
 30
0.0
 11
52.629837
 21
50.208031
 31
0.0
  0
LINE
  5
22C
330
1E
100
AcDbEntity
  8
0
  6
CONTINUOUS
100
AcDbLine
 10
51.829819
 20
46.70803099999999
 30
0.0
 11
52.629837
 21
46.70803099999999
 31
0.0
  0
LINE
  5
22D
330
1E
100
AcDbEntity
  8
0
  6
CONTINUOUS
100
AcDbLine
 10
50.479843
 20
48.858025
 30
0.0
 11
50.479843
 21
48.058006
 31
0.0
  0
CIRCLE
  5
22E
330
1E
100
AcDbEntity
  8
0
  6
CONTINUOUS
100
AcDbCircle
 10
52.229843
 20
48.458031
 30
0.0
 40
2.75
  0
ARC
  5
22F
330
1E
100
AcDbEntity
  8
0
  6
CONTINUOUS
100
AcDbCircle
 10
50.479843
 20
50.208031
 30
0.0
 40
1.35
100
AcDbArc
 50
270.0
 51
0.0
  0
ARC
  5
230
330
1E
100
AcDbEntity
  8
0
  6
CONTINUOUS
100
AcDbCircle
 10
50.479843
 20
46.70803099999999
 30
0.0
 40
1.35
100
AcDbArc
 50
0.0
 51
90.0
  0
ARC
  5
231
330
1E
100
AcDbEntity
  8
0
  6
CONTINUOUS
100
AcDbCircle
 10
53.979843
 20
50.208031
 30
0.0
 40
1.35
100
AcDbArc
 50
180.0
 51
270.0
  0
ARC
  5
232
330
1E
100
AcDbEntity
  8
0
  6
CONTINUOUS
100
AcDbCircle
 10
53.979843
 20
46.70803099999999
 30
0.0
 40
1.35
100
AcDbArc
 50
90.0
 51
180.0
  0
LINE
  5
233
330
1E
100
AcDbEntity
  8
0
  6
CONTINUOUS
100
AcDbLine
 10
113.9798429999999
 20
48.858025
 30
0.0
 11
113.9798429999999
 21
48.058006
 31
0.0
  0
LINE
  5
234
330
1E
100
AcDbEntity
  8
0
  6
CONTINUOUS
100
AcDbLine
 10
111.8298189999999
 20
50.208031
 30
0.0
 11
112.629837
 21
50.208031
 31
0.0
  0
LINE
  5
235
330
1E
100
AcDbEntity
  8
0
  6
CONTINUOUS
100
AcDbLine
 10
111.8298189999999
 20
46.70803099999999
 30
0.0
 11
112.629837
 21
46.70803099999999
 31
0.0
  0
LINE
  5
236
330
1E
100
AcDbEntity
  8
0
  6
CONTINUOUS
100
AcDbLine
 10
110.4798429999999
 20
48.858025
 30
0.0
 11
110.4798429999999
 21
48.058006
 31
0.0
  0
CIRCLE
  5
237
330
1E
100
AcDbEntity
  8
0
  6
CONTINUOUS
100
AcDbCircle
 10
112.2298429999999
 20
48.458031
 30
0.0
 40
2.75
  0
ARC
  5
238
330
1E
100
AcDbEntity
  8
0
  6
CONTINUOUS
100
AcDbCircle
 10
110.4798429999999
 20
50.208031
 30
0.0
 40
1.35
100
AcDbArc
 50
270.0
 51
0.0
  0
ARC
  5
239
330
1E
100
AcDbEntity
  8
0
  6
CONTINUOUS
100
AcDbCircle
 10
110.4798429999999
 20
46.70803099999999
 30
0.0
 40
1.35
100
AcDbArc
 50
0.0
 51
90.0
  0
ARC
  5
23A
330
1E
100
AcDbEntity
  8
0
  6
CONTINUOUS
100
AcDbCircle
 10
113.9798429999999
 20
50.208031
 30
0.0
 40
1.35
100
AcDbArc
 50
180.0
 51
270.0
  0
ARC
  5
23B
330
1E
100
AcDbEntity
  8
0
  6
CONTINUOUS
100
AcDbCircle
 10
113.9798429999999
 20
46.70803099999999
 30
0.0
 40
1.35
100
AcDbArc
 50
90.0
 51
180.0
  0
LINE
  5
23C
330
1E
100
AcDbEntity
  8
0
  6
CONTINUOUS
100
AcDbLine
 10
174.7299649999999
 20
307.6500849999999
 30
0.0
 11
176.2299649999999
 21
308.078644
 31
0.0
  0
LINE
  5
23D
330
1E
100
AcDbEntity
  8
0
  6
CONTINUOUS
100
AcDbLine
 10
176.2299649999999
 20
307.092102
 30
0.0
 11
177.7299649999999
 21
307.60849
 31
0.0
  0
LINE
  5
23E
330
1E
100
AcDbEntity
  8
0
  6
CONTINUOUS
100
AcDbLine
 10
174.7299649999999
 20
313.7942499999999
 30
0.0
 11
174.7299649999999
 21
307.6500849999999
 31
0.0
  0
LINE
  5
23F
330
1E
100
AcDbEntity
  8
0
  6
CONTINUOUS
100
AcDbLine
 10
176.2299649999999
 20
313.9018249999999
 30
0.0
 11
176.2299649999999
 21
307.092102
 31
0.0
  0
LINE
  5
240
330
1E
100
AcDbEntity
  8
0
  6
CONTINUOUS
100
AcDbLine
 10
177.7299649999999
 20
313.740448
 30
0.0
 11
177.7299649999999
 21
307.60849
 31
0.0
  0
LINE
  5
241
330
1E
100
AcDbEntity
  8
0
  6
CONTINUOUS
100
AcDbLine
 10
224.7299649999999
 20
314.3582149999999
 30
0.0
 11
224.7299649999999
 21
309.4071959999999
 31
0.0
  0
LINE
  5
242
330
1E
100
AcDbEntity
  8
0
  6
CONTINUOUS
100
AcDbLine
 10
226.229965
 20
314.3582149999999
 30
0.0
 11
226.229965
 21
308.8492129999999
 31
0.0
  0
LINE
  5
243
330
1E
100
AcDbEntity
  8
0
  6
CONTINUOUS
100
AcDbLine
 10
227.7299649999999
 20
314.3582149999999
 30
0.0
 11
227.7299649999999
 21
309.3656009999999
 31
0.0
  0
LINE
  5
244
330
1E
100
AcDbEntity
  8
0
  6
CONTINUOUS
100
AcDbLine
 10
226.229965
 20
308.8492129999999
 30
0.0
 11
227.7299649999999
 21
309.3656009999999
 31
0.0
  0
LINE
  5
245
330
1E
100
AcDbEntity
  8
0
  6
CONTINUOUS
100
AcDbLine
 10
224.7299649999999
 20
309.4071959999999
 30
0.0
 11
226.229965
 21
309.835754
 31
0.0
  0
LINE
  5
246
330
1E
100
AcDbEntity
  8
0
  6
CONTINUOUS
100
AcDbLine
 10
177.7299649999999
 20
311.6082149999999
 30
0.0
 11
189.2297819999999
 21
311.6082149999999
 31
0.0
  0
LINE
  5
247
330
1E
100
AcDbEntity
  8
0
  6
CONTINUOUS
100
AcDbLine
 10
227.7299649999999
 20
313.8582149999999
 30
0.0
 11
244.632904
 21
313.8582149999999
 31
0.0
  0
LINE
  5
248
330
1E
100
AcDbEntity
  8
0
  6
CENTER
100
AcDbLine
 10
82.229782
 20
316.35376
 30
0.0
 11
82.229782
 21
245.639999
 31
0.0
  0
LINE
  5
249
330
1E
100
AcDbEntity
  8
0
  6
CENTER
100
AcDbLine
 10
82.22989699999999
 20
118.518753
 30
0.0
 11
82.22989699999999
 21
38.8125
 31
0.0
  0
LINE
  5
24A
330
1E
100
AcDbEntity
  8
0
  6
CENTER
100
AcDbLine
 10
15.12375
 20
274.3582149999999
 30
0.0
 11
54.159374
 21
274.3582149999999
 31
0.0
  0
LINE
  5
24B
330
1E
100
AcDbEntity
  8
0
  6
CONTINUOUS
100
AcDbLine
 10
191.2298429999999
 20
23.207907
 30
0.0
 11
191.2298429999999
 21
133.7079009999999
 31
0.0
  0
LINE
  5
24C
330
1E
100
AcDbEntity
  8
0
  6
CONTINUOUS
100
AcDbLine
 10
246.229843
 20
23.207907
 30
0.0
 11
246.229843
 21
133.7079009999999
 31
0.0
  0
LINE
  5
24D
330
1E
100
AcDbEntity
  8
0
  6
CONTINUOUS
100
AcDbLine
 10
193.2298429999999
 20
122.457909
 30
0.0
 11
244.229843
 21
122.457909
 31
0.0
  0
LINE
  5
24E
330
1E
100
AcDbEntity
  8
0
  6
CONTINUOUS
100
AcDbLine
 10
193.2298429999999
 20
30.457907
 30
0.0
 11
244.229843
 21
30.457907
 31
0.0
  0
LINE
  5
24F
330
1E
100
AcDbEntity
  8
0
  6
CONTINUOUS
100
AcDbLine
 10
183.2298429999999
 20
135.7079009999999
 30
0.0
 11
189.2298429999999
 21
135.7079009999999
 31
0.0
  0
LINE
  5
250
330
1E
100
AcDbEntity
  8
0
  6
CONTINUOUS
100
AcDbLine
 10
183.2298429999999
 20
21.207907
 30
0.0
 11
189.2298429999999
 21
21.207907
 31
0.0
  0
ARC
  5
251
330
1E
100
AcDbEntity
  8
0
  6
CONTINUOUS
100
AcDbCircle
 10
193.2298429999999
 20
124.457909
 30
0.0
 40
2.0
100
AcDbArc
 50
180.0
 51
270.0
  0
ARC
  5
252
330
1E
100
AcDbEntity
  8
0
  6
CONTINUOUS
100
AcDbCircle
 10
244.229843
 20
124.457909
 30
0.0
 40
2.0
100
AcDbArc
 50
270.0
 51
0.0
  0
ARC
  5
253
330
1E
100
AcDbEntity
  8
0
  6
CONTINUOUS
100
AcDbCircle
 10
193.2298429999999
 20
28.457928
 30
0.0
 40
2.0
100
AcDbArc
 50
90.0
 51
180.0
  0
ARC
  5
254
330
1E
100
AcDbEntity
  8
0
  6
CONTINUOUS
100
AcDbCircle
 10
244.229843
 20
28.457907
 30
0.0
 40
2.0
100
AcDbArc
 50
0.0
 51
90.0
  0
ARC
  5
255
330
1E
100
AcDbEntity
  8
0
  6
CONTINUOUS
100
AcDbCircle
 10
189.2298429999999
 20
133.7079009999999
 30
0.0
 40
2.0
100
AcDbArc
 50
0.0
 51
90.0
  0
ARC
  5
256
330
1E
100
AcDbEntity
  8
0
  6
CONTINUOUS
100
AcDbCircle
 10
248.229843
 20
133.7079319999999
 30
0.0
 40
2.0
100
AcDbArc
 50
90.0
 51
180.0
  0
ARC
  5
257
330
1E
100
AcDbEntity
  8
0
  6
CONTINUOUS
100
AcDbCircle
 10
248.229843
 20
23.207907
 30
0.0
 40
2.0
100
AcDbArc
 50
180.0
 51
270.0
  0
ARC
  5
258
330
1E
100
AcDbEntity
  8
0
  6
CONTINUOUS
100
AcDbCircle
 10
189.2298429999999
 20
23.207907
 30
0.0
 40
2.0
100
AcDbArc
 50
270.0
 51
0.0
  0
LINE
  5
259
330
1E
100
AcDbEntity
  8
0
  6
CONTINUOUS
100
AcDbLine
 10
192.2298429999999
 20
69.457909
 30
0.0
 11
192.2298429999999
 21
82.45790900000001
 31
0.0
  0
LINE
  5
25A
330
1E
100
AcDbEntity
  8
0
  6
CONTINUOUS
100
AcDbLine
 10
214.229843
 20
82.45790900000001
 30
0.0
 11
214.229843
 21
69.457909
 31
0.0
  0
LINE
  5
25B
330
1E
100
AcDbEntity
  8
0
  6
CONTINUOUS
100
AcDbLine
 10
245.229843
 20
69.457909
 30
0.0
 11
245.229843
 21
82.45790900000001
 31
0.0
  0
LINE
  5
25C
330
1E
100
AcDbEntity
  8
0
  6
CONTINUOUS
100
AcDbLine
 10
223.229843
 20
69.457909
 30
0.0
 11
223.229843
 21
82.45790900000001
 31
0.0
  0
LINE
  5
25D
330
1E
100
AcDbEntity
  8
0
  6
CONTINUOUS
100
AcDbLine
 10
213.229843
 20
83.457909
 30
0.0
 11
193.2298429999999
 21
83.457909
 31
0.0
  0
LINE
  5
25E
330
1E
100
AcDbEntity
  8
0
  6
CONTINUOUS
100
AcDbLine
 10
213.229843
 20
68.457909
 30
0.0
 11
193.2298429999999
 21
68.457909
 31
0.0
  0
ARC
  5
25F
330
1E
100
AcDbEntity
  8
0
  6
CONTINUOUS
100
AcDbCircle
 10
193.2298429999999
 20
82.45790900000001
 30
0.0
 40
1.0
100
AcDbArc
 50
90.0
 51
180.0
  0
ARC
  5
260
330
1E
100
AcDbEntity
  8
0
  6
CONTINUOUS
100
AcDbCircle
 10
193.2298429999999
 20
69.457909
 30
0.0
 40
1.0
100
AcDbArc
 50
180.0
 51
270.0
  0
ARC
  5
261
330
1E
100
AcDbEntity
  8
0
  6
CONTINUOUS
100
AcDbCircle
 10
213.229843
 20
69.457909
 30
0.0
 40
1.0
100
AcDbArc
 50
270.0
 51
0.0
  0
ARC
  5
262
330
1E
100
AcDbEntity
  8
0
  6
CONTINUOUS
100
AcDbCircle
 10
213.229843
 20
82.45790900000001
 30
0.0
 40
1.0
100
AcDbArc
 50
0.0
 51
90.0
  0
ARC
  5
263
330
1E
100
AcDbEntity
  8
0
  6
CONTINUOUS
100
AcDbCircle
 10
224.229843
 20
82.45790900000001
 30
0.0
 40
1.0
100
AcDbArc
 50
90.0
 51
180.0
  0
ARC
  5
264
330
1E
100
AcDbEntity
  8
0
  6
CONTINUOUS
100
AcDbCircle
 10
224.229843
 20
69.457909
 30
0.0
 40
1.0
100
AcDbArc
 50
180.0
 51
270.0
  0
ARC
  5
265
330
1E
100
AcDbEntity
  8
0
  6
CONTINUOUS
100
AcDbCircle
 10
244.229843
 20
82.45790900000001
 30
0.0
 40
1.0
100
AcDbArc
 50
0.0
 51
90.0
  0
ARC
  5
266
330
1E
100
AcDbEntity
  8
0
  6
CONTINUOUS
100
AcDbCircle
 10
244.229843
 20
69.457909
 30
0.0
 40
1.0
100
AcDbArc
 50
270.0
 51
0.0
  0
LINE
  5
267
330
1E
100
AcDbEntity
  8
0
  6
CONTINUOUS
100
AcDbLine
 10
226.229843
 20
92.45790900000001
 30
0.0
 11
226.229843
 21
66.513962
 31
0.0
  0
LINE
  5
268
330
1E
100
AcDbEntity
  8
0
  6
CONTINUOUS
100
AcDbLine
 10
227.729843
 20
92.45790900000001
 30
0.0
 11
227.729843
 21
65.65681500000001
 31
0.0
  0
LINE
  5
269
330
1E
100
AcDbEntity
  8
0
  6
CONTINUOUS
100
AcDbLine
 10
224.729843
 20
92.45790900000001
 30
0.0
 11
224.729843
 21
66.39888
 31
0.0
  0
LINE
  5
26A
330
1E
100
AcDbEntity
  8
0
  6
CONTINUOUS
100
AcDbLine
 10
224.729843
 20
66.39888
 30
0.0
 11
226.229843
 21
67.636368
 31
0.0
  0
LINE
  5
26B
330
1E
100
AcDbEntity
  8
0
  6
CONTINUOUS
100
AcDbLine
 10
226.229843
 20
66.513962
 30
0.0
 11
227.729843
 21
65.65681500000001
 31
0.0
  0
ARC
  5
26C
330
1E
100
AcDbEntity
  8
0
  6
CONTINUOUS
100
AcDbCircle
 10
226.979843
 20
92.45790900000001
 30
0.0
 40
0.75
100
AcDbArc
 50
0.0
 51
180.0
  0
ARC
  5
26D
330
1E
100
AcDbEntity
  8
0
  6
CONTINUOUS
100
AcDbCircle
 10
225.479843
 20
92.45790900000001
 30
0.0
 40
0.75
100
AcDbArc
 50
0.0
 51
180.0
  0
LINE
  5
26E
330
1E
100
AcDbEntity
  8
0
  6
CONTINUOUS
100
AcDbLine
 10
224.229843
 20
83.457909
 30
0.0
 11
224.729843
 21
83.457909
 31
0.0
  0
LINE
  5
26F
330
1E
100
AcDbEntity
  8
0
  6
CONTINUOUS
100
AcDbLine
 10
224.229843
 20
68.457909
 30
0.0
 11
224.729843
 21
68.457909
 31
0.0
  0
LINE
  5
270
330
1E
100
AcDbEntity
  8
0
  6
CONTINUOUS
100
AcDbLine
 10
193.12291
 20
64.863663
 30
0.0
 11
244.5736389999999
 21
64.863663
 31
0.0
  0
LINE
  5
271
330
1E
100
AcDbEntity
  8
0
  6
CONTINUOUS
100
AcDbLine
 10
248.229843
 20
135.7079009999999
 30
0.0
 11
254.229843
 21
135.7079009999999
 31
0.0
  0
LINE
  5
272
330
1E
100
AcDbEntity
  8
0
  6
CONTINUOUS
100
AcDbLine
 10
248.229843
 20
21.207907
 30
0.0
 11
254.229843
 21
21.207907
 31
0.0
  0
LINE
  5
273
330
1E
100
AcDbEntity
  8
0
  6
CONTINUOUS
100
AcDbLine
 10
244.229843
 20
68.457909
 30
0.0
 11
227.729843
 21
68.457909
 31
0.0
  0
LINE
  5
274
330
1E
100
AcDbEntity
  8
0
  6
CONTINUOUS
100
AcDbLine
 10
244.229843
 20
83.457909
 30
0.0
 11
227.729843
 21
83.457909
 31
0.0
  0
LINE
  5
275
330
1E
100
AcDbEntity
  8
0
  6
CONTINUOUS
100
AcDbLine
 10
193.12291
 20
61.45796999999999
 30
0.0
 11
244.5736389999999
 21
61.45796999999999
 31
0.0
  0
LINE
  5
276
330
1E
100
AcDbEntity
  8
0
  6
CONTINUOUS
100
AcDbLine
 10
234.229843
 20
48.06197
 30
0.0
 11
234.229843
 21
32.457909
 31
0.0
  0
LINE
  5
277
330
1E
100
AcDbEntity
  8
0
  6
CONTINUOUS
100
AcDbLine
 10
203.2298429999999
 20
48.06197
 30
0.0
 11
203.2298429999999
 21
32.457909
 31
0.0
  0
LINE
  5
278
330
1E
100
AcDbEntity
  8
0
  6
CONTINUOUS
100
AcDbLine
 10
193.12291
 20
51.793385
 30
0.0
 11
201.7942199999999
 21
51.793385
 31
0.0
  0
LINE
  5
279
330
1E
100
AcDbEntity
  8
0
  6
CONTINUOUS
100
AcDbLine
 10
235.687973
 20
51.793385
 30
0.0
 11
244.5736389999999
 21
51.793385
 31
0.0
  0
ARC
  5
27A
330
1E
100
AcDbEntity
  8
0
  6
CONTINUOUS
100
AcDbCircle
 10
201.2298429999999
 20
32.457909
 30
0.0
 40
2.0
100
AcDbArc
 50
270.0
 51
0.0
  0
ARC
  5
27B
330
1E
100
AcDbEntity
  8
0
  6
CONTINUOUS
100
AcDbCircle
 10
236.229843
 20
32.457909
 30
0.0
 40
2.0
100
AcDbArc
 50
180.0
 51
270.0
  0
LINE
  5
27C
330
1E
100
AcDbEntity
  8
0
  6
CONTINUOUS
100
AcDbLine
 10
203.88765
 20
41.57979199999999
 30
0.0
 11
233.3951569999999
 21
41.57979199999999
 31
0.0
  0
ARC
  5
27D
330
1E
100
AcDbEntity
  8
0
  6
CONTINUOUS
100
AcDbCircle
 10
226.229843
 20
92.45790900000001
 30
0.0
 40
4.0
100
AcDbArc
 50
292.024315
 51
247.9756929999999
  0
TEXT
  5
27E
330
1E
100
AcDbEntity
  8
0
100
AcDbText
 10
-8.0
 20
-25.0
 30
0.0
 40
4.0
  1
G3FE-22-30~100-T020A
100
AcDbText
  0
ARC
  5
2E2
330
1E
100
AcDbEntity
  8
TOP
100
AcDbCircle
 10
19.79806123472622
 20
420.3582149999999
 30
0.0
 40
12.0
100
AcDbArc
 50
90.49999999999805
 51
170.9664843358179
  0
ARC
  5
2E3
330
1E
100
AcDbEntity
  8
0
100
AcDbCircle
 10
346.7269374791912
 20
368.8582149999997
 30
0.0
 40
325.0
100
AcDbArc
 50
168.2484724111562
 51
191.7515275888437
  0
LINE
  5
2E4
330
1E
100
AcDbEntity
  8
TOP
100
AcDbLine
 10
54.22976700000003
 20
435.24476571872
 30
0.0
 11
54.22976700000003
 21
302.4716642812796
 31
0.0
  0
ARC
  5
30D
330
1E
100
AcDbEntity
  8
TOP
100
AcDbCircle
 10
343.729767
 20
368.8582149999997
 30
0.0
 40
340.0
100
AcDbArc
 50
170.9664843358179
 51
189.033515664182
  0
LINE
  5
30E
330
1E
100
AcDbEntity
  8
0
100
AcDbLine
 10
53.22976700000004
 20
301.4716642812796
 30
0.0
 11
30.00748364916603
 21
301.4716642812796
 31
0.0
  0
ARC
  5
30F
330
1E
100
AcDbEntity
  8
TOP
100
AcDbCircle
 10
19.79806123472622
 20
317.3582149999998
 30
0.0
 40
12.0
100
AcDbArc
 50
189.033515664182
 51
269.5000000000019
  0
LINE
  5
310
330
1E
100
AcDbEntity
  8
TOP
100
AcDbLine
 10
19.69334280874568
 20
305.3586719232297
 30
0.0
 11
27.17466846379602
 21
305.348615646848
 31
0.0
  0
ARC
  5
311
330
1E
100
AcDbEntity
  8
0
100
AcDbCircle
 10
27.17332428125939
 20
304.3486165502619
 30
0.0
 40
1.0
100
AcDbArc
 50
11.41314332739548
 51
89.92298399056364
  0
ARC
  5
312
330
1E
100
AcDbEntity
  8
0
100
AcDbCircle
 10
30.00748364916614
 20
302.9716642812796
 30
0.0
 40
1.5
100
AcDbArc
 50
191.7515275888437
 51
270.0
  0
ARC
  5
313
330
1E
100
AcDbEntity
  8
0
100
AcDbCircle
 10
53.22976700000015
 20
302.4716642812796
 30
0.0
 40
1.0
100
AcDbArc
 50
270.0
 51
0.0
  0
LINE
  5
32D
330
1E
100
AcDbEntity
  8
0
100
AcDbLine
 10
53.22976700000004
 20
436.24476571872
 30
0.0
 11
30.00748364916603
 21
436.24476571872
 31
0.0
  0
LINE
  5
32E
330
1E
100
AcDbEntity
  8
TOP
100
AcDbLine
 10
19.69334280874568
 20
432.3577580767699
 30
0.0
 11
27.17466846379602
 21
432.3678143531516
 31
0.0
  0
ARC
  5
32F
330
1E
100
AcDbEntity
  8
0
100
AcDbCircle
 10
30.00748364916614
 20
434.74476571872
 30
0.0
 40
1.5
100
AcDbArc
 50
90.0
 51
168.2484724111498
  0
ARC
  5
330
330
1E
100
AcDbEntity
  8
0
100
AcDbCircle
 10
27.17332428125939
 20
433.3678134497378
 30
0.0
 40
1.0
100
AcDbArc
 50
270.0770160094363
 51
348.5868566726044
  0
ARC
  5
331
330
1E
100
AcDbEntity
  8
0
100
AcDbCircle
 10
53.22976700000015
 20
435.24476571872
 30
0.0
 40
1.0
100
AcDbArc
 50
0.0
 51
90.0
  0
ENDSEC
  0
SECTION
  2
OBJECTS
  0
DICTIONARY
  5
C
330
0
100
AcDbDictionary
  3
ACAD_GROUP
350
D
  3
ACAD_LAYOUT
350
19
  3
ACAD_MLINESTYLE
350
16
  3
ACAD_PLOTSETTINGS
350
18
  3
ACAD_PLOTSTYLENAME
350
E
  3
ACDBHEADERROUNDTRIPXREC
350
340
  3
ACDBVARIABLEDICTIONARY
350
33D
  0
DICTIONARY
  5
362
330
1E
100
AcDbDictionary
280
     1
  3
ACAD_LAYOUTSELFREF
360
363
  0
DICTIONARY
  5
360
330
1A
100
AcDbDictionary
280
     1
  3
ACAD_LAYOUTSELFREF
360
361
  0
DICTIONARY
  5
D
102
{ACAD_REACTORS
330
C
102
}
330
C
100
AcDbDictionary
  0
DICTIONARY
  5
19
102
{ACAD_REACTORS
330
C
102
}
330
C
100
AcDbDictionary
  0
DICTIONARY
  5
16
102
{ACAD_REACTORS
330
C
102
}
330
C
100
AcDbDictionary
  3
STANDARD
350
17
  0
DICTIONARY
  5
18
102
{ACAD_REACTORS
330
C
102
}
330
C
100
AcDbDictionary
  0
ACDBDICTIONARYWDFLT
  5
E
102
{ACAD_REACTORS
330
C
102
}
330
C
100
AcDbDictionary
281
     1
  3
Normal
350
F
100
AcDbDictionaryWithDefault
340
F
  0
DICTIONARY
  5
340
102
{ACAD_REACTORS
330
C
102
}
330
C
100
AcDbDictionary
  3
CEPSNTYPE
350
34A
  3
FINGERPRINTGUID
350
34B
  3
HYPERLINKBASE
350
343
  3
INSUNITS
350
349
  3
LAYOUTDICT
350
345
  3
LWETCUNION
350
348
  3
PLOTSETDICT
350
346
  3
PLOTSTYLNAMDICT
350
347
  3
PSVPSCALE
350
34D
  3
PUCSBASE
350
350
  3
PUCSORGBACK
350
356
  3
PUCSORGBOTTOM
350
352
  3
PUCSORGFRONT
350
355
  3
PUCSORGLEFT
350
353
  3
PUCSORGRIGHT
350
354
  3
PUCSORGTOP
350
351
  3
PUCSORTHOREF
350
34E
  3
PUCSORTHOVIEW
350
34F
  3
STYLESHEET
350
344
  3
TSTACKALIGN
350
341
  3
TSTACKSIZE
350
342
  3
UCSBASE
350
359
  3
UCSORGBACK
350
35F
  3
UCSORGBOTTOM
350
35B
  3
UCSORGFRONT
350
35E
  3
UCSORGLEFT
350
35C
  3
UCSORGRIGHT
350
35D
  3
UCSORGTOP
350
35A
  3
UCSORTHOREF
350
357
  3
UCSORTHOVIEW
350
358
  3
VERSIONGUID
350
34C
  0
DICTIONARY
  5
33D
102
{ACAD_REACTORS
330
C
102
}
330
C
100
AcDbDictionary
  3
DIMASSOC
350
33E
  0
XRECORD
  5
363
102
{ACAD_REACTORS
330
362
102
}
330
362
100
AcDbXrecord
340
1E
  0
XRECORD
  5
361
102
{ACAD_REACTORS
330
360
102
}
330
360
100
AcDbXrecord
340
1A
  0
MLINESTYLE
  5
17
102
{ACAD_REACTORS
330
16
102
}
330
16
100
AcDbMlineStyle
  2
STANDARD
 70
     0
  3

 62
   256
 51
90.0
 52
90.0
 71
     2
 49
0.5
 62
   256
  6
BYLAYER
 49
-0.5
 62
   256
  6
BYLAYER
  0
ACDBPLACEHOLDER
  5
F
102
{ACAD_REACTORS
330
E
102
}
330
E
100
AcDbPlaceHolder
280
     0
  0
XRECORD
  5
34A
102
{ACAD_REACTORS
330
340
102
}
330
340
100
AcDbXrecord
 90
        0
  0
XRECORD
  5
34B
102
{ACAD_REACTORS
330
340
102
}
330
340
100
AcDbXrecord
  1
{9B1596EB-5F30-4483-9720-F937ECCA4ADA}
  0
XRECORD
  5
343
102
{ACAD_REACTORS
330
340
102
}
330
340
100
AcDbXrecord
  1

  0
XRECORD
  5
349
102
{ACAD_REACTORS
330
340
102
}
330
340
100
AcDbXrecord
 90
        0
  0
XRECORD
  5
345
102
{ACAD_REACTORS
330
340
102
}
330
340
100
AcDbXrecord
340
19
  0
XRECORD
  5
348
102
{ACAD_REACTORS
330
340
102
}
330
340
100
AcDbXrecord
 90
    10781
  0
XRECORD
  5
346
102
{ACAD_REACTORS
330
340
102
}
330
340
100
AcDbXrecord
340
18
  0
XRECORD
  5
347
102
{ACAD_REACTORS
330
340
102
}
330
340
100
AcDbXrecord
340
E
  0
XRECORD
  5
34D
102
{ACAD_REACTORS
330
340
102
}
330
340
100
AcDbXrecord
 40
0.0
  0
XRECORD
  5
350
102
{ACAD_REACTORS
330
340
102
}
330
340
100
AcDbXrecord
340
0
  0
XRECORD
  5
356
102
{ACAD_REACTORS
330
340
102
}
330
340
100
AcDbXrecord
 10
0.0
 20
0.0
 30
0.0
  0
XRECORD
  5
352
102
{ACAD_REACTORS
330
340
102
}
330
340
100
AcDbXrecord
 10
0.0
 20
0.0
 30
0.0
  0
XRECORD
  5
355
102
{ACAD_REACTORS
330
340
102
}
330
340
100
AcDbXrecord
 10
0.0
 20
0.0
 30
0.0
  0
XRECORD
  5
353
102
{ACAD_REACTORS
330
340
102
}
330
340
100
AcDbXrecord
 10
0.0
 20
0.0
 30
0.0
  0
XRECORD
  5
354
102
{ACAD_REACTORS
330
340
102
}
330
340
100
AcDbXrecord
 10
0.0
 20
0.0
 30
0.0
  0
XRECORD
  5
351
102
{ACAD_REACTORS
330
340
102
}
330
340
100
AcDbXrecord
 10
0.0
 20
0.0
 30
0.0
  0
XRECORD
  5
34E
102
{ACAD_REACTORS
330
340
102
}
330
340
100
AcDbXrecord
340
0
  0
XRECORD
  5
34F
102
{ACAD_REACTORS
330
340
102
}
330
340
100
AcDbXrecord
 70
     0
  0
XRECORD
  5
344
102
{ACAD_REACTORS
330
340
102
}
330
340
100
AcDbXrecord
  1

  0
XRECORD
  5
341
102
{ACAD_REACTORS
330
340
102
}
330
340
100
AcDbXrecord
 90
        1
  0
XRECORD
  5
342
102
{ACAD_REACTORS
330
340
102
}
330
340
100
AcDbXrecord
 90
       70
  0
XRECORD
  5
359
102
{ACAD_REACTORS
330
340
102
}
330
340
100
AcDbXrecord
340
0
  0
XRECORD
  5
35F
102
{ACAD_REACTORS
330
340
102
}
330
340
100
AcDbXrecord
 10
0.0
 20
0.0
 30
0.0
  0
XRECORD
  5
35B
102
{ACAD_REACTORS
330
340
102
}
330
340
100
AcDbXrecord
 10
0.0
 20
0.0
 30
0.0
  0
XRECORD
  5
35E
102
{ACAD_REACTORS
330
340
102
}
330
340
100
AcDbXrecord
 10
0.0
 20
0.0
 30
0.0
  0
XRECORD
  5
35C
102
{ACAD_REACTORS
330
340
102
}
330
340
100
AcDbXrecord
 10
0.0
 20
0.0
 30
0.0
  0
XRECORD
  5
35D
102
{ACAD_REACTORS
330
340
102
}
330
340
100
AcDbXrecord
 10
0.0
 20
0.0
 30
0.0
  0
XRECORD
  5
35A
102
{ACAD_REACTORS
330
340
102
}
330
340
100
AcDbXrecord
 10
0.0
 20
0.0
 30
0.0
  0
XRECORD
  5
357
102
{ACAD_REACTORS
330
340
102
}
330
340
100
AcDbXrecord
340
0
  0
XRECORD
  5
358
102
{ACAD_REACTORS
330
340
102
}
330
340
100
AcDbXrecord
 70
     0
  0
XRECORD
  5
34C
102
{ACAD_REACTORS
330
340
102
}
330
340
100
AcDbXrecord
  1
{A67016AE-18F6-445A-BE5A-1275F1969FB5}
  0
DICTIONARYVAR
  5
33E
102
{ACAD_REACTORS
330
33D
102
}
330
33D
100
DictionaryVariables
280
     0
  1
1
  0
ENDSEC
  0
EOF
