  0
SECTION
  2
HEADER
  9
$CLAYER
  8
1
  9
$LTSCALE
 40
3.0
  0
ENDSEC
  0
SECTION
  2
TABLES
  0
TABLE
  2
LTYPE
 70
     4
  0
LTYPE
  2
CONTINUOUS
  3
solid line
 70
    64
 72
    65
 73
     0
 40
0.0
  0
LTYPE
  2
DASHED
  3
__ __ __ __ __ __ __ __ __ __ __ __ __ __ __
 70
    64
 72
    65
 73
     2
 40
0.75
 49
0.5
 49
-0.25
  0
LTYPE
  2
CENTER
  3
____ _ ____ _ ____ _ ____ _ ____ _ ____ _ ____
 70
    64
 72
    65
 73
     4
 40
2.0
 49
1.25
 49
-0.25
 49
0.25
 49
-0.25
  0
LTYPE
  2
PHANTOM
  3
_____ _ _ _____ _ _ _____ _ _ _____ _ _ ____
 70
    64
 72
    65
 73
     6
 40
2.5
 49
1.25
 49
-0.25
 49
0.25
 49
-0.25
 49
0.25
 49
-0.25
  0
ENDTAB
  0
TABLE
  2
LAYER
 70
     1
  0
LAYER
  2
0
 70
    64
 62
     7
  6
CONTINUOUS
  0
ENDTAB
  0
TABLE
  2
STYLE
 70
     1
  0
STYLE
  2
STANDARD
 70
     0
 40
0.000000
 41
1.000000
 50
0.000000
 71
     0
 42
3.000000
  3
txt
  4
BIGFONT
  0
ENDTAB
  0
ENDSEC
  0
SECTION
  2
BLOCKS
  0
ENDSEC
  0
SECTION
  2
ENTITIES
  0
LINE
  8
0
  6
CONTINUOUS
 10
101.479752
 20
354.042236
 11
102.429550
 21
353.626831
  0
LINE
  8
0
  6
CONTINUOUS
 10
97.193115
 20
353.336914
 11
99.219803
 21
354.100708
  0
LINE
  8
0
  6
CONTINUOUS
 10
97.193115
 20
366.952515
 11
97.193115
 21
353.336914
  0
LINE
  8
0
  6
CONTINUOUS
 10
104.668121
 20
353.560303
 11
106.356506
 21
354.182129
  0
LINE
  8
0
  6
CENTER
 10
104.194214
 20
347.268677
 11
104.194214
 21
371.308838
  0
LINE
  8
0
  6
CONTINUOUS
 10
111.195312
 20
366.952515
 11
111.195312
 21
353.341553
  0
LINE
  8
0
  6
CONTINUOUS
 10
108.270218
 20
354.235840
 11
111.195312
 21
353.341553
  0
LINE
  8
0
  6
CONTINUOUS
 10
113.694214
 20
366.952515
 11
94.694214
 21
366.952515
  0
LINE
  8
0
  6
CONTINUOUS
 10
102.379547
 20
101.700943
 11
106.010117
 21
101.700943
  0
LINE
  8
0
  6
CONTINUOUS
 10
105.510040
 20
101.700943
 11
105.510040
 21
143.199234
  0
LINE
  8
0
  6
CONTINUOUS
 10
110.527939
 20
143.199234
 11
110.527939
 21
104.097427
  0
LINE
  8
0
  6
CONTINUOUS
 10
102.879623
 20
143.199234
 11
102.879623
 21
101.700943
  0
LINE
  8
0
  6
CONTINUOUS
 10
97.861725
 20
143.199234
 11
97.861725
 21
104.097427
  0
LINE
  8
0
  6
CONTINUOUS
 10
112.683258
 20
97.179337
 11
113.951309
 21
94.460037
  0
LINE
  8
0
  6
CONTINUOUS
 10
112.288956
 20
96.995499
 11
111.933304
 21
97.758194
  0
LINE
  8
0
  6
CONTINUOUS
 10
115.530899
 20
89.889236
 11
113.498093
 21
94.248672
  0
LINE
  8
0
  6
CONTINUOUS
 10
115.273346
 20
90.441544
 11
112.889389
 21
89.329910
  0
LINE
  8
0
  6
CENTER
 10
112.261261
 20
82.636429
 11
122.243881
 21
87.291397
  0
LINE
  8
0
  6
CENTER
 10
112.803116
 20
92.626968
 11
119.069046
 21
79.189651
  0
LINE
  8
0
  6
CONTINUOUS
 10
109.549347
 20
96.646500
 11
109.904984
 21
95.883865
  0
LINE
  8
0
  6
CONTINUOUS
 10
109.510666
 20
95.392288
 11
110.660889
 21
92.925674
  0
LINE
  8
0
  6
CONTINUOUS
 10
109.010590
 20
87.889420
 11
109.010590
 21
92.699478
  0
LINE
  8
0
  6
CONTINUOUS
 10
107.940079
 20
88.498856
 11
109.010590
 21
88.498856
  0
LINE
  8
0
  6
CONTINUOUS
 10
109.510666
 20
92.699478
 11
109.510666
 21
95.699966
  0
LINE
  8
0
  6
CONTINUOUS
 10
105.510040
 20
93.890335
 11
105.510040
 21
98.700455
  0
LINE
  8
0
  6
CONTINUOUS
 10
106.380173
 20
91.777420
 11
106.380173
 21
92.699478
  0
LINE
  8
0
  6
CONTINUOUS
 10
105.880096
 20
95.699966
 11
105.880096
 21
92.699478
  0
LINE
  8
0
  6
CONTINUOUS
 10
106.010117
 20
101.700943
 11
106.010117
 21
98.700455
  0
LINE
  8
0
  6
CONTINUOUS
 10
105.880096
 20
95.699966
 11
109.510666
 21
95.699966
  0
LINE
  8
0
  6
CONTINUOUS
 10
105.880096
 20
92.699478
 11
109.510666
 21
92.699478
  0
LINE
  8
0
  6
CONTINUOUS
 10
98.878998
 20
95.699966
 11
102.509567
 21
95.699966
  0
LINE
  8
0
  6
CONTINUOUS
 10
98.878998
 20
92.699478
 11
102.509567
 21
92.699478
  0
LINE
  8
0
  6
CONTINUOUS
 10
98.840317
 20
96.646500
 11
98.484680
 21
95.883865
  0
LINE
  8
0
  6
CONTINUOUS
 10
99.379074
 20
87.889420
 11
99.379074
 21
92.699478
  0
LINE
  8
0
  6
CONTINUOUS
 10
99.379074
 20
88.498856
 11
100.444244
 21
88.498856
  0
LINE
  8
0
  6
CONTINUOUS
 10
98.878998
 20
95.699966
 11
98.878998
 21
92.699478
  0
LINE
  8
0
  6
CONTINUOUS
 10
102.009491
 20
91.777420
 11
102.009491
 21
92.699478
  0
LINE
  8
0
  6
CONTINUOUS
 10
95.706406
 20
97.179337
 11
94.438354
 21
94.460037
  0
LINE
  8
0
  6
CONTINUOUS
 10
96.100708
 20
96.995499
 11
96.456360
 21
97.758194
  0
LINE
  8
0
  6
CONTINUOUS
 10
97.728775
 20
92.925674
 11
94.438354
 21
94.460037
  0
LINE
  8
0
  6
CONTINUOUS
 10
95.242722
 20
88.777603
 11
97.275558
 21
93.136978
  0
LINE
  8
0
  6
CONTINUOUS
 10
98.878998
 20
95.699966
 11
95.706406
 21
97.179337
  0
LINE
  8
0
  6
CONTINUOUS
 10
98.878998
 20
95.392288
 11
97.728775
 21
92.925674
  0
LINE
  8
0
  6
CONTINUOUS
 10
102.879623
 20
93.890335
 11
102.879623
 21
98.700455
  0
LINE
  8
0
  6
CONTINUOUS
 10
102.509567
 20
95.699966
 11
102.509567
 21
92.699478
  0
LINE
  8
0
  6
CONTINUOUS
 10
102.379547
 20
101.700943
 11
102.379547
 21
98.700455
  0
LINE
  8
0
  6
CENTER
 10
97.818832
 20
88.698868
 11
110.695862
 21
88.698868
  0
LINE
  8
0
  6
CONTINUOUS
 10
102.879623
 20
94.499771
 11
105.510040
 21
94.499771
  0
LINE
  8
0
  6
CONTINUOUS
 10
102.379547
 20
98.700455
 11
106.010117
 21
98.700455
  0
LINE
  8
0
  6
CENTER
 10
100.694275
 20
86.323502
 11
100.694275
 21
76.696976
  0
LINE
  8
0
  6
CENTER
 10
104.194839
 20
78.697281
 11
104.194839
 21
96.450089
  0
LINE
  8
0
  6
CENTER
 10
107.695389
 20
76.696976
 11
107.695389
 21
96.450089
  0
LINE
  8
0
  6
CONTINUOUS
 10
93.116318
 20
90.441544
 11
95.500275
 21
89.329910
  0
LINE
  8
0
  6
CONTINUOUS
 10
92.858765
 20
89.889236
 11
94.891586
 21
94.248672
  0
LINE
  8
0
  6
CENTER
 10
96.128403
 20
82.636429
 11
86.145782
 21
87.291397
  0
LINE
  8
0
  6
CENTER
 10
95.586548
 20
92.626968
 11
89.320618
 21
79.189651
  0
LINE
  8
0
  6
CONTINUOUS
 10
109.010590
 20
95.699966
 11
109.010590
 21
143.199234
  0
LINE
  8
0
  6
CONTINUOUS
 10
106.380173
 20
143.199234
 11
106.380173
 21
95.699966
  0
LINE
  8
0
  6
CONTINUOUS
 10
102.009491
 20
143.199234
 11
102.009491
 21
95.699966
  0
LINE
  8
0
  6
CONTINUOUS
 10
99.379074
 20
95.699966
 11
99.379074
 21
143.199234
  0
LINE
  8
0
  6
CONTINUOUS
 10
109.510666
 20
95.699966
 11
112.683258
 21
97.179337
  0
LINE
  8
0
  6
CONTINUOUS
 10
110.660889
 20
92.925674
 11
113.951309
 21
94.460037
  0
LINE
  8
0
  6
CENTER
 10
94.880859
 20
82.697891
 11
113.383789
 21
82.697891
  0
LINE
  8
0
  6
CONTINUOUS
 10
113.146942
 20
88.777603
 11
111.114120
 21
93.136978
  0
LINE
  8
0
  6
CONTINUOUS
 10
111.195938
 20
146.949844
 11
111.195938
 21
143.199234
  0
LINE
  8
0
  6
CONTINUOUS
 10
112.196091
 20
149.450211
 11
112.196091
 21
146.949844
  0
LINE
  8
0
  6
CONTINUOUS
 10
93.193100
 20
150.200333
 11
96.193573
 21
150.200333
  0
LINE
  8
0
  6
CONTINUOUS
 10
97.193726
 20
146.949844
 11
97.193726
 21
143.199234
  0
LINE
  8
0
  6
CONTINUOUS
 10
93.193100
 20
146.199722
 11
96.193573
 21
146.199722
  0
LINE
  8
0
  6
CONTINUOUS
 10
93.193100
 20
150.200333
 11
93.193100
 21
146.199722
  0
LINE
  8
0
  6
CONTINUOUS
 10
96.193573
 20
150.200333
 11
96.193573
 21
146.199722
  0
LINE
  8
0
  6
CONTINUOUS
 10
97.193726
 20
143.199234
 11
111.195938
 21
143.199234
  0
LINE
  8
0
  6
CONTINUOUS
 10
96.193573
 20
149.450211
 11
112.196091
 21
149.450211
  0
LINE
  8
0
  6
CONTINUOUS
 10
96.193573
 20
146.949844
 11
112.196091
 21
146.949844
  0
LINE
  8
0
  6
CONTINUOUS
 10
111.195938
 20
168.203140
 11
111.195938
 21
149.450211
  0
LINE
  8
0
  6
CONTINUOUS
 10
97.193726
 20
168.203140
 11
97.193726
 21
149.450211
  0
LINE
  8
0
  6
CENTER
 10
104.194839
 20
184.080704
 11
104.194839
 21
140.473160
  0
CIRCLE
  8
0
  6
CONTINUOUS
 10
107.695389
 20
82.697891
 40
2.150338
  0
CIRCLE
  8
0
  6
CONTINUOUS
 10
100.694275
 20
82.697891
 40
2.150338
  0
CIRCLE
  8
0
  6
CONTINUOUS
 10
104.194839
 20
88.698868
 40
2.150338
  0
ARC
  8
0
  6
CONTINUOUS
 10
94.694214
 20
368.452515
 40
1.500000
 50
180.000000
 51
270.000000
  0
ARC
  8
0
  6
CONTINUOUS
 10
100.277817
 20
351.293457
 40
3.000000
 50
66.381584
 51
110.650711
  0
ARC
  8
0
  6
CONTINUOUS
 10
107.393143
 20
351.366821
 40
3.000000
 50
73.000710
 51
110.215172
  0
ARC
  8
0
  6
CONTINUOUS
 10
103.631485
 20
356.375610
 40
3.000000
 50
246.381592
 51
290.215179
  0
ARC
  8
0
  6
CONTINUOUS
 10
113.694214
 20
368.452515
 40
1.500000
 50
-90.000000
 51
0.000000
  0
ARC
  8
0
  6
CONTINUOUS
 10
118.250259
 20
91.157303
 40
3.000476
 50
205.000000
 51
255.263290
  0
ARC
  8
0
  6
CONTINUOUS
 10
116.532944
 20
84.628311
 40
2.150338
 50
104.239098
 51
305.760895
  0
ARC
  8
0
  6
CONTINUOUS
 10
116.532944
 20
84.628311
 40
2.150338
 50
-75.760895
 51
125.760902
  0
ARC
  8
0
  6
CONTINUOUS
 10
116.532944
 20
84.628311
 40
3.750592
 50
-92.818146
 51
75.263367
  0
ARC
  8
0
  6
CONTINUOUS
 10
110.427582
 20
87.509537
 40
3.000476
 50
-25.263306
 51
25.000000
  0
ARC
  8
0
  6
CONTINUOUS
 10
125.527939
 20
104.097427
 40
17.630417
 50
200.468155
 51
204.999893
  0
ARC
  8
0
  6
CONTINUOUS
 10
108.510513
 20
93.890335
 40
3.000476
 50
180.000000
 51
230.263306
  0
ARC
  8
0
  6
CONTINUOUS
 10
82.861725
 20
104.097427
 40
17.630417
 50
335.000122
 51
339.531769
  0
ARC
  8
0
  6
CONTINUOUS
 10
82.861725
 20
104.097427
 40
15.000000
 50
-24.999878
 51
0.000000
  0
ARC
  8
0
  6
CONTINUOUS
 10
99.879150
 20
93.890335
 40
3.000476
 50
-50.263611
 51
0.000000
  0
ARC
  8
0
  6
CONTINUOUS
 10
107.695389
 20
82.697891
 40
3.750592
 50
-158.968201
 51
50.263371
  0
ARC
  8
0
  6
CONTINUOUS
 10
107.695389
 20
82.697891
 40
3.750592
 50
142.411804
 51
158.967697
  0
ARC
  8
0
  6
CONTINUOUS
 10
100.694275
 20
82.697891
 40
3.750592
 50
-230.263107
 51
37.587730
  0
ARC
  8
0
  6
CONTINUOUS
 10
104.194839
 20
88.698868
 40
3.750592
 50
-230.263107
 51
50.263371
  0
ARC
  8
0
  6
CONTINUOUS
 10
112.011063
 20
87.889420
 40
3.000476
 50
180.000000
 51
230.263306
  0
ARC
  8
0
  6
CONTINUOUS
 10
97.962082
 20
87.509537
 40
3.000476
 50
155.000000
 51
205.263306
  0
ARC
  8
0
  6
CONTINUOUS
 10
96.378601
 20
87.889420
 40
3.000476
 50
-50.263611
 51
0.000000
  0
ARC
  8
0
  6
CONTINUOUS
 10
90.139404
 20
91.157303
 40
3.000476
 50
284.736694
 51
335.000000
  0
ARC
  8
0
  6
CONTINUOUS
 10
91.856720
 20
84.628311
 40
2.150338
 50
54.239098
 51
255.760895
  0
ARC
  8
0
  6
CONTINUOUS
 10
91.856720
 20
84.628311
 40
2.150338
 50
-125.760895
 51
75.760902
  0
ARC
  8
0
  6
CONTINUOUS
 10
91.856720
 20
84.628311
 40
3.750592
 50
104.736633
 51
272.818146
  0
ARC
  8
0
  6
CONTINUOUS
 10
91.856720
 20
84.628311
 40
3.750592
 50
-142.818146
 51
25.263371
  0
ARC
  8
0
  6
CONTINUOUS
 10
125.527939
 20
104.097427
 40
15.000000
 50
180.000000
 51
204.999893
  0
ARC
  8
0
  6
CONTINUOUS
 10
116.532944
 20
84.628311
 40
3.750592
 50
154.736633
 51
322.818146
  0
ARC
  8
0
  6
CONTINUOUS
 10
104.194839
 20
168.203140
 40
7.001104
 50
0.000000
 51
180.000000
  0
ARC
  8
0
  6
CONTINUOUS
 10
104.194839
 20
168.203140
 40
11.001738
 50
-50.478821
 51
230.478806
  0
LINE
  8
0
  6
CONTINUOUS
 10
52.658356
 20
487.952057
 11
60.139683
 21
487.962128
  0
LINE
  8
0
  6
CONTINUOUS
 10
86.194778
 20
491.839081
 11
62.972496
 21
491.839081
  0
LINE
  8
0
  6
CONTINUOUS
 10
52.658356
 20
360.952972
 11
60.139683
 21
360.942902
  0
LINE
  8
0
  6
CONTINUOUS
 10
86.194778
 20
357.065979
 11
62.972496
 21
357.065979
  0
LINE
  8
0
  6
CONTINUOUS
 10
87.194778
 20
490.839081
 11
87.194778
 21
358.065979
  0
LINE
  8
0
  6
CONTINUOUS
 10
236.852661
 20
131.337296
 11
266.360168
 21
131.337296
  0
LINE
  8
0
  6
CONTINUOUS
 10
268.652985
 20
141.550888
 11
277.538635
 21
141.550888
  0
LINE
  8
0
  6
CONTINUOUS
 10
226.087906
 20
141.550888
 11
234.759216
 21
141.550888
  0
LINE
  8
0
  6
CONTINUOUS
 10
236.194839
 20
137.819473
 11
236.194839
 21
122.215408
  0
LINE
  8
0
  6
CONTINUOUS
 10
267.194855
 20
137.819473
 11
267.194855
 21
122.215408
  0
LINE
  8
0
  6
CONTINUOUS
 10
226.087906
 20
151.215469
 11
277.538635
 21
151.215469
  0
LINE
  8
0
  6
CONTINUOUS
 10
277.194855
 20
173.215408
 11
260.694855
 21
173.215408
  0
LINE
  8
0
  6
CONTINUOUS
 10
277.194855
 20
158.215408
 11
260.694855
 21
158.215408
  0
LINE
  8
0
  6
CONTINUOUS
 10
281.194855
 20
110.965408
 11
287.194855
 21
110.965408
  0
LINE
  8
0
  6
CONTINUOUS
 10
281.194855
 20
225.465408
 11
287.194855
 21
225.465408
  0
LINE
  8
0
  6
CONTINUOUS
 10
226.087906
 20
154.621155
 11
277.538635
 21
154.621155
  0
LINE
  8
0
  6
CONTINUOUS
 10
257.194855
 20
158.215408
 11
257.694855
 21
158.215408
  0
LINE
  8
0
  6
CONTINUOUS
 10
257.194855
 20
173.215408
 11
257.694855
 21
173.215408
  0
LINE
  8
0
  6
CONTINUOUS
 10
259.194855
 20
156.271454
 11
260.694855
 21
155.414307
  0
LINE
  8
0
  6
CONTINUOUS
 10
257.694855
 20
156.156387
 11
259.194855
 21
157.393860
  0
LINE
  8
0
  6
CONTINUOUS
 10
257.694855
 20
182.215408
 11
257.694855
 21
156.156387
  0
LINE
  8
0
  6
CONTINUOUS
 10
260.694855
 20
182.215408
 11
260.694855
 21
155.414307
  0
LINE
  8
0
  6
CONTINUOUS
 10
259.194855
 20
182.215408
 11
259.194855
 21
156.271454
  0
LINE
  8
0
  6
CONTINUOUS
 10
246.194839
 20
158.215408
 11
226.194839
 21
158.215408
  0
LINE
  8
0
  6
CONTINUOUS
 10
246.194839
 20
173.215408
 11
226.194839
 21
173.215408
  0
LINE
  8
0
  6
CONTINUOUS
 10
256.194855
 20
159.215408
 11
256.194855
 21
172.215408
  0
LINE
  8
0
  6
CONTINUOUS
 10
278.194855
 20
159.215408
 11
278.194855
 21
172.215408
  0
LINE
  8
0
  6
CONTINUOUS
 10
247.194839
 20
172.215408
 11
247.194839
 21
159.215408
  0
LINE
  8
0
  6
CONTINUOUS
 10
225.194839
 20
159.215408
 11
225.194839
 21
172.215408
  0
LINE
  8
0
  6
CONTINUOUS
 10
216.194839
 20
110.965408
 11
222.194839
 21
110.965408
  0
LINE
  8
0
  6
CONTINUOUS
 10
216.194839
 20
225.465408
 11
222.194839
 21
225.465408
  0
LINE
  8
0
  6
CONTINUOUS
 10
226.194839
 20
120.215408
 11
277.194855
 21
120.215408
  0
LINE
  8
0
  6
CONTINUOUS
 10
226.194839
 20
212.215408
 11
277.194855
 21
212.215408
  0
LINE
  8
0
  6
CONTINUOUS
 10
279.194855
 20
112.965408
 11
279.194855
 21
223.465408
  0
LINE
  8
0
  6
CONTINUOUS
 10
224.194839
 20
112.965408
 11
224.194839
 21
223.465408
  0
LINE
  8
0
  6
CONTINUOUS
 10
210.694962
 20
367.202515
 11
222.194778
 21
367.202515
  0
LINE
  8
0
  6
CONTINUOUS
 10
260.694977
 20
369.452515
 11
277.597900
 21
369.452515
  0
LINE
  8
0
  6
CONTINUOUS
 10
257.694977
 20
365.001495
 11
259.194977
 21
365.430054
  0
LINE
  8
0
  6
CONTINUOUS
 10
259.194977
 20
364.443512
 11
260.694977
 21
364.959900
  0
LINE
  8
0
  6
CONTINUOUS
 10
260.694977
 20
369.952515
 11
260.694977
 21
364.959900
  0
LINE
  8
0
  6
CONTINUOUS
 10
259.194977
 20
369.952515
 11
259.194977
 21
364.443512
  0
LINE
  8
0
  6
CONTINUOUS
 10
257.694977
 20
369.952515
 11
257.694977
 21
365.001495
  0
LINE
  8
0
  6
CONTINUOUS
 10
210.694962
 20
369.334747
 11
210.694962
 21
363.202789
  0
LINE
  8
0
  6
CONTINUOUS
 10
209.194962
 20
369.496124
 11
209.194962
 21
362.686401
  0
LINE
  8
0
  6
CONTINUOUS
 10
207.694962
 20
369.388550
 11
207.694962
 21
363.244385
  0
LINE
  8
0
  6
CONTINUOUS
 10
209.194962
 20
362.686401
 11
210.694962
 21
363.202789
  0
LINE
  8
0
  6
CONTINUOUS
 10
207.694962
 20
363.244385
 11
209.194962
 21
363.672943
  0
LINE
  8
0
  6
CONTINUOUS
 10
287.194855
 20
225.715576
 11
287.194855
 21
110.715584
  0
LINE
  8
0
  6
CONTINUOUS
 10
287.194855
 20
110.715584
 11
292.194855
 21
110.715584
  0
LINE
  8
0
  6
CONTINUOUS
 10
287.194855
 20
225.715576
 11
292.194855
 21
225.715576
  0
LINE
  8
0
  6
CONTINUOUS
 10
199.194839
 20
225.715576
 11
199.194839
 21
110.715584
  0
LINE
  8
0
  6
CONTINUOUS
 10
209.199265
 20
156.472946
 11
210.715805
 21
155.563004
  0
LINE
  8
0
  6
CONTINUOUS
 10
207.694839
 20
155.925598
 11
209.169846
 21
157.621841
  0
LINE
  8
0
  6
CONTINUOUS
 10
207.694839
 20
182.215591
 11
207.694839
 21
155.925598
  0
LINE
  8
0
  6
CONTINUOUS
 10
210.694839
 20
182.215591
 11
210.694839
 21
155.528091
  0
LINE
  8
0
  6
CONTINUOUS
 10
209.194839
 20
182.215591
 11
209.194839
 21
156.465591
  0
LINE
  8
0
  6
CONTINUOUS
 10
216.194839
 20
110.965584
 11
199.194839
 21
110.965584
  0
LINE
  8
0
  6
CONTINUOUS
 10
216.194839
 20
225.465576
 11
199.194839
 21
225.465576
  0
LINE
  8
0
  6
CONTINUOUS
 10
216.194839
 20
225.465576
 11
216.194839
 21
110.965584
  0
LINE
  8
0
  6
CONTINUOUS
 10
87.194847
 20
103.715584
 11
56.450611
 21
103.715584
  0
LINE
  8
0
  6
CONTINUOUS
 10
199.194839
 20
110.715584
 11
110.527939
 21
110.715584
  0
LINE
  8
0
  6
CONTINUOUS
 10
191.194839
 20
116.929565
 11
110.527939
 21
116.929565
  0
LINE
  8
0
  6
CONTINUOUS
 10
191.194839
 20
121.215584
 11
110.527939
 21
121.215584
  0
LINE
  8
0
  6
CONTINUOUS
 10
191.194839
 20
123.215584
 11
110.527939
 21
123.215584
  0
LINE
  8
0
  6
CONTINUOUS
 10
191.194839
 20
128.215591
 11
110.527939
 21
128.215591
  0
LINE
  8
0
  6
CONTINUOUS
 10
191.194839
 20
130.215591
 11
110.527939
 21
130.215591
  0
LINE
  8
0
  6
CONTINUOUS
 10
191.194839
 20
135.715591
 11
110.527939
 21
135.715591
  0
LINE
  8
0
  6
CONTINUOUS
 10
191.194839
 20
137.715591
 11
110.527939
 21
137.715591
  0
LINE
  8
0
  6
CONTINUOUS
 10
87.194847
 20
141.215591
 11
97.861725
 21
141.215591
  0
LINE
  8
0
  6
CONTINUOUS
 10
191.194839
 20
208.215591
 11
191.194839
 21
213.215591
  0
LINE
  8
0
  6
CONTINUOUS
 10
191.194839
 20
200.715591
 11
191.194839
 21
206.215591
  0
LINE
  8
0
  6
CONTINUOUS
 10
191.194839
 20
192.615585
 11
191.194839
 21
198.715591
  0
LINE
  8
0
  6
CONTINUOUS
 10
191.194839
 20
184.815598
 11
191.194839
 21
190.615585
  0
LINE
  8
0
  6
CONTINUOUS
 10
191.194839
 20
177.015579
 11
191.194839
 21
182.815598
  0
LINE
  8
0
  6
CONTINUOUS
 10
191.194839
 20
169.215591
 11
191.194839
 21
175.015594
  0
LINE
  8
0
  6
CONTINUOUS
 10
191.194839
 20
161.415588
 11
191.194839
 21
167.215591
  0
LINE
  8
0
  6
CONTINUOUS
 10
154.194839
 20
167.215591
 11
191.194839
 21
167.215591
  0
LINE
  8
0
  6
CONTINUOUS
 10
154.194839
 20
169.215591
 11
191.194839
 21
169.215591
  0
LINE
  8
0
  6
CONTINUOUS
 10
191.194839
 20
153.615585
 11
191.194839
 21
159.415588
  0
LINE
  8
0
  6
CONTINUOUS
 10
191.194839
 20
145.815582
 11
191.194839
 21
151.615585
  0
LINE
  8
0
  6
CONTINUOUS
 10
191.194839
 20
137.715591
 11
191.194839
 21
143.815582
  0
LINE
  8
0
  6
CONTINUOUS
 10
191.194839
 20
130.215591
 11
191.194839
 21
135.715591
  0
LINE
  8
0
  6
CONTINUOUS
 10
191.194839
 20
123.215584
 11
191.194839
 21
128.215591
  0
LINE
  8
0
  6
CONTINUOUS
 10
191.194839
 20
116.929565
 11
191.194839
 21
121.215584
  0
LINE
  8
0
  6
CONTINUOUS
 10
87.194847
 20
116.929565
 11
97.861725
 21
116.929565
  0
LINE
  8
0
  6
CONTINUOUS
 10
87.194847
 20
219.501602
 11
191.194839
 21
219.501602
  0
LINE
  8
0
  6
CONTINUOUS
 10
87.194847
 20
121.215584
 11
97.861725
 21
121.215584
  0
LINE
  8
0
  6
CONTINUOUS
 10
87.194847
 20
215.215576
 11
191.194839
 21
215.215576
  0
LINE
  8
0
  6
CONTINUOUS
 10
87.194847
 20
123.215584
 11
97.861725
 21
123.215584
  0
LINE
  8
0
  6
CONTINUOUS
 10
87.194847
 20
213.215591
 11
191.194839
 21
213.215591
  0
LINE
  8
0
  6
CONTINUOUS
 10
87.194847
 20
128.215591
 11
97.861725
 21
128.215591
  0
LINE
  8
0
  6
CONTINUOUS
 10
87.194847
 20
208.215591
 11
191.194839
 21
208.215591
  0
LINE
  8
0
  6
CONTINUOUS
 10
87.194847
 20
130.215591
 11
97.861725
 21
130.215591
  0
LINE
  8
0
  6
CONTINUOUS
 10
87.194847
 20
206.215591
 11
191.194839
 21
206.215591
  0
LINE
  8
0
  6
CONTINUOUS
 10
87.194847
 20
135.715591
 11
97.861725
 21
135.715591
  0
LINE
  8
0
  6
CONTINUOUS
 10
87.194847
 20
200.715591
 11
191.194839
 21
200.715591
  0
LINE
  8
0
  6
CONTINUOUS
 10
87.194847
 20
137.715591
 11
97.861725
 21
137.715591
  0
LINE
  8
0
  6
CONTINUOUS
 10
87.194847
 20
198.715591
 11
191.194839
 21
198.715591
  0
LINE
  8
0
  6
CONTINUOUS
 10
154.194839
 20
143.815582
 11
191.194839
 21
143.815582
  0
LINE
  8
0
  6
CONTINUOUS
 10
154.194839
 20
192.615585
 11
191.194839
 21
192.615585
  0
LINE
  8
0
  6
CONTINUOUS
 10
154.194839
 20
145.815582
 11
191.194839
 21
145.815582
  0
LINE
  8
0
  6
CONTINUOUS
 10
154.194839
 20
190.615585
 11
191.194839
 21
190.615585
  0
LINE
  8
0
  6
CONTINUOUS
 10
154.194839
 20
151.615585
 11
191.194839
 21
151.615585
  0
LINE
  8
0
  6
CONTINUOUS
 10
154.194839
 20
153.615585
 11
191.194839
 21
153.615585
  0
LINE
  8
0
  6
CONTINUOUS
 10
154.194839
 20
184.815598
 11
191.194839
 21
184.815598
  0
LINE
  8
0
  6
CONTINUOUS
 10
154.194839
 20
182.815598
 11
191.194839
 21
182.815598
  0
LINE
  8
0
  6
CONTINUOUS
 10
154.194839
 20
159.415588
 11
191.194839
 21
159.415588
  0
LINE
  8
0
  6
CONTINUOUS
 10
154.194839
 20
177.015579
 11
191.194839
 21
177.015579
  0
LINE
  8
0
  6
CONTINUOUS
 10
154.194839
 20
161.415588
 11
191.194839
 21
161.415588
  0
LINE
  8
0
  6
CONTINUOUS
 10
154.194839
 20
175.015579
 11
191.194839
 21
175.015579
  0
LINE
  8
0
  6
CONTINUOUS
 10
154.194839
 20
143.215591
 11
154.194839
 21
193.215591
  0
LINE
  8
0
  6
CONTINUOUS
 10
152.194839
 20
141.215591
 11
110.527939
 21
141.215591
  0
LINE
  8
0
  6
CONTINUOUS
 10
152.194839
 20
195.215591
 11
87.194847
 21
195.215591
  0
LINE
  8
0
  6
CONTINUOUS
 10
191.194839
 20
219.501602
 11
191.194839
 21
215.215576
  0
LINE
  8
0
  6
CONTINUOUS
 10
87.194847
 20
110.715584
 11
97.861725
 21
110.715584
  0
LINE
  8
0
  6
CONTINUOUS
 10
87.194847
 20
225.715576
 11
199.194839
 21
225.715576
  0
LINE
  8
0
  6
CONTINUOUS
 10
87.194847
 20
235.715576
 11
87.194847
 21
103.715584
  0
LINE
  8
0
  6
CONTINUOUS
 10
56.454548
 20
235.715576
 11
87.194847
 21
235.715576
  0
LINE
  8
0
  6
CONTINUOUS
 10
51.733143
 20
104.715584
 11
55.431049
 21
104.715584
  0
LINE
  8
0
  6
CONTINUOUS
 10
51.733082
 20
231.715576
 11
55.431049
 21
231.715576
  0
LINE
  8
0
  6
CONTINUOUS
 10
209.370178
 20
369.605499
 11
209.844131
 21
369.619171
  0
LINE
  8
0
  6
CONTINUOUS
 10
208.786850
 20
369.596375
 11
209.370178
 21
369.605499
  0
LINE
  8
0
  6
CONTINUOUS
 10
208.505890
 20
369.589081
 11
208.786850
 21
369.596375
  0
LINE
  8
0
  6
CONTINUOUS
 10
210.837952
 20
368.582306
 11
210.694962
 21
368.575470
  0
LINE
  8
0
  6
CONTINUOUS
 10
211.345413
 20
368.728424
 11
210.846741
 21
368.598328
  0
LINE
  8
0
  6
CONTINUOUS
 10
211.502991
 20
368.908234
 11
211.357162
 21
368.762390
  0
LINE
  8
0
  6
CONTINUOUS
 10
211.466537
 20
369.126984
 11
211.552216
 21
368.955627
  0
LINE
  8
0
  6
CONTINUOUS
 10
211.315659
 20
369.321228
 11
211.466537
 21
369.145203
  0
LINE
  8
0
  6
CONTINUOUS
 10
211.101944
 20
369.363953
 11
211.284241
 21
369.291046
  0
LINE
  8
0
  6
CONTINUOUS
 10
210.755600
 20
369.436890
 11
211.101944
 21
369.363953
  0
LINE
  8
0
  6
CONTINUOUS
 10
210.226944
 20
369.528015
 11
210.755600
 21
369.436890
  0
LINE
  8
0
  6
CONTINUOUS
 10
209.844131
 20
369.619171
 11
210.226944
 21
369.528015
  0
LINE
  8
0
  6
CONTINUOUS
 10
207.458923
 20
368.584320
 11
207.694962
 21
368.554810
  0
LINE
  8
0
  6
CONTINUOUS
 10
207.048462
 20
368.633820
 11
207.456116
 21
368.561890
  0
LINE
  8
0
  6
CONTINUOUS
 10
206.891006
 20
368.817078
 11
207.055069
 21
368.671234
  0
LINE
  8
0
  6
CONTINUOUS
 10
206.836319
 20
369.072296
 11
206.857819
 21
368.814331
  0
LINE
  8
0
  6
CONTINUOUS
 10
207.058624
 20
369.289581
 11
206.825027
 21
369.085205
  0
LINE
  8
0
  6
CONTINUOUS
 10
207.693726
 20
369.508148
 11
207.073303
 21
369.272827
  0
LINE
  8
0
  6
CONTINUOUS
 10
208.505890
 20
369.589081
 11
207.693100
 21
369.509796
  0
LINE
  8
0
  6
CONTINUOUS
 10
255.194778
 20
372.481354
 11
255.194778
 21
369.952515
  0
LINE
  8
0
  6
CONTINUOUS
 10
263.194794
 20
372.481354
 11
263.194794
 21
369.952515
  0
LINE
  8
0
  6
CONTINUOUS
 10
255.194778
 20
369.952515
 11
263.194794
 21
369.952515
  0
LINE
  8
0
  6
CONTINUOUS
 10
225.791656
 20
457.452515
 11
277.597900
 21
457.452515
  0
LINE
  8
0
  6
CONTINUOUS
 10
225.791656
 20
391.452515
 11
277.597900
 21
391.452515
  0
LINE
  8
0
  6
CONTINUOUS
 10
225.791656
 20
369.452515
 11
257.694977
 21
369.452515
  0
LINE
  8
0
  6
CONTINUOUS
 10
225.791656
 20
479.452515
 11
277.597900
 21
479.452515
  0
LINE
  8
0
  6
CONTINUOUS
 10
281.194794
 20
481.702515
 11
287.194794
 21
481.702515
  0
LINE
  8
0
  6
CONTINUOUS
 10
281.194794
 20
367.202515
 11
287.194794
 21
367.202515
  0
LINE
  8
0
  6
CONTINUOUS
 10
199.194778
 20
367.202515
 11
207.694962
 21
367.202515
  0
LINE
  8
0
  6
CONTINUOUS
 10
199.194778
 20
481.702515
 11
222.194778
 21
481.702515
  0
LINE
  8
0
  6
CONTINUOUS
 10
224.194778
 20
369.202515
 11
224.194778
 21
479.702515
  0
LINE
  8
0
  6
CONTINUOUS
 10
216.194778
 20
367.202515
 11
216.194778
 21
481.702515
  0
LINE
  8
0
  6
CONTINUOUS
 10
279.194794
 20
369.202515
 11
279.194794
 21
479.702515
  0
LINE
  8
0
  6
CONTINUOUS
 10
287.194794
 20
481.952515
 11
287.194794
 21
366.952515
  0
LINE
  8
0
  6
CONTINUOUS
 10
287.194794
 20
366.952515
 11
292.194794
 21
366.952515
  0
LINE
  8
0
  6
CONTINUOUS
 10
287.194794
 20
481.952515
 11
292.194794
 21
481.952515
  0
LINE
  8
0
  6
CONTINUOUS
 10
153.169174
 20
368.453369
 11
133.717163
 21
368.453308
  0
LINE
  8
0
  6
CONTINUOUS
 10
87.194778
 20
368.453369
 11
133.717163
 21
368.453369
  0
LINE
  8
0
  6
CONTINUOUS
 10
87.194778
 20
373.651917
 11
154.169159
 21
373.651917
  0
LINE
  8
0
  6
CONTINUOUS
 10
87.194778
 20
376.557678
 11
191.168579
 21
376.557678
  0
LINE
  8
0
  6
CONTINUOUS
 10
88.194778
 20
380.600311
 11
190.168594
 21
380.600311
  0
LINE
  8
0
  6
CONTINUOUS
 10
88.194778
 20
387.403107
 11
190.168594
 21
387.403107
  0
LINE
  8
0
  6
CONTINUOUS
 10
154.169159
 20
367.452515
 11
154.169159
 21
373.651917
  0
LINE
  8
0
  6
CONTINUOUS
 10
191.168579
 20
366.952515
 11
191.168579
 21
398.453003
  0
LINE
  8
0
  6
CONTINUOUS
 10
154.669144
 20
367.494415
 11
191.168579
 21
367.494415
  0
LINE
  8
0
  6
CONTINUOUS
 10
154.169159
 20
369.149750
 11
191.168579
 21
369.149750
  0
LINE
  8
0
  6
CONTINUOUS
 10
154.169159
 20
372.026794
 11
191.168579
 21
372.026794
  0
LINE
  8
0
  6
CONTINUOUS
 10
87.194778
 20
382.588135
 11
191.168579
 21
382.588135
  0
LINE
  8
0
  6
CONTINUOUS
 10
87.194778
 20
390.682495
 11
191.168579
 21
390.682495
  0
LINE
  8
0
  6
CONTINUOUS
 10
87.194778
 20
398.453003
 11
191.168579
 21
398.453003
  0
LINE
  8
0
  6
CONTINUOUS
 10
191.168579
 20
481.952515
 11
191.168579
 21
450.451996
  0
LINE
  8
0
  6
CONTINUOUS
 10
87.194778
 20
481.410583
 11
191.168579
 21
481.410583
  0
LINE
  8
0
  6
CONTINUOUS
 10
87.194778
 20
479.755249
 11
191.168579
 21
479.755249
  0
LINE
  8
0
  6
CONTINUOUS
 10
87.194778
 20
476.878174
 11
191.168579
 21
476.878174
  0
LINE
  8
0
  6
CONTINUOUS
 10
87.194778
 20
472.347321
 11
191.168579
 21
472.347321
  0
LINE
  8
0
  6
CONTINUOUS
 10
88.194778
 20
468.304688
 11
190.168594
 21
468.304688
  0
LINE
  8
0
  6
CONTINUOUS
 10
87.194778
 20
466.316864
 11
191.168579
 21
466.316864
  0
LINE
  8
0
  6
CONTINUOUS
 10
88.194778
 20
461.501892
 11
190.168594
 21
461.501892
  0
LINE
  8
0
  6
CONTINUOUS
 10
87.194778
 20
458.222504
 11
191.168579
 21
458.222504
  0
LINE
  8
0
  6
CONTINUOUS
 10
87.194778
 20
450.451996
 11
191.168579
 21
450.451996
  0
LINE
  8
0
  6
CONTINUOUS
 10
199.194778
 20
366.952515
 11
154.669159
 21
366.952515
  0
LINE
  8
0
  6
CONTINUOUS
 10
87.194778
 20
481.952515
 11
199.194778
 21
481.952515
  0
LINE
  8
0
  6
CONTINUOUS
 10
199.194778
 20
481.952515
 11
199.194778
 21
366.952515
  0
LINE
  8
0
  6
DASHED
 10
375.694855
 20
116.307869
 11
363.694824
 21
116.307869
  0
LINE
  8
0
  6
DASHED
 10
375.694855
 20
127.307869
 11
363.694824
 21
127.307869
  0
LINE
  8
0
  6
DASHED
 10
375.694855
 20
247.123062
 11
363.694824
 21
247.123062
  0
LINE
  8
0
  6
DASHED
 10
375.694855
 20
258.123047
 11
363.694824
 21
258.123047
  0
LINE
  8
0
  6
DASHED
 10
375.694855
 20
353.544891
 11
363.694824
 21
353.544891
  0
LINE
  8
0
  6
DASHED
 10
375.694855
 20
364.544891
 11
363.694824
 21
364.544891
  0
LINE
  8
0
  6
DASHED
 10
375.694855
 20
484.360107
 11
363.694824
 21
484.360107
  0
LINE
  8
0
  6
DASHED
 10
375.694855
 20
495.360107
 11
363.694824
 21
495.360107
  0
LINE
  8
0
  6
CONTINUOUS
 10
387.694855
 20
413.869507
 11
422.694855
 21
413.869507
  0
LINE
  8
0
  6
CONTINUOUS
 10
301.642456
 20
358.558624
 11
305.694855
 21
358.452515
  0
LINE
  8
0
  6
CONTINUOUS
 10
301.642456
 20
490.346375
 11
305.694855
 21
490.452515
  0
LINE
  8
0
  6
CONTINUOUS
 10
358.825867
 20
355.057709
 11
342.366669
 21
355.488892
  0
LINE
  8
0
  6
CONTINUOUS
 10
358.825867
 20
493.847290
 11
342.366669
 21
493.416107
  0
LINE
  8
0
  6
CONTINUOUS
 10
296.799561
 20
225.876266
 11
292.194855
 21
225.715469
  0
LINE
  8
0
  6
CONTINUOUS
 10
296.799561
 20
110.554665
 11
292.194855
 21
110.715469
  0
LINE
  8
0
  6
CENTER
 10
381.093262
 20
121.807388
 11
359.372772
 21
121.807388
  0
LINE
  8
0
  6
CONTINUOUS
 10
375.195160
 20
269.698059
 11
375.694855
 21
269.215485
  0
LINE
  8
0
  6
CONTINUOUS
 10
375.195160
 20
269.698059
 11
366.589966
 21
269.397522
  0
LINE
  8
0
  6
CONTINUOUS
 10
375.195160
 20
98.232872
 11
375.694855
 21
98.715431
  0
LINE
  8
0
  6
CONTINUOUS
 10
379.195068
 20
113.215469
 11
379.695068
 21
113.715469
  0
LINE
  8
0
  6
CONTINUOUS
 10
379.695068
 20
260.715485
 11
379.195068
 21
261.215485
  0
LINE
  8
0
  6
CENTER
 10
381.093262
 20
121.807869
 11
359.372772
 21
121.807869
  0
LINE
  8
0
  6
CENTER
 10
381.093262
 20
252.623062
 11
359.372772
 21
252.623062
  0
LINE
  8
0
  6
CONTINUOUS
 10
305.069855
 20
114.898567
 11
300.569855
 21
114.898567
  0
LINE
  8
0
  6
CONTINUOUS
 10
305.069855
 20
131.718597
 11
300.569855
 21
131.718597
  0
LINE
  8
0
  6
CONTINUOUS
 10
299.694855
 20
104.320900
 11
299.694855
 21
234.110046
  0
LINE
  8
0
  6
CONTINUOUS
 10
301.642517
 20
102.321587
 11
305.694855
 21
102.215469
  0
LINE
  8
0
  6
CONTINUOUS
 10
301.642517
 20
236.109360
 11
305.694855
 21
236.215469
  0
LINE
  8
0
  6
CONTINUOUS
 10
390.695068
 20
184.215469
 11
422.694855
 21
184.215469
  0
LINE
  8
0
  6
CONTINUOUS
 10
390.695068
 20
190.215469
 11
422.694855
 21
190.215469
  0
LINE
  8
0
  6
CONTINUOUS
 10
422.694855
 20
198.215469
 11
422.694855
 21
176.215469
  0
LINE
  8
0
  6
CONTINUOUS
 10
382.694855
 20
176.215469
 11
422.694855
 21
176.215469
  0
LINE
  8
0
  6
CONTINUOUS
 10
382.695068
 20
198.215469
 11
422.694855
 21
198.215469
  0
LINE
  8
0
  6
CONTINUOUS
 10
380.694855
 20
199.215469
 11
382.695068
 21
199.215469
  0
LINE
  8
0
  6
CONTINUOUS
 10
382.695068
 20
199.215469
 11
382.695068
 21
175.215469
  0
LINE
  8
0
  6
CONTINUOUS
 10
380.695068
 20
175.215469
 11
382.695068
 21
175.215469
  0
LINE
  8
0
  6
CONTINUOUS
 10
358.825867
 20
239.610291
 11
342.366669
 21
239.179108
  0
LINE
  8
0
  6
CONTINUOUS
 10
375.195160
 20
98.232872
 11
335.254242
 21
99.626968
  0
LINE
  8
0
  6
CONTINUOUS
 10
379.695068
 20
113.715469
 11
379.695068
 21
256.715485
  0
LINE
  8
0
  6
CONTINUOUS
 10
375.694855
 20
269.215485
 11
375.694855
 21
98.715431
  0
LINE
  8
0
  6
CONTINUOUS
 10
379.695068
 20
260.715485
 11
379.695068
 21
256.715485
  0
LINE
  8
0
  6
CONTINUOUS
 10
305.694855
 20
114.898590
 11
360.410645
 21
113.466187
  0
LINE
  8
0
  6
CONTINUOUS
 10
305.694855
 20
131.718597
 11
360.902466
 21
132.200394
  0
LINE
  8
0
  6
CONTINUOUS
 10
363.694855
 20
101.531387
 11
363.694641
 21
266.399353
  0
LINE
  8
0
  6
CONTINUOUS
 10
380.695068
 20
214.292999
 11
380.695068
 21
160.137863
  0
LINE
  8
0
  6
CONTINUOUS
 10
379.195068
 20
113.215469
 11
375.694855
 21
113.215469
  0
LINE
  8
0
  6
CONTINUOUS
 10
379.195068
 20
261.215485
 11
375.694855
 21
261.215485
  0
LINE
  8
0
  6
CENTER
 10
430.337463
 20
187.215469
 11
339.959869
 21
187.215469
  0
LINE
  8
0
  6
CONTINUOUS
 10
305.694855
 20
102.215431
 11
305.694641
 21
236.215485
  0
LINE
  8
0
  6
CENTER
 10
24.291250
 20
168.215469
 11
354.267365
 21
168.215469
  0
LINE
  8
0
  6
CONTINUOUS
 10
296.799561
 20
366.791687
 11
292.194794
 21
366.952515
  0
LINE
  8
0
  6
CONTINUOUS
 10
296.799561
 20
482.113312
 11
292.194794
 21
481.952423
  0
LINE
  8
0
  6
CENTER
 10
381.093262
 20
359.044891
 11
359.372772
 21
359.044891
  0
LINE
  8
0
  6
CENTER
 10
381.093262
 20
489.860107
 11
359.372772
 21
489.860107
  0
LINE
  8
0
  6
CONTINUOUS
 10
375.195160
 20
506.435059
 11
375.694855
 21
505.952515
  0
LINE
  8
0
  6
CONTINUOUS
 10
366.589874
 20
506.134552
 11
375.195160
 21
506.435059
  0
LINE
  8
0
  6
CONTINUOUS
 10
375.195160
 20
342.469940
 11
375.694855
 21
342.952515
  0
LINE
  8
0
  6
CONTINUOUS
 10
379.194855
 20
498.452454
 11
379.694855
 21
497.952454
  0
LINE
  8
0
  6
CONTINUOUS
 10
379.194855
 20
350.452515
 11
379.694855
 21
350.952515
  0
LINE
  8
0
  6
CONTINUOUS
 10
299.694794
 20
488.347076
 11
299.694794
 21
360.557922
  0
LINE
  8
0
  6
CONTINUOUS
 10
387.694855
 20
410.952423
 11
422.694855
 21
410.952423
  0
LINE
  8
0
  6
CONTINUOUS
 10
422.694855
 20
413.452423
 11
422.694855
 21
410.952423
  0
LINE
  8
0
  6
CONTINUOUS
 10
387.694855
 20
413.869507
 11
387.694855
 21
410.952423
  0
LINE
  8
0
  6
CONTINUOUS
 10
379.694855
 20
394.452515
 11
380.694855
 21
394.452515
  0
LINE
  8
0
  6
CONTINUOUS
 10
379.694855
 20
454.452515
 11
380.694855
 21
454.452515
  0
LINE
  8
0
  6
CONTINUOUS
 10
380.694855
 20
454.452515
 11
380.694855
 21
394.452515
  0
LINE
  8
0
  6
CONTINUOUS
 10
379.194855
 20
350.452515
 11
375.694855
 21
350.452515
  0
LINE
  8
0
  6
CONTINUOUS
 10
379.194855
 20
498.452454
 11
375.694855
 21
498.452454
  0
LINE
  8
0
  6
CONTINUOUS
 10
379.694855
 20
497.952454
 11
379.694855
 21
350.952515
  0
LINE
  8
0
  6
CONTINUOUS
 10
366.589874
 20
342.770447
 11
375.195160
 21
342.469940
  0
LINE
  8
0
  6
CONTINUOUS
 10
375.694855
 20
342.952515
 11
375.694855
 21
505.952454
  0
LINE
  8
0
  6
CONTINUOUS
 10
363.694550
 20
345.768646
 11
363.694550
 21
503.136383
  0
LINE
  8
0
  6
CONTINUOUS
 10
305.694855
 20
490.452515
 11
305.694855
 21
358.452454
  0
LINE
  8
0
  6
CONTINUOUS
 10
422.694855
 20
435.452515
 11
422.694855
 21
413.452423
  0
LINE
  8
0
  6
CONTINUOUS
 10
382.694855
 20
413.452423
 11
387.694855
 21
413.452423
  0
LINE
  8
0
  6
CONTINUOUS
 10
382.694855
 20
435.452515
 11
422.694855
 21
435.452515
  0
LINE
  8
0
  6
CONTINUOUS
 10
380.694855
 20
436.452515
 11
382.694855
 21
436.452515
  0
LINE
  8
0
  6
CONTINUOUS
 10
382.694855
 20
436.452515
 11
382.694855
 21
412.452423
  0
LINE
  8
0
  6
CONTINUOUS
 10
380.694855
 20
412.452423
 11
382.694855
 21
412.452423
  0
LINE
  8
0
  6
CONTINUOUS
 10
292.194794
 20
481.952515
 11
292.194794
 21
366.952515
  0
LINE
  8
0
  6
CONTINUOUS
 10
592.644775
 20
184.215469
 11
598.644775
 21
184.215469
  0
LINE
  8
0
  6
CONTINUOUS
 10
592.644775
 20
190.215469
 11
598.644775
 21
190.215469
  0
LINE
  8
0
  6
CONTINUOUS
 10
592.644775
 20
190.215469
 11
592.644775
 21
184.215469
  0
LINE
  8
0
  6
CONTINUOUS
 10
598.644775
 20
190.215469
 11
598.644775
 21
184.215469
  0
LINE
  8
0
  6
CONTINUOUS
 10
650.498779
 20
235.813065
 11
641.338013
 21
226.652084
  0
LINE
  8
0
  6
CONTINUOUS
 10
654.741394
 20
231.570389
 11
647.271973
 21
224.100784
  0
LINE
  8
0
  6
CONTINUOUS
 10
557.548157
 20
231.570496
 11
565.017578
 21
224.100876
  0
LINE
  8
0
  6
CONTINUOUS
 10
561.790955
 20
235.813065
 11
570.951782
 21
226.652084
  0
LINE
  8
0
  6
CONTINUOUS
 10
603.144775
 20
252.942184
 11
603.144775
 21
236.954163
  0
LINE
  8
0
  6
CONTINUOUS
 10
609.144775
 20
252.942062
 11
609.144775
 21
236.954163
  0
LINE
  8
0
  6
CENTER
 10
684.823975
 20
108.534714
 11
524.975769
 21
268.386353
  0
LINE
  8
0
  6
CENTER
 10
527.620605
 20
108.689751
 11
686.088989
 21
267.161224
  0
LINE
  8
0
  6
CENTER
 10
504.095001
 20
187.215469
 11
704.058777
 21
187.215469
  0
LINE
  8
0
  6
CENTER
 10
504.095001
 20
168.215469
 11
704.058777
 21
168.215469
  0
LINE
  8
0
  6
CENTER
 10
606.144775
 20
289.335449
 11
606.144775
 21
81.185471
  0
LINE
  8
0
  6
CONTINUOUS
 10
292.194855
 20
225.715469
 11
292.194855
 21
110.715469
  0
LINE
  8
0
  6
CENTER
 10
25.008438
 20
424.452515
 11
435.694855
 21
424.452515
  0
CIRCLE
  8
0
  6
CENTER
 10
606.144775
 20
187.215469
 40
92.500000
  0
CIRCLE
  8
0
  6
CONTINUOUS
 10
606.144775
 20
187.215469
 40
30.000000
  0
CIRCLE
  8
0
  6
CONTINUOUS
 10
606.144775
 20
187.215469
 40
69.000000
  0
CIRCLE
  8
0
  6
CONTINUOUS
 10
606.144775
 20
187.215469
 40
74.000000
  0
CIRCLE
  8
0
  6
CONTINUOUS
 10
671.551575
 20
121.807388
 40
5.500000
  0
CIRCLE
  8
0
  6
CONTINUOUS
 10
540.738220
 20
121.807388
 40
5.500000
  0
CIRCLE
  8
0
  6
CONTINUOUS
 10
540.737610
 20
252.623062
 40
5.500000
  0
CIRCLE
  8
0
  6
CONTINUOUS
 10
671.551575
 20
252.623596
 40
5.500000
  0
ARC
  8
0
  6
CONTINUOUS
 10
86.194778
 20
490.839081
 40
1.000000
 50
0.000000
 51
90.000000
  0
ARC
  8
0
  6
CONTINUOUS
 10
60.138336
 20
488.962128
 40
1.000000
 50
270.077026
 51
348.586853
  0
ARC
  8
0
  6
CONTINUOUS
 10
62.972496
 20
490.339081
 40
1.500000
 50
90.000000
 51
168.248474
  0
ARC
  8
0
  6
CONTINUOUS
 10
86.194778
 20
358.065979
 40
1.000000
 50
-90.000000
 51
0.000000
  0
ARC
  8
0
  6
CONTINUOUS
 10
62.972496
 20
358.565979
 40
1.500000
 50
191.751526
 51
270.000000
  0
ARC
  8
0
  6
CONTINUOUS
 10
60.138336
 20
359.942902
 40
1.000000
 50
11.413143
 51
89.922981
  0
ARC
  8
0
  6
CONTINUOUS
 10
52.763073
 20
372.952515
 40
12.000000
 50
189.033508
 51
269.500000
  0
ARC
  8
0
  6
CONTINUOUS
 10
376.694794
 20
424.452515
 40
340.000000
 50
170.966492
 51
189.033508
  0
ARC
  8
0
  6
CONTINUOUS
 10
379.691956
 20
424.452515
 40
325.000000
 50
168.248474
 51
191.751526
  0
ARC
  8
0
  6
CONTINUOUS
 10
52.763073
 20
475.952515
 40
12.000000
 50
90.500000
 51
170.966492
  0
ARC
  8
0
  6
CONTINUOUS
 10
259.194855
 20
182.215408
 40
4.000000
 50
-67.975677
 51
247.975693
  0
ARC
  8
0
  6
CONTINUOUS
 10
269.194855
 20
122.215408
 40
2.000000
 50
180.000000
 51
270.000000
  0
ARC
  8
0
  6
CONTINUOUS
 10
234.194839
 20
122.215408
 40
2.000000
 50
-90.000000
 51
0.000000
  0
ARC
  8
0
  6
CONTINUOUS
 10
258.444855
 20
182.215408
 40
0.750000
 50
0.000000
 51
180.000000
  0
ARC
  8
0
  6
CONTINUOUS
 10
259.944855
 20
182.215408
 40
0.750000
 50
0.000000
 51
180.000000
  0
ARC
  8
0
  6
CONTINUOUS
 10
277.194855
 20
159.215408
 40
1.000000
 50
-90.000000
 51
0.000000
  0
ARC
  8
0
  6
CONTINUOUS
 10
277.194855
 20
172.215408
 40
1.000000
 50
0.000000
 51
90.000000
  0
ARC
  8
0
  6
CONTINUOUS
 10
257.194855
 20
159.215408
 40
1.000000
 50
180.000000
 51
270.000000
  0
ARC
  8
0
  6
CONTINUOUS
 10
257.194855
 20
172.215408
 40
1.000000
 50
90.000000
 51
180.000000
  0
ARC
  8
0
  6
CONTINUOUS
 10
246.194839
 20
172.215408
 40
1.000000
 50
0.000000
 51
90.000000
  0
ARC
  8
0
  6
CONTINUOUS
 10
246.194839
 20
159.215408
 40
1.000000
 50
-90.000000
 51
0.000000
  0
ARC
  8
0
  6
CONTINUOUS
 10
226.194839
 20
159.215408
 40
1.000000
 50
180.000000
 51
270.000000
  0
ARC
  8
0
  6
CONTINUOUS
 10
226.194839
 20
172.215408
 40
1.000000
 50
90.000000
 51
180.000000
  0
ARC
  8
0
  6
CONTINUOUS
 10
222.194839
 20
112.965408
 40
2.000000
 50
-90.000000
 51
0.000000
  0
ARC
  8
0
  6
CONTINUOUS
 10
281.194855
 20
112.965408
 40
2.000000
 50
180.000000
 51
270.000000
  0
ARC
  8
0
  6
CONTINUOUS
 10
281.194855
 20
223.465424
 40
2.000000
 50
90.000000
 51
180.000000
  0
ARC
  8
0
  6
CONTINUOUS
 10
222.194839
 20
223.465408
 40
2.000000
 50
0.000000
 51
90.000000
  0
ARC
  8
0
  6
CONTINUOUS
 10
277.194855
 20
118.215408
 40
2.000000
 50
0.000000
 51
90.000000
  0
ARC
  8
0
  6
CONTINUOUS
 10
226.194839
 20
118.215424
 40
2.000000
 50
90.000000
 51
180.000000
  0
ARC
  8
0
  6
CONTINUOUS
 10
277.194855
 20
214.215408
 40
2.000000
 50
-90.000000
 51
0.000000
  0
ARC
  8
0
  6
CONTINUOUS
 10
226.194839
 20
214.215408
 40
2.000000
 50
180.000000
 51
270.000000
  0
ARC
  8
0
  6
CONTINUOUS
 10
209.194839
 20
182.215591
 40
3.000000
 50
-59.999939
 51
239.999893
  0
ARC
  8
0
  6
CONTINUOUS
 10
208.444839
 20
182.215591
 40
0.750000
 50
0.000000
 51
180.000000
  0
ARC
  8
0
  6
CONTINUOUS
 10
209.944839
 20
182.215591
 40
0.750000
 50
0.000000
 51
180.000000
  0
ARC
  8
0
  6
CONTINUOUS
 10
56.450611
 20
104.715584
 40
1.000000
 50
168.767807
 51
270.000000
  0
ARC
  8
0
  6
CONTINUOUS
 10
89.194847
 20
143.215591
 40
2.000000
 50
180.000000
 51
270.000000
  0
ARC
  8
0
  6
CONTINUOUS
 10
89.194847
 20
193.215591
 40
2.000000
 50
90.000000
 51
180.000000
  0
ARC
  8
0
  6
CONTINUOUS
 10
152.194839
 20
143.215591
 40
2.000000
 50
-90.000000
 51
0.000000
  0
ARC
  8
0
  6
CONTINUOUS
 10
152.194839
 20
193.215591
 40
2.000000
 50
0.000000
 51
90.000000
  0
ARC
  8
0
  6
CONTINUOUS
 10
51.733082
 20
116.715584
 40
12.000000
 50
186.752396
 51
270.000000
  0
ARC
  8
0
  6
CONTINUOUS
 10
56.454548
 20
234.215576
 40
1.500000
 50
90.000000
 51
191.662598
  0
ARC
  8
0
  6
CONTINUOUS
 10
51.733112
 20
219.715576
 40
12.000000
 50
90.000000
 51
173.247894
  0
ARC
  8
0
  6
CONTINUOUS
 10
-263.305145
 20
168.215591
 40
325.000000
 50
-11.267181
 51
11.662340
  0
ARC
  8
0
  6
CONTINUOUS
 10
486.694855
 20
168.215591
 40
450.000000
 50
173.247604
 51
186.752502
  0
ARC
  8
0
  6
CONTINUOUS
 10
259.194794
 20
363.316193
 40
10.000000
 50
66.421822
 51
113.578178
  0
ARC
  8
0
  6
CONTINUOUS
 10
225.791656
 20
367.452515
 40
2.000000
 50
90.000000
 51
154.055527
  0
ARC
  8
0
  6
CONTINUOUS
 10
277.597900
 20
367.452515
 40
2.000000
 50
25.944489
 51
90.000000
  0
ARC
  8
0
  6
CONTINUOUS
 10
281.194794
 20
369.202515
 40
2.000000
 50
180.000000
 51
270.000000
  0
ARC
  8
0
  6
CONTINUOUS
 10
222.194778
 20
369.202515
 40
2.000000
 50
-90.000000
 51
0.000000
  0
ARC
  8
0
  6
CONTINUOUS
 10
225.791656
 20
481.452515
 40
2.000000
 50
205.944473
 51
270.000000
  0
ARC
  8
0
  6
CONTINUOUS
 10
277.597900
 20
481.452515
 40
2.000000
 50
270.000000
 51
334.055511
  0
ARC
  8
0
  6
CONTINUOUS
 10
281.194794
 20
479.702515
 40
2.000000
 50
90.000000
 51
180.000000
  0
ARC
  8
0
  6
CONTINUOUS
 10
222.194778
 20
479.702515
 40
2.000000
 50
0.000000
 51
90.000000
  0
ARC
  8
0
  6
CONTINUOUS
 10
154.669159
 20
367.452515
 40
0.500000
 50
180.000000
 51
270.000000
  0
ARC
  8
0
  6
CONTINUOUS
 10
153.169174
 20
369.453369
 40
0.999984
 50
-90.000000
 51
0.000000
  0
ARC
  8
0
  6
CONTINUOUS
 10
154.669144
 20
367.994415
 40
0.499992
 50
180.000000
 51
270.000000
  0
ARC
  8
0
  6
CONTINUOUS
 10
301.694855
 20
104.320900
 40
2.000000
 50
180.000000
 51
268.500000
  0
ARC
  8
0
  6
CONTINUOUS
 10
301.694855
 20
234.110046
 40
2.000000
 50
91.500000
 51
180.000000
  0
ARC
  8
0
  6
CONTINUOUS
 10
301.694794
 20
360.557922
 40
2.000000
 50
180.000000
 51
268.500000
  0
ARC
  8
0
  6
CONTINUOUS
 10
301.694794
 20
488.347076
 40
2.000000
 50
91.500000
 51
180.000000
  0
ARC
  8
0
  6
CONTINUOUS
 10
358.694855
 20
350.059387
 40
5.000000
 50
0.000000
 51
88.499390
  0
ARC
  8
0
  6
CONTINUOUS
 10
366.694458
 20
884.930298
 40
530.000000
 50
263.390869
 51
267.369232
  0
ARC
  8
0
  6
CONTINUOUS
 10
358.694855
 20
498.845612
 40
5.000000
 50
-88.499390
 51
0.000000
  0
ARC
  8
0
  6
CONTINUOUS
 10
366.694458
 20
-36.025322
 40
530.000000
 50
92.630783
 51
96.609123
  0
ARC
  8
0
  6
CONTINUOUS
 10
296.694855
 20
107.556496
 40
3.000000
 50
0.000000
 51
88.000000
  0
ARC
  8
0
  6
CONTINUOUS
 10
296.694855
 20
228.874435
 40
3.000000
 50
-88.000000
 51
0.000000
  0
ARC
  8
0
  6
CONTINUOUS
 10
366.694855
 20
101.531395
 40
3.000000
 50
180.000000
 51
268.000946
  0
ARC
  8
0
  6
CONTINUOUS
 10
366.694641
 20
266.399353
 40
3.000000
 50
92.000000
 51
180.000000
  0
ARC
  8
0
  6
CONTINUOUS
 10
390.695068
 20
187.215469
 40
3.000000
 50
90.000000
 51
270.000000
  0
ARC
  8
0
  6
CONTINUOUS
 10
358.694855
 20
244.608582
 40
5.000000
 50
-88.499390
 51
0.000000
  0
ARC
  8
0
  6
CONTINUOUS
 10
377.694855
 20
214.292999
 40
3.000000
 50
0.000000
 51
48.191448
  0
ARC
  8
0
  6
CONTINUOUS
 10
377.694855
 20
160.137863
 40
3.000000
 50
-48.193787
 51
0.000000
  0
ARC
  8
0
  6
CONTINUOUS
 10
366.694855
 20
628.693481
 40
530.000000
 50
263.390900
 51
266.598785
  0
ARC
  8
0
  6
CONTINUOUS
 10
366.694458
 20
-290.262329
 40
530.000000
 50
92.630783
 51
96.609123
  0
ARC
  8
0
  6
CONTINUOUS
 10
366.694550
 20
503.136383
 40
3.000000
 50
92.000000
 51
180.000000
  0
ARC
  8
0
  6
CONTINUOUS
 10
366.694550
 20
345.768616
 40
3.000000
 50
180.000000
 51
268.000000
  0
ARC
  8
0
  6
CONTINUOUS
 10
296.694855
 20
485.111389
 40
3.000000
 50
-87.999634
 51
0.000000
  0
ARC
  8
0
  6
CONTINUOUS
 10
296.694855
 20
363.793488
 40
3.000000
 50
0.000000
 51
88.000549
  0
ARC
  8
0
  6
CONTINUOUS
 10
606.144775
 20
187.215469
 40
11.000000
 50
-164.173401
 51
164.173401
  0
ARC
  8
0
  6
CONTINUOUS
 10
606.144775
 20
168.215469
 40
66.000000
 50
128.814407
 51
151.048904
  0
ARC
  8
0
  6
CONTINUOUS
 10
606.144775
 20
168.215469
 40
66.000000
 50
61.359940
 51
85.011787
  0
ARC
  8
0
  6
CONTINUOUS
 10
656.862976
 20
229.448776
 40
3.000000
 50
39.783890
 51
135.000900
  0
ARC
  8
0
  6
CONTINUOUS
 10
649.393555
 20
221.979172
 40
3.000000
 50
135.000900
 51
231.186096
  0
ARC
  8
0
  6
CONTINUOUS
 10
639.216797
 20
228.773163
 40
3.000000
 50
241.359894
 51
315.000885
  0
ARC
  8
0
  6
CONTINUOUS
 10
648.377563
 20
237.934189
 40
3.000000
 50
-44.999115
 51
50.216091
  0
ARC
  8
0
  6
CONTINUOUS
 10
573.072998
 20
228.773270
 40
3.000000
 50
225.000000
 51
298.640411
  0
ARC
  8
0
  6
CONTINUOUS
 10
562.895813
 20
221.979095
 40
3.000000
 50
-51.184845
 51
44.999950
  0
ARC
  8
0
  6
CONTINUOUS
 10
555.426392
 20
229.448685
 40
3.000000
 50
44.999950
 51
140.220306
  0
ARC
  8
0
  6
CONTINUOUS
 10
563.912170
 20
237.934296
 40
3.000000
 50
129.788101
 51
225.000000
  0
ARC
  8
0
  6
CONTINUOUS
 10
675.716980
 20
225.685684
 40
4.000000
 50
-151.059494
 51
4.251050
  0
ARC
  8
0
  6
CONTINUOUS
 10
673.909790
 20
235.283188
 40
5.000000
 50
5.324549
 51
97.744431
  0
ARC
  8
0
  6
CONTINUOUS
 10
654.285156
 20
255.473663
 40
5.000000
 50
-9.372955
 51
84.667587
  0
ARC
  8
0
  6
CONTINUOUS
 10
643.550598
 20
257.365753
 40
4.000000
 50
85.867172
 51
241.932693
  0
ARC
  8
0
  6
CONTINUOUS
 10
558.003967
 20
255.473587
 40
5.000000
 50
95.333099
 51
189.374695
  0
ARC
  8
0
  6
CONTINUOUS
 10
538.379395
 20
235.282669
 40
5.000000
 50
82.255569
 51
174.676102
  0
ARC
  8
0
  6
CONTINUOUS
 10
568.739197
 20
257.365753
 40
4.000000
 50
-61.931976
 51
94.133713
  0
ARC
  8
0
  6
CONTINUOUS
 10
536.572205
 20
225.684875
 40
4.000000
 50
175.749802
 51
331.060699
  0
ARC
  8
0
  6
CONTINUOUS
 10
606.144775
 20
168.215469
 40
66.000000
 50
94.988533
 51
118.640198
  0
ARC
  8
0
  6
CONTINUOUS
 10
600.145203
 20
236.954163
 40
3.000000
 50
-85.011475
 51
0.000000
  0
ARC
  8
0
  6
CONTINUOUS
 10
612.144409
 20
236.954163
 40
3.000000
 50
180.000000
 51
265.011505
  0
ARC
  8
0
  6
CONTINUOUS
 10
544.017395
 20
202.583878
 40
5.000000
 50
166.108307
 51
331.049286
  0
ARC
  8
0
  6
CONTINUOUS
 10
668.272156
 20
202.583878
 40
5.000000
 50
-151.048996
 51
13.894250
  0
ARC
  8
0
  6
CONTINUOUS
 10
606.144775
 20
168.215469
 40
66.000000
 50
28.951040
 51
51.185902
  0
ARC
  8
0
  6
CONTINUOUS
 10
538.379578
 20
139.147690
 40
5.000000
 50
185.324600
 51
277.746613
  0
ARC
  8
0
  6
CONTINUOUS
 10
557.083801
 20
115.556564
 40
5.000000
 50
159.072693
 51
257.573486
  0
ARC
  8
0
  6
CONTINUOUS
 10
655.205994
 20
115.556564
 40
5.000000
 50
-77.573517
 51
20.927670
  0
ARC
  8
0
  6
CONTINUOUS
 10
673.909790
 20
139.147781
 40
5.000000
 50
262.255615
 51
354.675812
  0
ARC
  8
0
  6
CONTINUOUS
 10
536.572205
 20
148.746078
 40
4.000000
 50
28.940149
 51
184.250595
  0
ARC
  8
0
  6
CONTINUOUS
 10
675.716980
 20
148.745178
 40
4.000000
 50
-4.250610
 51
151.059494
  0
ARC
  8
0
  6
CONTINUOUS
 10
606.144775
 20
187.215469
 40
75.500000
 50
208.939804
 51
331.059387
  0
ARC
  8
0
  6
CONTINUOUS
 10
606.144775
 20
-260.284546
 40
523.000000
 50
94.133141
 51
95.332626
  0
ARC
  8
0
  6
CONTINUOUS
 10
555.086975
 20
246.762589
 40
3.000000
 50
157.784302
 51
321.917511
  0
ARC
  8
0
  6
CONTINUOUS
 10
546.599792
 20
238.274261
 40
3.000000
 50
-29.228302
 51
112.222099
  0
ARC
  8
0
  6
CONTINUOUS
 10
657.203003
 20
246.761063
 40
3.000000
 50
-141.997299
 51
22.223600
  0
ARC
  8
0
  6
CONTINUOUS
 10
665.687561
 20
238.275696
 40
3.000000
 50
67.770348
 51
209.144806
  0
ARC
  8
0
  6
CONTINUOUS
 10
606.144775
 20
187.215469
 40
75.500000
 50
28.940559
 51
61.932369
  0
ARC
  8
0
  6
CONTINUOUS
 10
158.144821
 20
187.215469
 40
523.000000
 50
4.250875
 51
5.324408
  0
ARC
  8
0
  6
CONTINUOUS
 10
606.144775
 20
187.215469
 40
75.500000
 50
118.067596
 51
151.060104
  0
ARC
  8
0
  6
CONTINUOUS
 10
600.144775
 20
252.942184
 40
3.000000
 50
0.000000
 51
95.220268
  0
ARC
  8
0
  6
CONTINUOUS
 10
612.145386
 20
252.942062
 40
3.000000
 50
84.783257
 51
180.000000
  0
ARC
  8
0
  6
CONTINUOUS
 10
1054.144409
 20
187.215469
 40
523.000000
 50
184.250793
 51
185.324402
  0
ARC
  8
0
  6
CONTINUOUS
 10
606.144775
 20
-260.284546
 40
523.000000
 50
84.667427
 51
85.866867
  0
ARC
  8
0
  6
CONTINUOUS
 10
606.144958
 20
338.215515
 40
233.000000
 50
257.573792
 51
282.426208
  0
ARC
  8
0
  6
CONTINUOUS
 10
1054.144409
 20
187.215469
 40
523.000000
 50
174.675705
 51
175.749207
  0
ARC
  8
0
  6
CONTINUOUS
 10
158.144821
 20
187.215469
 40
523.000000
 50
354.675598
 51
355.749115
  0
ARC
  8
0
  6
CONTINUOUS
 10
540.737610
 20
252.623062
 40
12.500000
 50
-97.744598
 51
9.374557
  0
ARC
  8
0
  6
CONTINUOUS
 10
671.551575
 20
252.623596
 40
12.500000
 50
170.626694
 51
277.744293
  0
ARC
  8
0
  6
CONTINUOUS
 10
671.551575
 20
121.807388
 40
12.500000
 50
82.255692
 51
200.927902
  0
ARC
  8
0
  6
CONTINUOUS
 10
540.738220
 20
121.807388
 40
12.500000
 50
-20.927795
 51
97.746010
  0
ARC
  8
0
  6
CONTINUOUS
 10
540.996826
 20
120.243088
 40
12.500000
 50
188.061401
 51
253.359299
  0
ARC
  8
0
  6
CONTINUOUS
 10
671.292969
 20
120.243088
 40
12.500000
 50
286.640686
 51
352.564392
  0
ARC
  8
0
  6
CONTINUOUS
 10
606.144958
 20
338.215515
 40
240.000000
 50
253.359497
 51
286.640594
  0
ARC
  8
0
  6
CONTINUOUS
 10
540.853394
 20
253.080185
 40
12.500000
 50
97.248528
 51
172.688293
  0
ARC
  8
0
  6
CONTINUOUS
 10
671.436157
 20
253.080185
 40
12.500000
 50
7.312304
 51
82.751900
  0
ARC
  8
0
  6
CONTINUOUS
 10
158.144821
 20
187.215469
 40
530.000000
 50
-7.435791
 51
7.312139
  0
ARC
  8
0
  6
CONTINUOUS
 10
1054.144409
 20
187.215469
 40
530.000000
 50
172.687897
 51
187.450607
  0
ARC
  8
0
  6
CONTINUOUS
 10
606.144775
 20
-260.284546
 40
530.000000
 50
82.751762
 51
97.248253
  0
LINE
  8
0
  6
CONTINUOUS
 10
105.510040
 20
141.215591
 11
106.380173
 21
141.215591
  0
LINE
  8
0
  6
CONTINUOUS
 10
105.510040
 20
137.715591
 11
106.380173
 21
137.715591
  0
LINE
  8
0
  6
CONTINUOUS
 10
105.510040
 20
135.715591
 11
106.380173
 21
135.715591
  0
LINE
  8
0
  6
CONTINUOUS
 10
105.510040
 20
130.215591
 11
106.380173
 21
130.215591
  0
LINE
  8
0
  6
CONTINUOUS
 10
105.510040
 20
128.215591
 11
106.380173
 21
128.215591
  0
LINE
  8
0
  6
CONTINUOUS
 10
105.510040
 20
123.215584
 11
106.380173
 21
123.215584
  0
LINE
  8
0
  6
CONTINUOUS
 10
105.510040
 20
121.215584
 11
106.380173
 21
121.215584
  0
LINE
  8
0
  6
CONTINUOUS
 10
105.510040
 20
116.929565
 11
106.380173
 21
116.929565
  0
LINE
  8
0
  6
CONTINUOUS
 10
105.510040
 20
110.715584
 11
106.380173
 21
110.715584
  0
LINE
  8
0
  6
CONTINUOUS
 10
102.879623
 20
110.715584
 11
102.009491
 21
110.715584
  0
LINE
  8
0
  6
CONTINUOUS
 10
102.879623
 20
116.929565
 11
102.009491
 21
116.929565
  0
LINE
  8
0
  6
CONTINUOUS
 10
102.879623
 20
121.215584
 11
102.009491
 21
121.215584
  0
LINE
  8
0
  6
CONTINUOUS
 10
102.879623
 20
123.215584
 11
102.009491
 21
123.215584
  0
LINE
  8
0
  6
CONTINUOUS
 10
102.879623
 20
128.215591
 11
102.009491
 21
128.215591
  0
LINE
  8
0
  6
CONTINUOUS
 10
102.879623
 20
130.215591
 11
102.009491
 21
130.215591
  0
LINE
  8
0
  6
CONTINUOUS
 10
102.879623
 20
135.715591
 11
102.009491
 21
135.715591
  0
LINE
  8
0
  6
CONTINUOUS
 10
102.879623
 20
137.715591
 11
102.009491
 21
137.715591
  0
LINE
  8
0
  6
CONTINUOUS
 10
102.879623
 20
141.215591
 11
102.009491
 21
141.215591
  0
TEXT
  8
0
 10
24.000000
 20
13.000000
 40
10.000000
 41
1.000000
  1
G3FE-22-30~100-T020W
 50
0.000000
  0
ENDSEC
  0
EOF
