  0
SECTION
  2
HEADER
  9
$CLAYER
  8
1
  9
$LTSCALE
 40
3.0
  0
ENDSEC
  0
SECTION
  2
TABLES
  0
TABLE
  2
LTYPE
 70
     4
  0
LTYPE
  2
CONTINUOUS
  3
solid line
 70
    64
 72
    65
 73
     0
 40
0.0
  0
LTYPE
  2
DASHED
  3
__ __ __ __ __ __ __ __ __ __ __ __ __ __ __
 70
    64
 72
    65
 73
     2
 40
0.75
 49
0.5
 49
-0.25
  0
LTYPE
  2
CENTER
  3
____ _ ____ _ ____ _ ____ _ ____ _ ____ _ ____
 70
    64
 72
    65
 73
     4
 40
2.0
 49
1.25
 49
-0.25
 49
0.25
 49
-0.25
  0
LTYPE
  2
PHANTOM
  3
_____ _ _ _____ _ _ _____ _ _ _____ _ _ ____
 70
    64
 72
    65
 73
     6
 40
2.5
 49
1.25
 49
-0.25
 49
0.25
 49
-0.25
 49
0.25
 49
-0.25
  0
ENDTAB
  0
TABLE
  2
LAYER
 70
     1
  0
LAYER
  2
0
 70
    64
 62
     7
  6
CONTINUOUS
  0
ENDTAB
  0
TABLE
  2
STYLE
 70
     1
  0
STYLE
  2
STANDARD
 70
     0
 40
0.000000
 41
1.000000
 50
0.000000
 71
     0
 42
3.000000
  3
txt
  4
BIGFONT
  0
ENDTAB
  0
ENDSEC
  0
SECTION
  2
BLOCKS
  0
ENDSEC
  0
SECTION
  2
ENTITIES
  0
LINE
  8
0
  6
CENTER
 10
-18.478750
 20
379.940643
 11
427.184357
 21
379.940643
  0
LINE
  8
0
  6
CONTINUOUS
 10
296.106049
 20
22.048626
 11
296.105835
 21
156.048691
  0
LINE
  8
0
  6
CENTER
 10
-13.173612
 20
88.048668
 11
331.439819
 21
88.048668
  0
LINE
  8
0
  6
CONTINUOUS
 10
295.234833
 20
51.551785
 11
291.484802
 21
51.551785
  0
LINE
  8
0
  6
CONTINUOUS
 10
295.234833
 20
34.731766
 11
291.484802
 21
34.731766
  0
LINE
  8
0
  6
CONTINUOUS
 10
279.606049
 20
152.048660
 11
289.613647
 21
152.223343
  0
LINE
  8
0
  6
CONTINUOUS
 10
279.606049
 20
24.048664
 11
289.752258
 21
23.871561
  0
LINE
  8
0
  6
CONTINUOUS
 10
290.106049
 20
153.943268
 11
290.106049
 21
23.716009
  0
LINE
  8
0
  6
CONTINUOUS
 10
279.606049
 20
315.940643
 11
279.606049
 21
443.940643
  0
LINE
  8
0
  6
CONTINUOUS
 10
296.106049
 20
313.940643
 11
296.106049
 21
445.940643
  0
LINE
  8
0
  6
CONTINUOUS
 10
290.105774
 20
444.273163
 11
290.105774
 21
315.608124
  0
LINE
  8
0
  6
CONTINUOUS
 10
279.606049
 20
443.940643
 11
289.752106
 21
444.117737
  0
ARC
  8
0
  6
CONTINUOUS
 10
289.743378
 20
444.617676
 40
0.500000
 50
271.000000
 51
341.768494
  0
LINE
  8
0
  6
CONTINUOUS
 10
279.606049
 20
315.940643
 11
289.752106
 21
315.763550
  0
LINE
  8
0
  6
CONTINUOUS
 10
371.106049
 20
367.940582
 11
373.106049
 21
367.940582
  0
LINE
  8
0
  6
CONTINUOUS
 10
373.106049
 20
391.940643
 11
373.106049
 21
367.940582
  0
LINE
  8
0
  6
CONTINUOUS
 10
371.106049
 20
391.940643
 11
373.106049
 21
391.940643
  0
LINE
  8
0
  6
CONTINUOUS
 10
373.106049
 20
390.940643
 11
413.106049
 21
390.940643
  0
LINE
  8
0
  6
CONTINUOUS
 10
373.106049
 20
368.940582
 11
378.106049
 21
368.940582
  0
LINE
  8
0
  6
CONTINUOUS
 10
413.106049
 20
390.940643
 11
413.106049
 21
368.940582
  0
LINE
  8
0
  6
CONTINUOUS
 10
354.105743
 20
301.256775
 11
354.105743
 21
458.624512
  0
LINE
  8
0
  6
CONTINUOUS
 10
366.106049
 20
298.440643
 11
366.106049
 21
461.440582
  0
LINE
  8
0
  6
CONTINUOUS
 10
357.001038
 20
298.258606
 11
365.606354
 21
297.958099
  0
LINE
  8
0
  6
CONTINUOUS
 10
370.106049
 20
453.440582
 11
370.106049
 21
306.440643
  0
LINE
  8
0
  6
CONTINUOUS
 10
369.606049
 20
453.940582
 11
366.106049
 21
453.940582
  0
LINE
  8
0
  6
CONTINUOUS
 10
369.606049
 20
305.940643
 11
366.106049
 21
305.940643
  0
LINE
  8
0
  6
CONTINUOUS
 10
371.106049
 20
409.940643
 11
371.106049
 21
349.940643
  0
LINE
  8
0
  6
CONTINUOUS
 10
370.106049
 20
409.940643
 11
371.106049
 21
409.940643
  0
LINE
  8
0
  6
CONTINUOUS
 10
370.106049
 20
349.940643
 11
371.106049
 21
349.940643
  0
LINE
  8
0
  6
CONTINUOUS
 10
378.106049
 20
369.357635
 11
378.106049
 21
366.440582
  0
LINE
  8
0
  6
CONTINUOUS
 10
413.106049
 20
368.940582
 11
413.106049
 21
366.440582
  0
LINE
  8
0
  6
CONTINUOUS
 10
378.106049
 20
366.440582
 11
413.106049
 21
366.440582
  0
LINE
  8
0
  6
CONTINUOUS
 10
369.606049
 20
305.940643
 11
370.106049
 21
306.440643
  0
LINE
  8
0
  6
CONTINUOUS
 10
369.606049
 20
453.940582
 11
370.106049
 21
453.440582
  0
LINE
  8
0
  6
CONTINUOUS
 10
365.606354
 20
297.958099
 11
366.106049
 21
298.440643
  0
ARC
  8
0
  6
CONTINUOUS
 10
357.105743
 20
301.256775
 40
3.000000
 50
180.000000
 51
268.000000
  0
LINE
  8
0
  6
CONTINUOUS
 10
357.001038
 20
461.622681
 11
365.606354
 21
461.923187
  0
LINE
  8
0
  6
CONTINUOUS
 10
365.606354
 20
461.923187
 11
366.106049
 21
461.440643
  0
ARC
  8
0
  6
CONTINUOUS
 10
357.105743
 20
458.624512
 40
3.000000
 50
92.000000
 51
180.000000
  0
LINE
  8
0
  6
CENTER
 10
371.504456
 20
445.348236
 11
349.783966
 21
445.348236
  0
LINE
  8
0
  6
CENTER
 10
371.504456
 20
314.533051
 11
349.783966
 21
314.533051
  0
LINE
  8
0
  6
CENTER
 10
420.748657
 20
107.048668
 11
330.371033
 21
107.048668
  0
LINE
  8
0
  6
CONTINUOUS
 10
369.606232
 20
181.048691
 11
366.106049
 21
181.048691
  0
LINE
  8
0
  6
CONTINUOUS
 10
369.606232
 20
33.048664
 11
366.106049
 21
33.048664
  0
LINE
  8
0
  6
CONTINUOUS
 10
371.106232
 20
134.126190
 11
371.106232
 21
79.971062
  0
LINE
  8
0
  6
CONTINUOUS
 10
354.106049
 20
21.364584
 11
354.105835
 21
186.232559
  0
ARC
  8
0
  6
CONTINUOUS
 10
357.105652
 20
-370.429138
 40
530.000000
 50
92.630783
 51
96.609123
  0
ARC
  8
0
  6
CONTINUOUS
 10
357.106049
 20
548.526672
 40
530.000000
 50
263.390900
 51
266.598785
  0
LINE
  8
0
  6
CONTINUOUS
 10
296.106049
 20
51.551785
 11
351.313660
 21
52.033585
  0
LINE
  8
0
  6
CONTINUOUS
 10
296.106049
 20
34.731785
 11
350.821838
 21
33.299385
  0
LINE
  8
0
  6
CONTINUOUS
 10
370.106232
 20
180.548691
 11
370.106232
 21
176.548691
  0
ARC
  8
0
  6
CONTINUOUS
 10
368.106049
 20
79.971062
 40
3.000000
 50
-48.193790
 51
0.000000
  0
ARC
  8
0
  6
CONTINUOUS
 10
368.106049
 20
134.126190
 40
3.000000
 50
0.000000
 51
48.191448
  0
LINE
  8
0
  6
CONTINUOUS
 10
366.106049
 20
189.048691
 11
366.106049
 21
18.548626
  0
LINE
  8
0
  6
CONTINUOUS
 10
370.106232
 20
33.548664
 11
370.106232
 21
176.548691
  0
LINE
  8
0
  6
CONTINUOUS
 10
365.606354
 20
18.066067
 11
325.665436
 21
19.460165
  0
LINE
  8
0
  6
CONTINUOUS
 10
349.237061
 20
159.443481
 11
332.777863
 21
159.012299
  0
ARC
  8
0
  6
CONTINUOUS
 10
349.106049
 20
164.441788
 40
5.000000
 50
-88.499390
 51
0.000000
  0
LINE
  8
0
  6
CONTINUOUS
 10
371.106232
 20
95.048668
 11
373.106232
 21
95.048668
  0
LINE
  8
0
  6
CONTINUOUS
 10
373.106232
 20
119.048668
 11
373.106232
 21
95.048668
  0
LINE
  8
0
  6
CONTINUOUS
 10
371.106049
 20
119.048668
 11
373.106232
 21
119.048668
  0
LINE
  8
0
  6
CONTINUOUS
 10
373.106232
 20
118.048668
 11
413.106049
 21
118.048668
  0
LINE
  8
0
  6
CONTINUOUS
 10
373.106049
 20
96.048668
 11
413.106049
 21
96.048668
  0
LINE
  8
0
  6
CONTINUOUS
 10
413.106049
 20
118.048668
 11
413.106049
 21
96.048668
  0
LINE
  8
0
  6
CONTINUOUS
 10
381.106232
 20
110.048668
 11
413.106049
 21
110.048668
  0
LINE
  8
0
  6
CONTINUOUS
 10
381.106232
 20
104.048668
 11
413.106049
 21
104.048668
  0
ARC
  8
0
  6
CONTINUOUS
 10
381.106232
 20
107.048668
 40
3.000000
 50
90.000000
 51
270.000000
  0
LINE
  8
0
  6
CENTER
 10
371.504456
 20
172.456268
 11
349.783966
 21
172.456268
  0
LINE
  8
0
  6
CENTER
 10
371.504456
 20
41.641064
 11
349.783966
 21
41.641064
  0
LINE
  8
0
  6
CONTINUOUS
 10
370.106232
 20
180.548691
 11
369.606232
 21
181.048691
  0
LINE
  8
0
  6
CONTINUOUS
 10
369.606232
 20
33.048664
 11
370.106232
 21
33.548664
  0
LINE
  8
0
  6
CONTINUOUS
 10
365.606354
 20
18.066067
 11
366.106049
 21
18.548626
  0
LINE
  8
0
  6
CONTINUOUS
 10
365.606354
 20
189.531235
 11
357.001160
 21
189.230728
  0
ARC
  8
0
  6
CONTINUOUS
 10
357.105835
 20
186.232559
 40
3.000000
 50
92.000000
 51
180.000000
  0
LINE
  8
0
  6
CONTINUOUS
 10
365.606354
 20
189.531235
 11
366.106049
 21
189.048691
  0
ARC
  8
0
  6
CONTINUOUS
 10
357.106049
 20
21.364588
 40
3.000000
 50
180.000000
 51
268.000946
  0
LINE
  8
0
  6
CENTER
 10
371.504456
 20
41.640587
 11
349.783966
 21
41.640587
  0
ARC
  8
0
  6
CONTINUOUS
 10
289.604919
 20
152.723267
 40
0.500000
 50
271.000000
 51
359.945312
  0
ARC
  8
0
  6
CONTINUOUS
 10
289.743530
 20
23.371637
 40
0.500000
 50
18.230507
 51
89.000000
  0
ARC
  8
0
  6
CONTINUOUS
 10
357.105652
 20
-80.537178
 40
530.000000
 50
92.630783
 51
96.609123
  0
LINE
  8
0
  6
CONTINUOUS
 10
349.237061
 20
449.335449
 11
332.777863
 21
448.904266
  0
ARC
  8
0
  6
CONTINUOUS
 10
349.106049
 20
454.333740
 40
5.000000
 50
-88.499390
 51
0.000000
  0
ARC
  8
0
  6
CONTINUOUS
 10
357.105652
 20
840.418457
 40
530.000000
 50
-96.609123
 51
-92.630783
  0
LINE
  8
0
  6
CONTINUOUS
 10
349.237061
 20
310.545837
 11
332.777863
 21
310.977020
  0
ARC
  8
0
  6
CONTINUOUS
 10
349.106049
 20
305.547546
 40
5.000000
 50
0.000000
 51
88.499390
  0
LINE
  8
0
  6
CONTINUOUS
 10
296.106049
 20
445.940643
 11
292.065552
 21
445.834839
  0
ARC
  8
0
  6
CONTINUOUS
 10
292.117889
 20
443.835510
 40
2.000000
 50
91.500000
 51
161.768494
  0
ARC
  8
0
  6
CONTINUOUS
 10
289.743378
 20
315.263611
 40
0.500000
 50
-341.768494
 51
-271.000000
  0
LINE
  8
0
  6
CONTINUOUS
 10
296.106049
 20
313.940643
 11
292.065552
 21
314.046448
  0
ARC
  8
0
  6
CONTINUOUS
 10
292.117889
 20
316.045746
 40
2.000000
 50
-161.768494
 51
-91.500000
  0
LINE
  8
0
  6
CONTINUOUS
 10
292.053680
 20
155.942581
 11
296.105835
 21
156.048691
  0
ARC
  8
0
  6
CONTINUOUS
 10
292.106049
 20
153.943268
 40
2.000000
 50
91.500000
 51
180.000000
  0
LINE
  8
0
  6
CONTINUOUS
 10
296.106049
 20
22.048626
 11
292.065704
 21
22.154425
  0
ARC
  8
0
  6
CONTINUOUS
 10
292.118073
 20
24.153740
 40
2.000000
 50
198.230515
 51
268.500000
  0
LINE
  8
0
  6
CONTINUOUS
 10
378.106049
 20
369.357635
 11
413.106049
 21
369.357635
  0
LINE
  8
0
  6
DASHED
 10
366.106049
 20
450.848236
 11
354.106018
 21
450.848236
  0
LINE
  8
0
  6
DASHED
 10
366.106049
 20
439.848236
 11
354.106018
 21
439.848236
  0
LINE
  8
0
  6
DASHED
 10
366.106049
 20
320.033051
 11
354.106018
 21
320.033051
  0
LINE
  8
0
  6
DASHED
 10
366.106049
 20
309.033051
 11
354.106018
 21
309.033051
  0
LINE
  8
0
  6
DASHED
 10
366.106049
 20
177.956268
 11
354.106018
 21
177.956268
  0
LINE
  8
0
  6
DASHED
 10
366.106049
 20
166.956268
 11
354.106018
 21
166.956268
  0
LINE
  8
0
  6
DASHED
 10
366.106049
 20
47.141064
 11
354.106018
 21
47.141064
  0
LINE
  8
0
  6
DASHED
 10
366.106049
 20
36.141064
 11
354.106018
 21
36.141064
  0
LINE
  8
0
  6
CONTINUOUS
 10
279.606049
 20
152.048630
 11
279.606049
 21
24.048626
  0
LINE
  8
0
  6
CONTINUOUS
 10
178.606049
 20
152.048630
 11
178.606049
 21
24.048626
  0
LINE
  8
0
  6
CENTER
 10
641.356018
 20
209.168671
 11
641.356018
 21
1.018665
  0
LINE
  8
0
  6
CENTER
 10
508.666992
 20
88.048668
 11
739.270020
 21
88.048668
  0
LINE
  8
0
  6
CENTER
 10
540.077515
 20
107.048668
 11
741.439392
 21
107.048668
  0
LINE
  8
0
  6
CENTER
 10
562.831848
 20
28.522945
 11
721.300232
 21
186.994431
  0
LINE
  8
0
  6
CENTER
 10
720.035217
 20
28.367905
 11
560.186829
 21
188.219543
  0
CIRCLE
  8
0
  6
CONTINUOUS
 10
706.762817
 20
172.456787
 40
5.500000
  0
CIRCLE
  8
0
  6
CONTINUOUS
 10
575.948853
 20
172.456268
 40
5.500000
  0
CIRCLE
  8
0
  6
CONTINUOUS
 10
575.949463
 20
41.640587
 40
5.500000
  0
CIRCLE
  8
0
  6
CONTINUOUS
 10
706.762817
 20
41.640587
 40
5.500000
  0
ARC
  8
0
  6
CONTINUOUS
 10
641.356018
 20
-340.451324
 40
530.000000
 50
82.751762
 51
97.248253
  0
ARC
  8
0
  6
CONTINUOUS
 10
1089.355591
 20
107.048668
 40
530.000000
 50
172.687897
 51
187.450607
  0
ARC
  8
0
  6
CONTINUOUS
 10
193.356064
 20
107.048668
 40
530.000000
 50
-7.435791
 51
7.312139
  0
ARC
  8
0
  6
CONTINUOUS
 10
706.647461
 20
172.913391
 40
12.500000
 50
7.312304
 51
82.751900
  0
ARC
  8
0
  6
CONTINUOUS
 10
576.064636
 20
172.913391
 40
12.500000
 50
97.248528
 51
172.688293
  0
ARC
  8
0
  6
CONTINUOUS
 10
641.356262
 20
258.048706
 40
240.000000
 50
253.359497
 51
286.640594
  0
ARC
  8
0
  6
CONTINUOUS
 10
706.504272
 20
40.076286
 40
12.500000
 50
286.640686
 51
352.564392
  0
ARC
  8
0
  6
CONTINUOUS
 10
576.208069
 20
40.076286
 40
12.500000
 50
188.061401
 51
253.359299
  0
CIRCLE
  8
0
  6
CONTINUOUS
 10
641.356018
 20
107.048668
 40
74.000000
  0
CIRCLE
  8
0
  6
CONTINUOUS
 10
641.356018
 20
107.048668
 40
69.000000
  0
ARC
  8
0
  6
CONTINUOUS
 10
575.949463
 20
41.640587
 40
12.500000
 50
-20.927799
 51
97.746010
  0
ARC
  8
0
  6
CONTINUOUS
 10
706.762817
 20
41.640587
 40
12.500000
 50
82.255692
 51
200.927902
  0
ARC
  8
0
  6
CONTINUOUS
 10
706.762817
 20
172.456787
 40
12.500000
 50
170.626694
 51
277.744293
  0
ARC
  8
0
  6
CONTINUOUS
 10
575.948853
 20
172.456268
 40
12.500000
 50
-97.744598
 51
9.374557
  0
ARC
  8
0
  6
CONTINUOUS
 10
193.356064
 20
107.048668
 40
523.000000
 50
354.675598
 51
355.749115
  0
ARC
  8
0
  6
CONTINUOUS
 10
1089.355591
 20
107.048668
 40
523.000000
 50
174.675705
 51
175.749207
  0
ARC
  8
0
  6
CONTINUOUS
 10
641.356262
 20
258.048706
 40
233.000000
 50
257.573792
 51
282.426208
  0
ARC
  8
0
  6
CONTINUOUS
 10
641.356018
 20
-340.451324
 40
523.000000
 50
84.667427
 51
85.866867
  0
ARC
  8
0
  6
CONTINUOUS
 10
1089.355591
 20
107.048668
 40
523.000000
 50
184.250793
 51
185.324402
  0
LINE
  8
0
  6
CONTINUOUS
 10
644.356018
 20
172.775269
 11
644.356018
 21
156.787369
  0
LINE
  8
0
  6
CONTINUOUS
 10
638.356018
 20
172.775391
 11
638.356018
 21
156.787369
  0
ARC
  8
0
  6
CONTINUOUS
 10
647.356628
 20
172.775269
 40
3.000000
 50
84.783257
 51
180.000000
  0
ARC
  8
0
  6
CONTINUOUS
 10
635.356018
 20
172.775391
 40
3.000000
 50
0.000000
 51
95.220268
  0
ARC
  8
0
  6
CONTINUOUS
 10
641.356018
 20
107.048668
 40
75.500000
 50
118.067596
 51
151.060104
  0
ARC
  8
0
  6
CONTINUOUS
 10
193.356064
 20
107.048668
 40
523.000000
 50
4.250875
 51
5.324408
  0
ARC
  8
0
  6
CONTINUOUS
 10
641.356018
 20
107.048668
 40
75.500000
 50
28.940559
 51
61.932369
  0
ARC
  8
0
  6
CONTINUOUS
 10
700.898865
 20
158.108887
 40
3.000000
 50
67.770348
 51
209.144806
  0
ARC
  8
0
  6
CONTINUOUS
 10
692.414246
 20
166.594269
 40
3.000000
 50
-141.997299
 51
22.223600
  0
ARC
  8
0
  6
CONTINUOUS
 10
581.811035
 20
158.107468
 40
3.000000
 50
-29.228300
 51
112.222099
  0
ARC
  8
0
  6
CONTINUOUS
 10
590.298218
 20
166.595779
 40
3.000000
 50
157.784302
 51
321.917511
  0
ARC
  8
0
  6
CONTINUOUS
 10
641.356018
 20
-340.451324
 40
523.000000
 50
94.133141
 51
95.332626
  0
ARC
  8
0
  6
CONTINUOUS
 10
641.356018
 20
107.048668
 40
75.500000
 50
208.939804
 51
331.059387
  0
ARC
  8
0
  6
CONTINUOUS
 10
710.928223
 20
68.578369
 40
4.000000
 50
-4.250610
 51
151.059494
  0
ARC
  8
0
  6
CONTINUOUS
 10
571.783447
 20
68.579269
 40
4.000000
 50
28.940149
 51
184.250595
  0
ARC
  8
0
  6
CONTINUOUS
 10
709.121033
 20
58.980984
 40
5.000000
 50
262.255615
 51
354.675812
  0
ARC
  8
0
  6
CONTINUOUS
 10
690.417236
 20
35.389767
 40
5.000000
 50
-77.573517
 51
20.927670
  0
ARC
  8
0
  6
CONTINUOUS
 10
592.295044
 20
35.389767
 40
5.000000
 50
159.072693
 51
257.573486
  0
ARC
  8
0
  6
CONTINUOUS
 10
573.590820
 20
58.980885
 40
5.000000
 50
185.324600
 51
277.746613
  0
CIRCLE
  8
0
  6
CONTINUOUS
 10
641.356018
 20
107.048668
 40
30.000000
  0
ARC
  8
0
  6
CONTINUOUS
 10
641.356018
 20
88.048668
 40
66.000000
 50
28.951040
 51
51.185902
  0
ARC
  8
0
  6
CONTINUOUS
 10
703.483459
 20
122.417068
 40
5.000000
 50
-151.048996
 51
13.894250
  0
ARC
  8
0
  6
CONTINUOUS
 10
579.228638
 20
122.417068
 40
5.000000
 50
166.108307
 51
331.049286
  0
ARC
  8
0
  6
CONTINUOUS
 10
647.355652
 20
156.787369
 40
3.000000
 50
180.000000
 51
265.011505
  0
ARC
  8
0
  6
CONTINUOUS
 10
635.356445
 20
156.787369
 40
3.000000
 50
-85.011467
 51
0.000000
  0
ARC
  8
0
  6
CONTINUOUS
 10
641.356018
 20
88.048668
 40
66.000000
 50
94.988533
 51
118.640198
  0
ARC
  8
0
  6
CONTINUOUS
 10
571.783447
 20
145.518066
 40
4.000000
 50
175.749802
 51
331.060699
  0
ARC
  8
0
  6
CONTINUOUS
 10
603.950439
 20
177.198959
 40
4.000000
 50
-61.931980
 51
94.133713
  0
ARC
  8
0
  6
CONTINUOUS
 10
573.590637
 20
155.115860
 40
5.000000
 50
82.255569
 51
174.676102
  0
ARC
  8
0
  6
CONTINUOUS
 10
593.215271
 20
175.306778
 40
5.000000
 50
95.333099
 51
189.374695
  0
ARC
  8
0
  6
CONTINUOUS
 10
678.761841
 20
177.198959
 40
4.000000
 50
85.867172
 51
241.932693
  0
ARC
  8
0
  6
CONTINUOUS
 10
689.496460
 20
175.306870
 40
5.000000
 50
-9.372955
 51
84.667587
  0
ARC
  8
0
  6
CONTINUOUS
 10
709.121033
 20
155.116379
 40
5.000000
 50
5.324549
 51
97.744431
  0
ARC
  8
0
  6
CONTINUOUS
 10
710.928223
 20
145.518890
 40
4.000000
 50
-151.059494
 51
4.251050
  0
LINE
  8
0
  6
CONTINUOUS
 10
597.002258
 20
155.646271
 11
606.163025
 21
146.485291
  0
LINE
  8
0
  6
CONTINUOUS
 10
592.759460
 20
151.403687
 11
600.228821
 21
143.934067
  0
ARC
  8
0
  6
CONTINUOUS
 10
599.123474
 20
157.767487
 40
3.000000
 50
129.788101
 51
225.000000
  0
ARC
  8
0
  6
CONTINUOUS
 10
590.637634
 20
149.281891
 40
3.000000
 50
44.999950
 51
140.220306
  0
ARC
  8
0
  6
CONTINUOUS
 10
598.107056
 20
141.812286
 40
3.000000
 50
-51.184841
 51
44.999950
  0
ARC
  8
0
  6
CONTINUOUS
 10
608.284241
 20
148.606461
 40
3.000000
 50
225.000000
 51
298.640411
  0
LINE
  8
0
  6
CONTINUOUS
 10
689.952637
 20
151.403580
 11
682.483276
 21
143.933990
  0
LINE
  8
0
  6
CONTINUOUS
 10
685.710022
 20
155.646271
 11
676.549255
 21
146.485291
  0
ARC
  8
0
  6
CONTINUOUS
 10
683.588867
 20
157.767380
 40
3.000000
 50
-44.999111
 51
50.216091
  0
ARC
  8
0
  6
CONTINUOUS
 10
674.428040
 20
148.606369
 40
3.000000
 50
241.359894
 51
315.000885
  0
ARC
  8
0
  6
CONTINUOUS
 10
684.604858
 20
141.812363
 40
3.000000
 50
135.000900
 51
231.186096
  0
ARC
  8
0
  6
CONTINUOUS
 10
692.074219
 20
149.281967
 40
3.000000
 50
39.783890
 51
135.000900
  0
ARC
  8
0
  6
CONTINUOUS
 10
641.356018
 20
88.048668
 40
66.000000
 50
61.359940
 51
85.011787
  0
ARC
  8
0
  6
CONTINUOUS
 10
641.356018
 20
88.048668
 40
66.000000
 50
128.814407
 51
151.048904
  0
CIRCLE
  8
0
  6
CENTER
 10
641.356018
 20
107.048668
 40
92.500000
  0
ARC
  8
0
  6
CONTINUOUS
 10
641.356018
 20
107.048668
 40
11.000000
 50
-164.173401
 51
164.173401
  0
LINE
  8
0
  6
CONTINUOUS
 10
633.856018
 20
110.048668
 11
633.856018
 21
104.048668
  0
LINE
  8
0
  6
CONTINUOUS
 10
627.856018
 20
110.048668
 11
627.856018
 21
104.048668
  0
LINE
  8
0
  6
CONTINUOUS
 10
627.856018
 20
110.048668
 11
633.856018
 21
110.048668
  0
LINE
  8
0
  6
CONTINUOUS
 10
627.856018
 20
104.048668
 11
633.856018
 21
104.048668
  0
LINE
  8
0
  6
CONTINUOUS
 10
561.158203
 20
64.376511
 11
521.284241
 21
68.554405
  0
LINE
  8
0
  6
CONTINUOUS
 10
560.004211
 20
133.259857
 11
530.421082
 21
137.955551
  0
LINE
  8
0
  6
CONTINUOUS
 10
570.016663
 20
72.088982
 11
569.889343
 21
72.102371
  0
LINE
  8
0
  6
CONTINUOUS
 10
515.661865
 20
71.816177
 11
524.146057
 21
136.260086
  0
LINE
  8
0
  6
CONTINUOUS
 10
529.429626
 20
138.086075
 11
520.292786
 21
68.684937
  0
LINE
  8
0
  6
CONTINUOUS
 10
530.421082
 20
137.955551
 11
521.284241
 21
68.554405
  0
LINE
  8
0
  6
CONTINUOUS
 10
529.429626
 20
138.086075
 11
530.421082
 21
137.955551
  0
LINE
  8
0
  6
CONTINUOUS
 10
520.292786
 20
68.684937
 11
521.284241
 21
68.554405
  0
LINE
  8
0
  6
CONTINUOUS
 10
526.335571
 20
129.907059
 11
527.316223
 21
137.355682
  0
LINE
  8
0
  6
CONTINUOUS
 10
519.421021
 20
77.386093
 11
518.440430
 21
69.937431
  0
LINE
  8
0
  6
CONTINUOUS
 10
525.787598
 20
129.475082
 11
524.256226
 21
129.636047
  0
ARC
  8
0
  6
CONTINUOUS
 10
525.839844
 20
129.972321
 40
0.500000
 50
-96.000000
 51
-7.500000
  0
ARC
  8
0
  6
CONTINUOUS
 10
524.151672
 20
128.641479
 40
1.000000
 50
83.999802
 51
172.500000
  0
ARC
  8
0
  6
CONTINUOUS
 10
528.307617
 20
137.225159
 40
1.000000
 50
82.500000
 51
172.500000
  0
ARC
  8
0
  6
CONTINUOUS
 10
526.624695
 20
135.933777
 40
2.500000
 50
82.500000
 51
172.500000
  0
LINE
  8
0
  6
CONTINUOUS
 10
519.003540
 20
77.945251
 11
517.482666
 21
78.186104
  0
ARC
  8
0
  6
CONTINUOUS
 10
517.639160
 20
79.173767
 40
1.000000
 50
172.500000
 51
260.999603
  0
ARC
  8
0
  6
CONTINUOUS
 10
518.925354
 20
77.451363
 40
0.500000
 50
-7.500000
 51
80.999802
  0
ARC
  8
0
  6
CONTINUOUS
 10
519.431885
 20
69.806900
 40
1.000000
 50
172.500000
 51
262.500000
  0
ARC
  8
0
  6
CONTINUOUS
 10
518.140503
 20
71.489861
 40
2.500000
 50
172.500000
 51
262.500000
  0
ARC
  8
0
  6
CONTINUOUS
 10
526.794067
 20
133.389908
 40
3.000000
 50
82.500000
 51
262.500000
  0
LINE
  8
0
  6
CONTINUOUS
 10
526.684448
 20
136.387863
 11
525.912292
 21
130.522476
  0
LINE
  8
0
  6
CONTINUOUS
 10
524.315491
 20
133.716217
 11
523.796143
 21
133.501068
  0
LINE
  8
0
  6
CONTINUOUS
 10
524.315491
 20
133.716217
 11
523.869507
 21
134.058456
  0
ARC
  8
0
  6
CONTINUOUS
 10
518.962524
 20
73.903206
 40
3.000000
 50
82.500000
 51
262.500000
  0
LINE
  8
0
  6
CONTINUOUS
 10
518.852905
 20
76.901176
 11
518.080688
 21
71.035767
  0
LINE
  8
0
  6
CONTINUOUS
 10
516.483887
 20
74.229523
 11
515.964600
 21
74.014404
  0
LINE
  8
0
  6
CONTINUOUS
 10
516.483887
 20
74.229523
 11
516.037964
 21
74.571793
  0
LINE
  8
0
  6
CONTINUOUS
 10
526.950989
 20
138.412384
 11
529.429626
 21
138.086075
  0
LINE
  8
0
  6
CONTINUOUS
 10
517.814148
 20
69.011246
 11
520.292786
 21
68.684937
  0
LINE
  8
0
  6
CONTINUOUS
 10
178.606049
 20
443.940643
 11
178.606049
 21
315.940643
  0
LINE
  8
0
  6
CONTINUOUS
 10
44.606045
 20
443.940643
 11
54.606045
 21
443.940643
  0
LINE
  8
0
  6
CONTINUOUS
 10
46.606045
 20
315.940674
 11
46.606045
 21
443.940643
  0
LINE
  8
0
  6
CONTINUOUS
 10
54.606045
 20
361.296234
 11
54.606045
 21
314.946838
  0
LINE
  8
0
  6
CONTINUOUS
 10
170.606049
 20
361.296234
 11
170.606049
 21
315.940674
  0
LINE
  8
0
  6
CONTINUOUS
 10
55.106045
 20
361.796234
 11
170.106049
 21
361.796234
  0
LINE
  8
0
  6
CONTINUOUS
 10
54.606045
 20
443.940643
 11
178.606049
 21
443.940643
  0
LINE
  8
0
  6
CONTINUOUS
 10
54.606045
 20
413.707642
 11
54.606045
 21
443.940643
  0
LINE
  8
0
  6
CONTINUOUS
 10
170.606049
 20
413.707642
 11
170.606049
 21
443.940643
  0
ARC
  8
0
  6
CONTINUOUS
 10
170.106049
 20
361.296234
 40
0.500000
 50
0.000000
 51
90.000000
  0
ARC
  8
0
  6
CONTINUOUS
 10
55.106045
 20
361.296234
 40
0.500000
 50
-270.000000
 51
-180.000000
  0
LINE
  8
0
  6
CONTINUOUS
 10
63.606045
 20
269.014282
 11
103.106049
 21
269.014282
  0
LINE
  8
0
  6
CONTINUOUS
 10
117.606049
 20
269.014282
 11
47.606045
 21
269.014282
  0
LINE
  8
0
  6
CONTINUOUS
 10
58.547588
 20
320.247040
 11
71.106049
 21
320.247040
  0
LINE
  8
0
  6
CONTINUOUS
 10
106.664490
 20
320.247040
 11
74.622429
 21
320.247040
  0
LINE
  8
0
  6
CONTINUOUS
 10
113.557426
 20
311.489075
 11
95.917229
 21
311.489075
  0
ARC
  8
0
  6
CONTINUOUS
 10
51.654228
 20
308.489075
 40
3.000000
 50
90.000000
 51
178.500305
  0
ARC
  8
0
  6
CONTINUOUS
 10
113.557426
 20
308.489075
 40
3.000000
 50
1.499893
 51
90.000000
  0
LINE
  8
0
  6
CONTINUOUS
 10
57.471226
 20
316.343292
 11
57.382046
 21
312.936676
  0
LINE
  8
0
  6
CONTINUOUS
 10
107.740845
 20
316.343292
 11
107.829826
 21
312.936676
  0
LINE
  8
0
  6
CONTINUOUS
 10
51.654228
 20
311.489075
 11
69.294823
 21
311.489075
  0
ARC
  8
0
  6
CONTINUOUS
 10
109.829224
 20
313.489075
 40
2.000000
 50
-178.500504
 51
-90.000000
  0
ARC
  8
0
  6
CONTINUOUS
 10
55.382626
 20
313.489075
 40
2.000000
 50
-90.000000
 51
-1.500397
  0
LINE
  8
0
  6
CONTINUOUS
 10
107.663109
 20
319.312775
 11
107.740845
 21
316.343292
  0
LINE
  8
0
  6
CONTINUOUS
 10
57.547932
 20
319.273224
 11
57.471226
 21
316.343292
  0
ARC
  8
0
  6
CONTINUOUS
 10
82.606049
 20
378.989075
 40
68.800003
 50
-101.155800
 51
-78.844177
  0
LINE
  8
0
  6
CONTINUOUS
 10
117.606049
 20
256.746643
 11
117.606049
 21
259.246643
  0
LINE
  8
0
  6
CONTINUOUS
 10
47.606045
 20
256.266022
 11
47.606045
 21
268.014282
  0
LINE
  8
0
  6
CONTINUOUS
 10
117.606049
 20
268.014282
 11
47.606045
 21
268.014282
  0
LINE
  8
0
  6
CONTINUOUS
 10
117.606049
 20
269.014282
 11
47.606045
 21
269.014282
  0
LINE
  8
0
  6
CONTINUOUS
 10
117.606049
 20
268.014282
 11
117.606049
 21
269.014282
  0
LINE
  8
0
  6
CONTINUOUS
 10
47.606045
 20
268.014282
 11
47.606045
 21
269.014282
  0
LINE
  8
0
  6
CONTINUOUS
 10
56.119045
 20
265.900879
 11
48.606045
 21
265.900879
  0
ARC
  8
0
  6
CONTINUOUS
 10
56.119045
 20
265.400879
 40
0.500000
 50
1.500198
 51
90.000000
  0
ARC
  8
0
  6
CONTINUOUS
 10
48.606045
 20
266.900879
 40
1.000000
 50
180.000000
 51
270.000000
  0
LINE
  8
0
  6
CONTINUOUS
 10
55.564026
 20
265.900879
 11
49.648045
 21
265.900879
  0
LINE
  8
0
  6
CONTINUOUS
 10
19.606047
 20
294.800629
 11
19.606047
 21
265.800629
  0
LINE
  8
0
  6
CONTINUOUS
 10
27.606047
 20
294.800629
 11
27.606047
 21
265.800629
  0
LINE
  8
0
  6
CONTINUOUS
 10
19.606047
 20
294.800629
 11
27.606047
 21
294.800629
  0
LINE
  8
0
  6
CONTINUOUS
 10
19.606047
 20
265.800629
 11
27.606047
 21
265.800629
  0
LINE
  8
0
  6
CONTINUOUS
 10
36.606045
 20
293.300629
 11
36.606045
 21
267.300629
  0
LINE
  8
0
  6
CONTINUOUS
 10
27.606047
 20
293.300629
 11
36.606045
 21
293.300629
  0
LINE
  8
0
  6
CONTINUOUS
 10
27.606047
 20
267.300629
 11
36.606045
 21
267.300629
  0
LINE
  8
0
  6
CONTINUOUS
 10
36.606045
 20
291.800629
 11
41.606045
 21
291.800629
  0
LINE
  8
0
  6
CONTINUOUS
 10
36.606045
 20
268.800629
 11
41.606045
 21
268.800629
  0
LINE
  8
0
  6
CONTINUOUS
 10
41.606045
 20
293.800629
 11
41.606045
 21
266.800629
  0
LINE
  8
0
  6
CONTINUOUS
 10
46.106045
 20
294.800629
 11
46.106045
 21
265.800629
  0
LINE
  8
0
  6
CONTINUOUS
 10
41.606045
 20
293.800629
 11
46.106045
 21
293.800629
  0
LINE
  8
0
  6
CONTINUOUS
 10
41.606045
 20
266.800629
 11
46.106045
 21
266.800629
  0
LINE
  8
0
  6
CONTINUOUS
 10
46.106045
 20
294.800629
 11
48.290066
 21
294.800629
  0
LINE
  8
0
  6
CONTINUOUS
 10
46.106045
 20
265.800629
 11
47.606045
 21
265.800629
  0
LINE
  8
0
  6
CONTINUOUS
 10
19.606047
 20
288.300629
 11
27.606047
 21
288.300629
  0
LINE
  8
0
  6
CONTINUOUS
 10
19.606047
 20
272.300629
 11
27.606047
 21
272.300629
  0
LINE
  8
0
  6
CONTINUOUS
 10
74.622429
 20
321.489075
 11
71.106049
 21
321.489075
  0
LINE
  8
0
  6
CONTINUOUS
 10
46.606045
 20
443.940643
 11
46.606045
 21
378.558441
  0
LINE
  8
0
  6
CONTINUOUS
 10
46.606045
 20
378.558441
 11
46.606045
 21
315.940674
  0
ARC
  8
0
  6
CONTINUOUS
 10
358.106049
 20
379.938202
 40
360.000000
 50
-189.120193
 51
-180.000000
  0
LINE
  8
0
  6
CONTINUOUS
 10
21.424166
 20
309.439423
 11
44.606045
 21
309.439423
  0
LINE
  8
0
  6
CONTINUOUS
 10
18.170986
 20
450.440094
 11
44.606045
 21
450.441803
  0
LINE
  8
0
  6
CONTINUOUS
 10
44.606045
 20
309.439423
 11
44.606045
 21
450.441803
  0
LINE
  8
0
  6
CONTINUOUS
 10
15.492286
 20
311.940643
 11
18.896326
 21
311.940643
  0
ARC
  8
0
  6
CONTINUOUS
 10
15.492286
 20
324.940643
 40
13.000000
 50
-170.880905
 51
-90.000000
  0
ARC
  8
0
  6
CONTINUOUS
 10
358.106049
 20
379.938202
 40
360.000000
 50
-180.000000
 51
-170.880493
  0
LINE
  8
0
  6
CONTINUOUS
 10
15.492286
 20
447.940643
 11
15.632667
 21
447.940643
  0
ARC
  8
0
  6
CONTINUOUS
 10
15.492286
 20
434.940643
 40
13.000000
 50
90.000000
 51
170.880905
  0
ARC
  8
0
  6
CONTINUOUS
 10
15.632667
 20
448.940643
 40
1.000000
 50
-90.000000
 51
-9.952286
  0
ARC
  8
0
  6
CONTINUOUS
 10
18.170986
 20
448.940094
 40
1.500000
 50
90.000000
 51
169.974594
  0
ARC
  8
0
  6
CONTINUOUS
 10
356.426056
 20
389.142120
 40
345.000000
 50
-190.025406
 51
-168.425507
  0
ARC
  8
0
  6
CONTINUOUS
 10
-321.290344
 20
259.861603
 40
345.000000
 50
8.476913
 51
10.025380
  0
ARC
  8
0
  6
CONTINUOUS
 10
21.424166
 20
310.939423
 40
1.500000
 50
-171.523102
 51
-90.000000
  0
ARC
  8
0
  6
CONTINUOUS
 10
18.896326
 20
310.940643
 40
1.000000
 50
8.539169
 51
90.000000
  0
LINE
  8
0
  6
CONTINUOUS
 10
54.606045
 20
425.824005
 11
170.606049
 21
425.824005
  0
LINE
  8
0
  6
CONTINUOUS
 10
55.106045
 20
413.207642
 11
170.106049
 21
413.207642
  0
ARC
  8
0
  6
CONTINUOUS
 10
170.106049
 20
413.707642
 40
0.500000
 50
-90.000000
 51
0.000000
  0
ARC
  8
0
  6
CONTINUOUS
 10
55.106045
 20
413.707642
 40
0.500000
 50
180.000000
 51
270.000000
  0
LINE
  8
0
  6
CONTINUOUS
 10
54.606045
 20
420.619415
 11
170.606049
 21
420.619415
  0
LINE
  8
0
  6
CONTINUOUS
 10
54.606045
 20
428.803223
 11
170.606049
 21
428.803223
  0
LINE
  8
0
  6
CONTINUOUS
 10
55.606045
 20
431.968658
 11
169.606049
 21
431.968658
  0
LINE
  8
0
  6
CONTINUOUS
 10
54.606045
 20
434.980988
 11
170.606049
 21
434.980988
  0
LINE
  8
0
  6
CONTINUOUS
 10
55.606045
 20
435.718475
 11
169.606049
 21
435.718475
  0
LINE
  8
0
  6
CONTINUOUS
 10
54.606045
 20
439.414856
 11
170.606049
 21
439.414856
  0
LINE
  8
0
  6
CONTINUOUS
 10
54.606045
 20
441.981537
 11
170.606049
 21
441.981537
  0
LINE
  8
0
  6
CONTINUOUS
 10
54.606045
 20
443.493927
 11
170.606049
 21
443.493927
  0
LINE
  8
0
  6
CONTINUOUS
 10
55.606045
 20
361.310028
 11
169.606049
 21
361.310028
  0
LINE
  8
0
  6
CONTINUOUS
 10
54.606045
 20
353.520142
 11
170.606049
 21
353.520142
  0
LINE
  8
0
  6
CONTINUOUS
 10
55.606045
 20
348.246796
 11
169.606049
 21
348.246796
  0
LINE
  8
0
  6
CONTINUOUS
 10
54.606045
 20
343.367584
 11
170.606049
 21
343.367584
  0
LINE
  8
0
  6
CONTINUOUS
 10
55.606045
 20
338.349182
 11
169.606049
 21
338.349182
  0
LINE
  8
0
  6
CONTINUOUS
 10
54.606045
 20
335.280243
 11
170.606049
 21
335.280243
  0
LINE
  8
0
  6
CONTINUOUS
 10
55.606045
 20
332.594330
 11
169.606049
 21
332.594330
  0
LINE
  8
0
  6
CONTINUOUS
 10
54.606045
 20
328.891479
 11
170.606049
 21
328.891479
  0
LINE
  8
0
  6
CONTINUOUS
 10
121.606049
 20
327.891479
 11
121.606049
 21
314.946838
  0
LINE
  8
0
  6
CONTINUOUS
 10
121.606049
 20
315.940674
 11
178.606049
 21
315.940674
  0
LINE
  8
0
  6
CONTINUOUS
 10
54.606045
 20
321.995270
 11
120.606049
 21
321.995270
  0
LINE
  8
0
  6
CONTINUOUS
 10
121.606049
 20
324.008362
 11
170.606049
 21
324.008362
  0
LINE
  8
0
  6
CONTINUOUS
 10
121.606049
 20
320.543091
 11
170.606049
 21
320.543091
  0
LINE
  8
0
  6
CONTINUOUS
 10
121.606049
 20
318.025970
 11
170.606049
 21
318.025970
  0
LINE
  8
0
  6
CONTINUOUS
 10
121.606049
 20
316.480621
 11
170.606049
 21
316.480621
  0
LINE
  8
0
  6
CONTINUOUS
 10
46.606045
 20
315.940643
 11
54.606045
 21
315.940643
  0
LINE
  8
0
  6
CONTINUOUS
 10
54.606045
 20
314.946838
 11
57.434669
 21
314.946838
  0
LINE
  8
0
  6
CONTINUOUS
 10
59.606045
 20
321.473175
 11
105.606049
 21
321.473175
  0
LINE
  8
0
  6
CONTINUOUS
 10
59.606045
 20
320.247040
 11
105.606049
 21
320.247040
  0
LINE
  8
0
  6
CONTINUOUS
 10
59.606045
 20
320.247040
 11
59.606045
 21
321.473175
  0
LINE
  8
0
  6
CONTINUOUS
 10
105.606049
 20
320.247040
 11
105.606049
 21
321.473175
  0
ARC
  8
0
  6
CONTINUOUS
 10
106.664490
 20
319.247040
 40
1.000000
 50
1.499604
 51
90.000000
  0
ARC
  8
0
  6
CONTINUOUS
 10
58.547588
 20
319.247040
 40
1.000000
 50
90.000000
 51
178.500397
  0
LINE
  8
0
  6
CONTINUOUS
 10
107.777321
 20
314.946838
 11
121.606049
 21
314.946838
  0
ARC
  8
0
  6
CONTINUOUS
 10
57.654800
 20
264.057068
 40
1.000000
 50
181.504028
 51
270.000000
  0
LINE
  8
0
  6
CONTINUOUS
 10
48.655254
 20
308.567596
 11
47.606045
 21
269.014282
  0
LINE
  8
0
  6
CONTINUOUS
 10
116.556396
 20
308.567596
 11
117.606049
 21
269.014282
  0
LINE
  8
0
  6
CONTINUOUS
 10
117.606049
 20
268.014282
 11
117.606049
 21
259.246643
  0
LINE
  8
0
  6
CONTINUOUS
 10
57.654800
 20
263.057068
 11
107.557487
 21
263.057068
  0
ARC
  8
0
  6
CONTINUOUS
 10
55.911186
 20
254.266006
 40
1.000000
 50
6.685660
 51
90.000000
  0
LINE
  8
0
  6
CONTINUOUS
 10
48.606045
 20
255.266006
 11
55.911186
 21
255.266006
  0
ARC
  8
0
  6
CONTINUOUS
 10
48.606045
 20
256.266022
 40
1.000000
 50
180.000000
 51
270.000000
  0
ARC
  8
0
  6
CONTINUOUS
 10
52.606045
 20
257.552979
 40
3.000000
 50
229.669662
 51
310.330322
  0
LINE
  8
0
  6
CONTINUOUS
 10
52.606045
 20
255.052979
 11
52.325047
 21
254.566162
  0
LINE
  8
0
  6
CONTINUOUS
 10
52.606045
 20
255.052979
 11
52.887226
 21
254.566162
  0
ARC
  8
0
  6
CONTINUOUS
 10
55.685223
 20
262.872070
 40
1.000000
 50
-90.000000
 51
1.504025
  0
LINE
  8
0
  6
CONTINUOUS
 10
56.684879
 20
262.898315
 11
56.618828
 21
265.413971
  0
LINE
  8
0
  6
CONTINUOUS
 10
48.106045
 20
261.872070
 11
55.685223
 21
261.872070
  0
ARC
  8
0
  6
CONTINUOUS
 10
48.106045
 20
261.372070
 40
0.500000
 50
90.000000
 51
180.000000
  0
ARC
  8
0
  6
CONTINUOUS
 10
57.400986
 20
254.440643
 40
0.500000
 50
186.685654
 51
270.000000
  0
LINE
  8
0
  6
CONTINUOUS
 10
57.400986
 20
253.940643
 11
107.810669
 21
253.940643
  0
ARC
  8
0
  6
CONTINUOUS
 10
109.300468
 20
254.266006
 40
1.000000
 50
90.000000
 51
173.314346
  0
LINE
  8
0
  6
CONTINUOUS
 10
116.605606
 20
255.266006
 11
109.300468
 21
255.266006
  0
ARC
  8
0
  6
CONTINUOUS
 10
116.605606
 20
256.266022
 40
1.000000
 50
-90.000000
 51
0.000000
  0
ARC
  8
0
  6
CONTINUOUS
 10
112.605606
 20
257.552979
 40
3.000000
 50
-130.330338
 51
-49.669670
  0
LINE
  8
0
  6
CONTINUOUS
 10
112.605606
 20
255.052979
 11
112.886604
 21
254.566162
  0
LINE
  8
0
  6
CONTINUOUS
 10
112.605606
 20
255.052979
 11
112.324432
 21
254.566162
  0
ARC
  8
0
  6
CONTINUOUS
 10
107.810669
 20
254.440643
 40
0.500000
 50
-90.000000
 51
-6.685660
  0
ARC
  8
0
  6
CONTINUOUS
 10
51.016861
 20
264.686584
 40
1.000000
 50
105.358887
 51
217.383194
  0
ARC
  8
0
  6
CONTINUOUS
 10
52.606045
 20
265.900879
 40
3.000000
 50
217.383194
 51
322.616791
  0
ARC
  8
0
  6
CONTINUOUS
 10
54.195232
 20
264.686584
 40
1.000000
 50
-37.383198
 51
74.641113
  0
ARC
  8
0
  6
CONTINUOUS
 10
52.606045
 20
258.900879
 40
7.000000
 50
74.641113
 51
105.358887
  0
LINE
  8
0
  6
CONTINUOUS
 10
51.131931
 20
264.067474
 11
54.152611
 21
264.067474
  0
LINE
  8
0
  6
CONTINUOUS
 10
52.606045
 20
262.947998
 11
52.606045
 21
264.897430
  0
LINE
  8
0
  6
CONTINUOUS
 10
109.092606
 20
265.900879
 11
116.605606
 21
265.900879
  0
ARC
  8
0
  6
CONTINUOUS
 10
109.092606
 20
265.400879
 40
0.500000
 50
90.000000
 51
178.499802
  0
ARC
  8
0
  6
CONTINUOUS
 10
116.605606
 20
266.900879
 40
1.000000
 50
-90.000000
 51
0.000000
  0
LINE
  8
0
  6
CONTINUOUS
 10
109.647629
 20
265.900879
 11
115.563606
 21
265.900879
  0
ARC
  8
0
  6
CONTINUOUS
 10
107.556854
 20
264.057068
 40
1.000000
 50
-90.000000
 51
-1.504025
  0
ARC
  8
0
  6
CONTINUOUS
 10
109.526428
 20
262.872070
 40
1.000000
 50
178.495972
 51
270.000000
  0
LINE
  8
0
  6
CONTINUOUS
 10
108.526772
 20
262.898315
 11
108.592827
 21
265.413971
  0
LINE
  8
0
  6
CONTINUOUS
 10
117.105606
 20
261.872070
 11
109.526428
 21
261.872070
  0
ARC
  8
0
  6
CONTINUOUS
 10
117.105606
 20
261.372070
 40
0.500000
 50
0.000000
 51
90.000000
  0
ARC
  8
0
  6
CONTINUOUS
 10
114.194794
 20
264.686584
 40
1.000000
 50
-37.383198
 51
74.641113
  0
ARC
  8
0
  6
CONTINUOUS
 10
112.605606
 20
265.900879
 40
3.000000
 50
-142.616806
 51
-37.383198
  0
ARC
  8
0
  6
CONTINUOUS
 10
111.016426
 20
264.686584
 40
1.000000
 50
105.358887
 51
217.383194
  0
ARC
  8
0
  6
CONTINUOUS
 10
112.605606
 20
258.900879
 40
7.000000
 50
74.641113
 51
105.358887
  0
LINE
  8
0
  6
CONTINUOUS
 10
114.079727
 20
264.067474
 11
111.059044
 21
264.067474
  0
LINE
  8
0
  6
CONTINUOUS
 10
112.605606
 20
262.947998
 11
112.605606
 21
264.897430
  0
ARC
  8
0
  6
CONTINUOUS
 10
120.606049
 20
320.995270
 40
1.000000
 50
0.000000
 51
90.000000
  0
ARC
  8
0
  6
CONTINUOUS
 10
120.606049
 20
327.891479
 40
1.000000
 50
0.000000
 51
90.000000
  0
LINE
  8
0
  6
CENTER
 10
82.606049
 20
325.475006
 11
82.606049
 21
246.279999
  0
LINE
  8
0
  6
CENTER
 10
16.215000
 20
280.300629
 11
53.110001
 21
280.300629
  0
LINE
  8
0
  6
CONTINUOUS
 10
191.382248
 20
326.985931
 11
191.330154
 21
324.993744
  0
LINE
  8
0
  6
CONTINUOUS
 10
194.984451
 20
352.940643
 11
230.272751
 21
352.940643
  0
LINE
  8
0
  6
CONTINUOUS
 10
194.557251
 20
340.240631
 11
230.272751
 21
340.240631
  0
LINE
  8
0
  6
CONTINUOUS
 10
181.606049
 20
379.940643
 11
181.606049
 21
315.940643
  0
LINE
  8
0
  6
CONTINUOUS
 10
230.272751
 20
340.240631
 11
266.083740
 21
340.240631
  0
LINE
  8
0
  6
CONTINUOUS
 10
230.272751
 20
352.940643
 11
266.227661
 21
352.940643
  0
LINE
  8
0
  6
CONTINUOUS
 10
269.508942
 20
339.233154
 11
268.606140
 21
373.701324
  0
LINE
  8
0
  6
CONTINUOUS
 10
193.106049
 20
349.940643
 11
193.106049
 21
328.940643
  0
LINE
  8
0
  6
CONTINUOUS
 10
194.355942
 20
327.940643
 11
238.606003
 21
327.940643
  0
LINE
  8
0
  6
CONTINUOUS
 10
191.675446
 20
338.184143
 11
192.605850
 21
373.700836
  0
ARC
  8
0
  6
CONTINUOUS
 10
192.106049
 20
328.940643
 40
1.000000
 50
-82.060577
 51
0.000000
  0
ARC
  8
0
  6
CONTINUOUS
 10
192.382339
 20
326.959839
 40
1.000000
 50
97.941017
 51
178.502808
  0
ARC
  8
0
  6
CONTINUOUS
 10
196.106049
 20
349.940643
 40
3.000000
 50
90.000000
 51
180.000000
  0
ARC
  8
0
  6
CONTINUOUS
 10
192.106049
 20
336.240631
 40
1.000000
 50
0.000000
 51
73.469917
  0
ARC
  8
0
  6
CONTINUOUS
 10
192.675049
 20
338.157928
 40
1.000000
 50
178.499496
 51
253.470200
  0
LINE
  8
0
  6
CONTINUOUS
 10
193.706039
 20
379.940643
 11
192.605850
 21
373.700836
  0
LINE
  8
0
  6
CONTINUOUS
 10
267.506042
 20
379.940643
 11
268.606140
 21
373.701324
  0
ARC
  8
0
  6
CONTINUOUS
 10
194.984451
 20
349.940643
 40
3.000000
 50
90.000000
 51
178.499802
  0
LINE
  8
0
  6
CONTINUOUS
 10
193.321838
 20
373.700836
 11
267.791962
 21
373.701324
  0
LINE
  8
0
  6
CONTINUOUS
 10
267.106049
 20
349.940643
 11
267.106049
 21
328.940643
  0
ARC
  8
0
  6
CONTINUOUS
 10
264.106049
 20
349.940643
 40
3.000000
 50
0.000000
 51
90.000000
  0
ARC
  8
0
  6
CONTINUOUS
 10
266.227661
 20
349.940643
 40
3.000000
 50
1.500198
 51
90.000000
  0
ARC
  8
0
  6
CONTINUOUS
 10
268.106049
 20
336.240631
 40
1.000000
 50
101.464699
 51
180.000000
  0
ARC
  8
0
  6
CONTINUOUS
 10
268.106049
 20
328.940643
 40
1.000000
 50
180.000000
 51
265.243713
  0
ARC
  8
0
  6
CONTINUOUS
 10
267.509735
 20
339.180725
 40
2.000000
 50
-78.535400
 51
1.500488
  0
ARC
  8
0
  6
CONTINUOUS
 10
267.857361
 20
325.950928
 40
2.000000
 50
-7.971832
 51
85.243713
  0
LINE
  8
0
  6
CONTINUOUS
 10
191.382248
 20
432.895325
 11
191.330154
 21
434.887543
  0
LINE
  8
0
  6
CONTINUOUS
 10
194.984451
 20
406.940643
 11
230.272751
 21
406.940643
  0
LINE
  8
0
  6
CONTINUOUS
 10
194.557251
 20
419.640625
 11
230.272751
 21
419.640625
  0
LINE
  8
0
  6
CONTINUOUS
 10
181.606049
 20
379.940643
 11
181.606049
 21
443.940643
  0
LINE
  8
0
  6
CONTINUOUS
 10
230.272751
 20
419.640625
 11
266.083740
 21
419.640625
  0
LINE
  8
0
  6
CONTINUOUS
 10
230.272751
 20
406.940643
 11
266.227661
 21
406.940643
  0
LINE
  8
0
  6
CONTINUOUS
 10
269.508942
 20
420.648132
 11
268.606140
 21
386.179932
  0
LINE
  8
0
  6
CONTINUOUS
 10
193.106049
 20
409.940643
 11
193.106049
 21
430.940643
  0
LINE
  8
0
  6
CONTINUOUS
 10
266.869354
 20
431.940643
 11
194.355942
 21
431.940643
  0
LINE
  8
0
  6
CONTINUOUS
 10
191.675446
 20
421.697144
 11
192.605850
 21
386.180450
  0
ARC
  8
0
  6
CONTINUOUS
 10
192.106049
 20
430.940643
 40
1.000000
 50
0.000000
 51
82.060577
  0
ARC
  8
0
  6
CONTINUOUS
 10
192.382339
 20
432.921448
 40
1.000000
 50
181.497192
 51
262.058990
  0
ARC
  8
0
  6
CONTINUOUS
 10
196.106049
 20
409.940643
 40
3.000000
 50
180.000000
 51
270.000000
  0
ARC
  8
0
  6
CONTINUOUS
 10
192.106049
 20
423.640625
 40
1.000000
 50
-73.469917
 51
0.000000
  0
ARC
  8
0
  6
CONTINUOUS
 10
192.675049
 20
421.723328
 40
1.000000
 50
106.529800
 51
181.500504
  0
LINE
  8
0
  6
CONTINUOUS
 10
193.706039
 20
379.940643
 11
192.605850
 21
386.180450
  0
LINE
  8
0
  6
CONTINUOUS
 10
267.506042
 20
379.940643
 11
268.606140
 21
386.179932
  0
ARC
  8
0
  6
CONTINUOUS
 10
194.984451
 20
409.940643
 40
3.000000
 50
181.500198
 51
270.000000
  0
LINE
  8
0
  6
CONTINUOUS
 10
193.321838
 20
386.180450
 11
267.791962
 21
386.179932
  0
LINE
  8
0
  6
CONTINUOUS
 10
267.106049
 20
409.940643
 11
267.106049
 21
430.940643
  0
ARC
  8
0
  6
CONTINUOUS
 10
264.106049
 20
409.940643
 40
3.000000
 50
-90.000000
 51
0.000000
  0
ARC
  8
0
  6
CONTINUOUS
 10
266.227661
 20
409.940643
 40
3.000000
 50
270.000000
 51
358.499817
  0
ARC
  8
0
  6
CONTINUOUS
 10
268.106049
 20
423.640625
 40
1.000000
 50
180.000000
 51
258.535309
  0
ARC
  8
0
  6
CONTINUOUS
 10
268.106049
 20
430.940643
 40
1.000000
 50
94.756302
 51
180.000000
  0
ARC
  8
0
  6
CONTINUOUS
 10
267.509735
 20
420.700531
 40
2.000000
 50
-1.500488
 51
78.535400
  0
ARC
  8
0
  6
CONTINUOUS
 10
267.857361
 20
433.930328
 40
2.000000
 50
-85.243713
 51
7.971832
  0
LINE
  8
0
  6
CONTINUOUS
 10
269.868317
 20
434.862122
 11
270.080536
 21
442.966827
  0
ARC
  8
0
  6
CONTINUOUS
 10
271.080200
 20
442.940643
 40
1.000000
 50
90.000000
 51
178.500000
  0
LINE
  8
0
  6
CONTINUOUS
 10
271.080200
 20
443.940643
 11
279.606049
 21
443.940643
  0
ARC
  8
0
  6
CONTINUOUS
 10
266.869354
 20
434.940643
 40
3.000000
 50
270.000000
 51
358.500000
  0
LINE
  8
0
  6
CONTINUOUS
 10
190.131897
 20
443.940643
 11
178.606049
 21
443.940643
  0
ARC
  8
0
  6
CONTINUOUS
 10
190.131897
 20
442.940643
 40
1.000000
 50
1.500000
 51
90.000000
  0
LINE
  8
0
  6
CONTINUOUS
 10
191.343781
 20
434.862122
 11
191.131546
 21
442.966827
  0
ARC
  8
0
  6
CONTINUOUS
 10
194.342743
 20
434.940643
 40
3.000000
 50
181.500000
 51
270.000000
  0
LINE
  8
0
  6
CONTINUOUS
 10
271.080200
 20
315.940643
 11
279.606049
 21
315.940643
  0
LINE
  8
0
  6
CONTINUOUS
 10
269.868317
 20
325.019165
 11
270.080536
 21
316.914459
  0
ARC
  8
0
  6
CONTINUOUS
 10
271.080200
 20
316.940643
 40
1.000000
 50
181.500000
 51
270.000000
  0
ARC
  8
0
  6
CONTINUOUS
 10
266.869354
 20
324.940643
 40
3.000000
 50
1.500000
 51
90.000000
  0
LINE
  8
0
  6
CONTINUOUS
 10
190.131897
 20
315.940643
 11
178.606049
 21
315.940643
  0
ARC
  8
0
  6
CONTINUOUS
 10
190.131897
 20
316.940643
 40
1.000000
 50
270.000000
 51
358.500000
  0
LINE
  8
0
  6
CONTINUOUS
 10
191.343781
 20
325.019165
 11
191.131546
 21
316.914459
  0
ARC
  8
0
  6
CONTINUOUS
 10
194.342743
 20
324.940643
 40
3.000000
 50
90.000000
 51
178.500000
  0
LINE
  8
0
  6
CONTINUOUS
 10
245.606049
 20
330.940643
 11
245.606049
 21
329.940643
  0
LINE
  8
0
  6
CONTINUOUS
 10
234.606049
 20
330.940643
 11
234.606049
 21
329.940643
  0
LINE
  8
0
  6
CONTINUOUS
 10
235.606049
 20
331.940643
 11
244.606049
 21
331.940643
  0
ARC
  8
0
  6
CONTINUOUS
 10
244.606049
 20
330.940643
 40
1.000000
 50
0.000000
 51
90.000000
  0
ARC
  8
0
  6
CONTINUOUS
 10
235.606049
 20
330.940643
 40
1.000000
 50
90.000000
 51
180.000000
  0
ARC
  8
0
  6
CONTINUOUS
 10
247.606049
 20
329.940643
 40
2.000000
 50
180.000000
 51
270.000000
  0
ARC
  8
0
  6
CONTINUOUS
 10
232.606049
 20
329.940643
 40
2.000000
 50
-90.000000
 51
0.000000
  0
LINE
  8
0
  6
CONTINUOUS
 10
240.106003
 20
331.940643
 11
240.106003
 21
319.611115
  0
LINE
  8
0
  6
CONTINUOUS
 10
241.606003
 20
331.940643
 11
241.606003
 21
320.426575
  0
LINE
  8
0
  6
CONTINUOUS
 10
238.606003
 20
331.940643
 11
238.606003
 21
319.871307
  0
LINE
  8
0
  6
CONTINUOUS
 10
241.606003
 20
327.940643
 11
267.356140
 21
327.940643
  0
LINE
  8
0
  6
CONTINUOUS
 10
238.606003
 20
319.871307
 11
240.106003
 21
320.738312
  0
LINE
  8
0
  6
CONTINUOUS
 10
240.106003
 20
319.611115
 11
241.606003
 21
320.426575
  0
LINE
  8
0
  6
CONTINUOUS
 10
191.606003
 20
326.169556
 11
191.606003
 21
314.192719
  0
LINE
  8
0
  6
CONTINUOUS
 10
193.106003
 20
327.673859
 11
193.106003
 21
315.008209
  0
LINE
  8
0
  6
CONTINUOUS
 10
190.106003
 20
314.452911
 11
191.606003
 21
315.319916
  0
LINE
  8
0
  6
CONTINUOUS
 10
191.606003
 20
314.192719
 11
193.106003
 21
315.008209
  0
LINE
  8
0
  6
CONTINUOUS
 10
190.106003
 20
315.940643
 11
190.106003
 21
314.452911
  0
LINE
  8
0
  6
CONTINUOUS
 10
266.687439
 20
379.940643
 11
194.418518
 21
379.940643
  0
LINE
  8
0
  6
CONTINUOUS
 10
270.506042
 20
152.048630
 11
279.606049
 21
152.048630
  0
LINE
  8
0
  6
CONTINUOUS
 10
279.606049
 20
24.048626
 11
270.506042
 21
24.048626
  0
LINE
  8
0
  6
CONTINUOUS
 10
178.606049
 20
152.048630
 11
190.706039
 21
152.048630
  0
LINE
  8
0
  6
CONTINUOUS
 10
178.606049
 20
24.048626
 11
190.706039
 21
24.048626
  0
LINE
  8
0
  6
CONTINUOUS
 10
181.606049
 20
152.048630
 11
181.606049
 21
24.048626
  0
LINE
  8
0
  6
CONTINUOUS
 10
267.106049
 20
36.048565
 11
194.106049
 21
36.048367
  0
LINE
  8
0
  6
CONTINUOUS
 10
263.106049
 20
82.048668
 11
263.106049
 21
68.048668
  0
LINE
  8
0
  6
CONTINUOUS
 10
230.105850
 20
82.048668
 11
230.105850
 21
68.048668
  0
LINE
  8
0
  6
CONTINUOUS
 10
198.106049
 20
82.048668
 11
198.106049
 21
68.048668
  0
LINE
  8
0
  6
CONTINUOUS
 10
201.105881
 20
65.048668
 11
227.105850
 21
65.048668
  0
ARC
  8
0
  6
CONTINUOUS
 10
201.105881
 20
68.048668
 40
3.000000
 50
180.000000
 51
270.000000
  0
ARC
  8
0
  6
CONTINUOUS
 10
227.105850
 20
68.048668
 40
3.000000
 50
-90.000000
 51
0.000000
  0
ARC
  8
0
  6
CONTINUOUS
 10
238.106049
 20
68.048668
 40
3.000000
 50
180.000000
 51
270.000000
  0
ARC
  8
0
  6
CONTINUOUS
 10
260.106049
 20
68.048668
 40
3.000000
 50
-90.000000
 51
0.000000
  0
LINE
  8
0
  6
CONTINUOUS
 10
235.106049
 20
82.048668
 11
235.106049
 21
68.048668
  0
LINE
  8
0
  6
CONTINUOUS
 10
238.106049
 20
65.048668
 11
260.106049
 21
65.048668
  0
LINE
  8
0
  6
CONTINUOUS
 10
238.106049
 20
85.048668
 11
238.605942
 21
85.048668
  0
ARC
  8
0
  6
CONTINUOUS
 10
260.106049
 20
82.048637
 40
3.000000
 50
0.000000
 51
90.000000
  0
LINE
  8
0
  6
CONTINUOUS
 10
201.105881
 20
85.048668
 11
227.105850
 21
85.048668
  0
ARC
  8
0
  6
CONTINUOUS
 10
238.106049
 20
82.048668
 40
3.000000
 50
90.000000
 51
180.000000
  0
ARC
  8
0
  6
CONTINUOUS
 10
227.105850
 20
82.048637
 40
3.000000
 50
0.000000
 51
90.000000
  0
ARC
  8
0
  6
CONTINUOUS
 10
201.105881
 20
82.048668
 40
3.000000
 50
90.000000
 51
180.000000
  0
LINE
  8
0
  6
CONTINUOUS
 10
191.106049
 20
149.048599
 11
191.106049
 21
119.900764
  0
LINE
  8
0
  6
CONTINUOUS
 10
194.106049
 20
57.048664
 11
267.106049
 21
57.048664
  0
ARC
  8
0
  6
CONTINUOUS
 10
273.106049
 20
149.048599
 40
3.000000
 50
90.000000
 51
180.000000
  0
ARC
  8
0
  6
CONTINUOUS
 10
188.106049
 20
149.048599
 40
3.000000
 50
0.000000
 51
90.000000
  0
ARC
  8
0
  6
CONTINUOUS
 10
267.106049
 20
54.048626
 40
3.000000
 50
0.000000
 51
90.000000
  0
ARC
  8
0
  6
CONTINUOUS
 10
267.106049
 20
33.048607
 40
3.000000
 50
0.000000
 51
90.000000
  0
ARC
  8
0
  6
CONTINUOUS
 10
273.106049
 20
27.048664
 40
3.000000
 50
180.000000
 51
270.000000
  0
ARC
  8
0
  6
CONTINUOUS
 10
188.106049
 20
27.048664
 40
3.000000
 50
-90.000000
 51
0.000000
  0
ARC
  8
0
  6
CONTINUOUS
 10
194.106049
 20
33.048626
 40
3.000000
 50
90.000000
 51
180.000000
  0
ARC
  8
0
  6
CONTINUOUS
 10
194.106049
 20
54.048664
 40
3.000000
 50
90.000000
 51
180.000000
  0
LINE
  8
0
  6
CONTINUOUS
 10
270.106049
 20
149.048569
 11
270.106049
 21
27.048626
  0
LINE
  8
0
  6
CONTINUOUS
 10
267.106049
 20
140.048767
 11
194.106049
 21
140.048965
  0
ARC
  8
0
  6
CONTINUOUS
 10
267.106049
 20
143.048721
 40
3.000000
 50
-90.000000
 51
0.000000
  0
ARC
  8
0
  6
CONTINUOUS
 10
194.106049
 20
143.048706
 40
3.000000
 50
-180.000000
 51
-90.000000
  0
ARC
  8
0
  6
CONTINUOUS
 10
267.106049
 20
122.048668
 40
3.000000
 50
-90.000000
 51
0.000000
  0
ARC
  8
0
  6
CONTINUOUS
 10
240.105850
 20
111.548668
 40
5.500000
 50
180.000000
 51
254.174469
  0
LINE
  8
0
  6
CONTINUOUS
 10
234.605850
 20
116.048668
 11
234.605942
 21
111.548668
  0
LINE
  8
0
  6
CONTINUOUS
 10
245.606049
 20
116.048668
 11
245.606049
 21
111.548668
  0
LINE
  8
0
  6
CONTINUOUS
 10
232.105850
 20
119.048668
 11
194.106049
 21
119.048668
  0
LINE
  8
0
  6
CONTINUOUS
 10
232.105942
 20
119.048668
 11
249.106049
 21
119.048668
  0
ARC
  8
0
  6
CONTINUOUS
 10
248.606049
 20
116.048668
 40
3.000000
 50
90.000000
 51
180.000000
  0
ARC
  8
0
  6
CONTINUOUS
 10
231.605850
 20
116.048668
 40
3.000000
 50
0.000000
 51
90.000000
  0
LINE
  8
0
  6
CONTINUOUS
 10
267.106049
 20
119.048668
 11
249.106049
 21
119.048668
  0
ARC
  8
0
  6
CONTINUOUS
 10
191.605850
 20
111.548668
 40
5.000000
 50
123.362900
 51
161.336899
  0
ARC
  8
0
  6
CONTINUOUS
 10
186.106140
 20
103.196762
 40
5.000000
 50
36.873718
 51
56.635471
  0
ARC
  8
0
  6
CONTINUOUS
 10
186.106445
 20
119.900764
 40
5.000000
 50
-56.637020
 51
0.000000
  0
ARC
  8
0
  6
CONTINUOUS
 10
194.106049
 20
122.048668
 40
3.000000
 50
180.000000
 51
270.000000
  0
ARC
  8
0
  6
CONTINUOUS
 10
191.605850
 20
111.548668
 40
5.000000
 50
198.663101
 51
236.635498
  0
LINE
  8
0
  6
CONTINUOUS
 10
189.068222
 20
113.148659
 11
181.606049
 21
113.148659
  0
LINE
  8
0
  6
CONTINUOUS
 10
189.068222
 20
109.948677
 11
181.606049
 21
109.948677
  0
LINE
  8
0
  6
CONTINUOUS
 10
191.605942
 20
111.548668
 11
191.605942
 21
85.798668
  0
LINE
  8
0
  6
CONTINUOUS
 10
240.105942
 20
111.548668
 11
240.105942
 21
84.221886
  0
LINE
  8
0
  6
CONTINUOUS
 10
193.105942
 20
111.548668
 11
193.105942
 21
84.861168
  0
LINE
  8
0
  6
CONTINUOUS
 10
190.105942
 20
111.548668
 11
190.105942
 21
85.258675
  0
LINE
  8
0
  6
CONTINUOUS
 10
241.605942
 20
111.548668
 11
241.605942
 21
83.364738
  0
LINE
  8
0
  6
CONTINUOUS
 10
238.605942
 20
111.548668
 11
238.605942
 21
84.106804
  0
LINE
  8
0
  6
CONTINUOUS
 10
190.105942
 20
85.258675
 11
191.580948
 21
86.954918
  0
LINE
  8
0
  6
CONTINUOUS
 10
191.610367
 20
85.806023
 11
193.126907
 21
84.896095
  0
LINE
  8
0
  6
CONTINUOUS
 10
238.605942
 20
84.106804
 11
240.105942
 21
85.344292
  0
LINE
  8
0
  6
CONTINUOUS
 10
240.105942
 20
84.221886
 11
241.605942
 21
83.364738
  0
ARC
  8
0
  6
CONTINUOUS
 10
240.855942
 20
111.548668
 40
0.750000
 50
0.000000
 51
180.000000
  0
ARC
  8
0
  6
CONTINUOUS
 10
239.355942
 20
111.548668
 40
0.750000
 50
0.000000
 51
180.000000
  0
ARC
  8
0
  6
CONTINUOUS
 10
240.105942
 20
111.548668
 40
3.000000
 50
-59.999939
 51
239.999893
  0
ARC
  8
0
  6
CONTINUOUS
 10
192.355942
 20
111.548668
 40
0.750000
 50
0.000000
 51
180.000000
  0
ARC
  8
0
  6
CONTINUOUS
 10
190.855942
 20
111.548668
 40
0.750000
 50
0.000000
 51
180.000000
  0
ARC
  8
0
  6
CONTINUOUS
 10
191.605942
 20
111.548668
 40
3.000000
 50
-59.999939
 51
239.999893
  0
ARC
  8
0
  6
CONTINUOUS
 10
240.105850
 20
111.548668
 40
5.500000
 50
-74.172295
 51
0.000000
  0
LINE
  8
0
  6
CONTINUOUS
 10
191.105911
 20
86.408630
 11
191.105820
 21
27.048664
  0
LINE
  8
0
  6
CONTINUOUS
 10
241.605942
 20
85.048668
 11
260.106049
 21
85.048668
  0
LINE
  8
0
  6
CONTINUOUS
 10
239.747604
 20
85.048668
 11
240.105942
 21
85.048668
  0
LINE
  8
0
  6
CONTINUOUS
 10
193.706039
 20
144.049011
 11
193.706039
 21
149.048660
  0
ARC
  8
0
  6
CONTINUOUS
 10
190.706039
 20
149.048660
 40
3.000000
 50
0.000000
 51
90.000000
  0
ARC
  8
0
  6
CONTINUOUS
 10
196.706039
 20
144.049011
 40
3.000000
 50
180.000000
 51
270.000000
  0
LINE
  8
0
  6
CONTINUOUS
 10
264.506042
 20
141.048782
 11
196.706039
 21
141.049011
  0
ARC
  8
0
  6
CONTINUOUS
 10
264.506042
 20
144.048782
 40
3.000000
 50
-90.000000
 51
0.000000
  0
LINE
  8
0
  6
CONTINUOUS
 10
267.506042
 20
144.048782
 11
267.506042
 21
149.048660
  0
ARC
  8
0
  6
CONTINUOUS
 10
270.506042
 20
149.048660
 40
3.000000
 50
90.000000
 51
180.000000
  0
ARC
  8
0
  6
CONTINUOUS
 10
270.506042
 20
27.048784
 40
3.000000
 50
180.000000
 51
270.000000
  0
LINE
  8
0
  6
CONTINUOUS
 10
267.506042
 20
32.048664
 11
267.506042
 21
27.048784
  0
ARC
  8
0
  6
CONTINUOUS
 10
264.506042
 20
32.048664
 40
3.000000
 50
0.000000
 51
90.000000
  0
LINE
  8
0
  6
CONTINUOUS
 10
264.506042
 20
35.048664
 11
196.706039
 21
35.048435
  0
ARC
  8
0
  6
CONTINUOUS
 10
196.706039
 20
32.048435
 40
3.000000
 50
90.000000
 51
180.000000
  0
LINE
  8
0
  6
CONTINUOUS
 10
193.706039
 20
32.048435
 11
193.706039
 21
27.048784
  0
ARC
  8
0
  6
CONTINUOUS
 10
190.706039
 20
27.048784
 40
3.000000
 50
-90.000000
 51
0.000000
  0
ARC
  8
0
  6
CONTINUOUS
 10
192.106049
 20
135.048721
 40
1.000000
 50
0.000000
 51
90.000000
  0
ARC
  8
0
  6
CONTINUOUS
 10
192.106049
 20
129.397720
 40
1.000000
 50
-90.000000
 51
0.000000
  0
LINE
  8
0
  6
CONTINUOUS
 10
193.106049
 20
135.048721
 11
193.106049
 21
122.048721
  0
ARC
  8
0
  6
CONTINUOUS
 10
192.106049
 20
137.048721
 40
1.000000
 50
180.000000
 51
270.000000
  0
ARC
  8
0
  6
CONTINUOUS
 10
192.106049
 20
127.397728
 40
1.000000
 50
90.000000
 51
180.000000
  0
ARC
  8
0
  6
CONTINUOUS
 10
196.106049
 20
122.048721
 40
3.000000
 50
180.000000
 51
270.000000
  0
LINE
  8
0
  6
CONTINUOUS
 10
193.509094
 20
128.048721
 11
266.850952
 21
128.048721
  0
ARC
  8
0
  6
CONTINUOUS
 10
264.106140
 20
122.048721
 40
3.000000
 50
-90.000000
 51
0.000000
  0
LINE
  8
0
  6
CONTINUOUS
 10
267.106140
 20
135.048721
 11
267.106140
 21
122.048721
  0
ARC
  8
0
  6
CONTINUOUS
 10
268.106140
 20
129.397720
 40
1.000000
 50
180.000000
 51
269.992889
  0
ARC
  8
0
  6
CONTINUOUS
 10
268.106049
 20
126.397728
 40
2.000000
 50
0.000000
 51
90.000000
  0
ARC
  8
0
  6
CONTINUOUS
 10
268.106140
 20
135.048721
 40
1.000000
 50
90.000000
 51
180.000000
  0
ARC
  8
0
  6
CONTINUOUS
 10
268.106049
 20
138.048721
 40
2.000000
 50
-89.996399
 51
0.000000
  0
LINE
  8
0
  6
CONTINUOUS
 10
193.509094
 20
48.048725
 11
266.850952
 21
48.048725
  0
LINE
  8
0
  6
CONTINUOUS
 10
267.106140
 20
41.048725
 11
267.106140
 21
54.048725
  0
ARC
  8
0
  6
CONTINUOUS
 10
264.106140
 20
54.048725
 40
3.000000
 50
0.000000
 51
90.000000
  0
ARC
  8
0
  6
CONTINUOUS
 10
268.106049
 20
49.699726
 40
2.000000
 50
-90.000000
 51
0.000000
  0
ARC
  8
0
  6
CONTINUOUS
 10
268.106140
 20
46.699726
 40
1.000000
 50
90.007103
 51
180.000000
  0
ARC
  8
0
  6
CONTINUOUS
 10
268.106140
 20
41.048725
 40
1.000000
 50
180.000000
 51
270.000000
  0
ARC
  8
0
  6
CONTINUOUS
 10
268.106049
 20
38.048725
 40
2.000000
 50
0.000000
 51
89.996399
  0
ARC
  8
0
  6
CONTINUOUS
 10
192.106049
 20
39.048725
 40
1.000000
 50
90.000000
 51
180.000000
  0
ARC
  8
0
  6
CONTINUOUS
 10
192.106049
 20
41.048725
 40
1.000000
 50
-90.000000
 51
0.000000
  0
LINE
  8
0
  6
CONTINUOUS
 10
193.106049
 20
41.048725
 11
193.106049
 21
54.048725
  0
ARC
  8
0
  6
CONTINUOUS
 10
192.106049
 20
46.699726
 40
1.000000
 50
0.000000
 51
90.000000
  0
ARC
  8
0
  6
CONTINUOUS
 10
192.106049
 20
48.699726
 40
1.000000
 50
180.000000
 51
270.000000
  0
ARC
  8
0
  6
CONTINUOUS
 10
196.106049
 20
54.048725
 40
3.000000
 50
90.000000
 51
180.000000
  0
ARC
  8
0
  6
CONTINUOUS
 10
358.106079
 20
88.048668
 40
360.000000
 50
170.875397
 51
189.124603
  0
LINE
  8
0
  6
CONTINUOUS
 10
13.166480
 20
158.548660
 11
44.606087
 21
158.548660
  0
LINE
  8
0
  6
CONTINUOUS
 10
44.606087
 20
158.548660
 11
44.606087
 21
114.666618
  0
ARC
  8
0
  6
CONTINUOUS
 10
-326.393921
 20
88.048668
 40
345.000000
 50
-11.486330
 51
11.486320
  0
ARC
  8
0
  6
CONTINUOUS
 10
15.497138
 20
33.020447
 40
13.000000
 50
189.124603
 51
254.085403
  0
ARC
  8
0
  6
CONTINUOUS
 10
15.497138
 20
143.076889
 40
13.000000
 50
105.915001
 51
170.875702
  0
ARC
  8
0
  6
CONTINUOUS
 10
13.166480
 20
19.048645
 40
1.500000
 50
168.513794
 51
199.470413
  0
ARC
  8
0
  6
CONTINUOUS
 10
13.166480
 20
157.048660
 40
1.500000
 50
90.000000
 51
191.486496
  0
LINE
  8
0
  6
CONTINUOUS
 10
46.606045
 20
152.048660
 11
46.606045
 21
115.666618
  0
LINE
  8
0
  6
CONTINUOUS
 10
44.606087
 20
152.048660
 11
178.606049
 21
152.048660
  0
LINE
  8
0
  6
CONTINUOUS
 10
44.606087
 20
24.048664
 11
76.551048
 21
24.048664
  0
LINE
  8
0
  6
CONTINUOUS
 10
178.606049
 20
24.048664
 11
76.551048
 21
24.048664
  0
LINE
  8
0
  6
CONTINUOUS
 10
50.106056
 20
138.433762
 11
115.105995
 21
138.433762
  0
LINE
  8
0
  6
CONTINUOUS
 10
115.106094
 20
69.337555
 11
50.106045
 21
69.337555
  0
LINE
  8
0
  6
CONTINUOUS
 10
47.606045
 20
93.440063
 11
47.606045
 21
135.933762
  0
LINE
  8
0
  6
CONTINUOUS
 10
117.606094
 20
93.440063
 11
117.606094
 21
135.933762
  0
ARC
  8
0
  6
CONTINUOUS
 10
115.106094
 20
135.933762
 40
2.500000
 50
0.000000
 51
90.000000
  0
ARC
  8
0
  6
CONTINUOUS
 10
50.106075
 20
135.933762
 40
2.500000
 50
90.000000
 51
180.000000
  0
ARC
  8
0
  6
CONTINUOUS
 10
50.106056
 20
71.837555
 40
2.500000
 50
180.000000
 51
270.000000
  0
ARC
  8
0
  6
CONTINUOUS
 10
115.106094
 20
71.837540
 40
2.500000
 50
-90.000000
 51
0.000000
  0
ARC
  8
0
  6
CONTINUOUS
 10
52.606056
 20
133.433762
 40
4.000000
 50
-90.000000
 51
0.000000
  0
ARC
  8
0
  6
CONTINUOUS
 10
112.606094
 20
133.433762
 40
4.000000
 50
180.000000
 51
270.000000
  0
ARC
  8
0
  6
CONTINUOUS
 10
112.606094
 20
74.337555
 40
4.000000
 50
90.000000
 51
180.000000
  0
ARC
  8
0
  6
CONTINUOUS
 10
52.606056
 20
74.337555
 40
4.000000
 50
0.000000
 51
90.000000
  0
LINE
  8
0
  6
CONTINUOUS
 10
112.606094
 20
129.433762
 11
115.106094
 21
129.433762
  0
LINE
  8
0
  6
CONTINUOUS
 10
52.606045
 20
129.433762
 11
50.106045
 21
129.433762
  0
LINE
  8
0
  6
CONTINUOUS
 10
52.606045
 20
78.337555
 11
50.106075
 21
78.337555
  0
LINE
  8
0
  6
CONTINUOUS
 10
112.606094
 20
78.337555
 11
115.106094
 21
78.337555
  0
LINE
  8
0
  6
CONTINUOUS
 10
108.606094
 20
133.433762
 11
108.606094
 21
135.933762
  0
LINE
  8
0
  6
CONTINUOUS
 10
56.606056
 20
133.433762
 11
56.606056
 21
135.933762
  0
LINE
  8
0
  6
CONTINUOUS
 10
56.606056
 20
74.337555
 11
56.606056
 21
71.837540
  0
LINE
  8
0
  6
CONTINUOUS
 10
108.606094
 20
74.337532
 11
108.606094
 21
71.837540
  0
ARC
  8
0
  6
CONTINUOUS
 10
50.106056
 20
126.933769
 40
2.500000
 50
90.000000
 51
180.000000
  0
ARC
  8
0
  6
CONTINUOUS
 10
59.106075
 20
135.933762
 40
2.500000
 50
90.000000
 51
180.000000
  0
ARC
  8
0
  6
CONTINUOUS
 10
106.106094
 20
135.933762
 40
2.500000
 50
0.000000
 51
90.000000
  0
ARC
  8
0
  6
CONTINUOUS
 10
115.106094
 20
126.933769
 40
2.500000
 50
0.000000
 51
90.000000
  0
ARC
  8
0
  6
CONTINUOUS
 10
50.106056
 20
80.837555
 40
2.500000
 50
180.000000
 51
270.000000
  0
ARC
  8
0
  6
CONTINUOUS
 10
59.106056
 20
71.837555
 40
2.500000
 50
180.000000
 51
270.000000
  0
ARC
  8
0
  6
CONTINUOUS
 10
115.106094
 20
80.837540
 40
2.500000
 50
-90.000000
 51
0.000000
  0
ARC
  8
0
  6
CONTINUOUS
 10
106.106094
 20
71.837540
 40
2.500000
 50
-90.000000
 51
0.000000
  0
LINE
  8
0
  6
CONTINUOUS
 10
117.606094
 20
66.846817
 11
117.606094
 21
93.440063
  0
LINE
  8
0
  6
CONTINUOUS
 10
47.606056
 20
66.846817
 11
47.606045
 21
93.440063
  0
LINE
  8
0
  6
CONTINUOUS
 10
19.606096
 20
86.666512
 11
19.606096
 21
115.666618
  0
LINE
  8
0
  6
CONTINUOUS
 10
27.606096
 20
86.666512
 11
27.606096
 21
115.666618
  0
LINE
  8
0
  6
CONTINUOUS
 10
19.606096
 20
86.666512
 11
27.606096
 21
86.666512
  0
LINE
  8
0
  6
CONTINUOUS
 10
19.606096
 20
115.666618
 11
27.606096
 21
115.666618
  0
LINE
  8
0
  6
CONTINUOUS
 10
36.606094
 20
88.166512
 11
36.606094
 21
114.166618
  0
LINE
  8
0
  6
CONTINUOUS
 10
27.606096
 20
88.166512
 11
36.606094
 21
88.166512
  0
LINE
  8
0
  6
CONTINUOUS
 10
27.606096
 20
114.166618
 11
36.606094
 21
114.166618
  0
LINE
  8
0
  6
CONTINUOUS
 10
36.606094
 20
89.666512
 11
41.606094
 21
89.666512
  0
LINE
  8
0
  6
CONTINUOUS
 10
36.606094
 20
112.666618
 11
41.606094
 21
112.666618
  0
LINE
  8
0
  6
CONTINUOUS
 10
41.606094
 20
87.666512
 11
41.606094
 21
114.666618
  0
LINE
  8
0
  6
CONTINUOUS
 10
46.106094
 20
86.666512
 11
46.106094
 21
115.666618
  0
LINE
  8
0
  6
CONTINUOUS
 10
41.606094
 20
87.666512
 11
46.106094
 21
87.666512
  0
LINE
  8
0
  6
CONTINUOUS
 10
41.606094
 20
114.666618
 11
46.106094
 21
114.666618
  0
LINE
  8
0
  6
CONTINUOUS
 10
46.106094
 20
86.666512
 11
47.645397
 21
86.666512
  0
LINE
  8
0
  6
CONTINUOUS
 10
46.106094
 20
115.666618
 11
47.606045
 21
115.666618
  0
LINE
  8
0
  6
CONTINUOUS
 10
19.606096
 20
93.166512
 11
27.606096
 21
93.166512
  0
LINE
  8
0
  6
CONTINUOUS
 10
19.606096
 20
109.166618
 11
27.606096
 21
109.166618
  0
LINE
  8
0
  6
CONTINUOUS
 10
170.606049
 20
33.461590
 11
170.606049
 21
38.353271
  0
LINE
  8
0
  6
CONTINUOUS
 10
54.606045
 20
149.422958
 11
54.606045
 21
146.424423
  0
LINE
  8
0
  6
CONTINUOUS
 10
170.606049
 20
146.424423
 11
170.606049
 21
149.422958
  0
LINE
  8
0
  6
CONTINUOUS
 10
170.606049
 20
140.695648
 11
170.606049
 21
144.474472
  0
LINE
  8
0
  6
CONTINUOUS
 10
170.606049
 20
134.171204
 11
170.606049
 21
139.032364
  0
LINE
  8
0
  6
CONTINUOUS
 10
170.606049
 20
127.123779
 11
170.606049
 21
132.184647
  0
LINE
  8
0
  6
CONTINUOUS
 10
54.606045
 20
144.474472
 11
54.606045
 21
140.695648
  0
LINE
  8
0
  6
CONTINUOUS
 10
54.606045
 20
63.271061
 11
54.606045
 21
56.838535
  0
LINE
  8
0
  6
CONTINUOUS
 10
170.606049
 20
119.881470
 11
170.606049
 21
125.137222
  0
LINE
  8
0
  6
CONTINUOUS
 10
170.606049
 20
112.480377
 11
170.606049
 21
117.894913
  0
LINE
  8
0
  6
CONTINUOUS
 10
170.606049
 20
104.939926
 11
170.606049
 21
110.493820
  0
LINE
  8
0
  6
CONTINUOUS
 10
170.606049
 20
97.269608
 11
170.606049
 21
102.953369
  0
LINE
  8
0
  6
CONTINUOUS
 10
170.606049
 20
89.473389
 11
170.606049
 21
95.283051
  0
LINE
  8
0
  6
CONTINUOUS
 10
170.606049
 20
81.547295
 11
170.606049
 21
87.486832
  0
LINE
  8
0
  6
CONTINUOUS
 10
170.606049
 20
73.481850
 11
170.606049
 21
79.560738
  0
LINE
  8
0
  6
CONTINUOUS
 10
170.606049
 20
65.257622
 11
170.606049
 21
71.495293
  0
LINE
  8
0
  6
CONTINUOUS
 10
170.606049
 20
56.838535
 11
170.606049
 21
63.271061
  0
LINE
  8
0
  6
CONTINUOUS
 10
170.606049
 20
48.812691
 11
170.606049
 21
54.851948
  0
LINE
  8
0
  6
CONTINUOUS
 10
170.606049
 20
40.278572
 11
170.606049
 21
46.504723
  0
LINE
  8
0
  6
CONTINUOUS
 10
170.606049
 20
149.422958
 11
54.606045
 21
149.422958
  0
LINE
  8
0
  6
CONTINUOUS
 10
170.606049
 20
146.424423
 11
54.606045
 21
146.424423
  0
LINE
  8
0
  6
CONTINUOUS
 10
170.606049
 20
144.474472
 11
54.606045
 21
144.474472
  0
LINE
  8
0
  6
CONTINUOUS
 10
170.606049
 20
140.695648
 11
54.606045
 21
140.695648
  0
LINE
  8
0
  6
CONTINUOUS
 10
170.606049
 20
139.032364
 11
54.606045
 21
139.032364
  0
LINE
  8
0
  6
CONTINUOUS
 10
170.606049
 20
134.171204
 11
117.606094
 21
134.171204
  0
LINE
  8
0
  6
CONTINUOUS
 10
170.606049
 20
132.184647
 11
117.606094
 21
132.184647
  0
LINE
  8
0
  6
CONTINUOUS
 10
170.606049
 20
127.123779
 11
117.606094
 21
127.123779
  0
LINE
  8
0
  6
CONTINUOUS
 10
170.606049
 20
125.137222
 11
117.606094
 21
125.137222
  0
LINE
  8
0
  6
CONTINUOUS
 10
170.606049
 20
119.881470
 11
121.606049
 21
119.881470
  0
LINE
  8
0
  6
CONTINUOUS
 10
170.606049
 20
117.894913
 11
121.606049
 21
117.894913
  0
LINE
  8
0
  6
CONTINUOUS
 10
170.606049
 20
112.480377
 11
121.606049
 21
112.480377
  0
LINE
  8
0
  6
CONTINUOUS
 10
170.606049
 20
104.939926
 11
121.606049
 21
104.939926
  0
LINE
  8
0
  6
CONTINUOUS
 10
170.606049
 20
102.953369
 11
121.606049
 21
102.953369
  0
LINE
  8
0
  6
CONTINUOUS
 10
170.606049
 20
97.269608
 11
121.606049
 21
97.269608
  0
LINE
  8
0
  6
CONTINUOUS
 10
170.606049
 20
95.283051
 11
121.606049
 21
95.283051
  0
LINE
  8
0
  6
CONTINUOUS
 10
170.606049
 20
110.493820
 11
121.606049
 21
110.493820
  0
LINE
  8
0
  6
CONTINUOUS
 10
170.606049
 20
89.473389
 11
121.606049
 21
89.473389
  0
LINE
  8
0
  6
CONTINUOUS
 10
170.606049
 20
87.486832
 11
121.606049
 21
87.486832
  0
LINE
  8
0
  6
CONTINUOUS
 10
170.606049
 20
81.547295
 11
121.606049
 21
81.547295
  0
LINE
  8
0
  6
CONTINUOUS
 10
170.606049
 20
79.560738
 11
121.606049
 21
79.560738
  0
LINE
  8
0
  6
CONTINUOUS
 10
170.606049
 20
73.481850
 11
121.606049
 21
73.481850
  0
LINE
  8
0
  6
CONTINUOUS
 10
170.606049
 20
71.495293
 11
121.606049
 21
71.495293
  0
LINE
  8
0
  6
CONTINUOUS
 10
170.606049
 20
65.257622
 11
117.035980
 21
65.257622
  0
LINE
  8
0
  6
CONTINUOUS
 10
170.606049
 20
63.271061
 11
96.106194
 21
63.271061
  0
LINE
  8
0
  6
CONTINUOUS
 10
170.606049
 20
56.838535
 11
94.106194
 21
56.838535
  0
LINE
  8
0
  6
CONTINUOUS
 10
170.606049
 20
54.851948
 11
95.606194
 21
54.851948
  0
LINE
  8
0
  6
CONTINUOUS
 10
170.606049
 20
48.812691
 11
95.606194
 21
48.812691
  0
LINE
  8
0
  6
CONTINUOUS
 10
170.606049
 20
46.504723
 11
95.606194
 21
46.504723
  0
LINE
  8
0
  6
CONTINUOUS
 10
170.606049
 20
40.278572
 11
97.106194
 21
40.278572
  0
LINE
  8
0
  6
CONTINUOUS
 10
170.606049
 20
38.353271
 11
97.106194
 21
38.353271
  0
LINE
  8
0
  6
CONTINUOUS
 10
170.606049
 20
33.461590
 11
54.606026
 21
33.461590
  0
LINE
  8
0
  6
CONTINUOUS
 10
119.606003
 20
122.910301
 11
117.606094
 21
122.910301
  0
LINE
  8
0
  6
CONTINUOUS
 10
120.106049
 20
69.372276
 11
117.606094
 21
69.372276
  0
LINE
  8
0
  6
CONTINUOUS
 10
121.606049
 20
70.872276
 11
121.606049
 21
120.910301
  0
ARC
  8
0
  6
CONTINUOUS
 10
119.606026
 20
120.910301
 40
2.000000
 50
0.000000
 51
90.000000
  0
LINE
  8
0
  6
CONTINUOUS
 10
95.606194
 20
46.504723
 11
54.606045
 21
46.504723
  0
LINE
  8
0
  6
CONTINUOUS
 10
95.606194
 20
48.812691
 11
54.606045
 21
48.812691
  0
LINE
  8
0
  6
CONTINUOUS
 10
95.606194
 20
54.851948
 11
54.606045
 21
54.851948
  0
LINE
  8
0
  6
CONTINUOUS
 10
94.106194
 20
56.838535
 11
54.606045
 21
56.838535
  0
LINE
  8
0
  6
CONTINUOUS
 10
97.106194
 20
40.278572
 11
54.606045
 21
40.278572
  0
LINE
  8
0
  6
CONTINUOUS
 10
97.106194
 20
38.353271
 11
54.606045
 21
38.353271
  0
ARC
  8
0
  6
CONTINUOUS
 10
120.106049
 20
70.872276
 40
1.500000
 50
-90.000000
 51
0.000000
  0
LINE
  8
0
  6
CONTINUOUS
 10
96.106194
 20
63.271061
 11
54.606045
 21
63.271061
  0
LINE
  8
0
  6
CONTINUOUS
 10
54.606045
 20
54.851948
 11
54.606045
 21
48.812691
  0
LINE
  8
0
  6
CONTINUOUS
 10
54.606045
 20
46.504723
 11
54.606045
 21
40.278572
  0
LINE
  8
0
  6
CONTINUOUS
 10
54.606045
 20
38.353271
 11
54.606026
 21
33.461590
  0
LINE
  8
0
  6
CONTINUOUS
 10
54.606045
 20
139.032364
 11
54.606045
 21
138.433762
  0
LINE
  8
0
  6
CONTINUOUS
 10
44.606087
 20
87.666512
 11
44.606087
 21
18.548664
  0
LINE
  8
0
  6
CONTINUOUS
 10
46.606045
 20
86.666512
 11
46.606045
 21
24.048664
  0
LINE
  8
0
  6
CONTINUOUS
 10
44.606087
 20
18.548664
 11
11.752260
 21
18.548664
  0
CIRCLE
  8
0
  6
CONTINUOUS
 10
112.606094
 20
133.433762
 40
2.750000
  0
LINE
  8
0
  6
CONTINUOUS
 10
114.406097
 20
133.933762
 11
114.406097
 21
132.933762
  0
LINE
  8
0
  6
CONTINUOUS
 10
112.106094
 20
135.233765
 11
113.106094
 21
135.233765
  0
LINE
  8
0
  6
CONTINUOUS
 10
113.106094
 20
135.233765
 11
113.106094
 21
133.933762
  0
LINE
  8
0
  6
CONTINUOUS
 10
114.406097
 20
133.933762
 11
113.106094
 21
133.933762
  0
LINE
  8
0
  6
CONTINUOUS
 10
114.406097
 20
132.933762
 11
113.106094
 21
132.933762
  0
LINE
  8
0
  6
CONTINUOUS
 10
112.106094
 20
135.233765
 11
112.106094
 21
133.933762
  0
LINE
  8
0
  6
CONTINUOUS
 10
112.106094
 20
131.633759
 11
113.106094
 21
131.633759
  0
LINE
  8
0
  6
CONTINUOUS
 10
113.106094
 20
131.633759
 11
113.106094
 21
132.933762
  0
LINE
  8
0
  6
CONTINUOUS
 10
110.806099
 20
132.933762
 11
112.106094
 21
132.933762
  0
LINE
  8
0
  6
CONTINUOUS
 10
110.806099
 20
133.933762
 11
112.106094
 21
133.933762
  0
LINE
  8
0
  6
CONTINUOUS
 10
110.806099
 20
133.933762
 11
110.806099
 21
132.933762
  0
LINE
  8
0
  6
CONTINUOUS
 10
112.106094
 20
131.633759
 11
112.106094
 21
132.933762
  0
LINE
  8
0
  6
CONTINUOUS
 10
54.406059
 20
133.933762
 11
54.406059
 21
132.933762
  0
LINE
  8
0
  6
CONTINUOUS
 10
52.106056
 20
135.233765
 11
53.106056
 21
135.233765
  0
LINE
  8
0
  6
CONTINUOUS
 10
53.106056
 20
135.233765
 11
53.106056
 21
133.933762
  0
LINE
  8
0
  6
CONTINUOUS
 10
54.406059
 20
133.933762
 11
53.106056
 21
133.933762
  0
LINE
  8
0
  6
CONTINUOUS
 10
54.406059
 20
132.933762
 11
53.106056
 21
132.933762
  0
LINE
  8
0
  6
CONTINUOUS
 10
52.106056
 20
135.233765
 11
52.106056
 21
133.933762
  0
LINE
  8
0
  6
CONTINUOUS
 10
52.106056
 20
131.633759
 11
53.106056
 21
131.633759
  0
LINE
  8
0
  6
CONTINUOUS
 10
53.106056
 20
131.633759
 11
53.106056
 21
132.933762
  0
LINE
  8
0
  6
CONTINUOUS
 10
50.806057
 20
132.933762
 11
52.106056
 21
132.933762
  0
LINE
  8
0
  6
CONTINUOUS
 10
50.806057
 20
133.933762
 11
52.106056
 21
133.933762
  0
LINE
  8
0
  6
CONTINUOUS
 10
50.806057
 20
133.933762
 11
50.806057
 21
132.933762
  0
LINE
  8
0
  6
CONTINUOUS
 10
52.106056
 20
131.633759
 11
52.106056
 21
132.933762
  0
CIRCLE
  8
0
  6
CONTINUOUS
 10
52.606056
 20
74.337555
 40
2.750000
  0
LINE
  8
0
  6
CONTINUOUS
 10
54.406059
 20
74.837555
 11
54.406059
 21
73.837555
  0
LINE
  8
0
  6
CONTINUOUS
 10
52.106056
 20
76.137550
 11
53.106056
 21
76.137550
  0
LINE
  8
0
  6
CONTINUOUS
 10
53.106056
 20
76.137550
 11
53.106056
 21
74.837555
  0
LINE
  8
0
  6
CONTINUOUS
 10
54.406059
 20
74.837555
 11
53.106056
 21
74.837555
  0
LINE
  8
0
  6
CONTINUOUS
 10
54.406059
 20
73.837555
 11
53.106056
 21
73.837555
  0
LINE
  8
0
  6
CONTINUOUS
 10
52.106056
 20
76.137550
 11
52.106056
 21
74.837555
  0
LINE
  8
0
  6
CONTINUOUS
 10
52.106056
 20
72.537552
 11
53.106056
 21
72.537552
  0
LINE
  8
0
  6
CONTINUOUS
 10
53.106056
 20
72.537552
 11
53.106056
 21
73.837555
  0
LINE
  8
0
  6
CONTINUOUS
 10
50.806057
 20
73.837555
 11
52.106056
 21
73.837555
  0
LINE
  8
0
  6
CONTINUOUS
 10
50.806057
 20
74.837555
 11
52.106056
 21
74.837555
  0
LINE
  8
0
  6
CONTINUOUS
 10
50.806057
 20
74.837555
 11
50.806057
 21
73.837555
  0
LINE
  8
0
  6
CONTINUOUS
 10
52.106056
 20
72.537552
 11
52.106056
 21
73.837555
  0
CIRCLE
  8
0
  6
CONTINUOUS
 10
112.606094
 20
74.337555
 40
2.750000
  0
LINE
  8
0
  6
CONTINUOUS
 10
114.406097
 20
74.837555
 11
114.406097
 21
73.837555
  0
LINE
  8
0
  6
CONTINUOUS
 10
112.106094
 20
76.137550
 11
113.106094
 21
76.137550
  0
LINE
  8
0
  6
CONTINUOUS
 10
113.106094
 20
76.137550
 11
113.106094
 21
74.837555
  0
LINE
  8
0
  6
CONTINUOUS
 10
114.406097
 20
74.837555
 11
113.106094
 21
74.837555
  0
LINE
  8
0
  6
CONTINUOUS
 10
114.406097
 20
73.837555
 11
113.106094
 21
73.837555
  0
LINE
  8
0
  6
CONTINUOUS
 10
112.106094
 20
76.137550
 11
112.106094
 21
74.837555
  0
LINE
  8
0
  6
CONTINUOUS
 10
112.106094
 20
72.537552
 11
113.106094
 21
72.537552
  0
LINE
  8
0
  6
CONTINUOUS
 10
113.106094
 20
72.537552
 11
113.106094
 21
73.837555
  0
LINE
  8
0
  6
CONTINUOUS
 10
110.806099
 20
73.837555
 11
112.106094
 21
73.837555
  0
LINE
  8
0
  6
CONTINUOUS
 10
110.806099
 20
74.837555
 11
112.106094
 21
74.837555
  0
LINE
  8
0
  6
CONTINUOUS
 10
110.806099
 20
74.837555
 11
110.806099
 21
73.837555
  0
LINE
  8
0
  6
CONTINUOUS
 10
112.106094
 20
72.537552
 11
112.106094
 21
73.837555
  0
LINE
  8
0
  6
CENTER
 10
82.606094
 20
140.917496
 11
82.606094
 21
61.722500
  0
LINE
  8
0
  6
CENTER
 10
15.943721
 20
101.166512
 11
52.603722
 21
101.166512
  0
LINE
  8
0
  6
CONTINUOUS
 10
115.106094
 20
64.346817
 11
50.106056
 21
64.346817
  0
ARC
  8
0
  6
CONTINUOUS
 10
50.106056
 20
66.846817
 40
2.500000
 50
180.000000
 51
270.000000
  0
ARC
  8
0
  6
CONTINUOUS
 10
115.106094
 20
66.846817
 40
2.500000
 50
-90.000000
 51
0.000000
  0
CIRCLE
  8
0
  6
CONTINUOUS
 10
52.606094
 20
133.433762
 40
2.750000
  0
TEXT
  8
0
 10
-18.000000
 20
-17.000000
 40
4.000000
 41
1.000000
  1
G3FE-22-5~25-T040WA
 50
0.000000
  0
ENDSEC
  0
EOF
