  0
SECTION
  2
HEADER
  9
$ACADVER
  1
AC1014
  9
$ACADMAINTVER
 70
     9
  9
$DWGCODEPAGE
  3
ANSI_932
  9
$INSBASE
 10
0.0
 20
0.0
 30
0.0
  9
$EXTMIN
 10
-12.975938
 20
-24.00000000000001
 30
0.0
  9
$EXTMAX
 10
712.0103759999999
 20
467.8894349999999
 30
0.0
  9
$LIMMIN
 10
0.0
 20
0.0
  9
$LIMMAX
 10
12.0
 20
9.0
  9
$ORTHOMODE
 70
     0
  9
$REGENMODE
 70
     1
  9
$FILLMODE
 70
     1
  9
$QTEXTMODE
 70
     0
  9
$MIRRTEXT
 70
     1
  9
$DRAGMODE
 70
     2
  9
$LTSCALE
 40
3.0
  9
$OSMODE
 70
    45
  9
$ATTMODE
 70
     1
  9
$TEXTSIZE
 40
3.0
  9
$TRACEWID
 40
0.05
  9
$TEXTSTYLE
  7
STANDARD
  9
$CLAYER
  8
1
  9
$CELTYPE
  6
CONTINUOUS
  9
$CECOLOR
 62
   256
  9
$CELTSCALE
 40
1.0
  9
$DELOBJ
 70
     1
  9
$DISPSILH
 70
     0
  9
$DIMSCALE
 40
1.0
  9
$DIMASZ
 40
0.18
  9
$DIMEXO
 40
0.0625
  9
$DIMDLI
 40
0.38
  9
$DIMRND
 40
0.0
  9
$DIMDLE
 40
0.0
  9
$DIMEXE
 40
0.18
  9
$DIMTP
 40
0.0
  9
$DIMTM
 40
0.0
  9
$DIMTXT
 40
0.18
  9
$DIMCEN
 40
0.09
  9
$DIMTSZ
 40
0.0
  9
$DIMTOL
 70
     0
  9
$DIMLIM
 70
     0
  9
$DIMTIH
 70
     1
  9
$DIMTOH
 70
     1
  9
$DIMSE1
 70
     0
  9
$DIMSE2
 70
     0
  9
$DIMTAD
 70
     0
  9
$DIMZIN
 70
     0
  9
$DIMBLK
  1

  9
$DIMASO
 70
     1
  9
$DIMSHO
 70
     1
  9
$DIMPOST
  1

  9
$DIMAPOST
  1

  9
$DIMALT
 70
     0
  9
$DIMALTD
 70
     2
  9
$DIMALTF
 40
25.4
  9
$DIMLFAC
 40
1.0
  9
$DIMTOFL
 70
     0
  9
$DIMTVP
 40
0.0
  9
$DIMTIX
 70
     0
  9
$DIMSOXD
 70
     0
  9
$DIMSAH
 70
     0
  9
$DIMBLK1
  1

  9
$DIMBLK2
  1

  9
$DIMSTYLE
  2
STANDARD
  9
$DIMCLRD
 70
     0
  9
$DIMCLRE
 70
     0
  9
$DIMCLRT
 70
     0
  9
$DIMTFAC
 40
1.0
  9
$DIMGAP
 40
0.09
  9
$DIMJUST
 70
     0
  9
$DIMSD1
 70
     0
  9
$DIMSD2
 70
     0
  9
$DIMTOLJ
 70
     1
  9
$DIMTZIN
 70
     0
  9
$DIMALTZ
 70
     0
  9
$DIMALTTZ
 70
     0
  9
$DIMFIT
 70
     3
  9
$DIMUPT
 70
     0
  9
$DIMUNIT
 70
     2
  9
$DIMDEC
 70
     4
  9
$DIMTDEC
 70
     4
  9
$DIMALTU
 70
     2
  9
$DIMALTTD
 70
     2
  9
$DIMTXSTY
  7
STANDARD
  9
$DIMAUNIT
 70
     0
  9
$LUNITS
 70
     2
  9
$LUPREC
 70
     4
  9
$SKETCHINC
 40
0.1
  9
$FILLETRAD
 40
0.0
  9
$AUNITS
 70
     0
  9
$AUPREC
 70
     0
  9
$MENU
  1
.
  9
$ELEVATION
 40
0.0
  9
$PELEVATION
 40
0.0
  9
$THICKNESS
 40
0.0
  9
$LIMCHECK
 70
     0
  9
$BLIPMODE
 70
     0
  9
$CHAMFERA
 40
0.0
  9
$CHAMFERB
 40
0.0
  9
$CHAMFERC
 40
0.0
  9
$CHAMFERD
 40
0.0
  9
$SKPOLY
 70
     0
  9
$TDCREATE
 40
2453349.578243808
  9
$TDUPDATE
 40
2453349.759084757
  9
$TDINDWG
 40
0.0012117361
  9
$TDUSRTIMER
 40
0.0012117361
  9
$USRTIMER
 70
     1
  9
$ANGBASE
 50
0.0
  9
$ANGDIR
 70
     0
  9
$PDMODE
 70
     0
  9
$PDSIZE
 40
0.0
  9
$PLINEWID
 40
0.0
  9
$COORDS
 70
     1
  9
$SPLFRAME
 70
     0
  9
$SPLINETYPE
 70
     6
  9
$SPLINESEGS
 70
     8
  9
$ATTDIA
 70
     0
  9
$ATTREQ
 70
     1
  9
$HANDLING
 70
 22529
  9
$HANDSEED
  5
313
  9
$SURFTAB1
 70
     6
  9
$SURFTAB2
 70
     6
  9
$SURFTYPE
 70
     6
  9
$SURFU
 70
     6
  9
$SURFV
 70
     6
  9
$UCSNAME
  2

  9
$UCSORG
 10
0.0
 20
0.0
 30
0.0
  9
$UCSXDIR
 10
1.0
 20
0.0
 30
0.0
  9
$UCSYDIR
 10
0.0
 20
1.0
 30
0.0
  9
$PUCSNAME
  2

  9
$PUCSORG
 10
0.0
 20
0.0
 30
0.0
  9
$PUCSXDIR
 10
1.0
 20
0.0
 30
0.0
  9
$PUCSYDIR
 10
0.0
 20
1.0
 30
0.0
  9
$USERI1
 70
     0
  9
$USERI2
 70
     0
  9
$USERI3
 70
     0
  9
$USERI4
 70
     0
  9
$USERI5
 70
     0
  9
$USERR1
 40
0.0
  9
$USERR2
 40
0.0
  9
$USERR3
 40
0.0
  9
$USERR4
 40
0.0
  9
$USERR5
 40
0.0
  9
$WORLDVIEW
 70
     1
  9
$SHADEDGE
 70
     3
  9
$SHADEDIF
 70
    70
  9
$TILEMODE
 70
     1
  9
$MAXACTVP
 70
    64
  9
$PINSBASE
 10
0.0
 20
0.0
 30
0.0
  9
$PLIMCHECK
 70
     0
  9
$PEXTMIN
 10
1.000000000000000E+20
 20
1.000000000000000E+20
 30
1.000000000000000E+20
  9
$PEXTMAX
 10
-1.000000000000000E+20
 20
-1.000000000000000E+20
 30
-1.000000000000000E+20
  9
$PLIMMIN
 10
0.0
 20
0.0
  9
$PLIMMAX
 10
12.0
 20
9.0
  9
$UNITMODE
 70
     0
  9
$VISRETAIN
 70
     1
  9
$PLINEGEN
 70
     0
  9
$PSLTSCALE
 70
     1
  9
$TREEDEPTH
 70
  3020
  9
$PICKSTYLE
 70
     1
  9
$CMLSTYLE
  2
STANDARD
  9
$CMLJUST
 70
     0
  9
$CMLSCALE
 40
1.0
  9
$PROXYGRAPHICS
 70
     1
  9
$MEASUREMENT
 70
     0
  0
ENDSEC
  0
SECTION
  2
CLASSES
  0
CLASS
  1
ACDBDICTIONARYWDFLT
  2
AcDbDictionaryWithDefault
  3
AutoCAD 2000
 90
        0
280
     0
281
     0
  0
CLASS
  1
ACDBPLACEHOLDER
  2
AcDbPlaceHolder
  3
AutoCAD 2000
 90
        0
280
     0
281
     0
  0
CLASS
  1
LAYOUT
  2
AcDbLayout
  3
AutoCAD 2000
 90
        0
280
     0
281
     0
  0
CLASS
  1
DICTIONARYVAR
  2
AcDbDictionaryVar
  3
AutoCAD 2000
 90
        0
280
     0
281
     0
  0
CLASS
  1
LONG_TRANSACTION
  2
AcDbLongTransaction
  3
AutoCAD 2000
 90
        0
280
     0
281
     0
  0
CLASS
  1
LWPOLYLINE
  2
AcDbPolyline
  3
AutoCAD 2000
 90
        0
280
     0
281
     1
  0
CLASS
  1
HATCH
  2
AcDbHatch
  3
AutoCAD 2000
 90
        0
280
     0
281
     1
  0
CLASS
  1
XRECORD
  2
AcDbXrecord
  3
AutoCAD 2000
 90
        0
280
     0
281
     0
  0
ENDSEC
  0
SECTION
  2
TABLES
  0
TABLE
  2
VPORT
  5
8
330
0
100
AcDbSymbolTable
 70
     2
  0
VPORT
  5
2EE
330
8
100
AcDbSymbolTableRecord
100
AcDbViewportTableRecord
  2
*ACTIVE
 70
     0
 10
0.0
 20
0.0
 11
1.0
 21
1.0
 12
493.5392650614478
 22
243.0850137461703
 13
0.0
 23
0.0
 14
1.0
 24
1.0
 15
0.0
 25
0.0
 16
0.0
 26
0.0
 36
1.0
 17
0.0
 27
0.0
 37
0.0
 40
694.0408144579554
 41
1.976793248945147
 42
50.0
 43
0.0
 44
0.0
 50
0.0
 51
0.0
 71
     0
 72
   100
 73
     1
 74
     1
 75
     0
 76
     0
 77
     0
 78
     0
  0
ENDTAB
  0
TABLE
  2
LTYPE
  5
5
330
0
100
AcDbSymbolTable
 70
     3
  0
LTYPE
  5
13
330
5
100
AcDbSymbolTableRecord
100
AcDbLinetypeTableRecord
  2
BYBLOCK
 70
     0
  3

 72
    65
 73
     0
 40
0.0
  0
LTYPE
  5
14
330
5
100
AcDbSymbolTableRecord
100
AcDbLinetypeTableRecord
  2
BYLAYER
 70
     0
  3

 72
    65
 73
     0
 40
0.0
  0
LTYPE
  5
15
330
5
100
AcDbSymbolTableRecord
100
AcDbLinetypeTableRecord
  2
CONTINUOUS
 70
     0
  3
solid line
 72
    65
 73
     0
 40
0.0
  0
LTYPE
  5
23
330
5
100
AcDbSymbolTableRecord
100
AcDbLinetypeTableRecord
  2
DASHED
 70
     0
  3
__ __ __ __ __ __ __ __ __ __ __ __ __ __ __
 72
    65
 73
     2
 40
0.75
 49
0.5
 74
     0
 49
-0.25
 74
     0
  0
LTYPE
  5
24
330
5
100
AcDbSymbolTableRecord
100
AcDbLinetypeTableRecord
  2
CENTER
 70
     0
  3
____ _ ____ _ ____ _ ____ _ ____ _ ____ _ ____
 72
    65
 73
     4
 40
2.0
 49
1.25
 74
     0
 49
-0.25
 74
     0
 49
0.25
 74
     0
 49
-0.25
 74
     0
  0
ENDTAB
  0
TABLE
  2
LAYER
  5
2
330
0
100
AcDbSymbolTable
 70
     3
  0
LAYER
  5
10
330
2
100
AcDbSymbolTableRecord
100
AcDbLayerTableRecord
  2
0
 70
     0
 62
     7
  6
CONTINUOUS
  0
LAYER
  5
22
330
2
100
AcDbSymbolTableRecord
100
AcDbLayerTableRecord
  2
1
 70
     0
 62
     7
  6
CONTINUOUS
  0
LAYER
  5
22F
330
2
100
AcDbSymbolTableRecord
100
AcDbLayerTableRecord
  2
TOP
 70
     0
 62
     7
  6
CONTINUOUS
  0
ENDTAB
  0
TABLE
  2
STYLE
  5
3
330
0
100
AcDbSymbolTable
 70
     1
  0
STYLE
  5
11
330
3
100
AcDbSymbolTableRecord
100
AcDbTextStyleTableRecord
  2
STANDARD
 70
     0
 40
0.0
 41
1.0
 50
0.0
 71
     0
 42
3.0
  3
txt
  4
BIGFONT
  0
ENDTAB
  0
TABLE
  2
VIEW
  5
6
330
0
100
AcDbSymbolTable
 70
     0
  0
ENDTAB
  0
TABLE
  2
UCS
  5
7
330
0
100
AcDbSymbolTable
 70
     0
  0
ENDTAB
  0
TABLE
  2
APPID
  5
9
330
0
100
AcDbSymbolTable
 70
     1
  0
APPID
  5
12
330
9
100
AcDbSymbolTableRecord
100
AcDbRegAppTableRecord
  2
ACAD
 70
     0
  0
ENDTAB
  0
TABLE
  2
DIMSTYLE
  5
A
330
0
100
AcDbSymbolTable
 70
     1
  0
DIMSTYLE
105
22C
330
A
100
AcDbSymbolTableRecord
100
AcDbDimStyleTableRecord
  2
STANDARD
 70
     0
  3

  4

  5

  6

  7

 40
1.0
 41
0.18
 42
0.0625
 43
0.38
 44
0.18
 45
0.0
 46
0.0
 47
0.0
 48
0.0
140
0.18
141
0.09
142
0.0
143
25.4
144
1.0
145
0.0
146
1.0
147
0.09
 71
     0
 72
     0
 73
     1
 74
     1
 75
     0
 76
     0
 77
     0
 78
     0
170
     0
171
     2
172
     0
173
     0
174
     0
175
     0
176
     0
177
     0
178
     0
270
     2
271
     4
272
     4
273
     2
274
     2
340
11
275
     0
280
     0
281
     0
282
     0
283
     1
284
     0
285
     0
286
     0
287
     3
288
     0
  0
ENDTAB
  0
TABLE
  2
BLOCK_RECORD
  5
1
330
0
100
AcDbSymbolTable
 70
     0
  0
BLOCK_RECORD
  5
1E
102
{ACAD_XDICTIONARY
360
311
102
}
330
1
100
AcDbSymbolTableRecord
100
AcDbBlockTableRecord
  2
*MODEL_SPACE
  0
BLOCK_RECORD
  5
1A
102
{ACAD_XDICTIONARY
360
30F
102
}
330
1
100
AcDbSymbolTableRecord
100
AcDbBlockTableRecord
  2
*PAPER_SPACE
  0
ENDTAB
  0
ENDSEC
  0
SECTION
  2
BLOCKS
  0
BLOCK
  5
1F
330
1E
100
AcDbEntity
  8
0
100
AcDbBlockBegin
  2
*MODEL_SPACE
 70
     0
 10
0.0
 20
0.0
 30
0.0
  3
*MODEL_SPACE
  1

  0
ENDBLK
  5
20
330
1E
100
AcDbEntity
  8
0
100
AcDbBlockEnd
  0
BLOCK
  5
1B
330
1A
100
AcDbEntity
 67
     1
  8
0
100
AcDbBlockBegin
  2
*PAPER_SPACE
 70
     0
 10
0.0
 20
0.0
 30
0.0
  3
*PAPER_SPACE
  1

  0
ENDBLK
  5
1C
330
1A
100
AcDbEntity
 67
     1
  8
0
100
AcDbBlockEnd
  0
ENDSEC
  0
SECTION
  2
ENTITIES
  0
ARC
  5
29
330
1E
100
AcDbEntity
  8
0
  6
CONTINUOUS
100
AcDbCircle
 10
334.87265
 20
-192.203644
 30
0.0
 40
650.0
100
AcDbArc
 50
93.00154099999998
 51
96.270973
  0
LINE
  5
2A
330
1E
100
AcDbEntity
  8
0
  6
CENTER
100
AcDbLine
 10
-12.975938
 20
374.9069519999999
 30
0.0
 11
411.7403259999999
 21
374.9069519999999
 31
0.0
  0
LINE
  5
2B
330
1E
100
AcDbEntity
  8
0
  6
CONTINUOUS
100
AcDbLine
 10
330.002197
 20
457.668732
 30
0.0
 11
300.83786
 21
456.904816
 31
0.0
  0
LINE
  5
2C
330
1E
100
AcDbEntity
  8
0
  6
CONTINUOUS
100
AcDbLine
 10
349.871552
 20
282.406891
 30
0.0
 11
349.871552
 21
467.406891
 31
0.0
  0
LINE
  5
2D
330
1E
100
AcDbEntity
  8
0
  6
CONTINUOUS
100
AcDbLine
 10
349.3718569999999
 20
281.9243469999999
 30
0.0
 11
337.766815
 21
282.329742
 31
0.0
  0
LINE
  5
2E
330
1E
100
AcDbEntity
  8
0
  6
CONTINUOUS
100
AcDbLine
 10
349.3718569999999
 20
467.8894349999999
 30
0.0
 11
337.766571
 21
467.4840389999999
 31
0.0
  0
LINE
  5
2F
330
1E
100
AcDbEntity
  8
0
  6
CONTINUOUS
100
AcDbLine
 10
334.871552
 20
464.485016
 30
0.0
 11
334.871216
 21
285.3276669999999
 31
0.0
  0
ARC
  5
30
330
1E
100
AcDbEntity
  8
0
  6
CONTINUOUS
100
AcDbCircle
 10
334.87265
 20
942.0173339999999
 30
0.0
 40
650.0
100
AcDbArc
 50
263.7290269999999
 51
266.998459
  0
LINE
  5
31
330
1E
100
AcDbEntity
  8
0
  6
CONTINUOUS
100
AcDbLine
 10
330.002289
 20
292.14505
 30
0.0
 11
300.83786
 21
292.9090269999999
 31
0.0
  0
ARC
  5
32
330
1E
100
AcDbEntity
  8
0
  6
CONTINUOUS
100
AcDbCircle
 10
329.8713379999999
 20
462.666412
 30
0.0
 40
5.0
100
AcDbArc
 50
271.5007019999999
 51
0.0
  0
ARC
  5
33
330
1E
100
AcDbEntity
  8
0
  6
CONTINUOUS
100
AcDbCircle
 10
329.8713379999999
 20
287.1470029999999
 30
0.0
 40
5.0
100
AcDbArc
 50
0.0
 51
88.49942
  0
ARC
  5
34
330
1E
100
AcDbEntity
  8
0
  6
CONTINUOUS
100
AcDbCircle
 10
337.8713379999999
 20
464.485016
 30
0.0
 40
3.0
100
AcDbArc
 50
92.00142700000002
 51
180.0
  0
ARC
  5
35
330
1E
100
AcDbEntity
  8
0
  6
CONTINUOUS
100
AcDbCircle
 10
337.871552
 20
285.3276669999999
 30
0.0
 40
3.0
100
AcDbArc
 50
180.0
 51
267.999115
  0
LINE
  5
36
330
1E
100
AcDbEntity
  8
0
  6
CONTINUOUS
100
AcDbLine
 10
353.871552
 20
290.4069519999999
 30
0.0
 11
353.871552
 21
459.406891
 31
0.0
  0
LINE
  5
37
330
1E
100
AcDbEntity
  8
0
  6
CONTINUOUS
100
AcDbLine
 10
353.371552
 20
459.906891
 30
0.0
 11
349.871552
 21
459.906891
 31
0.0
  0
LINE
  5
38
330
1E
100
AcDbEntity
  8
0
  6
CONTINUOUS
100
AcDbLine
 10
353.371552
 20
289.9069519999999
 30
0.0
 11
349.871552
 21
289.9069519999999
 31
0.0
  0
LINE
  5
39
330
1E
100
AcDbEntity
  8
0
  6
CONTINUOUS
100
AcDbLine
 10
354.871552
 20
389.906891
 30
0.0
 11
354.871552
 21
359.906952
 31
0.0
  0
LINE
  5
3A
330
1E
100
AcDbEntity
  8
0
  6
CONTINUOUS
100
AcDbLine
 10
353.871552
 20
389.906891
 30
0.0
 11
354.871552
 21
389.906891
 31
0.0
  0
LINE
  5
3B
330
1E
100
AcDbEntity
  8
0
  6
CONTINUOUS
100
AcDbLine
 10
353.871552
 20
359.906891
 30
0.0
 11
354.871552
 21
359.906952
 31
0.0
  0
LINE
  5
3C
330
1E
100
AcDbEntity
  8
0
  6
CONTINUOUS
100
AcDbLine
 10
354.871552
 20
388.906891
 30
0.0
 11
399.871552
 21
388.9069519999999
 31
0.0
  0
LINE
  5
3D
330
1E
100
AcDbEntity
  8
0
  6
CONTINUOUS
100
AcDbLine
 10
354.871552
 20
360.906891
 30
0.0
 11
359.871552
 21
360.906891
 31
0.0
  0
LINE
  5
3E
330
1E
100
AcDbEntity
  8
0
  6
CONTINUOUS
100
AcDbLine
 10
399.871552
 20
388.9069519999999
 30
0.0
 11
399.871552
 21
357.906891
 31
0.0
  0
LINE
  5
3F
330
1E
100
AcDbEntity
  8
0
  6
CONTINUOUS
100
AcDbLine
 10
359.871552
 20
361.490967
 30
0.0
 11
359.871552
 21
357.906891
 31
0.0
  0
LINE
  5
40
330
1E
100
AcDbEntity
  8
0
  6
CONTINUOUS
100
AcDbLine
 10
359.871552
 20
357.906891
 30
0.0
 11
399.871552
 21
357.906891
 31
0.0
  0
LINE
  5
41
330
1E
100
AcDbEntity
  8
0
  6
CONTINUOUS
100
AcDbLine
 10
263.871552
 20
295.9069519999999
 30
0.0
 11
263.871552
 21
374.9069519999999
 31
0.0
  0
LINE
  5
42
330
1E
100
AcDbEntity
  8
0
  6
CONTINUOUS
100
AcDbLine
 10
263.871552
 20
453.9069519999999
 30
0.0
 11
263.871552
 21
374.9069519999999
 31
0.0
  0
LINE
  5
43
330
1E
100
AcDbEntity
  8
0
  6
CENTER
100
AcDbLine
 10
355.802277
 20
450.9208679999999
 30
0.0
 11
326.619507
 21
450.9208679999999
 31
0.0
  0
LINE
  5
44
330
1E
100
AcDbEntity
  8
0
  6
CENTER
100
AcDbLine
 10
355.802277
 20
298.893066
 30
0.0
 11
326.619507
 21
298.893066
 31
0.0
  0
LINE
  5
45
330
1E
100
AcDbEntity
  8
0
  6
CONTINUOUS
100
AcDbLine
 10
257.3715519999999
 20
169.197708
 30
0.0
 11
257.371338
 21
15.435087
 31
0.0
  0
LINE
  5
46
330
1E
100
AcDbEntity
  8
0
  6
CONTINUOUS
100
AcDbLine
 10
259.3192139999999
 20
13.435667
 30
0.0
 11
263.8714289999999
 21
13.316367
 31
0.0
  0
LINE
  5
47
330
1E
100
AcDbEntity
  8
0
  6
CONTINUOUS
100
AcDbLine
 10
259.3193359999999
 20
171.197052
 30
0.0
 11
263.871552
 21
171.31636
 31
0.0
  0
ARC
  5
48
330
1E
100
AcDbEntity
  8
0
  6
CONTINUOUS
100
AcDbCircle
 10
259.371674
 20
169.197708
 30
0.0
 40
2.0
100
AcDbArc
 50
91.50093100000001
 51
180.0
  0
ARC
  5
49
330
1E
100
AcDbEntity
  8
0
  6
CONTINUOUS
100
AcDbCircle
 10
259.3715519999999
 20
15.435087
 30
0.0
 40
2.0
100
AcDbArc
 50
180.0
 51
268.499512
  0
LINE
  5
4A
330
1E
100
AcDbEntity
  8
0
  6
CONTINUOUS
100
AcDbLine
 10
262.8879089999999
 20
49.884789
 30
0.0
 11
258.6250919999999
 21
49.884789
 31
0.0
  0
LINE
  5
4B
330
1E
100
AcDbEntity
  8
0
  6
CONTINUOUS
100
AcDbLine
 10
262.8879089999999
 20
36.238789
 30
0.0
 11
258.6250919999999
 21
36.238789
 31
0.0
  0
LINE
  5
4C
330
1E
100
AcDbEntity
  8
0
  6
CONTINUOUS
100
AcDbLine
 10
256.371552
 20
148.31636
 30
0.0
 11
256.371552
 21
33.316368
 31
0.0
  0
LINE
  5
4D
330
1E
100
AcDbEntity
  8
0
  6
CENTER
100
AcDbLine
 10
473.7149959999999
 20
114.316368
 30
0.0
 11
712.0103759999999
 21
114.316368
 31
0.0
  0
LINE
  5
4E
330
1E
100
AcDbEntity
  8
0
  6
CENTER
100
AcDbLine
 10
595.084595
 20
240.1763609999999
 30
0.0
 11
595.084595
 21
-14.788733
 31
0.0
  0
LINE
  5
4F
330
1E
100
AcDbEntity
  8
0
  6
CENTER
100
AcDbLine
 10
694.214783
 20
213.4461669999999
 30
0.0
 11
595.084595
 21
114.316368
 31
0.0
  0
LINE
  5
50
330
1E
100
AcDbEntity
  8
0
  6
CENTER
100
AcDbLine
 10
693.5671999999999
 20
15.83388699999999
 30
0.0
 11
595.084595
 21
114.316368
 31
0.0
  0
LINE
  5
51
330
1E
100
AcDbEntity
  8
0
  6
CENTER
100
AcDbLine
 10
498.266998
 20
211.133774
 30
0.0
 11
595.084595
 21
114.316368
 31
0.0
  0
LINE
  5
52
330
1E
100
AcDbEntity
  8
0
  6
CENTER
100
AcDbLine
 10
497.3388059999999
 20
16.572187
 30
0.0
 11
595.084595
 21
114.316368
 31
0.0
  0
CIRCLE
  5
53
330
1E
100
AcDbEntity
  8
0
  6
CONTINUOUS
100
AcDbCircle
 10
519.0708009999999
 20
38.30214699999999
 30
0.0
 40
5.5
  0
CIRCLE
  5
54
330
1E
100
AcDbEntity
  8
0
  6
CONTINUOUS
100
AcDbCircle
 10
519.0708009999999
 20
190.3302919999999
 30
0.0
 40
5.5
  0
LINE
  5
55
330
1E
100
AcDbEntity
  8
0
  6
CENTER
100
AcDbLine
 10
475.812714
 20
90.81636800000001
 30
0.0
 11
712.0103759999999
 21
90.81636800000001
 31
0.0
  0
CIRCLE
  5
56
330
1E
100
AcDbEntity
  8
0
  6
CONTINUOUS
100
AcDbCircle
 10
595.084595
 20
114.316368
 30
0.0
 40
85.0
  0
ARC
  5
57
330
1E
100
AcDbEntity
  8
0
  6
CONTINUOUS
100
AcDbCircle
 10
595.084595
 20
-442.6838379999999
 30
0.0
 40
650.0
100
AcDbArc
 50
90.0
 51
96.84319300000002
  0
ARC
  5
58
330
1E
100
AcDbEntity
  8
0
  6
CONTINUOUS
100
AcDbCircle
 10
1152.084595
 20
114.316368
 30
0.0
 40
650.0
100
AcDbArc
 50
173.1569059999999
 51
186.9355009999999
  0
ARC
  5
59
330
1E
100
AcDbEntity
  8
0
  6
CONTINUOUS
100
AcDbCircle
 10
519.1259769999999
 20
190.2749939999999
 30
0.0
 40
12.5
100
AcDbArc
 50
96.84353600000001
 51
173.1573939999999
  0
CIRCLE
  5
5A
330
1E
100
AcDbEntity
  8
0
  6
CONTINUOUS
100
AcDbCircle
 10
671.098389
 20
38.30214699999999
 30
0.0
 40
5.5
  0
ARC
  5
5B
330
1E
100
AcDbEntity
  8
0
  6
CONTINUOUS
100
AcDbCircle
 10
38.084747
 20
114.316368
 30
0.0
 40
650.0
100
AcDbArc
 50
353.0644839999999
 51
6.843079
  0
CIRCLE
  5
5C
330
1E
100
AcDbEntity
  8
0
  6
CONTINUOUS
100
AcDbCircle
 10
671.098389
 20
190.3302919999999
 30
0.0
 40
5.5
  0
ARC
  5
5D
330
1E
100
AcDbEntity
  8
0
  6
CONTINUOUS
100
AcDbCircle
 10
595.084595
 20
-442.6838379999999
 30
0.0
 40
650.0
100
AcDbArc
 50
83.15680699999999
 51
90.0
  0
ARC
  5
5E
330
1E
100
AcDbEntity
  8
0
  6
CONTINUOUS
100
AcDbCircle
 10
671.0430299999999
 20
190.2749939999999
 30
0.0
 40
12.5
100
AcDbArc
 50
6.842635999999999
 51
83.156464
  0
CIRCLE
  5
5F
330
1E
100
AcDbEntity
  8
0
  6
CONTINUOUS
100
AcDbCircle
 10
595.084595
 20
114.316368
 30
0.0
 40
80.0
  0
ARC
  5
60
330
1E
100
AcDbEntity
  8
0
  6
CONTINUOUS
100
AcDbCircle
 10
671.098816
 20
190.3302919999999
 30
0.0
 40
12.5
100
AcDbArc
 50
172.503296
 51
277.496796
  0
ARC
  5
61
330
1E
100
AcDbEntity
  8
0
  6
CONTINUOUS
100
AcDbCircle
 10
595.084595
 20
-442.6838379999999
 30
0.0
 40
643.0
100
AcDbArc
 50
84.724152
 51
86.20961800000001
  0
ARC
  5
62
330
1E
100
AcDbEntity
  8
0
  6
CONTINUOUS
100
AcDbCircle
 10
38.084747
 20
114.316368
 30
0.0
 40
643.0
100
AcDbArc
 50
354.7242129999999
 51
356.209808
  0
ARC
  5
63
330
1E
100
AcDbEntity
  8
0
  6
CONTINUOUS
100
AcDbCircle
 10
38.084747
 20
114.316368
 30
0.0
 40
643.0
100
AcDbArc
 50
3.790226999999999
 51
5.275741
  0
ARC
  5
64
330
1E
100
AcDbEntity
  8
0
  6
CONTINUOUS
100
AcDbCircle
 10
519.0723879999999
 20
190.3302919999999
 30
0.0
 40
12.5
100
AcDbArc
 50
262.503227
 51
7.496273
  0
ARC
  5
65
330
1E
100
AcDbEntity
  8
0
  6
CONTINUOUS
100
AcDbCircle
 10
595.0866089999999
 20
-442.6838379999999
 30
0.0
 40
643.0
100
AcDbArc
 50
93.76698299999999
 51
95.27586399999998
  0
ARC
  5
66
330
1E
100
AcDbEntity
  8
0
  6
CONTINUOUS
100
AcDbCircle
 10
1152.086547999999
 20
114.316368
 30
0.0
 40
643.0
100
AcDbArc
 50
183.790604
 51
185.2756959999999
  0
ARC
  5
67
330
1E
100
AcDbEntity
  8
0
  6
CONTINUOUS
100
AcDbCircle
 10
1152.086547999999
 20
114.316368
 30
0.0
 40
643.0
100
AcDbArc
 50
174.724304
 51
176.209396
  0
LINE
  5
68
330
1E
100
AcDbEntity
  8
0
  6
CONTINUOUS
100
AcDbLine
 10
663.624207
 20
177.905914
 30
0.0
 11
661.0330199999999
 21
175.3148499999999
 31
0.0
  0
LINE
  5
69
330
1E
100
AcDbEntity
  8
0
  6
CONTINUOUS
100
AcDbLine
 10
658.573792
 20
182.75502
 30
0.0
 11
656.083374
 21
180.264542
 31
0.0
  0
LINE
  5
6A
330
1E
100
AcDbEntity
  8
0
  6
CONTINUOUS
100
AcDbLine
 10
531.4963989999999
 20
182.85408
 30
0.0
 11
534.440613
 21
179.909927
 31
0.0
  0
LINE
  5
6B
330
1E
100
AcDbEntity
  8
0
  6
CONTINUOUS
100
AcDbLine
 10
526.5460209999999
 20
177.905167
 30
0.0
 11
529.1364139999999
 21
175.3150939999999
 31
0.0
  0
LINE
  5
6C
330
1E
100
AcDbEntity
  8
0
  6
CONTINUOUS
100
AcDbLine
 10
598.584595
 20
191.04158
 30
0.0
 11
598.584595
 21
173.059967
 31
0.0
  0
LINE
  5
6D
330
1E
100
AcDbEntity
  8
0
  6
CONTINUOUS
100
AcDbLine
 10
591.584595
 20
191.04158
 30
0.0
 11
591.584595
 21
173.059967
 31
0.0
  0
ARC
  5
6E
330
1E
100
AcDbEntity
  8
0
  6
CONTINUOUS
100
AcDbCircle
 10
601.584595
 20
191.04158
 30
0.0
 40
3.0
100
AcDbArc
 50
85.15770699999999
 51
180.0
  0
ARC
  5
6F
330
1E
100
AcDbEntity
  8
0
  6
CONTINUOUS
100
AcDbCircle
 10
588.584595
 20
191.04158
 30
0.0
 40
3.0
100
AcDbArc
 50
0.0
 51
94.847847
  0
ARC
  5
70
330
1E
100
AcDbEntity
  8
0
  6
CONTINUOUS
100
AcDbCircle
 10
671.098816
 20
38.302387
 30
0.0
 40
12.5
100
AcDbArc
 50
82.50266299999999
 51
205.6459049999999
  0
ARC
  5
71
330
1E
100
AcDbEntity
  8
0
  6
CONTINUOUS
100
AcDbCircle
 10
519.0708009999999
 20
38.302387
 30
0.0
 40
12.5
100
AcDbArc
 50
334.3538489999999
 51
97.49054699999998
  0
ARC
  5
72
330
1E
100
AcDbEntity
  8
0
  6
CONTINUOUS
100
AcDbCircle
 10
595.084595
 20
208.81636
 30
0.0
 40
200.0
100
AcDbArc
 50
246.143005
 51
270.0
  0
ARC
  5
73
330
1E
100
AcDbEntity
  8
0
  6
CONTINUOUS
100
AcDbCircle
 10
595.084595
 20
208.81636
 30
0.0
 40
193.0
100
AcDbArc
 50
251.311996
 51
270.0
  0
ARC
  5
74
330
1E
100
AcDbEntity
  8
0
  6
CONTINUOUS
100
AcDbCircle
 10
519.24939
 20
37.336807
 30
0.0
 40
12.5
100
AcDbArc
 50
186.9355009999999
 51
246.143097
  0
ARC
  5
75
330
1E
100
AcDbEntity
  8
0
  6
CONTINUOUS
100
AcDbCircle
 10
595.084595
 20
208.81636
 30
0.0
 40
193.0
100
AcDbArc
 50
270.0
 51
288.68811
  0
ARC
  5
76
330
1E
100
AcDbEntity
  8
0
  6
CONTINUOUS
100
AcDbCircle
 10
595.084595
 20
208.81636
 30
0.0
 40
200.0
100
AcDbArc
 50
270.0
 51
293.857086
  0
ARC
  5
77
330
1E
100
AcDbEntity
  8
0
  6
CONTINUOUS
100
AcDbCircle
 10
670.919983
 20
37.336807
 30
0.0
 40
12.5
100
AcDbArc
 50
293.8573
 51
353.064606
  0
ARC
  5
78
330
1E
100
AcDbEntity
  8
0
  6
CONTINUOUS
100
AcDbCircle
 10
665.746399
 20
175.7837679999999
 30
0.0
 40
3.0
100
AcDbArc
 50
69.79881299999999
 51
135.000504
  0
ARC
  5
79
330
1E
100
AcDbEntity
  8
0
  6
CONTINUOUS
100
AcDbCircle
 10
656.554016
 20
184.973282
 30
0.0
 40
3.0
100
AcDbArc
 50
312.321011
 51
20.21970899999999
  0
ARC
  5
7A
330
1E
100
AcDbEntity
  8
0
  6
CONTINUOUS
100
AcDbCircle
 10
533.618591
 20
184.9762879999999
 30
0.0
 40
3.0
100
AcDbArc
 50
159.7928009999999
 51
225.001602
  0
ARC
  5
7B
330
1E
100
AcDbEntity
  8
0
  6
CONTINUOUS
100
AcDbCircle
 10
524.4246219999999
 20
175.783585
 30
0.0
 40
3.0
100
AcDbArc
 50
45.000778
 51
110.199898
  0
CIRCLE
  5
7C
330
1E
100
AcDbEntity
  8
0
  6
CONTINUOUS
100
AcDbCircle
 10
595.084595
 20
114.316368
 30
0.0
 40
40.0
  0
ARC
  5
7D
330
1E
100
AcDbEntity
  8
0
  6
CONTINUOUS
100
AcDbCircle
 10
653.748413
 20
192.6134799999999
 30
0.0
 40
5.0
100
AcDbArc
 50
352.504028
 51
84.72448700000001
  0
ARC
  5
7E
330
1E
100
AcDbEntity
  8
0
  6
CONTINUOUS
100
AcDbCircle
 10
673.382019
 20
172.9798889999999
 30
0.0
 40
5.0
100
AcDbArc
 50
5.27576
 51
97.49749000000001
  0
ARC
  5
7F
330
1E
100
AcDbEntity
  8
0
  6
CONTINUOUS
100
AcDbCircle
 10
673.382019
 20
55.65272499999999
 30
0.0
 40
5.0
100
AcDbArc
 50
262.5032039999999
 51
354.7246089999999
  0
ARC
  5
80
330
1E
100
AcDbEntity
  8
0
  6
CONTINUOUS
100
AcDbCircle
 10
655.322571
 20
30.728287
 30
0.0
 40
5.0
100
AcDbArc
 50
288.688477
 51
25.64571
  0
ARC
  5
81
330
1E
100
AcDbEntity
  8
0
  6
CONTINUOUS
100
AcDbCircle
 10
516.789185
 20
55.652966
 30
0.0
 40
5.0
100
AcDbArc
 50
185.275803
 51
277.491791
  0
ARC
  5
82
330
1E
100
AcDbEntity
  8
0
  6
CONTINUOUS
100
AcDbCircle
 10
534.8468019999999
 20
30.728167
 30
0.0
 40
5.0
100
AcDbArc
 50
154.3542939999999
 51
251.312195
  0
ARC
  5
83
330
1E
100
AcDbEntity
  8
0
  6
CONTINUOUS
100
AcDbCircle
 10
516.789185
 20
172.9798889999999
 30
0.0
 40
5.0
100
AcDbArc
 50
82.50325
 51
174.7245939999999
  0
ARC
  5
84
330
1E
100
AcDbEntity
  8
0
  6
CONTINUOUS
100
AcDbCircle
 10
536.4227909999999
 20
192.6134799999999
 30
0.0
 40
5.0
100
AcDbArc
 50
95.27619900000001
 51
187.496704
  0
ARC
  5
85
330
1E
100
AcDbEntity
  8
0
  6
CONTINUOUS
100
AcDbCircle
 10
595.084595
 20
90.81636800000001
 30
0.0
 40
79.5
100
AcDbArc
 50
31.371229
 51
52.04372000000001
  0
ARC
  5
86
330
1E
100
AcDbEntity
  8
0
  6
CONTINUOUS
100
AcDbCircle
 10
667.231628
 20
134.805573
 30
0.0
 40
5.0
100
AcDbArc
 50
211.371597
 51
15.85430999999999
  0
ARC
  5
87
330
1E
100
AcDbEntity
  8
0
  6
CONTINUOUS
100
AcDbCircle
 10
522.937805
 20
134.805923
 30
0.0
 40
5.0
100
AcDbArc
 50
164.1459959999999
 51
328.628693
  0
ARC
  5
88
330
1E
100
AcDbEntity
  8
0
  6
CONTINUOUS
100
AcDbCircle
 10
595.084595
 20
90.81636800000001
 30
0.0
 40
79.5
100
AcDbArc
 50
94.51804399999998
 51
118.7283019999999
  0
ARC
  5
89
330
1E
100
AcDbEntity
  8
0
  6
CONTINUOUS
100
AcDbCircle
 10
601.583801
 20
173.059967
 30
0.0
 40
3.0
100
AcDbArc
 50
180.0
 51
265.481689
  0
ARC
  5
8A
330
1E
100
AcDbEntity
  8
0
  6
CONTINUOUS
100
AcDbCircle
 10
588.585999
 20
173.059967
 30
0.0
 40
3.0
100
AcDbArc
 50
274.518341
 51
0.0
  0
LINE
  5
8B
330
1E
100
AcDbEntity
  8
0
  6
CONTINUOUS
100
AcDbLine
 10
651.812378
 20
166.0942689999999
 30
0.0
 11
643.7056269999999
 21
157.9873199999999
 31
0.0
  0
LINE
  5
8C
330
1E
100
AcDbEntity
  8
0
  6
CONTINUOUS
100
AcDbLine
 10
646.862793
 20
171.044083
 30
0.0
 11
636.859192
 21
161.040421
 31
0.0
  0
LINE
  5
8D
330
1E
100
AcDbEntity
  8
0
  6
CONTINUOUS
100
AcDbLine
 10
543.3063959999999
 20
171.044083
 30
0.0
 11
553.3099980000001
 21
161.0406649999999
 31
0.0
  0
LINE
  5
8E
330
1E
100
AcDbEntity
  8
0
  6
CONTINUOUS
100
AcDbLine
 10
538.3568119999999
 20
166.0942689999999
 30
0.0
 11
546.4638059999999
 21
157.9874419999999
 31
0.0
  0
ARC
  5
8F
330
1E
100
AcDbEntity
  8
0
  6
CONTINUOUS
100
AcDbCircle
 10
653.934021
 20
163.972992
 30
0.0
 40
3.0
100
AcDbArc
 50
40.157009
 51
135.000504
  0
ARC
  5
90
330
1E
100
AcDbEntity
  8
0
  6
CONTINUOUS
100
AcDbCircle
 10
644.741394
 20
173.165421
 30
0.0
 40
3.0
100
AcDbArc
 50
315.000061
 51
49.842072
  0
ARC
  5
91
330
1E
100
AcDbEntity
  8
0
  6
CONTINUOUS
100
AcDbCircle
 10
645.8270259999999
 20
155.866104
 30
0.0
 40
3.0
100
AcDbArc
 50
134.999603
 51
232.0440979999999
  0
ARC
  5
92
330
1E
100
AcDbEntity
  8
0
  6
CONTINUOUS
100
AcDbCircle
 10
634.737793
 20
163.16188
 30
0.0
 40
3.0
100
AcDbArc
 50
241.2733
 51
315.0004879999999
  0
ARC
  5
93
330
1E
100
AcDbEntity
  8
0
  6
CONTINUOUS
100
AcDbCircle
 10
595.084595
 20
90.81636800000001
 30
0.0
 40
79.5
100
AcDbArc
 50
61.27248
 51
85.48146800000001
  0
ARC
  5
94
330
1E
100
AcDbEntity
  8
0
  6
CONTINUOUS
100
AcDbCircle
 10
555.430603
 20
163.1614689999999
 30
0.0
 40
3.0
100
AcDbArc
 50
225.000397
 51
298.727997
  0
ARC
  5
95
330
1E
100
AcDbEntity
  8
0
  6
CONTINUOUS
100
AcDbCircle
 10
544.3425900000001
 20
155.8663479999999
 30
0.0
 40
3.0
100
AcDbArc
 50
307.955872
 51
45.00037
  0
ARC
  5
96
330
1E
100
AcDbEntity
  8
0
  6
CONTINUOUS
100
AcDbCircle
 10
545.4274289999999
 20
173.164886
 30
0.0
 40
3.0
100
AcDbArc
 50
130.163803
 51
225.0
  0
ARC
  5
97
330
1E
100
AcDbEntity
  8
0
  6
CONTINUOUS
100
AcDbCircle
 10
536.235596
 20
163.973282
 30
0.0
 40
3.0
100
AcDbArc
 50
44.99995
 51
139.8479
  0
ARC
  5
98
330
1E
100
AcDbEntity
  8
0
  6
CONTINUOUS
100
AcDbCircle
 10
595.084595
 20
90.81636800000001
 30
0.0
 40
79.5
100
AcDbArc
 50
127.9561
 51
148.628403
  0
ARC
  5
99
330
1E
100
AcDbEntity
  8
0
  6
CONTINUOUS
100
AcDbCircle
 10
514.4843749999999
 20
156.56105
 30
0.0
 40
4.0
100
AcDbArc
 50
176.2099
 51
332.3357849999999
  0
ARC
  5
9A
330
1E
100
AcDbEntity
  8
0
  6
CONTINUOUS
100
AcDbCircle
 10
514.4843749999999
 20
72.071678
 30
0.0
 40
4.0
100
AcDbArc
 50
27.655939
 51
183.7904969999999
  0
ARC
  5
9B
330
1E
100
AcDbEntity
  8
0
  6
CONTINUOUS
100
AcDbCircle
 10
675.6871949999999
 20
72.07607299999999
 30
0.0
 40
4.0
100
AcDbArc
 50
356.209961
 51
152.334702
  0
ARC
  5
9C
330
1E
100
AcDbEntity
  8
0
  6
CONTINUOUS
100
AcDbCircle
 10
675.6871949999999
 20
156.5566709999999
 30
0.0
 40
4.0
100
AcDbArc
 50
207.657104
 51
3.790488999999999
  0
ARC
  5
9D
330
1E
100
AcDbEntity
  8
0
  6
CONTINUOUS
100
AcDbCircle
 10
637.325623
 20
194.9184879999999
 30
0.0
 40
4.0
100
AcDbArc
 50
86.209824
 51
242.342194
  0
ARC
  5
9E
330
1E
100
AcDbEntity
  8
0
  6
CONTINUOUS
100
AcDbCircle
 10
552.8433839999999
 20
194.918228
 30
0.0
 40
4.0
100
AcDbArc
 50
297.6585689999999
 51
90.0
  0
ARC
  5
9F
330
1E
100
AcDbEntity
  8
0
  6
CONTINUOUS
100
AcDbCircle
 10
595.084595
 20
114.316368
 30
0.0
 40
87.0
100
AcDbArc
 50
207.6604
 51
332.343292
  0
ARC
  5
A0
330
1E
100
AcDbEntity
  8
0
  6
CONTINUOUS
100
AcDbCircle
 10
595.084595
 20
114.316368
 30
0.0
 40
87.0
100
AcDbArc
 50
27.65707
 51
62.342361
  0
ARC
  5
A1
330
1E
100
AcDbEntity
  8
0
  6
CONTINUOUS
100
AcDbCircle
 10
536.2073969999999
 20
182.3860019999999
 30
0.0
 40
3.0
100
AcDbArc
 50
225.002396
 51
310.858612
  0
ARC
  5
A2
330
1E
100
AcDbEntity
  8
0
  6
CONTINUOUS
100
AcDbCircle
 10
527.015015
 20
173.1936799999999
 30
0.0
 40
3.0
100
AcDbArc
 50
319.141449
 51
45.001598
  0
ARC
  5
A3
330
1E
100
AcDbEntity
  8
0
  6
CONTINUOUS
100
AcDbCircle
 10
653.961975
 20
182.385773
 30
0.0
 40
3.0
100
AcDbArc
 50
229.1414029999999
 51
315.002502
  0
ARC
  5
A4
330
1E
100
AcDbEntity
  8
0
  6
CONTINUOUS
100
AcDbCircle
 10
663.154419
 20
173.1935119999999
 30
0.0
 40
3.0
100
AcDbArc
 50
134.998795
 51
220.858093
  0
CIRCLE
  5
A5
330
1E
100
AcDbEntity
  8
0
  6
CENTER
100
AcDbCircle
 10
595.084595
 20
114.316368
 30
0.0
 40
107.4999999999999
  0
ARC
  5
A6
330
1E
100
AcDbEntity
  8
0
  6
CONTINUOUS
100
AcDbCircle
 10
595.084595
 20
114.316307
 30
0.0
 40
14.0
100
AcDbArc
 50
196.6013949999999
 51
163.3983
  0
LINE
  5
A7
330
1E
100
AcDbEntity
  8
0
  6
CONTINUOUS
100
AcDbLine
 10
585.084595
 20
118.316368
 30
0.0
 11
585.084595
 21
110.316307
 31
0.0
  0
LINE
  5
A8
330
1E
100
AcDbEntity
  8
0
  6
CONTINUOUS
100
AcDbLine
 10
578.084595
 20
118.316307
 30
0.0
 11
578.084595
 21
110.3163679999999
 31
0.0
  0
LINE
  5
A9
330
1E
100
AcDbEntity
  8
0
  6
CONTINUOUS
100
AcDbLine
 10
578.084595
 20
118.316307
 30
0.0
 11
585.084595
 21
118.316368
 31
0.0
  0
LINE
  5
AA
330
1E
100
AcDbEntity
  8
0
  6
CONTINUOUS
100
AcDbLine
 10
578.084595
 20
110.3163679999999
 30
0.0
 11
585.084595
 21
110.316307
 31
0.0
  0
ARC
  5
AB
330
1E
100
AcDbEntity
  8
0
  6
CONTINUOUS
100
AcDbCircle
 10
595.084595
 20
114.316368
 30
0.0
 40
87.0
100
AcDbArc
 50
117.6578979999999
 51
152.3399959999999
  0
LINE
  5
AC
330
1E
100
AcDbEntity
  8
0
  6
CENTER
100
AcDbLine
 10
-10.10718699999999
 20
90.81636800000001
 30
0.0
 11
315.3166499999999
 21
90.81636800000001
 31
0.0
  0
LINE
  5
AD
330
1E
100
AcDbEntity
  8
0
  6
CONTINUOUS
100
AcDbLine
 10
263.871552
 20
295.9069519999999
 30
0.0
 11
263.871552
 21
374.9069519999999
 31
0.0
  0
LINE
  5
AE
330
1E
100
AcDbEntity
  8
0
  6
CONTINUOUS
100
AcDbLine
 10
263.871552
 20
453.9069519999999
 30
0.0
 11
263.871552
 21
374.9069519999999
 31
0.0
  0
LINE
  5
AF
330
1E
100
AcDbEntity
  8
0
  6
CONTINUOUS
100
AcDbLine
 10
263.871552
 20
453.756958
 30
0.0
 11
263.871552
 21
296.0569459999999
 31
0.0
  0
LINE
  5
B0
330
1E
100
AcDbEntity
  8
0
  6
CONTINUOUS
100
AcDbLine
 10
257.371185
 20
451.7884829999999
 30
0.0
 11
257.371185
 21
298.025452
 31
0.0
  0
LINE
  5
B1
330
1E
100
AcDbEntity
  8
0
  6
CONTINUOUS
100
AcDbLine
 10
256.371368
 20
432.4069519999999
 30
0.0
 11
256.371368
 21
317.4069519999999
 31
0.0
  0
LINE
  5
B2
330
1E
100
AcDbEntity
  8
0
  6
CONTINUOUS
100
AcDbLine
 10
353.371552
 20
459.906891
 30
0.0
 11
353.871552
 21
459.406891
 31
0.0
  0
LINE
  5
B3
330
1E
100
AcDbEntity
  8
0
  6
CONTINUOUS
100
AcDbLine
 10
349.3718569999999
 20
467.8894349999999
 30
0.0
 11
349.871552
 21
467.406891
 31
0.0
  0
LINE
  5
B4
330
1E
100
AcDbEntity
  8
0
  6
CONTINUOUS
100
AcDbLine
 10
353.371552
 20
289.9069519999999
 30
0.0
 11
353.871552
 21
290.4069519999999
 31
0.0
  0
LINE
  5
B5
330
1E
100
AcDbEntity
  8
0
  6
CONTINUOUS
100
AcDbLine
 10
349.3718569999999
 20
281.9243469999999
 30
0.0
 11
349.871552
 21
282.406891
 31
0.0
  0
LINE
  5
B6
330
1E
100
AcDbEntity
  8
0
  6
CENTER
100
AcDbLine
 10
302.8715819999999
 20
114.316429
 30
0.0
 11
410.621582
 21
114.316429
 31
0.0
  0
LINE
  5
B7
330
1E
100
AcDbEntity
  8
0
  6
CONTINUOUS
100
AcDbLine
 10
353.871368
 20
194.8164519999999
 30
0.0
 11
353.871368
 21
198.8164519999999
 31
0.0
  0
LINE
  5
B8
330
1E
100
AcDbEntity
  8
0
  6
CONTINUOUS
100
AcDbLine
 10
353.371368
 20
199.316452
 30
0.0
 11
349.871368
 21
199.316452
 31
0.0
  0
LINE
  5
B9
330
1E
100
AcDbEntity
  8
0
  6
CONTINUOUS
100
AcDbLine
 10
349.871368
 20
29.316366
 30
0.0
 11
353.371368
 21
29.316366
 31
0.0
  0
LINE
  5
BA
330
1E
100
AcDbEntity
  8
0
  6
CONTINUOUS
100
AcDbLine
 10
263.871552
 20
13.316247
 30
0.0
 11
263.871552
 21
90.81636800000001
 31
0.0
  0
LINE
  5
BB
330
1E
100
AcDbEntity
  8
0
  6
CONTINUOUS
100
AcDbLine
 10
263.871552
 20
171.31636
 30
0.0
 11
263.871552
 21
90.81636800000001
 31
0.0
  0
ARC
  5
BC
330
1E
100
AcDbEntity
  8
0
  6
CONTINUOUS
100
AcDbCircle
 10
334.8705749999999
 20
-474.7941889999999
 30
0.0
 40
650.0
100
AcDbArc
 50
93.00154099999998
 51
96.270973
  0
ARC
  5
BD
330
1E
100
AcDbEntity
  8
0
  6
CONTINUOUS
100
AcDbCircle
 10
334.8705749999999
 20
659.4270019999998
 30
0.0
 40
650.0
100
AcDbArc
 50
263.7291259999999
 51
266.227631
  0
LINE
  5
BE
330
1E
100
AcDbEntity
  8
0
  6
CONTINUOUS
100
AcDbLine
 10
353.371368
 20
199.316452
 30
0.0
 11
353.871368
 21
198.8164519999999
 31
0.0
  0
LINE
  5
BF
330
1E
100
AcDbEntity
  8
0
  6
CONTINUOUS
100
AcDbLine
 10
334.870972
 20
203.8954159999999
 30
0.0
 11
334.870972
 21
12.237563
 31
0.0
  0
LINE
  5
C0
330
1E
100
AcDbEntity
  8
0
  6
CONTINUOUS
100
AcDbLine
 10
349.871368
 20
206.8162989999999
 30
0.0
 11
349.871368
 21
9.316307
 31
0.0
  0
LINE
  5
C1
330
1E
100
AcDbEntity
  8
0
  6
CONTINUOUS
100
AcDbLine
 10
353.371368
 20
29.316366
 30
0.0
 11
353.871368
 21
29.81636599999999
 31
0.0
  0
LINE
  5
C2
330
1E
100
AcDbEntity
  8
0
  6
CONTINUOUS
100
AcDbLine
 10
265.836731
 20
49.884727
 30
0.0
 11
330.084198
 21
50.445389
 31
0.0
  0
LINE
  5
C3
330
1E
100
AcDbEntity
  8
0
  6
CONTINUOUS
100
AcDbLine
 10
265.836731
 20
36.238728
 30
0.0
 11
330.084198
 21
35.67844799999999
 31
0.0
  0
LINE
  5
C4
330
1E
100
AcDbEntity
  8
0
  6
CONTINUOUS
100
AcDbLine
 10
353.871368
 20
194.8164519999999
 30
0.0
 11
353.871368
 21
29.81636599999999
 31
0.0
  0
LINE
  5
C5
330
1E
100
AcDbEntity
  8
0
  6
CONTINUOUS
100
AcDbLine
 10
349.371674
 20
8.833771999999999
 30
0.0
 11
292.105255
 21
10.83535799999999
 31
0.0
  0
LINE
  5
C6
330
1E
100
AcDbEntity
  8
0
  6
CONTINUOUS
100
AcDbLine
 10
330.0023799999999
 20
175.078354
 30
0.0
 11
300.835571
 21
174.314301
 31
0.0
  0
ARC
  5
C7
330
1E
100
AcDbEntity
  8
0
  6
CONTINUOUS
100
AcDbCircle
 10
329.871368
 20
180.076508
 30
0.0
 40
5.0
100
AcDbArc
 50
271.50061
 51
0.0
  0
LINE
  5
C8
330
1E
100
AcDbEntity
  8
0
  6
CONTINUOUS
100
AcDbLine
 10
354.871368
 20
129.3162989999999
 30
0.0
 11
354.871185
 21
99.31630699999999
 31
0.0
  0
LINE
  5
C9
330
1E
100
AcDbEntity
  8
0
  6
CONTINUOUS
100
AcDbLine
 10
353.871368
 20
129.3162989999999
 30
0.0
 11
354.871368
 21
129.3162989999999
 31
0.0
  0
LINE
  5
CA
330
1E
100
AcDbEntity
  8
0
  6
CONTINUOUS
100
AcDbLine
 10
354.871185
 20
128.3162989999999
 30
0.0
 11
399.871368
 21
128.3162989999999
 31
0.0
  0
LINE
  5
CB
330
1E
100
AcDbEntity
  8
0
  6
CONTINUOUS
100
AcDbLine
 10
353.871368
 20
99.31642899999999
 30
0.0
 11
354.871185
 21
99.31630699999999
 31
0.0
  0
LINE
  5
CC
330
1E
100
AcDbEntity
  8
0
  6
CONTINUOUS
100
AcDbLine
 10
354.871368
 20
100.3164289999999
 30
0.0
 11
399.871368
 21
100.3164289999999
 31
0.0
  0
LINE
  5
CD
330
1E
100
AcDbEntity
  8
0
  6
CONTINUOUS
100
AcDbLine
 10
399.871368
 20
128.3162989999999
 30
0.0
 11
399.871368
 21
100.3164289999999
 31
0.0
  0
LINE
  5
CE
330
1E
100
AcDbEntity
  8
0
  6
CONTINUOUS
100
AcDbLine
 10
363.871368
 20
118.316307
 30
0.0
 11
399.871368
 21
118.316307
 31
0.0
  0
LINE
  5
CF
330
1E
100
AcDbEntity
  8
0
  6
CONTINUOUS
100
AcDbLine
 10
363.871368
 20
110.316307
 30
0.0
 11
399.871368
 21
110.316307
 31
0.0
  0
ARC
  5
D0
330
1E
100
AcDbEntity
  8
0
  6
CONTINUOUS
100
AcDbCircle
 10
363.871368
 20
114.316429
 30
0.0
 40
4.0
100
AcDbArc
 50
90.0
 51
270.0
  0
ARC
  5
D1
330
1E
100
AcDbEntity
  8
0
  6
CONTINUOUS
100
AcDbCircle
 10
337.871368
 20
12.237563
 30
0.0
 40
3.0
100
AcDbArc
 50
180.0
 51
267.998596
  0
LINE
  5
D2
330
1E
100
AcDbEntity
  8
0
  6
CENTER
100
AcDbLine
 10
355.802094
 20
38.30253199999999
 30
0.0
 11
326.619293
 21
38.30253199999999
 31
0.0
  0
LINE
  5
D3
330
1E
100
AcDbEntity
  8
0
  6
CONTINUOUS
100
AcDbLine
 10
349.371674
 20
207.298859
 30
0.0
 11
337.766296
 21
206.8935849999999
 31
0.0
  0
LINE
  5
D4
330
1E
100
AcDbEntity
  8
0
  6
CONTINUOUS
100
AcDbLine
 10
349.371674
 20
8.833771999999999
 30
0.0
 11
349.871368
 21
9.316307
 31
0.0
  0
ARC
  5
D5
330
1E
100
AcDbEntity
  8
0
  6
CONTINUOUS
100
AcDbCircle
 10
337.8709719999999
 20
203.8954159999999
 30
0.0
 40
3.0
100
AcDbArc
 50
91.99999999999999
 51
180.0
  0
LINE
  5
D6
330
1E
100
AcDbEntity
  8
0
  6
CONTINUOUS
100
AcDbLine
 10
349.371674
 20
207.298859
 30
0.0
 11
349.871368
 21
206.8162989999999
 31
0.0
  0
LINE
  5
D7
330
1E
100
AcDbEntity
  8
0
  6
CENTER
100
AcDbLine
 10
355.802094
 20
190.3303219999999
 30
0.0
 11
326.619293
 21
190.3303219999999
 31
0.0
  0
LINE
  5
D8
330
1E
100
AcDbEntity
  8
0
  6
CONTINUOUS
100
AcDbLine
 10
256.371368
 20
432.4069519999999
 30
0.0
 11
256.8886109999999
 21
432.4250179999999
 31
0.0
  0
ARC
  5
D9
330
1E
100
AcDbEntity
  8
0
  6
CONTINUOUS
100
AcDbCircle
 10
256.8711549999999
 20
432.9247129999999
 30
0.0
 40
0.5
100
AcDbArc
 50
272.0000989999999
 51
0.0
  0
LINE
  5
DA
330
1E
100
AcDbEntity
  8
0
  6
CONTINUOUS
100
AcDbLine
 10
256.371368
 20
317.4069519999999
 30
0.0
 11
256.8883969999999
 21
317.388885
 31
0.0
  0
ARC
  5
DB
330
1E
100
AcDbEntity
  8
0
  6
CONTINUOUS
100
AcDbCircle
 10
256.870941
 20
316.889191
 30
0.0
 40
0.5
100
AcDbArc
 50
0.0
 51
88.0
  0
LINE
  5
DC
330
1E
100
AcDbEntity
  8
0
  6
CONTINUOUS
100
AcDbLine
 10
256.371552
 20
148.31636
 30
0.0
 11
256.888977
 21
148.3344419999999
 31
0.0
  0
ARC
  5
DD
330
1E
100
AcDbEntity
  8
0
  6
CONTINUOUS
100
AcDbCircle
 10
256.8715209999999
 20
148.834137
 30
0.0
 40
0.5
100
AcDbArc
 50
272.000092
 51
0.0
  0
LINE
  5
DE
330
1E
100
AcDbEntity
  8
0
  6
CONTINUOUS
100
AcDbLine
 10
256.371552
 20
33.316368
 30
0.0
 11
256.888794
 21
33.29830599999999
 31
0.0
  0
ARC
  5
DF
330
1E
100
AcDbEntity
  8
0
  6
CONTINUOUS
100
AcDbCircle
 10
256.8713379999999
 20
32.798611
 30
0.0
 40
0.5
100
AcDbArc
 50
0.0
 51
88.0
  0
LINE
  5
E0
330
1E
100
AcDbEntity
  8
0
  6
CONTINUOUS
100
AcDbLine
 10
259.3188169999999
 20
453.7877809999999
 30
0.0
 11
263.872711
 21
453.9070429999999
 31
0.0
  0
ARC
  5
E1
330
1E
100
AcDbEntity
  8
0
  6
CONTINUOUS
100
AcDbCircle
 10
259.371185
 20
451.7884829999999
 30
0.0
 40
2.0
100
AcDbArc
 50
91.5
 51
180.0
  0
LINE
  5
E2
330
1E
100
AcDbEntity
  8
0
  6
CONTINUOUS
100
AcDbLine
 10
259.3188169999999
 20
296.026123
 30
0.0
 11
263.872711
 21
295.906891
 31
0.0
  0
ARC
  5
E3
330
1E
100
AcDbEntity
  8
0
  6
CONTINUOUS
100
AcDbCircle
 10
259.371185
 20
298.025452
 30
0.0
 40
2.0
100
AcDbArc
 50
180.0
 51
268.5
  0
LINE
  5
E4
330
1E
100
AcDbEntity
  8
0
  6
CONTINUOUS
100
AcDbLine
 10
359.871552
 20
361.490967
 30
0.0
 11
399.871552
 21
361.490967
 31
0.0
  0
LINE
  5
E5
330
1E
100
AcDbEntity
  8
0
  6
DASHED
100
AcDbLine
 10
349.871552
 20
456.420868
 30
0.0
 11
334.8711549999999
 21
456.420868
 31
0.0
  0
LINE
  5
E6
330
1E
100
AcDbEntity
  8
0
  6
DASHED
100
AcDbLine
 10
349.871552
 20
445.4208679999999
 30
0.0
 11
334.8711549999999
 21
445.4208679999999
 31
0.0
  0
LINE
  5
E7
330
1E
100
AcDbEntity
  8
0
  6
DASHED
100
AcDbLine
 10
349.871552
 20
304.393066
 30
0.0
 11
334.8711549999999
 21
304.393066
 31
0.0
  0
LINE
  5
E8
330
1E
100
AcDbEntity
  8
0
  6
DASHED
100
AcDbLine
 10
349.871552
 20
293.393066
 30
0.0
 11
334.8711549999999
 21
293.393066
 31
0.0
  0
LINE
  5
E9
330
1E
100
AcDbEntity
  8
0
  6
DASHED
100
AcDbLine
 10
349.871368
 20
195.8303219999999
 30
0.0
 11
334.870972
 21
195.8303219999999
 31
0.0
  0
LINE
  5
EA
330
1E
100
AcDbEntity
  8
0
  6
DASHED
100
AcDbLine
 10
349.871368
 20
184.830322
 30
0.0
 11
334.870972
 21
184.830322
 31
0.0
  0
LINE
  5
EB
330
1E
100
AcDbEntity
  8
0
  6
DASHED
100
AcDbLine
 10
349.871368
 20
43.802532
 30
0.0
 11
334.870972
 21
43.802532
 31
0.0
  0
LINE
  5
EC
330
1E
100
AcDbEntity
  8
0
  6
DASHED
100
AcDbLine
 10
349.871368
 20
32.802532
 30
0.0
 11
334.870972
 21
32.802532
 31
0.0
  0
LINE
  5
ED
330
1E
100
AcDbEntity
  8
0
  6
CONTINUOUS
100
AcDbLine
 10
163.3713679999999
 20
432.4069519999999
 30
0.0
 11
163.3713679999999
 21
317.4069519999999
 31
0.0
  0
LINE
  5
F4
330
1E
100
AcDbEntity
  8
0
  6
CONTINUOUS
100
AcDbLine
 10
51.371365
 20
432.4069519999999
 30
0.0
 11
163.3713679999999
 21
432.4069519999999
 31
0.0
  0
LINE
  5
F5
330
1E
100
AcDbEntity
  8
0
  6
CONTINUOUS
100
AcDbLine
 10
163.3713679999999
 20
317.4069519999999
 30
0.0
 11
118.8457409999999
 21
317.4069519999999
 31
0.0
  0
LINE
  5
F6
330
1E
100
AcDbEntity
  8
0
  6
CONTINUOUS
100
AcDbLine
 10
51.371365
 20
400.906464
 30
0.0
 11
155.3451689999999
 21
400.906464
 31
0.0
  0
LINE
  5
F7
330
1E
100
AcDbEntity
  8
0
  6
CONTINUOUS
100
AcDbLine
 10
51.371365
 20
408.6769709999999
 30
0.0
 11
155.3451689999999
 21
408.6769709999999
 31
0.0
  0
LINE
  5
F8
330
1E
100
AcDbEntity
  8
0
  6
CONTINUOUS
100
AcDbLine
 10
52.371365
 20
411.95636
 30
0.0
 11
154.345184
 21
411.95636
 31
0.0
  0
LINE
  5
F9
330
1E
100
AcDbEntity
  8
0
  6
CONTINUOUS
100
AcDbLine
 10
51.371365
 20
416.7713319999999
 30
0.0
 11
155.3451689999999
 21
416.7713319999999
 31
0.0
  0
LINE
  5
FA
330
1E
100
AcDbEntity
  8
0
  6
CONTINUOUS
100
AcDbLine
 10
52.371365
 20
418.7591549999999
 30
0.0
 11
154.345184
 21
418.7591549999999
 31
0.0
  0
LINE
  5
FB
330
1E
100
AcDbEntity
  8
0
  6
CONTINUOUS
100
AcDbLine
 10
51.371365
 20
422.801788
 30
0.0
 11
155.3451689999999
 21
422.801788
 31
0.0
  0
LINE
  5
FC
330
1E
100
AcDbEntity
  8
0
  6
CONTINUOUS
100
AcDbLine
 10
51.371365
 20
427.332642
 30
0.0
 11
155.3451689999999
 21
427.332642
 31
0.0
  0
LINE
  5
FD
330
1E
100
AcDbEntity
  8
0
  6
CONTINUOUS
100
AcDbLine
 10
51.371365
 20
430.209717
 30
0.0
 11
155.3451689999999
 21
430.209717
 31
0.0
  0
LINE
  5
FE
330
1E
100
AcDbEntity
  8
0
  6
CONTINUOUS
100
AcDbLine
 10
51.371365
 20
431.865021
 30
0.0
 11
155.3451689999999
 21
431.865021
 31
0.0
  0
LINE
  5
FF
330
1E
100
AcDbEntity
  8
0
  6
CONTINUOUS
100
AcDbLine
 10
155.3451689999999
 20
432.4069519999999
 30
0.0
 11
155.3451689999999
 21
400.906464
 31
0.0
  0
LINE
  5
100
330
1E
100
AcDbEntity
  8
0
  6
CONTINUOUS
100
AcDbLine
 10
51.371365
 20
348.90744
 30
0.0
 11
155.3451689999999
 21
348.90744
 31
0.0
  0
LINE
  5
101
330
1E
100
AcDbEntity
  8
0
  6
CONTINUOUS
100
AcDbLine
 10
51.371365
 20
341.1369319999999
 30
0.0
 11
155.3451689999999
 21
341.1369319999999
 31
0.0
  0
LINE
  5
102
330
1E
100
AcDbEntity
  8
0
  6
CONTINUOUS
100
AcDbLine
 10
51.371365
 20
333.0426029999999
 30
0.0
 11
155.3451689999999
 21
333.0426029999999
 31
0.0
  0
LINE
  5
103
330
1E
100
AcDbEntity
  8
0
  6
CONTINUOUS
100
AcDbLine
 10
118.3457409999999
 20
322.481262
 30
0.0
 11
155.3451689999999
 21
322.481262
 31
0.0
  0
LINE
  5
104
330
1E
100
AcDbEntity
  8
0
  6
CONTINUOUS
100
AcDbLine
 10
118.3457409999999
 20
319.604187
 30
0.0
 11
155.3451689999999
 21
319.604187
 31
0.0
  0
LINE
  5
105
330
1E
100
AcDbEntity
  8
0
  6
CONTINUOUS
100
AcDbLine
 10
118.845734
 20
317.948883
 30
0.0
 11
155.3451689999999
 21
317.948883
 31
0.0
  0
LINE
  5
106
330
1E
100
AcDbEntity
  8
0
  6
CONTINUOUS
100
AcDbLine
 10
155.3451689999999
 20
317.4069519999999
 30
0.0
 11
155.3451689999999
 21
348.90744
 31
0.0
  0
LINE
  5
107
330
1E
100
AcDbEntity
  8
0
  6
CONTINUOUS
100
AcDbLine
 10
118.3457409999999
 20
317.906952
 30
0.0
 11
118.3457409999999
 21
324.1063839999999
 31
0.0
  0
ARC
  5
108
330
1E
100
AcDbEntity
  8
0
  6
CONTINUOUS
100
AcDbCircle
 10
118.845734
 20
318.448883
 30
0.0
 40
0.499992
100
AcDbArc
 50
180.0
 51
270.0
  0
ARC
  5
109
330
1E
100
AcDbEntity
  8
0
  6
CONTINUOUS
100
AcDbCircle
 10
117.345757
 20
319.907806
 30
0.0
 40
0.9999839999999998
100
AcDbArc
 50
270.0
 51
0.0
  0
LINE
  5
10A
330
1E
100
AcDbEntity
  8
0
  6
CONTINUOUS
100
AcDbLine
 10
52.371365
 20
337.857544
 30
0.0
 11
154.345184
 21
337.857544
 31
0.0
  0
LINE
  5
10B
330
1E
100
AcDbEntity
  8
0
  6
CONTINUOUS
100
AcDbLine
 10
52.371365
 20
331.054749
 30
0.0
 11
154.345184
 21
331.054749
 31
0.0
  0
LINE
  5
10C
330
1E
100
AcDbEntity
  8
0
  6
CONTINUOUS
100
AcDbLine
 10
51.371365
 20
327.012115
 30
0.0
 11
155.3451689999999
 21
327.012115
 31
0.0
  0
LINE
  5
10D
330
1E
100
AcDbEntity
  8
0
  6
CONTINUOUS
100
AcDbLine
 10
51.371365
 20
324.1063839999999
 30
0.0
 11
118.3457409999999
 21
324.1063839999999
 31
0.0
  0
LINE
  5
10E
330
1E
100
AcDbEntity
  8
0
  6
CONTINUOUS
100
AcDbLine
 10
51.371365
 20
318.907837
 30
0.0
 11
97.89373799999999
 21
318.907837
 31
0.0
  0
LINE
  5
10F
330
1E
100
AcDbEntity
  8
0
  6
CONTINUOUS
100
AcDbLine
 10
117.345757
 20
318.907837
 30
0.0
 11
97.89373799999999
 21
318.907745
 31
0.0
  0
LINE
  5
110
330
1E
100
AcDbEntity
  8
0
  6
CONTINUOUS
100
AcDbLine
 10
80.34632100000001
 20
315.9078979999999
 30
0.0
 11
80.34632100000001
 21
318.907837
 31
0.0
  0
LINE
  5
111
330
1E
100
AcDbEntity
  8
0
  6
CONTINUOUS
100
AcDbLine
 10
56.34669099999999
 20
315.9078979999999
 30
0.0
 11
56.34669099999999
 21
318.907837
 31
0.0
  0
LINE
  5
112
330
1E
100
AcDbEntity
  8
0
  6
CONTINUOUS
100
AcDbLine
 10
80.34632100000001
 20
315.9078979999999
 30
0.0
 11
56.34669099999999
 21
315.9078979999999
 31
0.0
  0
ARC
  5
113
330
1E
100
AcDbEntity
  8
0
  6
CONTINUOUS
100
AcDbCircle
 10
118.8457409999999
 20
317.906952
 30
0.0
 40
0.5
100
AcDbArc
 50
180.0
 51
270.0
  0
LINE
  5
11C
330
1E
100
AcDbEntity
  8
0
  6
CONTINUOUS
100
AcDbLine
 10
251.371368
 20
432.4069519999999
 30
0.0
 11
256.371368
 21
432.4069519999999
 31
0.0
  0
LINE
  5
11D
330
1E
100
AcDbEntity
  8
0
  6
CONTINUOUS
100
AcDbLine
 10
251.371368
 20
317.4069519999999
 30
0.0
 11
256.371368
 21
317.4069519999999
 31
0.0
  0
LINE
  5
11E
330
1E
100
AcDbEntity
  8
0
  6
CONTINUOUS
100
AcDbLine
 10
251.371368
 20
432.4069519999999
 30
0.0
 11
251.371368
 21
317.4069519999999
 31
0.0
  0
LINE
  5
11F
330
1E
100
AcDbEntity
  8
0
  6
CONTINUOUS
100
AcDbLine
 10
243.371368
 20
319.656952
 30
0.0
 11
243.371368
 21
430.1569519999999
 31
0.0
  0
LINE
  5
120
330
1E
100
AcDbEntity
  8
0
  6
CONTINUOUS
100
AcDbLine
 10
180.3713679999999
 20
317.656952
 30
0.0
 11
180.3713679999999
 21
432.1569519999999
 31
0.0
  0
LINE
  5
121
330
1E
100
AcDbEntity
  8
0
  6
CONTINUOUS
100
AcDbLine
 10
188.3713679999999
 20
319.656952
 30
0.0
 11
188.3713679999999
 21
430.1569519999999
 31
0.0
  0
LINE
  5
122
330
1E
100
AcDbEntity
  8
0
  6
CONTINUOUS
100
AcDbLine
 10
163.3713679999999
 20
432.1569519999999
 30
0.0
 11
186.371368
 21
432.1569519999999
 31
0.0
  0
LINE
  5
123
330
1E
100
AcDbEntity
  8
0
  6
CONTINUOUS
100
AcDbLine
 10
163.3713679999999
 20
317.656952
 30
0.0
 11
171.871552
 21
317.656952
 31
0.0
  0
LINE
  5
124
330
1E
100
AcDbEntity
  8
0
  6
CONTINUOUS
100
AcDbLine
 10
245.371368
 20
317.656952
 30
0.0
 11
251.371368
 21
317.656952
 31
0.0
  0
LINE
  5
125
330
1E
100
AcDbEntity
  8
0
  6
CONTINUOUS
100
AcDbLine
 10
245.371368
 20
432.1569519999999
 30
0.0
 11
251.371368
 21
432.1569519999999
 31
0.0
  0
ARC
  5
126
330
1E
100
AcDbEntity
  8
0
  6
CONTINUOUS
100
AcDbCircle
 10
186.371368
 20
430.1569519999999
 30
0.0
 40
2.0
100
AcDbArc
 50
0.0
 51
90.0
  0
ARC
  5
127
330
1E
100
AcDbEntity
  8
0
  6
CONTINUOUS
100
AcDbCircle
 10
245.371368
 20
430.1569519999999
 30
0.0
 40
2.0
100
AcDbArc
 50
90.0
 51
180.0
  0
LINE
  5
128
330
1E
100
AcDbEntity
  8
0
  6
CONTINUOUS
100
AcDbLine
 10
189.968231
 20
429.9069519999999
 30
0.0
 11
241.7744899999999
 21
429.9069519999999
 31
0.0
  0
ARC
  5
129
330
1E
100
AcDbEntity
  8
0
  6
CONTINUOUS
100
AcDbCircle
 10
241.7744899999999
 20
431.9069519999999
 30
0.0
 40
2.0
100
AcDbArc
 50
270.0
 51
334.0555109999999
  0
ARC
  5
12A
330
1E
100
AcDbEntity
  8
0
  6
CONTINUOUS
100
AcDbCircle
 10
189.968231
 20
431.9069519999999
 30
0.0
 40
2.0
100
AcDbArc
 50
205.944473
 51
270.0
  0
ARC
  5
12B
330
1E
100
AcDbEntity
  8
0
  6
CONTINUOUS
100
AcDbCircle
 10
186.371368
 20
319.656952
 30
0.0
 40
2.0
100
AcDbArc
 50
270.0
 51
0.0
  0
ARC
  5
12C
330
1E
100
AcDbEntity
  8
0
  6
CONTINUOUS
100
AcDbCircle
 10
245.371368
 20
319.656952
 30
0.0
 40
2.0
100
AcDbArc
 50
180.0
 51
270.0
  0
LINE
  5
12D
330
1E
100
AcDbEntity
  8
0
  6
CONTINUOUS
100
AcDbLine
 10
189.968231
 20
319.906952
 30
0.0
 11
221.8715519999999
 21
319.906952
 31
0.0
  0
ARC
  5
12E
330
1E
100
AcDbEntity
  8
0
  6
CONTINUOUS
100
AcDbCircle
 10
241.7744899999999
 20
317.906952
 30
0.0
 40
2.0
100
AcDbArc
 50
25.94448900000003
 51
90.0
  0
ARC
  5
12F
330
1E
100
AcDbEntity
  8
0
  6
CONTINUOUS
100
AcDbCircle
 10
189.968231
 20
317.906952
 30
0.0
 40
2.0
100
AcDbArc
 50
90.0
 51
154.055527
  0
LINE
  5
130
330
1E
100
AcDbEntity
  8
0
  6
CONTINUOUS
100
AcDbLine
 10
189.968231
 20
341.9069519999999
 30
0.0
 11
241.7744899999999
 21
341.9069519999999
 31
0.0
  0
LINE
  5
131
330
1E
100
AcDbEntity
  8
0
  6
CONTINUOUS
100
AcDbLine
 10
189.968231
 20
407.906952
 30
0.0
 11
241.7744899999999
 21
407.906952
 31
0.0
  0
LINE
  5
132
330
1E
100
AcDbEntity
  8
0
  6
CONTINUOUS
100
AcDbLine
 10
219.371368
 20
320.406952
 30
0.0
 11
227.371368
 21
320.406952
 31
0.0
  0
LINE
  5
133
330
1E
100
AcDbEntity
  8
0
  6
CONTINUOUS
100
AcDbLine
 10
227.371368
 20
322.935822
 30
0.0
 11
227.371368
 21
320.406952
 31
0.0
  0
LINE
  5
134
330
1E
100
AcDbEntity
  8
0
  6
CONTINUOUS
100
AcDbLine
 10
219.371368
 20
322.935822
 30
0.0
 11
219.371368
 21
320.406952
 31
0.0
  0
LINE
  5
135
330
1E
100
AcDbEntity
  8
0
  6
CONTINUOUS
100
AcDbLine
 10
172.6824799999999
 20
320.043549
 30
0.0
 11
171.869675
 21
319.964233
 31
0.0
  0
LINE
  5
136
330
1E
100
AcDbEntity
  8
0
  6
CONTINUOUS
100
AcDbLine
 10
171.8702999999999
 20
319.9625849999999
 30
0.0
 11
171.2498929999999
 21
319.7272639999999
 31
0.0
  0
LINE
  5
137
330
1E
100
AcDbEntity
  8
0
  6
CONTINUOUS
100
AcDbLine
 10
171.2352139999999
 20
319.744049
 30
0.0
 11
171.0016169999999
 21
319.539642
 31
0.0
  0
LINE
  5
138
330
1E
100
AcDbEntity
  8
0
  6
CONTINUOUS
100
AcDbLine
 10
171.012909
 20
319.526733
 30
0.0
 11
171.034409
 21
319.268768
 31
0.0
  0
LINE
  5
139
330
1E
100
AcDbEntity
  8
0
  6
CONTINUOUS
100
AcDbLine
 10
171.067596
 20
319.271545
 30
0.0
 11
171.231659
 21
319.125702
 31
0.0
  0
LINE
  5
13A
330
1E
100
AcDbEntity
  8
0
  6
CONTINUOUS
100
AcDbLine
 10
171.2250519999999
 20
319.0882569999999
 30
0.0
 11
171.632706
 21
319.0163269999999
 31
0.0
  0
LINE
  5
13B
330
1E
100
AcDbEntity
  8
0
  6
CONTINUOUS
100
AcDbLine
 10
171.635498
 20
319.0387569999999
 30
0.0
 11
171.871552
 21
319.009247
 31
0.0
  0
LINE
  5
13C
330
1E
100
AcDbEntity
  8
0
  6
CONTINUOUS
100
AcDbLine
 10
174.020721
 20
320.073608
 30
0.0
 11
174.403534
 21
319.982483
 31
0.0
  0
LINE
  5
13D
330
1E
100
AcDbEntity
  8
0
  6
CONTINUOUS
100
AcDbLine
 10
174.403534
 20
319.982483
 30
0.0
 11
174.932175
 21
319.8913269999999
 31
0.0
  0
LINE
  5
13E
330
1E
100
AcDbEntity
  8
0
  6
CONTINUOUS
100
AcDbLine
 10
174.932175
 20
319.8913269999999
 30
0.0
 11
175.278534
 21
319.81842
 31
0.0
  0
LINE
  5
13F
330
1E
100
AcDbEntity
  8
0
  6
CONTINUOUS
100
AcDbLine
 10
175.278534
 20
319.81842
 30
0.0
 11
175.460831
 21
319.745483
 31
0.0
  0
LINE
  5
140
330
1E
100
AcDbEntity
  8
0
  6
CONTINUOUS
100
AcDbLine
 10
175.492249
 20
319.7756959999999
 30
0.0
 11
175.643112
 21
319.59967
 31
0.0
  0
LINE
  5
141
330
1E
100
AcDbEntity
  8
0
  6
CONTINUOUS
100
AcDbLine
 10
175.643112
 20
319.5814209999999
 30
0.0
 11
175.72879
 21
319.4100649999999
 31
0.0
  0
LINE
  5
142
330
1E
100
AcDbEntity
  8
0
  6
CONTINUOUS
100
AcDbLine
 10
175.679581
 20
319.3626709999999
 30
0.0
 11
175.533737
 21
319.216858
 31
0.0
  0
LINE
  5
143
330
1E
100
AcDbEntity
  8
0
  6
CONTINUOUS
100
AcDbLine
 10
175.522003
 20
319.1828919999999
 30
0.0
 11
175.023331
 21
319.0527949999999
 31
0.0
  0
LINE
  5
144
330
1E
100
AcDbEntity
  8
0
  6
CONTINUOUS
100
AcDbLine
 10
175.014542
 20
319.036743
 30
0.0
 11
174.871552
 21
319.029938
 31
0.0
  0
LINE
  5
145
330
1E
100
AcDbEntity
  8
0
  6
CONTINUOUS
100
AcDbLine
 10
172.6824799999999
 20
320.043549
 30
0.0
 11
172.963425
 21
320.0508419999999
 31
0.0
  0
LINE
  5
146
330
1E
100
AcDbEntity
  8
0
  6
CONTINUOUS
100
AcDbLine
 10
172.963425
 20
320.0508419999999
 30
0.0
 11
173.546768
 21
320.0599369999999
 31
0.0
  0
LINE
  5
147
330
1E
100
AcDbEntity
  8
0
  6
CONTINUOUS
100
AcDbLine
 10
173.546768
 20
320.0599369999999
 30
0.0
 11
174.020721
 21
320.073608
 31
0.0
  0
ARC
  5
148
330
1E
100
AcDbEntity
  8
0
  6
CONTINUOUS
100
AcDbCircle
 10
223.371368
 20
313.77066
 30
0.0
 40
10.0
100
AcDbArc
 50
66.42182199999999
 51
113.578178
  0
ARC
  5
149
330
1E
100
AcDbEntity
  8
0
  6
CONTINUOUS
100
AcDbCircle
 10
450.8715519999999
 20
90.81648299999999
 30
0.0
 40
450.0
100
AcDbArc
 50
173.2476039999999
 51
186.752502
  0
LINE
  5
14A
330
1E
100
AcDbEntity
  8
0
  6
CONTINUOUS
100
AcDbLine
 10
15.909801
 20
154.316483
 30
0.0
 11
19.607769
 21
154.316483
 31
0.0
  0
LINE
  5
14B
330
1E
100
AcDbEntity
  8
0
  6
CONTINUOUS
100
AcDbLine
 10
15.90986299999999
 20
27.316481
 30
0.0
 11
19.607769
 21
27.316481
 31
0.0
  0
LINE
  5
14C
330
1E
100
AcDbEntity
  8
0
  6
CONTINUOUS
100
AcDbLine
 10
20.631268
 20
158.316483
 30
0.0
 11
51.371563
 21
158.316483
 31
0.0
  0
LINE
  5
14D
330
1E
100
AcDbEntity
  8
0
  6
CONTINUOUS
100
AcDbLine
 10
51.371563
 20
158.316483
 30
0.0
 11
51.371563
 21
26.316481
 31
0.0
  0
ARC
  5
14E
330
1E
100
AcDbEntity
  8
0
  6
CONTINUOUS
100
AcDbCircle
 10
-299.128448
 20
90.81648299999999
 30
0.0
 40
325.0
100
AcDbArc
 50
348.73281
 51
11.66233999999999
  0
ARC
  5
14F
330
1E
100
AcDbEntity
  8
0
  6
CONTINUOUS
100
AcDbCircle
 10
15.90983299999999
 20
142.316483
 30
0.0
 40
12.0
100
AcDbArc
 50
90.0
 51
173.247894
  0
ARC
  5
150
330
1E
100
AcDbEntity
  8
0
  6
CONTINUOUS
100
AcDbCircle
 10
20.631268
 20
156.816483
 30
0.0
 40
1.5
100
AcDbArc
 50
90.0
 51
191.662598
  0
ARC
  5
151
330
1E
100
AcDbEntity
  8
0
  6
CONTINUOUS
100
AcDbCircle
 10
15.909801
 20
39.316479
 30
0.0
 40
12.0
100
AcDbArc
 50
186.752396
 51
270.0
  0
LINE
  5
152
330
1E
100
AcDbEntity
  8
0
  6
CONTINUOUS
100
AcDbLine
 10
51.371563
 20
148.3164829999999
 30
0.0
 11
163.3715669999999
 21
148.3164829999999
 31
0.0
  0
LINE
  5
153
330
1E
100
AcDbEntity
  8
0
  6
CONTINUOUS
100
AcDbLine
 10
51.371563
 20
33.316479
 30
0.0
 11
63.556564
 21
33.316479
 31
0.0
  0
LINE
  5
154
330
1E
100
AcDbEntity
  8
0
  6
CONTINUOUS
100
AcDbLine
 10
155.371567
 20
142.1024929999999
 30
0.0
 11
155.371567
 21
137.816483
 31
0.0
  0
LINE
  5
155
330
1E
100
AcDbEntity
  8
0
  6
CONTINUOUS
100
AcDbLine
 10
116.3715669999999
 20
117.816483
 30
0.0
 11
51.371563
 21
117.816483
 31
0.0
  0
LINE
  5
156
330
1E
100
AcDbEntity
  8
0
  6
CONTINUOUS
100
AcDbLine
 10
116.3715669999999
 20
63.816479
 30
0.0
 11
73.18656199999999
 21
63.816479
 31
0.0
  0
LINE
  5
157
330
1E
100
AcDbEntity
  8
0
  6
CONTINUOUS
100
AcDbLine
 10
118.3715669999999
 20
65.81648299999999
 30
0.0
 11
118.3715669999999
 21
115.816483
 31
0.0
  0
LINE
  5
158
330
1E
100
AcDbEntity
  8
0
  6
CONTINUOUS
100
AcDbLine
 10
118.3715669999999
 20
97.61646999999999
 30
0.0
 11
155.371567
 21
97.61646999999999
 31
0.0
  0
LINE
  5
159
330
1E
100
AcDbEntity
  8
0
  6
CONTINUOUS
100
AcDbLine
 10
118.3715669999999
 20
84.01649499999999
 30
0.0
 11
155.371567
 21
84.01649499999999
 31
0.0
  0
LINE
  5
15A
330
1E
100
AcDbEntity
  8
0
  6
CONTINUOUS
100
AcDbLine
 10
118.3715669999999
 20
99.61646999999999
 30
0.0
 11
155.371567
 21
99.61646999999999
 31
0.0
  0
LINE
  5
15B
330
1E
100
AcDbEntity
  8
0
  6
CONTINUOUS
100
AcDbLine
 10
118.3715669999999
 20
82.016495
 30
0.0
 11
155.371567
 21
82.016495
 31
0.0
  0
LINE
  5
15C
330
1E
100
AcDbEntity
  8
0
  6
CONTINUOUS
100
AcDbLine
 10
118.3715669999999
 20
105.4164889999999
 30
0.0
 11
155.371567
 21
105.4164889999999
 31
0.0
  0
LINE
  5
15D
330
1E
100
AcDbEntity
  8
0
  6
CONTINUOUS
100
AcDbLine
 10
118.3715669999999
 20
107.4164889999999
 30
0.0
 11
155.371567
 21
107.4164889999999
 31
0.0
  0
LINE
  5
15E
330
1E
100
AcDbEntity
  8
0
  6
CONTINUOUS
100
AcDbLine
 10
118.3715669999999
 20
76.216476
 30
0.0
 11
155.371567
 21
76.216476
 31
0.0
  0
LINE
  5
15F
330
1E
100
AcDbEntity
  8
0
  6
CONTINUOUS
100
AcDbLine
 10
118.3715669999999
 20
74.216476
 30
0.0
 11
155.371567
 21
74.216476
 31
0.0
  0
LINE
  5
160
330
1E
100
AcDbEntity
  8
0
  6
CONTINUOUS
100
AcDbLine
 10
118.3715669999999
 20
113.2164759999999
 30
0.0
 11
155.371567
 21
113.2164759999999
 31
0.0
  0
LINE
  5
161
330
1E
100
AcDbEntity
  8
0
  6
CONTINUOUS
100
AcDbLine
 10
118.3715669999999
 20
68.416481
 30
0.0
 11
155.371567
 21
68.416481
 31
0.0
  0
LINE
  5
162
330
1E
100
AcDbEntity
  8
0
  6
CONTINUOUS
100
AcDbLine
 10
118.3715669999999
 20
115.216476
 30
0.0
 11
155.371567
 21
115.216476
 31
0.0
  0
LINE
  5
163
330
1E
100
AcDbEntity
  8
0
  6
CONTINUOUS
100
AcDbLine
 10
118.3715669999999
 20
66.41648100000001
 30
0.0
 11
155.371567
 21
66.41648100000001
 31
0.0
  0
LINE
  5
164
330
1E
100
AcDbEntity
  8
0
  6
CONTINUOUS
100
AcDbLine
 10
51.371563
 20
121.3164829999999
 30
0.0
 11
155.371567
 21
121.3164829999999
 31
0.0
  0
LINE
  5
165
330
1E
100
AcDbEntity
  8
0
  6
CONTINUOUS
100
AcDbLine
 10
51.371563
 20
60.316479
 30
0.0
 11
63.556564
 21
60.316479
 31
0.0
  0
LINE
  5
166
330
1E
100
AcDbEntity
  8
0
  6
CONTINUOUS
100
AcDbLine
 10
51.371563
 20
123.3164829999999
 30
0.0
 11
155.371567
 21
123.3164829999999
 31
0.0
  0
LINE
  5
167
330
1E
100
AcDbEntity
  8
0
  6
CONTINUOUS
100
AcDbLine
 10
51.371563
 20
58.316479
 30
0.0
 11
63.556564
 21
58.316479
 31
0.0
  0
LINE
  5
168
330
1E
100
AcDbEntity
  8
0
  6
CONTINUOUS
100
AcDbLine
 10
51.371563
 20
128.816483
 30
0.0
 11
155.371567
 21
128.816483
 31
0.0
  0
LINE
  5
169
330
1E
100
AcDbEntity
  8
0
  6
CONTINUOUS
100
AcDbLine
 10
51.371563
 20
52.816479
 30
0.0
 11
63.556564
 21
52.816479
 31
0.0
  0
LINE
  5
16A
330
1E
100
AcDbEntity
  8
0
  6
CONTINUOUS
100
AcDbLine
 10
51.371563
 20
130.816483
 30
0.0
 11
155.371567
 21
130.816483
 31
0.0
  0
LINE
  5
16B
330
1E
100
AcDbEntity
  8
0
  6
CONTINUOUS
100
AcDbLine
 10
51.371563
 20
50.816479
 30
0.0
 11
63.556564
 21
50.816479
 31
0.0
  0
LINE
  5
16C
330
1E
100
AcDbEntity
  8
0
  6
CONTINUOUS
100
AcDbLine
 10
51.371563
 20
135.8164829999999
 30
0.0
 11
155.371567
 21
135.8164829999999
 31
0.0
  0
LINE
  5
16D
330
1E
100
AcDbEntity
  8
0
  6
CONTINUOUS
100
AcDbLine
 10
51.371563
 20
45.816479
 30
0.0
 11
63.556564
 21
45.816479
 31
0.0
  0
LINE
  5
16E
330
1E
100
AcDbEntity
  8
0
  6
CONTINUOUS
100
AcDbLine
 10
51.371563
 20
137.816483
 30
0.0
 11
155.371567
 21
137.816483
 31
0.0
  0
LINE
  5
16F
330
1E
100
AcDbEntity
  8
0
  6
CONTINUOUS
100
AcDbLine
 10
51.371563
 20
43.81647899999999
 30
0.0
 11
63.556564
 21
43.81647899999999
 31
0.0
  0
LINE
  5
170
330
1E
100
AcDbEntity
  8
0
  6
CONTINUOUS
100
AcDbLine
 10
51.371563
 20
142.1024929999999
 30
0.0
 11
155.371567
 21
142.1024929999999
 31
0.0
  0
LINE
  5
171
330
1E
100
AcDbEntity
  8
0
  6
CONTINUOUS
100
AcDbLine
 10
51.371563
 20
39.53046
 30
0.0
 11
63.556564
 21
39.53046
 31
0.0
  0
LINE
  5
172
330
1E
100
AcDbEntity
  8
0
  6
CONTINUOUS
100
AcDbLine
 10
155.371567
 20
39.53046
 30
0.0
 11
155.371567
 21
43.81647899999999
 31
0.0
  0
LINE
  5
173
330
1E
100
AcDbEntity
  8
0
  6
CONTINUOUS
100
AcDbLine
 10
155.371567
 20
45.816479
 30
0.0
 11
155.371567
 21
50.816479
 31
0.0
  0
LINE
  5
174
330
1E
100
AcDbEntity
  8
0
  6
CONTINUOUS
100
AcDbLine
 10
155.371567
 20
52.816479
 30
0.0
 11
155.371567
 21
58.316479
 31
0.0
  0
LINE
  5
175
330
1E
100
AcDbEntity
  8
0
  6
CONTINUOUS
100
AcDbLine
 10
155.371567
 20
60.316479
 30
0.0
 11
155.371567
 21
66.41648100000001
 31
0.0
  0
LINE
  5
176
330
1E
100
AcDbEntity
  8
0
  6
CONTINUOUS
100
AcDbLine
 10
155.371567
 20
68.416481
 30
0.0
 11
155.371567
 21
74.216476
 31
0.0
  0
LINE
  5
177
330
1E
100
AcDbEntity
  8
0
  6
CONTINUOUS
100
AcDbLine
 10
155.371567
 20
76.216476
 30
0.0
 11
155.371567
 21
82.016495
 31
0.0
  0
LINE
  5
178
330
1E
100
AcDbEntity
  8
0
  6
CONTINUOUS
100
AcDbLine
 10
118.3715669999999
 20
91.81648299999999
 30
0.0
 11
155.371567
 21
91.81648299999999
 31
0.0
  0
LINE
  5
179
330
1E
100
AcDbEntity
  8
0
  6
CONTINUOUS
100
AcDbLine
 10
118.3715669999999
 20
89.81648299999999
 30
0.0
 11
155.371567
 21
89.81648299999999
 31
0.0
  0
LINE
  5
17A
330
1E
100
AcDbEntity
  8
0
  6
CONTINUOUS
100
AcDbLine
 10
155.371567
 20
84.01649499999999
 30
0.0
 11
155.371567
 21
89.81648299999999
 31
0.0
  0
LINE
  5
17B
330
1E
100
AcDbEntity
  8
0
  6
CONTINUOUS
100
AcDbLine
 10
155.371567
 20
91.81648299999999
 30
0.0
 11
155.371567
 21
97.616501
 31
0.0
  0
LINE
  5
17C
330
1E
100
AcDbEntity
  8
0
  6
CONTINUOUS
100
AcDbLine
 10
155.371567
 20
99.61646999999999
 30
0.0
 11
155.371567
 21
105.4164889999999
 31
0.0
  0
LINE
  5
17D
330
1E
100
AcDbEntity
  8
0
  6
CONTINUOUS
100
AcDbLine
 10
155.371567
 20
107.4164889999999
 30
0.0
 11
155.371567
 21
113.2164759999999
 31
0.0
  0
LINE
  5
17E
330
1E
100
AcDbEntity
  8
0
  6
CONTINUOUS
100
AcDbLine
 10
155.371567
 20
115.216476
 30
0.0
 11
155.371567
 21
121.3164829999999
 31
0.0
  0
LINE
  5
17F
330
1E
100
AcDbEntity
  8
0
  6
CONTINUOUS
100
AcDbLine
 10
155.371567
 20
123.3164829999999
 30
0.0
 11
155.371567
 21
128.816483
 31
0.0
  0
LINE
  5
180
330
1E
100
AcDbEntity
  8
0
  6
CONTINUOUS
100
AcDbLine
 10
155.371567
 20
130.816483
 30
0.0
 11
155.371567
 21
135.8164829999999
 31
0.0
  0
ARC
  5
181
330
1E
100
AcDbEntity
  8
0
  6
CONTINUOUS
100
AcDbCircle
 10
116.3715669999999
 20
115.816483
 30
0.0
 40
2.0
100
AcDbArc
 50
0.0
 51
90.0
  0
ARC
  5
182
330
1E
100
AcDbEntity
  8
0
  6
CONTINUOUS
100
AcDbCircle
 10
116.3715669999999
 20
65.81648299999999
 30
0.0
 40
2.0
100
AcDbArc
 50
270.0
 51
0.0
  0
ARC
  5
183
330
1E
100
AcDbEntity
  8
0
  6
CONTINUOUS
100
AcDbCircle
 10
53.371563
 20
115.816483
 30
0.0
 40
2.0
100
AcDbArc
 50
90.0
 51
180.0
  0
ARC
  5
184
330
1E
100
AcDbEntity
  8
0
  6
CONTINUOUS
100
AcDbCircle
 10
53.371563
 20
65.81648299999999
 30
0.0
 40
2.0
100
AcDbArc
 50
180.0
 51
270.0
  0
ARC
  5
185
330
1E
100
AcDbEntity
  8
0
  6
CONTINUOUS
100
AcDbCircle
 10
68.371567
 20
90.81648299999999
 30
0.0
 40
12.0
100
AcDbArc
 50
259.508698
 51
263.7084959999999
  0
ARC
  5
186
330
1E
100
AcDbEntity
  8
0
  6
CONTINUOUS
100
AcDbCircle
 10
68.371567
 20
94.81648299999999
 30
0.0
 40
1.5
100
AcDbArc
 50
331.24268
 51
208.757202
  0
LINE
  5
187
330
1E
100
AcDbEntity
  8
0
  6
CONTINUOUS
100
AcDbLine
 10
67.05656399999999
 20
94.81648299999999
 30
0.0
 11
67.05656399999999
 21
30.441481
 31
0.0
  0
LINE
  5
188
330
1E
100
AcDbEntity
  8
0
  6
CONTINUOUS
100
AcDbLine
 10
69.68656199999999
 20
94.81648299999999
 30
0.0
 11
69.68656199999999
 21
30.441481
 31
0.0
  0
CIRCLE
  5
189
330
1E
100
AcDbEntity
  8
0
  6
CONTINUOUS
100
AcDbCircle
 10
68.371567
 20
17.441481
 30
0.0
 40
2.149999999999999
  0
ARC
  5
18A
330
1E
100
AcDbEntity
  8
0
  6
CONTINUOUS
100
AcDbCircle
 10
68.371567
 20
17.441481
 30
0.0
 40
3.75
100
AcDbArc
 50
129.736893
 51
50.263371
  0
LINE
  5
18B
330
1E
100
AcDbEntity
  8
0
  6
CONTINUOUS
100
AcDbLine
 10
66.55656399999999
 20
30.441481
 30
0.0
 11
70.18656199999999
 21
30.441481
 31
0.0
  0
LINE
  5
18C
330
1E
100
AcDbEntity
  8
0
  6
CONTINUOUS
100
AcDbLine
 10
67.05656399999999
 20
23.24146099999999
 30
0.0
 11
69.68656199999999
 21
23.24146099999999
 31
0.0
  0
ARC
  5
18D
330
1E
100
AcDbEntity
  8
0
  6
CONTINUOUS
100
AcDbCircle
 10
64.05656399999999
 20
22.63215999999999
 30
0.0
 40
3.0
100
AcDbArc
 50
309.736389
 51
0.0
  0
ARC
  5
18E
330
1E
100
AcDbEntity
  8
0
  6
CONTINUOUS
100
AcDbCircle
 10
72.68656199999999
 20
22.63215999999999
 30
0.0
 40
3.0
100
AcDbArc
 50
180.0
 51
230.263306
  0
LINE
  5
18F
330
1E
100
AcDbEntity
  8
0
  6
CONTINUOUS
100
AcDbLine
 10
66.55656399999999
 20
27.441481
 30
0.0
 11
70.18656199999999
 21
27.441481
 31
0.0
  0
LINE
  5
190
330
1E
100
AcDbEntity
  8
0
  6
CONTINUOUS
100
AcDbLine
 10
66.55656399999999
 20
30.441481
 30
0.0
 11
66.55656399999999
 21
27.441481
 31
0.0
  0
LINE
  5
191
330
1E
100
AcDbEntity
  8
0
  6
CONTINUOUS
100
AcDbLine
 10
70.18656199999999
 20
30.441481
 30
0.0
 11
70.18656199999999
 21
27.441481
 31
0.0
  0
LINE
  5
192
330
1E
100
AcDbEntity
  8
0
  6
CONTINUOUS
100
AcDbLine
 10
67.05656399999999
 20
22.63215999999999
 30
0.0
 11
67.05656399999999
 21
27.441481
 31
0.0
  0
LINE
  5
193
330
1E
100
AcDbEntity
  8
0
  6
CONTINUOUS
100
AcDbLine
 10
69.68656199999999
 20
22.63215999999999
 30
0.0
 11
69.68656199999999
 21
27.441481
 31
0.0
  0
ARC
  5
194
330
1E
100
AcDbEntity
  8
0
  6
CONTINUOUS
100
AcDbCircle
 10
68.371567
 20
94.81648299999999
 30
0.0
 40
1.314999999999999
100
AcDbArc
 50
0.0
 51
180.0
  0
ARC
  5
195
330
1E
100
AcDbEntity
  8
0
  6
CONTINUOUS
100
AcDbCircle
 10
71.871567
 20
88.816483
 30
0.0
 40
1.5
100
AcDbArc
 50
331.24268
 51
208.757202
  0
LINE
  5
196
330
1E
100
AcDbEntity
  8
0
  6
CONTINUOUS
100
AcDbLine
 10
70.556564
 20
88.816483
 30
0.0
 11
70.556564
 21
24.441481
 31
0.0
  0
LINE
  5
197
330
1E
100
AcDbEntity
  8
0
  6
CONTINUOUS
100
AcDbLine
 10
73.18656199999999
 20
88.816483
 30
0.0
 11
73.18656199999999
 21
24.441481
 31
0.0
  0
CIRCLE
  5
198
330
1E
100
AcDbEntity
  8
0
  6
CONTINUOUS
100
AcDbCircle
 10
71.871567
 20
11.44148
 30
0.0
 40
2.149999999999999
  0
ARC
  5
199
330
1E
100
AcDbEntity
  8
0
  6
CONTINUOUS
100
AcDbCircle
 10
71.871567
 20
11.44148
 30
0.0
 40
3.75
100
AcDbArc
 50
142.411804
 51
158.967697
  0
LINE
  5
19A
330
1E
100
AcDbEntity
  8
0
  6
CONTINUOUS
100
AcDbLine
 10
70.05656399999999
 20
24.441481
 30
0.0
 11
73.686562
 21
24.441481
 31
0.0
  0
LINE
  5
19B
330
1E
100
AcDbEntity
  8
0
  6
CONTINUOUS
100
AcDbLine
 10
72.116226
 20
17.24146099999999
 30
0.0
 11
73.18656199999999
 21
17.24146099999999
 31
0.0
  0
ARC
  5
19C
330
1E
100
AcDbEntity
  8
0
  6
CONTINUOUS
100
AcDbCircle
 10
76.186562
 20
16.63216
 30
0.0
 40
3.0
100
AcDbArc
 50
180.0
 51
230.263306
  0
LINE
  5
19D
330
1E
100
AcDbEntity
  8
0
  6
CONTINUOUS
100
AcDbLine
 10
70.05656399999999
 20
21.441481
 30
0.0
 11
73.686562
 21
21.441481
 31
0.0
  0
LINE
  5
19E
330
1E
100
AcDbEntity
  8
0
  6
CONTINUOUS
100
AcDbLine
 10
70.05656399999999
 20
24.441481
 30
0.0
 11
70.05656399999999
 21
21.441481
 31
0.0
  0
LINE
  5
19F
330
1E
100
AcDbEntity
  8
0
  6
CONTINUOUS
100
AcDbLine
 10
73.686562
 20
24.441481
 30
0.0
 11
73.686562
 21
21.441481
 31
0.0
  0
LINE
  5
1A0
330
1E
100
AcDbEntity
  8
0
  6
CONTINUOUS
100
AcDbLine
 10
70.556564
 20
20.519541
 30
0.0
 11
70.556564
 21
21.441481
 31
0.0
  0
LINE
  5
1A1
330
1E
100
AcDbEntity
  8
0
  6
CONTINUOUS
100
AcDbLine
 10
73.18656199999999
 20
16.63216
 30
0.0
 11
73.18656199999999
 21
21.441481
 31
0.0
  0
ARC
  5
1A2
330
1E
100
AcDbEntity
  8
0
  6
CONTINUOUS
100
AcDbCircle
 10
71.871567
 20
88.816483
 30
0.0
 40
1.314999999999999
100
AcDbArc
 50
0.0
 51
180.0
  0
ARC
  5
1A3
330
1E
100
AcDbEntity
  8
0
  6
CONTINUOUS
100
AcDbCircle
 10
64.87156699999999
 20
88.816483
 30
0.0
 40
1.5
100
AcDbArc
 50
331.24268
 51
208.757202
  0
LINE
  5
1A4
330
1E
100
AcDbEntity
  8
0
  6
CONTINUOUS
100
AcDbLine
 10
63.556564
 20
88.816483
 30
0.0
 11
63.556564
 21
24.441481
 31
0.0
  0
LINE
  5
1A5
330
1E
100
AcDbEntity
  8
0
  6
CONTINUOUS
100
AcDbLine
 10
66.186562
 20
88.816483
 30
0.0
 11
66.186562
 21
24.441481
 31
0.0
  0
CIRCLE
  5
1A6
330
1E
100
AcDbEntity
  8
0
  6
CONTINUOUS
100
AcDbCircle
 10
64.87156699999999
 20
11.44148
 30
0.0
 40
2.149999999999999
  0
ARC
  5
1A7
330
1E
100
AcDbEntity
  8
0
  6
CONTINUOUS
100
AcDbCircle
 10
64.87156699999999
 20
11.44148
 30
0.0
 40
3.75
100
AcDbArc
 50
129.736893
 51
37.58773
  0
LINE
  5
1A8
330
1E
100
AcDbEntity
  8
0
  6
CONTINUOUS
100
AcDbLine
 10
63.056564
 20
24.441481
 30
0.0
 11
66.686562
 21
24.441481
 31
0.0
  0
LINE
  5
1A9
330
1E
100
AcDbEntity
  8
0
  6
CONTINUOUS
100
AcDbLine
 10
63.556564
 20
17.24146099999999
 30
0.0
 11
64.621567
 21
17.24146099999999
 31
0.0
  0
ARC
  5
1AA
330
1E
100
AcDbEntity
  8
0
  6
CONTINUOUS
100
AcDbCircle
 10
60.556564
 20
16.63216
 30
0.0
 40
3.0
100
AcDbArc
 50
309.736389
 51
0.0
  0
LINE
  5
1AB
330
1E
100
AcDbEntity
  8
0
  6
CONTINUOUS
100
AcDbLine
 10
63.056564
 20
21.441481
 30
0.0
 11
66.686562
 21
21.441481
 31
0.0
  0
LINE
  5
1AC
330
1E
100
AcDbEntity
  8
0
  6
CONTINUOUS
100
AcDbLine
 10
63.056564
 20
24.441481
 30
0.0
 11
63.056564
 21
21.441481
 31
0.0
  0
LINE
  5
1AD
330
1E
100
AcDbEntity
  8
0
  6
CONTINUOUS
100
AcDbLine
 10
66.686562
 20
24.441481
 30
0.0
 11
66.686562
 21
21.441481
 31
0.0
  0
LINE
  5
1AE
330
1E
100
AcDbEntity
  8
0
  6
CONTINUOUS
100
AcDbLine
 10
63.556564
 20
16.63216
 30
0.0
 11
63.556564
 21
21.441481
 31
0.0
  0
LINE
  5
1AF
330
1E
100
AcDbEntity
  8
0
  6
CONTINUOUS
100
AcDbLine
 10
66.186562
 20
20.519541
 30
0.0
 11
66.186562
 21
21.441481
 31
0.0
  0
ARC
  5
1B0
330
1E
100
AcDbEntity
  8
0
  6
CONTINUOUS
100
AcDbCircle
 10
64.87156699999999
 20
88.816483
 30
0.0
 40
1.314999999999999
100
AcDbArc
 50
0.0
 51
180.0
  0
ARC
  5
1B1
330
1E
100
AcDbEntity
  8
0
  6
CONTINUOUS
100
AcDbCircle
 10
71.871567
 20
11.44148
 30
0.0
 40
3.75
100
AcDbArc
 50
201.0317989999999
 51
50.263371
  0
ARC
  5
1B2
330
1E
100
AcDbEntity
  8
0
  6
CONTINUOUS
100
AcDbCircle
 10
68.371567
 20
90.81648299999999
 30
0.0
 40
12.0
100
AcDbArc
 50
276.2912899999999
 51
280.4912109999999
  0
ARC
  5
1B3
330
1E
100
AcDbEntity
  8
0
  6
CONTINUOUS
100
AcDbCircle
 10
68.371567
 20
90.81648299999999
 30
0.0
 40
12.0
100
AcDbArc
 50
293.656342
 51
246.343506
  0
LINE
  5
1B4
330
1E
100
AcDbEntity
  8
0
  6
CONTINUOUS
100
AcDbLine
 10
51.371563
 20
63.816479
 30
0.0
 11
63.556564
 21
63.816479
 31
0.0
  0
LINE
  5
1B5
330
1E
100
AcDbEntity
  8
0
  6
CONTINUOUS
100
AcDbLine
 10
66.186562
 20
63.816479
 30
0.0
 11
67.05656399999999
 21
63.816479
 31
0.0
  0
LINE
  5
1B6
330
1E
100
AcDbEntity
  8
0
  6
CONTINUOUS
100
AcDbLine
 10
69.68656199999999
 20
63.816479
 30
0.0
 11
70.556564
 21
63.816479
 31
0.0
  0
LINE
  5
1B7
330
1E
100
AcDbEntity
  8
0
  6
CONTINUOUS
100
AcDbLine
 10
155.371567
 20
60.316479
 30
0.0
 11
73.18656199999999
 21
60.316479
 31
0.0
  0
LINE
  5
1B8
330
1E
100
AcDbEntity
  8
0
  6
CONTINUOUS
100
AcDbLine
 10
66.186562
 20
60.316479
 30
0.0
 11
67.05656399999999
 21
60.316479
 31
0.0
  0
LINE
  5
1B9
330
1E
100
AcDbEntity
  8
0
  6
CONTINUOUS
100
AcDbLine
 10
69.68656199999999
 20
60.316479
 30
0.0
 11
70.556564
 21
60.316479
 31
0.0
  0
LINE
  5
1BA
330
1E
100
AcDbEntity
  8
0
  6
CONTINUOUS
100
AcDbLine
 10
155.371567
 20
58.316479
 30
0.0
 11
73.18656199999999
 21
58.316479
 31
0.0
  0
LINE
  5
1BB
330
1E
100
AcDbEntity
  8
0
  6
CONTINUOUS
100
AcDbLine
 10
66.186562
 20
58.316479
 30
0.0
 11
67.05656399999999
 21
58.316479
 31
0.0
  0
LINE
  5
1BC
330
1E
100
AcDbEntity
  8
0
  6
CONTINUOUS
100
AcDbLine
 10
69.68656199999999
 20
58.316479
 30
0.0
 11
70.556564
 21
58.316479
 31
0.0
  0
LINE
  5
1BD
330
1E
100
AcDbEntity
  8
0
  6
CONTINUOUS
100
AcDbLine
 10
155.371567
 20
52.816479
 30
0.0
 11
73.18656199999999
 21
52.816479
 31
0.0
  0
LINE
  5
1BE
330
1E
100
AcDbEntity
  8
0
  6
CONTINUOUS
100
AcDbLine
 10
66.186562
 20
52.816479
 30
0.0
 11
67.05656399999999
 21
52.816479
 31
0.0
  0
LINE
  5
1BF
330
1E
100
AcDbEntity
  8
0
  6
CONTINUOUS
100
AcDbLine
 10
69.68656199999999
 20
52.816479
 30
0.0
 11
70.556564
 21
52.816479
 31
0.0
  0
LINE
  5
1C0
330
1E
100
AcDbEntity
  8
0
  6
CONTINUOUS
100
AcDbLine
 10
155.371567
 20
50.816479
 30
0.0
 11
73.18656199999999
 21
50.816479
 31
0.0
  0
LINE
  5
1C1
330
1E
100
AcDbEntity
  8
0
  6
CONTINUOUS
100
AcDbLine
 10
66.186562
 20
50.816479
 30
0.0
 11
67.05656399999999
 21
50.816479
 31
0.0
  0
LINE
  5
1C2
330
1E
100
AcDbEntity
  8
0
  6
CONTINUOUS
100
AcDbLine
 10
69.68656199999999
 20
50.816479
 30
0.0
 11
70.556564
 21
50.816479
 31
0.0
  0
LINE
  5
1C3
330
1E
100
AcDbEntity
  8
0
  6
CONTINUOUS
100
AcDbLine
 10
155.371567
 20
45.816479
 30
0.0
 11
73.18656199999999
 21
45.816479
 31
0.0
  0
LINE
  5
1C4
330
1E
100
AcDbEntity
  8
0
  6
CONTINUOUS
100
AcDbLine
 10
66.186562
 20
45.816479
 30
0.0
 11
67.05656399999999
 21
45.816479
 31
0.0
  0
LINE
  5
1C5
330
1E
100
AcDbEntity
  8
0
  6
CONTINUOUS
100
AcDbLine
 10
69.68656199999999
 20
45.816479
 30
0.0
 11
70.556564
 21
45.816479
 31
0.0
  0
LINE
  5
1C6
330
1E
100
AcDbEntity
  8
0
  6
CONTINUOUS
100
AcDbLine
 10
155.371567
 20
43.81647899999999
 30
0.0
 11
73.18656199999999
 21
43.81647899999999
 31
0.0
  0
LINE
  5
1C7
330
1E
100
AcDbEntity
  8
0
  6
CONTINUOUS
100
AcDbLine
 10
66.186562
 20
43.81647899999999
 30
0.0
 11
67.05656399999999
 21
43.81647899999999
 31
0.0
  0
LINE
  5
1C8
330
1E
100
AcDbEntity
  8
0
  6
CONTINUOUS
100
AcDbLine
 10
69.68656199999999
 20
43.81647899999999
 30
0.0
 11
70.556564
 21
43.81647899999999
 31
0.0
  0
LINE
  5
1C9
330
1E
100
AcDbEntity
  8
0
  6
CONTINUOUS
100
AcDbLine
 10
155.371567
 20
39.53046
 30
0.0
 11
73.18656199999999
 21
39.53046
 31
0.0
  0
LINE
  5
1CA
330
1E
100
AcDbEntity
  8
0
  6
CONTINUOUS
100
AcDbLine
 10
66.186562
 20
39.53046
 30
0.0
 11
67.05656399999999
 21
39.53046
 31
0.0
  0
LINE
  5
1CB
330
1E
100
AcDbEntity
  8
0
  6
CONTINUOUS
100
AcDbLine
 10
69.68656199999999
 20
39.53046
 30
0.0
 11
70.556564
 21
39.53046
 31
0.0
  0
LINE
  5
1CC
330
1E
100
AcDbEntity
  8
0
  6
CONTINUOUS
100
AcDbLine
 10
163.3715669999999
 20
33.316479
 30
0.0
 11
73.18656199999999
 21
33.316479
 31
0.0
  0
LINE
  5
1CD
330
1E
100
AcDbEntity
  8
0
  6
CONTINUOUS
100
AcDbLine
 10
66.186562
 20
33.316479
 30
0.0
 11
67.05656399999999
 21
33.316479
 31
0.0
  0
LINE
  5
1CE
330
1E
100
AcDbEntity
  8
0
  6
CONTINUOUS
100
AcDbLine
 10
69.68656199999999
 20
33.316479
 30
0.0
 11
70.556564
 21
33.316479
 31
0.0
  0
LINE
  5
1CF
330
1E
100
AcDbEntity
  8
0
  6
CONTINUOUS
100
AcDbLine
 10
51.371563
 20
26.316481
 30
0.0
 11
20.62733099999999
 21
26.316481
 31
0.0
  0
ARC
  5
1D0
330
1E
100
AcDbEntity
  8
0
  6
CONTINUOUS
100
AcDbCircle
 10
20.62733099999999
 20
27.316481
 30
0.0
 40
1.0
100
AcDbArc
 50
168.767807
 51
270.0
  0
LINE
  5
1D1
330
1E
100
AcDbEntity
  8
0
  6
CONTINUOUS
100
AcDbLine
 10
180.371567
 20
148.066483
 30
0.0
 11
180.371567
 21
33.566479
 31
0.0
  0
LINE
  5
1D2
330
1E
100
AcDbEntity
  8
0
  6
CONTINUOUS
100
AcDbLine
 10
180.371567
 20
148.066483
 30
0.0
 11
163.3715669999999
 21
148.066483
 31
0.0
  0
LINE
  5
1D3
330
1E
100
AcDbEntity
  8
0
  6
CONTINUOUS
100
AcDbLine
 10
180.371567
 20
33.566479
 30
0.0
 11
163.3715669999999
 21
33.566479
 31
0.0
  0
LINE
  5
1D4
330
1E
100
AcDbEntity
  8
0
  6
CONTINUOUS
100
AcDbLine
 10
173.371567
 20
104.8164829999999
 30
0.0
 11
173.371567
 21
79.06648299999999
 31
0.0
  0
LINE
  5
1D5
330
1E
100
AcDbEntity
  8
0
  6
CONTINUOUS
100
AcDbLine
 10
174.8715669999999
 20
104.8164829999999
 30
0.0
 11
174.8715669999999
 21
78.12898299999999
 31
0.0
  0
LINE
  5
1D6
330
1E
100
AcDbEntity
  8
0
  6
CONTINUOUS
100
AcDbLine
 10
171.8715669999999
 20
104.8164829999999
 30
0.0
 11
171.8715669999999
 21
78.526489
 31
0.0
  0
LINE
  5
1D7
330
1E
100
AcDbEntity
  8
0
  6
CONTINUOUS
100
AcDbLine
 10
171.8715669999999
 20
78.526489
 30
0.0
 11
173.346558
 21
80.222733
 31
0.0
  0
LINE
  5
1D8
330
1E
100
AcDbEntity
  8
0
  6
CONTINUOUS
100
AcDbLine
 10
173.3759769999999
 20
79.073837
 30
0.0
 11
174.8925169999999
 21
78.16391
 31
0.0
  0
ARC
  5
1D9
330
1E
100
AcDbEntity
  8
0
  6
CONTINUOUS
100
AcDbCircle
 10
174.121567
 20
104.8164829999999
 30
0.0
 40
0.75
100
AcDbArc
 50
0.0
 51
180.0
  0
ARC
  5
1DA
330
1E
100
AcDbEntity
  8
0
  6
CONTINUOUS
100
AcDbCircle
 10
172.621567
 20
104.8164829999999
 30
0.0
 40
0.75
100
AcDbArc
 50
0.0
 51
180.0
  0
ARC
  5
1DB
330
1E
100
AcDbEntity
  8
0
  6
CONTINUOUS
100
AcDbCircle
 10
173.371567
 20
104.8164829999999
 30
0.0
 40
3.0
100
AcDbArc
 50
300.0000609999999
 51
239.999893
  0
LINE
  5
1DC
330
1E
100
AcDbEntity
  8
0
  6
CONTINUOUS
100
AcDbLine
 10
163.3715669999999
 20
148.3164829999999
 30
0.0
 11
163.3715669999999
 21
33.316479
 31
0.0
  0
LINE
  5
1DD
330
1E
100
AcDbEntity
  8
0
  6
CONTINUOUS
100
AcDbLine
 10
251.3715669999999
 20
148.3164829999999
 30
0.0
 11
256.371552
 21
148.3164829999999
 31
0.0
  0
LINE
  5
1DE
330
1E
100
AcDbEntity
  8
0
  6
CONTINUOUS
100
AcDbLine
 10
251.3715669999999
 20
33.316479
 30
0.0
 11
256.371552
 21
33.316479
 31
0.0
  0
LINE
  5
1DF
330
1E
100
AcDbEntity
  8
0
  6
CONTINUOUS
100
AcDbLine
 10
251.3715669999999
 20
148.3164829999999
 30
0.0
 11
251.3715669999999
 21
33.316479
 31
0.0
  0
LINE
  5
1E0
330
1E
100
AcDbEntity
  8
0
  6
CONTINUOUS
100
AcDbLine
 10
63.531624
 20
315.9078979999999
 30
0.0
 11
63.531624
 21
308.190887
 31
0.0
  0
LINE
  5
1E1
330
1E
100
AcDbEntity
  8
0
  6
CONTINUOUS
100
AcDbLine
 10
66.161629
 20
315.9078979999999
 30
0.0
 11
66.161629
 21
308.3796689999999
 31
0.0
  0
LINE
  5
1E2
330
1E
100
AcDbEntity
  8
0
  6
CONTINUOUS
100
AcDbLine
 10
67.031624
 20
315.9078979999999
 30
0.0
 11
67.031624
 21
308.128357
 31
0.0
  0
LINE
  5
1E3
330
1E
100
AcDbEntity
  8
0
  6
CONTINUOUS
100
AcDbLine
 10
69.661629
 20
315.9078979999999
 30
0.0
 11
69.661629
 21
307.8596499999999
 31
0.0
  0
LINE
  5
1E4
330
1E
100
AcDbEntity
  8
0
  6
CONTINUOUS
100
AcDbLine
 10
70.53162399999999
 20
315.9078979999999
 30
0.0
 11
70.53162399999999
 21
307.975647
 31
0.0
  0
LINE
  5
1E5
330
1E
100
AcDbEntity
  8
0
  6
CONTINUOUS
100
AcDbLine
 10
73.16162900000001
 20
315.9078979999999
 30
0.0
 11
73.16162900000001
 21
307.585938
 31
0.0
  0
LINE
  5
1E6
330
1E
100
AcDbEntity
  8
0
  6
CONTINUOUS
100
AcDbLine
 10
63.531624
 20
308.190887
 30
0.0
 11
65.271179
 21
308.636932
 31
0.0
  0
LINE
  5
1E7
330
1E
100
AcDbEntity
  8
0
  6
CONTINUOUS
100
AcDbLine
 10
65.271179
 20
308.636932
 30
0.0
 11
66.161629
 21
308.3796689999999
 31
0.0
  0
LINE
  5
1E8
330
1E
100
AcDbEntity
  8
0
  6
CONTINUOUS
100
AcDbLine
 10
68.49852
 20
307.7045899999999
 30
0.0
 11
69.661629
 21
307.8596499999999
 31
0.0
  0
LINE
  5
1E9
330
1E
100
AcDbEntity
  8
0
  6
CONTINUOUS
100
AcDbLine
 10
71.725861
 20
308.134888
 30
0.0
 11
73.16162900000001
 21
307.585938
 31
0.0
  0
LINE
  5
1EA
330
1E
100
AcDbEntity
  8
0
  6
CONTINUOUS
100
AcDbLine
 10
67.031624
 20
308.128357
 30
0.0
 11
68.49852
 21
307.7045899999999
 31
0.0
  0
LINE
  5
1EB
330
1E
100
AcDbEntity
  8
0
  6
CONTINUOUS
100
AcDbLine
 10
70.53162399999999
 20
307.975647
 30
0.0
 11
71.725861
 21
308.134888
 31
0.0
  0
LINE
  5
1EC
330
1E
100
AcDbEntity
  8
0
  6
CONTINUOUS
100
AcDbLine
 10
171.871552
 20
313.698822
 30
0.0
 11
173.371552
 21
314.1274109999999
 31
0.0
  0
LINE
  5
1ED
330
1E
100
AcDbEntity
  8
0
  6
CONTINUOUS
100
AcDbLine
 10
173.371552
 20
313.140869
 30
0.0
 11
174.871552
 21
313.6572569999999
 31
0.0
  0
LINE
  5
1EE
330
1E
100
AcDbEntity
  8
0
  6
CONTINUOUS
100
AcDbLine
 10
171.871552
 20
319.842987
 30
0.0
 11
171.871552
 21
313.698822
 31
0.0
  0
LINE
  5
1EF
330
1E
100
AcDbEntity
  8
0
  6
CONTINUOUS
100
AcDbLine
 10
173.371552
 20
319.950562
 30
0.0
 11
173.371552
 21
313.140869
 31
0.0
  0
LINE
  5
1F0
330
1E
100
AcDbEntity
  8
0
  6
CONTINUOUS
100
AcDbLine
 10
174.871552
 20
319.789215
 30
0.0
 11
174.871552
 21
313.6572569999999
 31
0.0
  0
LINE
  5
1F1
330
1E
100
AcDbEntity
  8
0
  6
CONTINUOUS
100
AcDbLine
 10
221.8715519999999
 20
320.406952
 30
0.0
 11
221.8715519999999
 21
315.455933
 31
0.0
  0
LINE
  5
1F2
330
1E
100
AcDbEntity
  8
0
  6
CONTINUOUS
100
AcDbLine
 10
223.371552
 20
320.406952
 30
0.0
 11
223.371552
 21
314.897949
 31
0.0
  0
LINE
  5
1F3
330
1E
100
AcDbEntity
  8
0
  6
CONTINUOUS
100
AcDbLine
 10
224.871552
 20
320.406952
 30
0.0
 11
224.871552
 21
315.414368
 31
0.0
  0
LINE
  5
1F4
330
1E
100
AcDbEntity
  8
0
  6
CONTINUOUS
100
AcDbLine
 10
223.371552
 20
314.897949
 30
0.0
 11
224.871552
 21
315.414368
 31
0.0
  0
LINE
  5
1F5
330
1E
100
AcDbEntity
  8
0
  6
CONTINUOUS
100
AcDbLine
 10
221.8715519999999
 20
315.455933
 30
0.0
 11
223.371552
 21
315.8845209999999
 31
0.0
  0
LINE
  5
1F6
330
1E
100
AcDbEntity
  8
0
  6
CONTINUOUS
100
AcDbLine
 10
174.871552
 20
317.656952
 30
0.0
 11
186.371368
 21
317.656952
 31
0.0
  0
LINE
  5
1F7
330
1E
100
AcDbEntity
  8
0
  6
CONTINUOUS
100
AcDbLine
 10
224.871552
 20
319.906952
 30
0.0
 11
241.7744899999999
 21
319.906952
 31
0.0
  0
LINE
  5
1F8
330
1E
100
AcDbEntity
  8
0
  6
CONTINUOUS
100
AcDbLine
 10
188.3715669999999
 20
35.566303
 30
0.0
 11
188.3715669999999
 21
146.0662989999999
 31
0.0
  0
LINE
  5
1F9
330
1E
100
AcDbEntity
  8
0
  6
CONTINUOUS
100
AcDbLine
 10
243.371567
 20
35.566303
 30
0.0
 11
243.371567
 21
146.0662989999999
 31
0.0
  0
LINE
  5
1FA
330
1E
100
AcDbEntity
  8
0
  6
CONTINUOUS
100
AcDbLine
 10
190.371567
 20
134.8162989999999
 30
0.0
 11
241.371567
 21
134.8162989999999
 31
0.0
  0
LINE
  5
1FB
330
1E
100
AcDbEntity
  8
0
  6
CONTINUOUS
100
AcDbLine
 10
190.371567
 20
42.816303
 30
0.0
 11
241.371567
 21
42.816303
 31
0.0
  0
LINE
  5
1FC
330
1E
100
AcDbEntity
  8
0
  6
CONTINUOUS
100
AcDbLine
 10
180.371567
 20
148.0662989999999
 30
0.0
 11
186.3715669999999
 21
148.0662989999999
 31
0.0
  0
LINE
  5
1FD
330
1E
100
AcDbEntity
  8
0
  6
CONTINUOUS
100
AcDbLine
 10
180.371567
 20
33.566303
 30
0.0
 11
186.3715669999999
 21
33.566303
 31
0.0
  0
ARC
  5
1FE
330
1E
100
AcDbEntity
  8
0
  6
CONTINUOUS
100
AcDbCircle
 10
190.371567
 20
136.8162989999999
 30
0.0
 40
2.0
100
AcDbArc
 50
180.0
 51
270.0
  0
ARC
  5
1FF
330
1E
100
AcDbEntity
  8
0
  6
CONTINUOUS
100
AcDbCircle
 10
241.371567
 20
136.8162989999999
 30
0.0
 40
2.0
100
AcDbArc
 50
270.0
 51
0.0
  0
ARC
  5
200
330
1E
100
AcDbEntity
  8
0
  6
CONTINUOUS
100
AcDbCircle
 10
190.371567
 20
40.816326
 30
0.0
 40
2.0
100
AcDbArc
 50
90.0
 51
180.0
  0
ARC
  5
201
330
1E
100
AcDbEntity
  8
0
  6
CONTINUOUS
100
AcDbCircle
 10
241.371567
 20
40.816303
 30
0.0
 40
2.0
100
AcDbArc
 50
0.0
 51
90.0
  0
ARC
  5
202
330
1E
100
AcDbEntity
  8
0
  6
CONTINUOUS
100
AcDbCircle
 10
186.3715669999999
 20
146.0662989999999
 30
0.0
 40
2.0
100
AcDbArc
 50
0.0
 51
90.0
  0
ARC
  5
203
330
1E
100
AcDbEntity
  8
0
  6
CONTINUOUS
100
AcDbCircle
 10
245.371567
 20
146.06633
 30
0.0
 40
2.0
100
AcDbArc
 50
90.0
 51
180.0
  0
ARC
  5
204
330
1E
100
AcDbEntity
  8
0
  6
CONTINUOUS
100
AcDbCircle
 10
245.371567
 20
35.566303
 30
0.0
 40
2.0
100
AcDbArc
 50
180.0
 51
270.0
  0
ARC
  5
205
330
1E
100
AcDbEntity
  8
0
  6
CONTINUOUS
100
AcDbCircle
 10
186.3715669999999
 20
35.566303
 30
0.0
 40
2.0
100
AcDbArc
 50
270.0
 51
0.0
  0
LINE
  5
206
330
1E
100
AcDbEntity
  8
0
  6
CONTINUOUS
100
AcDbLine
 10
189.3715669999999
 20
81.81630699999999
 30
0.0
 11
189.3715669999999
 21
94.816307
 31
0.0
  0
LINE
  5
207
330
1E
100
AcDbEntity
  8
0
  6
CONTINUOUS
100
AcDbLine
 10
211.3715669999999
 20
94.816307
 30
0.0
 11
211.3715669999999
 21
81.81630699999999
 31
0.0
  0
LINE
  5
208
330
1E
100
AcDbEntity
  8
0
  6
CONTINUOUS
100
AcDbLine
 10
242.3715669999999
 20
81.81630699999999
 30
0.0
 11
242.3715669999999
 21
94.816307
 31
0.0
  0
LINE
  5
209
330
1E
100
AcDbEntity
  8
0
  6
CONTINUOUS
100
AcDbLine
 10
220.371567
 20
81.81630699999999
 30
0.0
 11
220.371567
 21
94.816307
 31
0.0
  0
LINE
  5
20A
330
1E
100
AcDbEntity
  8
0
  6
CONTINUOUS
100
AcDbLine
 10
210.371567
 20
95.81630699999999
 30
0.0
 11
190.371567
 21
95.81630699999999
 31
0.0
  0
LINE
  5
20B
330
1E
100
AcDbEntity
  8
0
  6
CONTINUOUS
100
AcDbLine
 10
210.371567
 20
80.81630699999999
 30
0.0
 11
190.371567
 21
80.81630699999999
 31
0.0
  0
ARC
  5
20C
330
1E
100
AcDbEntity
  8
0
  6
CONTINUOUS
100
AcDbCircle
 10
190.371567
 20
94.816307
 30
0.0
 40
1.0
100
AcDbArc
 50
90.0
 51
180.0
  0
ARC
  5
20D
330
1E
100
AcDbEntity
  8
0
  6
CONTINUOUS
100
AcDbCircle
 10
190.371567
 20
81.81630699999999
 30
0.0
 40
1.0
100
AcDbArc
 50
180.0
 51
270.0
  0
ARC
  5
20E
330
1E
100
AcDbEntity
  8
0
  6
CONTINUOUS
100
AcDbCircle
 10
210.371567
 20
81.81630699999999
 30
0.0
 40
1.0
100
AcDbArc
 50
270.0
 51
0.0
  0
ARC
  5
20F
330
1E
100
AcDbEntity
  8
0
  6
CONTINUOUS
100
AcDbCircle
 10
210.371567
 20
94.816307
 30
0.0
 40
1.0
100
AcDbArc
 50
0.0
 51
90.0
  0
ARC
  5
210
330
1E
100
AcDbEntity
  8
0
  6
CONTINUOUS
100
AcDbCircle
 10
221.371567
 20
94.816307
 30
0.0
 40
1.0
100
AcDbArc
 50
90.0
 51
180.0
  0
ARC
  5
211
330
1E
100
AcDbEntity
  8
0
  6
CONTINUOUS
100
AcDbCircle
 10
221.371567
 20
81.81630699999999
 30
0.0
 40
1.0
100
AcDbArc
 50
180.0
 51
270.0
  0
ARC
  5
212
330
1E
100
AcDbEntity
  8
0
  6
CONTINUOUS
100
AcDbCircle
 10
241.371567
 20
94.816307
 30
0.0
 40
1.0
100
AcDbArc
 50
0.0
 51
90.0
  0
ARC
  5
213
330
1E
100
AcDbEntity
  8
0
  6
CONTINUOUS
100
AcDbCircle
 10
241.371567
 20
81.81630699999999
 30
0.0
 40
1.0
100
AcDbArc
 50
270.0
 51
0.0
  0
LINE
  5
214
330
1E
100
AcDbEntity
  8
0
  6
CONTINUOUS
100
AcDbLine
 10
223.371567
 20
104.8163069999999
 30
0.0
 11
223.371567
 21
78.87236
 31
0.0
  0
LINE
  5
215
330
1E
100
AcDbEntity
  8
0
  6
CONTINUOUS
100
AcDbLine
 10
224.871567
 20
104.8163069999999
 30
0.0
 11
224.871567
 21
78.015213
 31
0.0
  0
LINE
  5
216
330
1E
100
AcDbEntity
  8
0
  6
CONTINUOUS
100
AcDbLine
 10
221.8715669999999
 20
104.8163069999999
 30
0.0
 11
221.8715669999999
 21
78.75727799999999
 31
0.0
  0
LINE
  5
217
330
1E
100
AcDbEntity
  8
0
  6
CONTINUOUS
100
AcDbLine
 10
221.8715669999999
 20
78.75727799999999
 30
0.0
 11
223.371567
 21
79.994766
 31
0.0
  0
LINE
  5
218
330
1E
100
AcDbEntity
  8
0
  6
CONTINUOUS
100
AcDbLine
 10
223.371567
 20
78.87236
 30
0.0
 11
224.871567
 21
78.015213
 31
0.0
  0
ARC
  5
219
330
1E
100
AcDbEntity
  8
0
  6
CONTINUOUS
100
AcDbCircle
 10
224.1215669999999
 20
104.8163069999999
 30
0.0
 40
0.75
100
AcDbArc
 50
0.0
 51
180.0
  0
ARC
  5
21A
330
1E
100
AcDbEntity
  8
0
  6
CONTINUOUS
100
AcDbCircle
 10
222.621567
 20
104.8163069999999
 30
0.0
 40
0.75
100
AcDbArc
 50
0.0
 51
180.0
  0
LINE
  5
21B
330
1E
100
AcDbEntity
  8
0
  6
CONTINUOUS
100
AcDbLine
 10
221.371567
 20
95.81630699999999
 30
0.0
 11
221.8715669999999
 21
95.81630699999999
 31
0.0
  0
LINE
  5
21C
330
1E
100
AcDbEntity
  8
0
  6
CONTINUOUS
100
AcDbLine
 10
221.371567
 20
80.81630699999999
 30
0.0
 11
221.8715669999999
 21
80.81630699999999
 31
0.0
  0
LINE
  5
21D
330
1E
100
AcDbEntity
  8
0
  6
CONTINUOUS
100
AcDbLine
 10
190.2646179999999
 20
77.222061
 30
0.0
 11
241.715363
 21
77.222061
 31
0.0
  0
LINE
  5
21E
330
1E
100
AcDbEntity
  8
0
  6
CONTINUOUS
100
AcDbLine
 10
245.371567
 20
148.0662989999999
 30
0.0
 11
251.3715669999999
 21
148.0662989999999
 31
0.0
  0
LINE
  5
21F
330
1E
100
AcDbEntity
  8
0
  6
CONTINUOUS
100
AcDbLine
 10
245.371567
 20
33.566303
 30
0.0
 11
251.3715669999999
 21
33.566303
 31
0.0
  0
LINE
  5
220
330
1E
100
AcDbEntity
  8
0
  6
CONTINUOUS
100
AcDbLine
 10
241.371567
 20
80.81630699999999
 30
0.0
 11
224.871567
 21
80.81630699999999
 31
0.0
  0
LINE
  5
221
330
1E
100
AcDbEntity
  8
0
  6
CONTINUOUS
100
AcDbLine
 10
241.371567
 20
95.81630699999999
 30
0.0
 11
224.871567
 21
95.81630699999999
 31
0.0
  0
LINE
  5
222
330
1E
100
AcDbEntity
  8
0
  6
CONTINUOUS
100
AcDbLine
 10
190.2646179999999
 20
73.81636800000001
 30
0.0
 11
241.715363
 21
73.81636800000001
 31
0.0
  0
LINE
  5
223
330
1E
100
AcDbEntity
  8
0
  6
CONTINUOUS
100
AcDbLine
 10
231.371567
 20
60.420368
 30
0.0
 11
231.371567
 21
44.816303
 31
0.0
  0
LINE
  5
224
330
1E
100
AcDbEntity
  8
0
  6
CONTINUOUS
100
AcDbLine
 10
200.371567
 20
60.420368
 30
0.0
 11
200.371567
 21
44.816303
 31
0.0
  0
LINE
  5
225
330
1E
100
AcDbEntity
  8
0
  6
CONTINUOUS
100
AcDbLine
 10
190.2646179999999
 20
64.151787
 30
0.0
 11
198.935944
 21
64.151787
 31
0.0
  0
LINE
  5
226
330
1E
100
AcDbEntity
  8
0
  6
CONTINUOUS
100
AcDbLine
 10
232.8296809999999
 20
64.151787
 30
0.0
 11
241.715363
 21
64.151787
 31
0.0
  0
ARC
  5
227
330
1E
100
AcDbEntity
  8
0
  6
CONTINUOUS
100
AcDbCircle
 10
198.371567
 20
44.816303
 30
0.0
 40
2.0
100
AcDbArc
 50
270.0
 51
0.0
  0
ARC
  5
228
330
1E
100
AcDbEntity
  8
0
  6
CONTINUOUS
100
AcDbCircle
 10
233.371567
 20
44.816303
 30
0.0
 40
2.0
100
AcDbArc
 50
180.0
 51
270.0
  0
LINE
  5
229
330
1E
100
AcDbEntity
  8
0
  6
CONTINUOUS
100
AcDbLine
 10
201.0293729999999
 20
53.93819
 30
0.0
 11
230.5368799999999
 21
53.93819
 31
0.0
  0
ARC
  5
22A
330
1E
100
AcDbEntity
  8
0
  6
CONTINUOUS
100
AcDbCircle
 10
223.371567
 20
104.8163069999999
 30
0.0
 40
4.0
100
AcDbArc
 50
292.024315
 51
247.9756929999999
  0
TEXT
  5
22B
330
1E
100
AcDbEntity
  8
0
100
AcDbText
 10
-12.0
 20
-24.0
 30
0.0
 40
4.0
  1
G3FE-28-100~200-T020
100
AcDbText
  0
ARC
  5
290
330
1E
100
AcDbEntity
  8
TOP
100
AcDbCircle
 10
16.93966223472614
 20
426.4069519999999
 30
0.0
 40
12.0
100
AcDbArc
 50
90.49999999999805
 51
170.9664843358179
  0
ARC
  5
291
330
1E
100
AcDbEntity
  8
0
100
AcDbCircle
 10
343.8685384791912
 20
374.9069519999999
 30
0.0
 40
325.0
100
AcDbArc
 50
168.2484724111562
 51
191.7515275888437
  0
LINE
  5
292
330
1E
100
AcDbEntity
  8
TOP
100
AcDbLine
 10
51.37136799999996
 20
441.2935027187201
 30
0.0
 11
51.37136799999996
 21
308.5204012812798
 31
0.0
  0
ARC
  5
2BB
330
1E
100
AcDbEntity
  8
TOP
100
AcDbCircle
 10
340.8713679999999
 20
374.9069519999999
 30
0.0
 40
340.0
100
AcDbArc
 50
170.9664843358179
 51
189.033515664182
  0
LINE
  5
2BC
330
1E
100
AcDbEntity
  8
0
100
AcDbLine
 10
50.37136799999996
 20
307.5204012812798
 30
0.0
 11
27.14908464916595
 21
307.5204012812798
 31
0.0
  0
ARC
  5
2BD
330
1E
100
AcDbEntity
  8
TOP
100
AcDbCircle
 10
16.93966223472614
 20
323.4069519999999
 30
0.0
 40
12.0
100
AcDbArc
 50
189.033515664182
 51
269.5000000000019
  0
LINE
  5
2BE
330
1E
100
AcDbEntity
  8
TOP
100
AcDbLine
 10
16.8349438087456
 20
311.4074089232298
 30
0.0
 11
24.31626946379594
 21
311.3973526468482
 31
0.0
  0
ARC
  5
2BF
330
1E
100
AcDbEntity
  8
0
100
AcDbCircle
 10
24.31492528125932
 20
310.397353550262
 30
0.0
 40
1.0
100
AcDbArc
 50
11.41314332739548
 51
89.92298399056364
  0
ARC
  5
2C0
330
1E
100
AcDbEntity
  8
0
100
AcDbCircle
 10
27.14908464916607
 20
309.0204012812798
 30
0.0
 40
1.5
100
AcDbArc
 50
191.7515275888437
 51
270.0
  0
ARC
  5
2C1
330
1E
100
AcDbEntity
  8
0
100
AcDbCircle
 10
50.37136800000007
 20
308.5204012812798
 30
0.0
 40
1.0
100
AcDbArc
 50
270.0
 51
0.0
  0
LINE
  5
2DB
330
1E
100
AcDbEntity
  8
0
100
AcDbLine
 10
50.37136799999996
 20
442.2935027187201
 30
0.0
 11
27.14908464916595
 21
442.2935027187201
 31
0.0
  0
LINE
  5
2DC
330
1E
100
AcDbEntity
  8
TOP
100
AcDbLine
 10
16.8349438087456
 20
438.4064950767701
 30
0.0
 11
24.31626946379594
 21
438.4165513531518
 31
0.0
  0
ARC
  5
2DD
330
1E
100
AcDbEntity
  8
0
100
AcDbCircle
 10
27.14908464916607
 20
440.7935027187201
 30
0.0
 40
1.5
100
AcDbArc
 50
90.0
 51
168.2484724111498
  0
ARC
  5
2DE
330
1E
100
AcDbEntity
  8
0
100
AcDbCircle
 10
24.31492528125932
 20
439.4165504497379
 30
0.0
 40
1.0
100
AcDbArc
 50
270.0770160094363
 51
348.5868566726044
  0
ARC
  5
2DF
330
1E
100
AcDbEntity
  8
0
100
AcDbCircle
 10
50.37136800000007
 20
441.2935027187201
 30
0.0
 40
1.0
100
AcDbArc
 50
0.0
 51
90.0
  0
ENDSEC
  0
SECTION
  2
OBJECTS
  0
DICTIONARY
  5
C
330
0
100
AcDbDictionary
  3
ACAD_GROUP
350
D
  3
ACAD_LAYOUT
350
19
  3
ACAD_MLINESTYLE
350
16
  3
ACAD_PLOTSETTINGS
350
18
  3
ACAD_PLOTSTYLENAME
350
E
  3
ACDBHEADERROUNDTRIPXREC
350
2EF
  3
ACDBVARIABLEDICTIONARY
350
2EC
  0
DICTIONARY
  5
311
330
1E
100
AcDbDictionary
280
     1
  3
ACAD_LAYOUTSELFREF
360
312
  0
DICTIONARY
  5
30F
330
1A
100
AcDbDictionary
280
     1
  3
ACAD_LAYOUTSELFREF
360
310
  0
DICTIONARY
  5
D
102
{ACAD_REACTORS
330
C
102
}
330
C
100
AcDbDictionary
  0
DICTIONARY
  5
19
102
{ACAD_REACTORS
330
C
102
}
330
C
100
AcDbDictionary
  0
DICTIONARY
  5
16
102
{ACAD_REACTORS
330
C
102
}
330
C
100
AcDbDictionary
  3
STANDARD
350
17
  0
DICTIONARY
  5
18
102
{ACAD_REACTORS
330
C
102
}
330
C
100
AcDbDictionary
  0
ACDBDICTIONARYWDFLT
  5
E
102
{ACAD_REACTORS
330
C
102
}
330
C
100
AcDbDictionary
281
     1
  3
Normal
350
F
100
AcDbDictionaryWithDefault
340
F
  0
DICTIONARY
  5
2EF
102
{ACAD_REACTORS
330
C
102
}
330
C
100
AcDbDictionary
  3
CEPSNTYPE
350
2F9
  3
FINGERPRINTGUID
350
2FA
  3
HYPERLINKBASE
350
2F2
  3
INSUNITS
350
2F8
  3
LAYOUTDICT
350
2F4
  3
LWETCUNION
350
2F7
  3
PLOTSETDICT
350
2F5
  3
PLOTSTYLNAMDICT
350
2F6
  3
PSVPSCALE
350
2FC
  3
PUCSBASE
350
2FF
  3
PUCSORGBACK
350
305
  3
PUCSORGBOTTOM
350
301
  3
PUCSORGFRONT
350
304
  3
PUCSORGLEFT
350
302
  3
PUCSORGRIGHT
350
303
  3
PUCSORGTOP
350
300
  3
PUCSORTHOREF
350
2FD
  3
PUCSORTHOVIEW
350
2FE
  3
STYLESHEET
350
2F3
  3
TSTACKALIGN
350
2F0
  3
TSTACKSIZE
350
2F1
  3
UCSBASE
350
308
  3
UCSORGBACK
350
30E
  3
UCSORGBOTTOM
350
30A
  3
UCSORGFRONT
350
30D
  3
UCSORGLEFT
350
30B
  3
UCSORGRIGHT
350
30C
  3
UCSORGTOP
350
309
  3
UCSORTHOREF
350
306
  3
UCSORTHOVIEW
350
307
  3
VERSIONGUID
350
2FB
  0
DICTIONARY
  5
2EC
102
{ACAD_REACTORS
330
C
102
}
330
C
100
AcDbDictionary
  3
DIMASSOC
350
2ED
  0
XRECORD
  5
312
102
{ACAD_REACTORS
330
311
102
}
330
311
100
AcDbXrecord
340
1E
  0
XRECORD
  5
310
102
{ACAD_REACTORS
330
30F
102
}
330
30F
100
AcDbXrecord
340
1A
  0
MLINESTYLE
  5
17
102
{ACAD_REACTORS
330
16
102
}
330
16
100
AcDbMlineStyle
  2
STANDARD
 70
     0
  3

 62
   256
 51
90.0
 52
90.0
 71
     2
 49
0.5
 62
   256
  6
BYLAYER
 49
-0.5
 62
   256
  6
BYLAYER
  0
ACDBPLACEHOLDER
  5
F
102
{ACAD_REACTORS
330
E
102
}
330
E
100
AcDbPlaceHolder
280
     0
  0
XRECORD
  5
2F9
102
{ACAD_REACTORS
330
2EF
102
}
330
2EF
100
AcDbXrecord
 90
        0
  0
XRECORD
  5
2FA
102
{ACAD_REACTORS
330
2EF
102
}
330
2EF
100
AcDbXrecord
  1
{6C6C5055-D9E0-4C06-8469-FF634172CB8F}
  0
XRECORD
  5
2F2
102
{ACAD_REACTORS
330
2EF
102
}
330
2EF
100
AcDbXrecord
  1

  0
XRECORD
  5
2F8
102
{ACAD_REACTORS
330
2EF
102
}
330
2EF
100
AcDbXrecord
 90
        0
  0
XRECORD
  5
2F4
102
{ACAD_REACTORS
330
2EF
102
}
330
2EF
100
AcDbXrecord
340
19
  0
XRECORD
  5
2F7
102
{ACAD_REACTORS
330
2EF
102
}
330
2EF
100
AcDbXrecord
 90
    10781
  0
XRECORD
  5
2F5
102
{ACAD_REACTORS
330
2EF
102
}
330
2EF
100
AcDbXrecord
340
18
  0
XRECORD
  5
2F6
102
{ACAD_REACTORS
330
2EF
102
}
330
2EF
100
AcDbXrecord
340
E
  0
XRECORD
  5
2FC
102
{ACAD_REACTORS
330
2EF
102
}
330
2EF
100
AcDbXrecord
 40
0.0
  0
XRECORD
  5
2FF
102
{ACAD_REACTORS
330
2EF
102
}
330
2EF
100
AcDbXrecord
340
0
  0
XRECORD
  5
305
102
{ACAD_REACTORS
330
2EF
102
}
330
2EF
100
AcDbXrecord
 10
0.0
 20
0.0
 30
0.0
  0
XRECORD
  5
301
102
{ACAD_REACTORS
330
2EF
102
}
330
2EF
100
AcDbXrecord
 10
0.0
 20
0.0
 30
0.0
  0
XRECORD
  5
304
102
{ACAD_REACTORS
330
2EF
102
}
330
2EF
100
AcDbXrecord
 10
0.0
 20
0.0
 30
0.0
  0
XRECORD
  5
302
102
{ACAD_REACTORS
330
2EF
102
}
330
2EF
100
AcDbXrecord
 10
0.0
 20
0.0
 30
0.0
  0
XRECORD
  5
303
102
{ACAD_REACTORS
330
2EF
102
}
330
2EF
100
AcDbXrecord
 10
0.0
 20
0.0
 30
0.0
  0
XRECORD
  5
300
102
{ACAD_REACTORS
330
2EF
102
}
330
2EF
100
AcDbXrecord
 10
0.0
 20
0.0
 30
0.0
  0
XRECORD
  5
2FD
102
{ACAD_REACTORS
330
2EF
102
}
330
2EF
100
AcDbXrecord
340
0
  0
XRECORD
  5
2FE
102
{ACAD_REACTORS
330
2EF
102
}
330
2EF
100
AcDbXrecord
 70
     0
  0
XRECORD
  5
2F3
102
{ACAD_REACTORS
330
2EF
102
}
330
2EF
100
AcDbXrecord
  1

  0
XRECORD
  5
2F0
102
{ACAD_REACTORS
330
2EF
102
}
330
2EF
100
AcDbXrecord
 90
        1
  0
XRECORD
  5
2F1
102
{ACAD_REACTORS
330
2EF
102
}
330
2EF
100
AcDbXrecord
 90
       70
  0
XRECORD
  5
308
102
{ACAD_REACTORS
330
2EF
102
}
330
2EF
100
AcDbXrecord
340
0
  0
XRECORD
  5
30E
102
{ACAD_REACTORS
330
2EF
102
}
330
2EF
100
AcDbXrecord
 10
0.0
 20
0.0
 30
0.0
  0
XRECORD
  5
30A
102
{ACAD_REACTORS
330
2EF
102
}
330
2EF
100
AcDbXrecord
 10
0.0
 20
0.0
 30
0.0
  0
XRECORD
  5
30D
102
{ACAD_REACTORS
330
2EF
102
}
330
2EF
100
AcDbXrecord
 10
0.0
 20
0.0
 30
0.0
  0
XRECORD
  5
30B
102
{ACAD_REACTORS
330
2EF
102
}
330
2EF
100
AcDbXrecord
 10
0.0
 20
0.0
 30
0.0
  0
XRECORD
  5
30C
102
{ACAD_REACTORS
330
2EF
102
}
330
2EF
100
AcDbXrecord
 10
0.0
 20
0.0
 30
0.0
  0
XRECORD
  5
309
102
{ACAD_REACTORS
330
2EF
102
}
330
2EF
100
AcDbXrecord
 10
0.0
 20
0.0
 30
0.0
  0
XRECORD
  5
306
102
{ACAD_REACTORS
330
2EF
102
}
330
2EF
100
AcDbXrecord
340
0
  0
XRECORD
  5
307
102
{ACAD_REACTORS
330
2EF
102
}
330
2EF
100
AcDbXrecord
 70
     0
  0
XRECORD
  5
2FB
102
{ACAD_REACTORS
330
2EF
102
}
330
2EF
100
AcDbXrecord
  1
{7DA953A5-ECF1-41D7-B457-FE0547EF260F}
  0
DICTIONARYVAR
  5
2ED
102
{ACAD_REACTORS
330
2EC
102
}
330
2EC
100
DictionaryVariables
280
     0
  1
1
  0
ENDSEC
  0
EOF
