  0
SECTION
  2
HEADER
  9
$ACADVER
  1
AC1014
  9
$ACADMAINTVER
 70
     9
  9
$DWGCODEPAGE
  3
ANSI_932
  9
$INSBASE
 10
0.0
 20
0.0
 30
0.0
  9
$EXTMIN
 10
-10.170938
 20
-29.00000000000001
 30
0.0
  9
$EXTMAX
 10
752.442383
 20
491.564453
 30
0.0
  9
$LIMMIN
 10
0.0
 20
0.0
  9
$LIMMAX
 10
12.0
 20
9.0
  9
$ORTHOMODE
 70
     0
  9
$REGENMODE
 70
     1
  9
$FILLMODE
 70
     1
  9
$QTEXTMODE
 70
     0
  9
$MIRRTEXT
 70
     1
  9
$DRAGMODE
 70
     2
  9
$LTSCALE
 40
3.0
  9
$OSMODE
 70
    45
  9
$ATTMODE
 70
     1
  9
$TEXTSIZE
 40
3.0
  9
$TRACEWID
 40
0.05
  9
$TEXTSTYLE
  7
STANDARD
  9
$CLAYER
  8
1
  9
$CELTYPE
  6
CONTINUOUS
  9
$CECOLOR
 62
   256
  9
$CELTSCALE
 40
1.0
  9
$DELOBJ
 70
     1
  9
$DISPSILH
 70
     0
  9
$DIMSCALE
 40
1.0
  9
$DIMASZ
 40
0.18
  9
$DIMEXO
 40
0.0625
  9
$DIMDLI
 40
0.38
  9
$DIMRND
 40
0.0
  9
$DIMDLE
 40
0.0
  9
$DIMEXE
 40
0.18
  9
$DIMTP
 40
0.0
  9
$DIMTM
 40
0.0
  9
$DIMTXT
 40
0.18
  9
$DIMCEN
 40
0.09
  9
$DIMTSZ
 40
0.0
  9
$DIMTOL
 70
     0
  9
$DIMLIM
 70
     0
  9
$DIMTIH
 70
     1
  9
$DIMTOH
 70
     1
  9
$DIMSE1
 70
     0
  9
$DIMSE2
 70
     0
  9
$DIMTAD
 70
     0
  9
$DIMZIN
 70
     0
  9
$DIMBLK
  1

  9
$DIMASO
 70
     1
  9
$DIMSHO
 70
     1
  9
$DIMPOST
  1

  9
$DIMAPOST
  1

  9
$DIMALT
 70
     0
  9
$DIMALTD
 70
     2
  9
$DIMALTF
 40
25.4
  9
$DIMLFAC
 40
1.0
  9
$DIMTOFL
 70
     0
  9
$DIMTVP
 40
0.0
  9
$DIMTIX
 70
     0
  9
$DIMSOXD
 70
     0
  9
$DIMSAH
 70
     0
  9
$DIMBLK1
  1

  9
$DIMBLK2
  1

  9
$DIMSTYLE
  2
STANDARD
  9
$DIMCLRD
 70
     0
  9
$DIMCLRE
 70
     0
  9
$DIMCLRT
 70
     0
  9
$DIMTFAC
 40
1.0
  9
$DIMGAP
 40
0.09
  9
$DIMJUST
 70
     0
  9
$DIMSD1
 70
     0
  9
$DIMSD2
 70
     0
  9
$DIMTOLJ
 70
     1
  9
$DIMTZIN
 70
     0
  9
$DIMALTZ
 70
     0
  9
$DIMALTTZ
 70
     0
  9
$DIMFIT
 70
     3
  9
$DIMUPT
 70
     0
  9
$DIMUNIT
 70
     2
  9
$DIMDEC
 70
     4
  9
$DIMTDEC
 70
     4
  9
$DIMALTU
 70
     2
  9
$DIMALTTD
 70
     2
  9
$DIMTXSTY
  7
STANDARD
  9
$DIMAUNIT
 70
     0
  9
$LUNITS
 70
     2
  9
$LUPREC
 70
     4
  9
$SKETCHINC
 40
0.1
  9
$FILLETRAD
 40
0.0
  9
$AUNITS
 70
     0
  9
$AUPREC
 70
     0
  9
$MENU
  1
.
  9
$ELEVATION
 40
0.0
  9
$PELEVATION
 40
0.0
  9
$THICKNESS
 40
0.0
  9
$LIMCHECK
 70
     0
  9
$BLIPMODE
 70
     0
  9
$CHAMFERA
 40
0.0
  9
$CHAMFERB
 40
0.0
  9
$CHAMFERC
 40
0.0
  9
$CHAMFERD
 40
0.0
  9
$SKPOLY
 70
     0
  9
$TDCREATE
 40
2453349.579690567
  9
$TDUPDATE
 40
2453349.759141782
  9
$TDINDWG
 40
0.0005001273
  9
$TDUSRTIMER
 40
0.0005001273
  9
$USRTIMER
 70
     1
  9
$ANGBASE
 50
0.0
  9
$ANGDIR
 70
     0
  9
$PDMODE
 70
     0
  9
$PDSIZE
 40
0.0
  9
$PLINEWID
 40
0.0
  9
$COORDS
 70
     1
  9
$SPLFRAME
 70
     0
  9
$SPLINETYPE
 70
     6
  9
$SPLINESEGS
 70
     8
  9
$ATTDIA
 70
     0
  9
$ATTREQ
 70
     1
  9
$HANDLING
 70
 22529
  9
$HANDSEED
  5
36F
  9
$SURFTAB1
 70
     6
  9
$SURFTAB2
 70
     6
  9
$SURFTYPE
 70
     6
  9
$SURFU
 70
     6
  9
$SURFV
 70
     6
  9
$UCSNAME
  2

  9
$UCSORG
 10
0.0
 20
0.0
 30
0.0
  9
$UCSXDIR
 10
1.0
 20
0.0
 30
0.0
  9
$UCSYDIR
 10
0.0
 20
1.0
 30
0.0
  9
$PUCSNAME
  2

  9
$PUCSORG
 10
0.0
 20
0.0
 30
0.0
  9
$PUCSXDIR
 10
1.0
 20
0.0
 30
0.0
  9
$PUCSYDIR
 10
0.0
 20
1.0
 30
0.0
  9
$USERI1
 70
     0
  9
$USERI2
 70
     0
  9
$USERI3
 70
     0
  9
$USERI4
 70
     0
  9
$USERI5
 70
     0
  9
$USERR1
 40
0.0
  9
$USERR2
 40
0.0
  9
$USERR3
 40
0.0
  9
$USERR4
 40
0.0
  9
$USERR5
 40
0.0
  9
$WORLDVIEW
 70
     1
  9
$SHADEDGE
 70
     3
  9
$SHADEDIF
 70
    70
  9
$TILEMODE
 70
     1
  9
$MAXACTVP
 70
    64
  9
$PINSBASE
 10
0.0
 20
0.0
 30
0.0
  9
$PLIMCHECK
 70
     0
  9
$PEXTMIN
 10
1.000000000000000E+20
 20
1.000000000000000E+20
 30
1.000000000000000E+20
  9
$PEXTMAX
 10
-1.000000000000000E+20
 20
-1.000000000000000E+20
 30
-1.000000000000000E+20
  9
$PLIMMIN
 10
0.0
 20
0.0
  9
$PLIMMAX
 10
12.0
 20
9.0
  9
$UNITMODE
 70
     0
  9
$VISRETAIN
 70
     1
  9
$PLINEGEN
 70
     0
  9
$PSLTSCALE
 70
     1
  9
$TREEDEPTH
 70
  3020
  9
$PICKSTYLE
 70
     1
  9
$CMLSTYLE
  2
STANDARD
  9
$CMLJUST
 70
     0
  9
$CMLSCALE
 40
1.0
  9
$PROXYGRAPHICS
 70
     1
  9
$MEASUREMENT
 70
     0
  0
ENDSEC
  0
SECTION
  2
CLASSES
  0
CLASS
  1
ACDBDICTIONARYWDFLT
  2
AcDbDictionaryWithDefault
  3
AutoCAD 2000
 90
        0
280
     0
281
     0
  0
CLASS
  1
ACDBPLACEHOLDER
  2
AcDbPlaceHolder
  3
AutoCAD 2000
 90
        0
280
     0
281
     0
  0
CLASS
  1
LAYOUT
  2
AcDbLayout
  3
AutoCAD 2000
 90
        0
280
     0
281
     0
  0
CLASS
  1
DICTIONARYVAR
  2
AcDbDictionaryVar
  3
AutoCAD 2000
 90
        0
280
     0
281
     0
  0
CLASS
  1
LONG_TRANSACTION
  2
AcDbLongTransaction
  3
AutoCAD 2000
 90
        0
280
     0
281
     0
  0
CLASS
  1
LWPOLYLINE
  2
AcDbPolyline
  3
AutoCAD 2000
 90
        0
280
     0
281
     1
  0
CLASS
  1
HATCH
  2
AcDbHatch
  3
AutoCAD 2000
 90
        0
280
     0
281
     1
  0
CLASS
  1
XRECORD
  2
AcDbXrecord
  3
AutoCAD 2000
 90
        0
280
     0
281
     0
  0
ENDSEC
  0
SECTION
  2
TABLES
  0
TABLE
  2
VPORT
  5
8
330
0
100
AcDbSymbolTable
 70
     2
  0
VPORT
  5
34A
330
8
100
AcDbSymbolTableRecord
100
AcDbViewportTableRecord
  2
*ACTIVE
 70
     0
 10
0.0
 20
0.0
 11
1.0
 21
1.0
 12
532.022469611433
 22
250.2594194957019
 13
0.0
 23
0.0
 14
1.0
 24
1.0
 15
0.0
 25
0.0
 16
0.0
 26
0.0
 36
1.0
 17
0.0
 27
0.0
 37
0.0
 40
734.5417083959077
 41
1.976793248945147
 42
50.0
 43
0.0
 44
0.0
 50
0.0
 51
0.0
 71
     0
 72
   100
 73
     1
 74
     1
 75
     0
 76
     0
 77
     0
 78
     0
  0
ENDTAB
  0
TABLE
  2
LTYPE
  5
5
330
0
100
AcDbSymbolTable
 70
     3
  0
LTYPE
  5
13
330
5
100
AcDbSymbolTableRecord
100
AcDbLinetypeTableRecord
  2
BYBLOCK
 70
     0
  3

 72
    65
 73
     0
 40
0.0
  0
LTYPE
  5
14
330
5
100
AcDbSymbolTableRecord
100
AcDbLinetypeTableRecord
  2
BYLAYER
 70
     0
  3

 72
    65
 73
     0
 40
0.0
  0
LTYPE
  5
15
330
5
100
AcDbSymbolTableRecord
100
AcDbLinetypeTableRecord
  2
CONTINUOUS
 70
     0
  3
solid line
 72
    65
 73
     0
 40
0.0
  0
LTYPE
  5
23
330
5
100
AcDbSymbolTableRecord
100
AcDbLinetypeTableRecord
  2
DASHED
 70
     0
  3
__ __ __ __ __ __ __ __ __ __ __ __ __ __ __
 72
    65
 73
     2
 40
0.75
 49
0.5
 74
     0
 49
-0.25
 74
     0
  0
LTYPE
  5
24
330
5
100
AcDbSymbolTableRecord
100
AcDbLinetypeTableRecord
  2
CENTER
 70
     0
  3
____ _ ____ _ ____ _ ____ _ ____ _ ____ _ ____
 72
    65
 73
     4
 40
2.0
 49
1.25
 74
     0
 49
-0.25
 74
     0
 49
0.25
 74
     0
 49
-0.25
 74
     0
  0
ENDTAB
  0
TABLE
  2
LAYER
  5
2
330
0
100
AcDbSymbolTable
 70
     3
  0
LAYER
  5
10
330
2
100
AcDbSymbolTableRecord
100
AcDbLayerTableRecord
  2
0
 70
     0
 62
     7
  6
CONTINUOUS
  0
LAYER
  5
22
330
2
100
AcDbSymbolTableRecord
100
AcDbLayerTableRecord
  2
1
 70
     0
 62
     7
  6
CONTINUOUS
  0
LAYER
  5
28B
330
2
100
AcDbSymbolTableRecord
100
AcDbLayerTableRecord
  2
TOP
 70
     0
 62
     7
  6
CONTINUOUS
  0
ENDTAB
  0
TABLE
  2
STYLE
  5
3
330
0
100
AcDbSymbolTable
 70
     1
  0
STYLE
  5
11
330
3
100
AcDbSymbolTableRecord
100
AcDbTextStyleTableRecord
  2
STANDARD
 70
     0
 40
0.0
 41
1.0
 50
0.0
 71
     0
 42
3.0
  3
txt
  4
BIGFONT
  0
ENDTAB
  0
TABLE
  2
VIEW
  5
6
330
0
100
AcDbSymbolTable
 70
     0
  0
ENDTAB
  0
TABLE
  2
UCS
  5
7
330
0
100
AcDbSymbolTable
 70
     0
  0
ENDTAB
  0
TABLE
  2
APPID
  5
9
330
0
100
AcDbSymbolTable
 70
     1
  0
APPID
  5
12
330
9
100
AcDbSymbolTableRecord
100
AcDbRegAppTableRecord
  2
ACAD
 70
     0
  0
ENDTAB
  0
TABLE
  2
DIMSTYLE
  5
A
330
0
100
AcDbSymbolTable
 70
     1
  0
DIMSTYLE
105
289
330
A
100
AcDbSymbolTableRecord
100
AcDbDimStyleTableRecord
  2
STANDARD
 70
     0
  3

  4

  5

  6

  7

 40
1.0
 41
0.18
 42
0.0625
 43
0.38
 44
0.18
 45
0.0
 46
0.0
 47
0.0
 48
0.0
140
0.18
141
0.09
142
0.0
143
25.4
144
1.0
145
0.0
146
1.0
147
0.09
 71
     0
 72
     0
 73
     1
 74
     1
 75
     0
 76
     0
 77
     0
 78
     0
170
     0
171
     2
172
     0
173
     0
174
     0
175
     0
176
     0
177
     0
178
     0
270
     2
271
     4
272
     4
273
     2
274
     2
340
11
275
     0
280
     0
281
     0
282
     0
283
     1
284
     0
285
     0
286
     0
287
     3
288
     0
  0
ENDTAB
  0
TABLE
  2
BLOCK_RECORD
  5
1
330
0
100
AcDbSymbolTable
 70
     0
  0
BLOCK_RECORD
  5
1E
102
{ACAD_XDICTIONARY
360
36D
102
}
330
1
100
AcDbSymbolTableRecord
100
AcDbBlockTableRecord
  2
*MODEL_SPACE
  0
BLOCK_RECORD
  5
1A
102
{ACAD_XDICTIONARY
360
36B
102
}
330
1
100
AcDbSymbolTableRecord
100
AcDbBlockTableRecord
  2
*PAPER_SPACE
  0
ENDTAB
  0
ENDSEC
  0
SECTION
  2
BLOCKS
  0
BLOCK
  5
1F
330
1E
100
AcDbEntity
  8
0
100
AcDbBlockBegin
  2
*MODEL_SPACE
 70
     0
 10
0.0
 20
0.0
 30
0.0
  3
*MODEL_SPACE
  1

  0
ENDBLK
  5
20
330
1E
100
AcDbEntity
  8
0
100
AcDbBlockEnd
  0
BLOCK
  5
1B
330
1A
100
AcDbEntity
 67
     1
  8
0
100
AcDbBlockBegin
  2
*PAPER_SPACE
 70
     0
 10
0.0
 20
0.0
 30
0.0
  3
*PAPER_SPACE
  1

  0
ENDBLK
  5
1C
330
1A
100
AcDbEntity
 67
     1
  8
0
100
AcDbBlockEnd
  0
ENDSEC
  0
SECTION
  2
ENTITIES
  0
ARC
  5
29
330
1E
100
AcDbEntity
  8
0
  6
CONTINUOUS
100
AcDbCircle
 10
337.6776729999999
 20
-168.5286409999999
 30
0.0
 40
650.0
100
AcDbArc
 50
93.00154099999998
 51
96.270973
  0
LINE
  5
2A
330
1E
100
AcDbEntity
  8
0
  6
CENTER
100
AcDbLine
 10
-10.170938
 20
398.58197
 30
0.0
 11
414.545319
 21
398.58197
 31
0.0
  0
LINE
  5
2B
330
1E
100
AcDbEntity
  8
0
  6
CONTINUOUS
100
AcDbLine
 10
332.8071899999999
 20
481.34375
 30
0.0
 11
303.642853
 21
480.579803
 31
0.0
  0
LINE
  5
2C
330
1E
100
AcDbEntity
  8
0
  6
CONTINUOUS
100
AcDbLine
 10
352.676575
 20
306.0819089999999
 30
0.0
 11
352.676575
 21
491.081909
 31
0.0
  0
LINE
  5
2D
330
1E
100
AcDbEntity
  8
0
  6
CONTINUOUS
100
AcDbLine
 10
352.1768799999999
 20
305.599365
 30
0.0
 11
340.571808
 21
306.0047609999999
 31
0.0
  0
LINE
  5
2E
330
1E
100
AcDbEntity
  8
0
  6
CONTINUOUS
100
AcDbLine
 10
352.1768799999999
 20
491.564453
 30
0.0
 11
340.571594
 21
491.1590269999999
 31
0.0
  0
LINE
  5
2F
330
1E
100
AcDbEntity
  8
0
  6
CONTINUOUS
100
AcDbLine
 10
337.676575
 20
488.160004
 30
0.0
 11
337.676208
 21
309.002686
 31
0.0
  0
ARC
  5
30
330
1E
100
AcDbEntity
  8
0
  6
CONTINUOUS
100
AcDbCircle
 10
337.6776729999999
 20
965.692383
 30
0.0
 40
650.0
100
AcDbArc
 50
263.7290269999999
 51
266.998459
  0
LINE
  5
31
330
1E
100
AcDbEntity
  8
0
  6
CONTINUOUS
100
AcDbLine
 10
332.807312
 20
315.820068
 30
0.0
 11
303.642853
 21
316.584045
 31
0.0
  0
ARC
  5
32
330
1E
100
AcDbEntity
  8
0
  6
CONTINUOUS
100
AcDbCircle
 10
332.676331
 20
486.3414
 30
0.0
 40
5.0
100
AcDbArc
 50
271.5007019999999
 51
0.0
  0
ARC
  5
33
330
1E
100
AcDbEntity
  8
0
  6
CONTINUOUS
100
AcDbCircle
 10
332.676331
 20
310.822021
 30
0.0
 40
5.0
100
AcDbArc
 50
0.0
 51
88.49942
  0
ARC
  5
34
330
1E
100
AcDbEntity
  8
0
  6
CONTINUOUS
100
AcDbCircle
 10
340.676331
 20
488.160004
 30
0.0
 40
3.0
100
AcDbArc
 50
92.00142700000002
 51
180.0
  0
ARC
  5
35
330
1E
100
AcDbEntity
  8
0
  6
CONTINUOUS
100
AcDbCircle
 10
340.676575
 20
309.002686
 30
0.0
 40
3.0
100
AcDbArc
 50
180.0
 51
267.999115
  0
LINE
  5
36
330
1E
100
AcDbEntity
  8
0
  6
CONTINUOUS
100
AcDbLine
 10
356.676575
 20
314.08197
 30
0.0
 11
356.676575
 21
483.081909
 31
0.0
  0
LINE
  5
37
330
1E
100
AcDbEntity
  8
0
  6
CONTINUOUS
100
AcDbLine
 10
356.176575
 20
483.581909
 30
0.0
 11
352.676575
 21
483.581909
 31
0.0
  0
LINE
  5
38
330
1E
100
AcDbEntity
  8
0
  6
CONTINUOUS
100
AcDbLine
 10
356.176575
 20
313.58197
 30
0.0
 11
352.676575
 21
313.58197
 31
0.0
  0
LINE
  5
39
330
1E
100
AcDbEntity
  8
0
  6
CONTINUOUS
100
AcDbLine
 10
357.676575
 20
413.581879
 30
0.0
 11
357.676575
 21
383.58197
 31
0.0
  0
LINE
  5
3A
330
1E
100
AcDbEntity
  8
0
  6
CONTINUOUS
100
AcDbLine
 10
356.676575
 20
413.581879
 30
0.0
 11
357.676575
 21
413.581879
 31
0.0
  0
LINE
  5
3B
330
1E
100
AcDbEntity
  8
0
  6
CONTINUOUS
100
AcDbLine
 10
356.676575
 20
383.581879
 30
0.0
 11
357.676575
 21
383.58197
 31
0.0
  0
LINE
  5
3C
330
1E
100
AcDbEntity
  8
0
  6
CONTINUOUS
100
AcDbLine
 10
357.676575
 20
412.581879
 30
0.0
 11
402.676575
 21
412.58197
 31
0.0
  0
LINE
  5
3D
330
1E
100
AcDbEntity
  8
0
  6
CONTINUOUS
100
AcDbLine
 10
357.676575
 20
384.581879
 30
0.0
 11
362.676575
 21
384.581879
 31
0.0
  0
LINE
  5
3E
330
1E
100
AcDbEntity
  8
0
  6
CONTINUOUS
100
AcDbLine
 10
402.676575
 20
412.58197
 30
0.0
 11
402.676575
 21
381.581879
 31
0.0
  0
LINE
  5
3F
330
1E
100
AcDbEntity
  8
0
  6
CONTINUOUS
100
AcDbLine
 10
362.676575
 20
385.1659549999999
 30
0.0
 11
362.676575
 21
381.581879
 31
0.0
  0
LINE
  5
40
330
1E
100
AcDbEntity
  8
0
  6
CONTINUOUS
100
AcDbLine
 10
362.676575
 20
381.581879
 30
0.0
 11
402.676575
 21
381.581879
 31
0.0
  0
LINE
  5
41
330
1E
100
AcDbEntity
  8
0
  6
CONTINUOUS
100
AcDbLine
 10
266.676575
 20
319.58197
 30
0.0
 11
266.676575
 21
398.58197
 31
0.0
  0
LINE
  5
42
330
1E
100
AcDbEntity
  8
0
  6
CONTINUOUS
100
AcDbLine
 10
266.676575
 20
477.58197
 30
0.0
 11
266.676575
 21
398.58197
 31
0.0
  0
LINE
  5
43
330
1E
100
AcDbEntity
  8
0
  6
CENTER
100
AcDbLine
 10
358.6073
 20
474.595856
 30
0.0
 11
329.4245
 21
474.595856
 31
0.0
  0
LINE
  5
44
330
1E
100
AcDbEntity
  8
0
  6
CENTER
100
AcDbLine
 10
358.6073
 20
322.568054
 30
0.0
 11
329.4245
 21
322.568054
 31
0.0
  0
LINE
  5
45
330
1E
100
AcDbEntity
  8
0
  6
CONTINUOUS
100
AcDbLine
 10
260.176575
 20
160.972702
 30
0.0
 11
260.1763309999999
 21
7.210086999999999
 31
0.0
  0
LINE
  5
46
330
1E
100
AcDbEntity
  8
0
  6
CONTINUOUS
100
AcDbLine
 10
262.1242069999999
 20
5.210666999999999
 30
0.0
 11
266.676453
 21
5.091366999999999
 31
0.0
  0
LINE
  5
47
330
1E
100
AcDbEntity
  8
0
  6
CONTINUOUS
100
AcDbLine
 10
262.1243289999999
 20
162.972046
 30
0.0
 11
266.676575
 21
163.0913699999999
 31
0.0
  0
ARC
  5
48
330
1E
100
AcDbEntity
  8
0
  6
CONTINUOUS
100
AcDbCircle
 10
262.176697
 20
160.972702
 30
0.0
 40
2.0
100
AcDbArc
 50
91.50093100000001
 51
180.0
  0
ARC
  5
49
330
1E
100
AcDbEntity
  8
0
  6
CONTINUOUS
100
AcDbCircle
 10
262.176575
 20
7.210086999999999
 30
0.0
 40
2.0
100
AcDbArc
 50
180.0
 51
268.499512
  0
LINE
  5
4A
330
1E
100
AcDbEntity
  8
0
  6
CONTINUOUS
100
AcDbLine
 10
265.6929319999999
 20
41.65978599999999
 30
0.0
 11
261.430115
 21
41.65978599999999
 31
0.0
  0
LINE
  5
4B
330
1E
100
AcDbEntity
  8
0
  6
CONTINUOUS
100
AcDbLine
 10
265.6929319999999
 20
28.01378599999999
 30
0.0
 11
261.430115
 21
28.01378599999999
 31
0.0
  0
LINE
  5
4C
330
1E
100
AcDbEntity
  8
0
  6
CONTINUOUS
100
AcDbLine
 10
259.1765749999999
 20
140.0913699999999
 30
0.0
 11
259.1765749999999
 21
25.091368
 31
0.0
  0
LINE
  5
4D
330
1E
100
AcDbEntity
  8
0
  6
CENTER
100
AcDbLine
 10
-7.302186999999999
 20
82.59137
 30
0.0
 11
318.121643
 21
82.59137
 31
0.0
  0
LINE
  5
4E
330
1E
100
AcDbEntity
  8
0
  6
CONTINUOUS
100
AcDbLine
 10
266.676575
 20
319.58197
 30
0.0
 11
266.676575
 21
398.58197
 31
0.0
  0
LINE
  5
4F
330
1E
100
AcDbEntity
  8
0
  6
CONTINUOUS
100
AcDbLine
 10
266.676575
 20
477.58197
 30
0.0
 11
266.676575
 21
398.58197
 31
0.0
  0
LINE
  5
50
330
1E
100
AcDbEntity
  8
0
  6
CONTINUOUS
100
AcDbLine
 10
266.676575
 20
477.431946
 30
0.0
 11
266.676575
 21
319.7319639999999
 31
0.0
  0
LINE
  5
51
330
1E
100
AcDbEntity
  8
0
  6
CONTINUOUS
100
AcDbLine
 10
260.1761779999999
 20
475.46347
 30
0.0
 11
260.1761779999999
 21
321.700439
 31
0.0
  0
LINE
  5
52
330
1E
100
AcDbEntity
  8
0
  6
CONTINUOUS
100
AcDbLine
 10
259.176361
 20
456.08197
 30
0.0
 11
259.176361
 21
341.08197
 31
0.0
  0
LINE
  5
53
330
1E
100
AcDbEntity
  8
0
  6
CONTINUOUS
100
AcDbLine
 10
356.176575
 20
483.581909
 30
0.0
 11
356.676575
 21
483.081909
 31
0.0
  0
LINE
  5
54
330
1E
100
AcDbEntity
  8
0
  6
CONTINUOUS
100
AcDbLine
 10
352.1768799999999
 20
491.564453
 30
0.0
 11
352.676575
 21
491.081909
 31
0.0
  0
LINE
  5
55
330
1E
100
AcDbEntity
  8
0
  6
CONTINUOUS
100
AcDbLine
 10
356.176575
 20
313.58197
 30
0.0
 11
356.676575
 21
314.08197
 31
0.0
  0
LINE
  5
56
330
1E
100
AcDbEntity
  8
0
  6
CONTINUOUS
100
AcDbLine
 10
352.1768799999999
 20
305.599365
 30
0.0
 11
352.676575
 21
306.0819089999999
 31
0.0
  0
LINE
  5
57
330
1E
100
AcDbEntity
  8
0
  6
CENTER
100
AcDbLine
 10
305.676575
 20
106.091431
 30
0.0
 11
413.4265749999999
 21
106.091431
 31
0.0
  0
LINE
  5
58
330
1E
100
AcDbEntity
  8
0
  6
CONTINUOUS
100
AcDbLine
 10
356.6763919999999
 20
186.5914459999999
 30
0.0
 11
356.6763919999999
 21
190.5914459999999
 31
0.0
  0
LINE
  5
59
330
1E
100
AcDbEntity
  8
0
  6
CONTINUOUS
100
AcDbLine
 10
356.1763919999999
 20
191.0914459999999
 30
0.0
 11
352.6763919999999
 21
191.0914459999999
 31
0.0
  0
LINE
  5
5A
330
1E
100
AcDbEntity
  8
0
  6
CONTINUOUS
100
AcDbLine
 10
352.6763919999999
 20
21.09136799999999
 30
0.0
 11
356.1763919999999
 21
21.09136799999999
 31
0.0
  0
LINE
  5
5B
330
1E
100
AcDbEntity
  8
0
  6
CONTINUOUS
100
AcDbLine
 10
266.676575
 20
5.091247
 30
0.0
 11
266.676575
 21
82.59137
 31
0.0
  0
LINE
  5
5C
330
1E
100
AcDbEntity
  8
0
  6
CONTINUOUS
100
AcDbLine
 10
266.676575
 20
163.0913699999999
 30
0.0
 11
266.676575
 21
82.59137
 31
0.0
  0
ARC
  5
5D
330
1E
100
AcDbEntity
  8
0
  6
CONTINUOUS
100
AcDbCircle
 10
337.6755979999999
 20
-483.019196
 30
0.0
 40
650.0
100
AcDbArc
 50
93.00154099999998
 51
96.270973
  0
ARC
  5
5E
330
1E
100
AcDbEntity
  8
0
  6
CONTINUOUS
100
AcDbCircle
 10
337.6755979999999
 20
651.2020259999999
 30
0.0
 40
650.0
100
AcDbArc
 50
263.7291259999999
 51
266.227631
  0
LINE
  5
5F
330
1E
100
AcDbEntity
  8
0
  6
CONTINUOUS
100
AcDbLine
 10
356.1763919999999
 20
191.0914459999999
 30
0.0
 11
356.6763919999999
 21
190.5914459999999
 31
0.0
  0
LINE
  5
60
330
1E
100
AcDbEntity
  8
0
  6
CONTINUOUS
100
AcDbLine
 10
337.675964
 20
195.6704099999999
 30
0.0
 11
337.675964
 21
4.012563
 31
0.0
  0
LINE
  5
61
330
1E
100
AcDbEntity
  8
0
  6
CONTINUOUS
100
AcDbLine
 10
352.6763919999999
 20
198.591309
 30
0.0
 11
352.6763919999999
 21
1.091307
 31
0.0
  0
LINE
  5
62
330
1E
100
AcDbEntity
  8
0
  6
CONTINUOUS
100
AcDbLine
 10
356.1763919999999
 20
21.09136799999999
 30
0.0
 11
356.6763919999999
 21
21.591368
 31
0.0
  0
LINE
  5
63
330
1E
100
AcDbEntity
  8
0
  6
CONTINUOUS
100
AcDbLine
 10
268.6417539999999
 20
41.659725
 30
0.0
 11
332.889191
 21
42.220387
 31
0.0
  0
LINE
  5
64
330
1E
100
AcDbEntity
  8
0
  6
CONTINUOUS
100
AcDbLine
 10
268.6417539999999
 20
28.013727
 30
0.0
 11
332.889191
 21
27.45344699999999
 31
0.0
  0
LINE
  5
65
330
1E
100
AcDbEntity
  8
0
  6
CONTINUOUS
100
AcDbLine
 10
356.6763919999999
 20
186.5914459999999
 30
0.0
 11
356.6763919999999
 21
21.591368
 31
0.0
  0
LINE
  5
66
330
1E
100
AcDbEntity
  8
0
  6
CONTINUOUS
100
AcDbLine
 10
352.176697
 20
0.608772
 30
0.0
 11
294.910248
 21
2.610358
 31
0.0
  0
LINE
  5
67
330
1E
100
AcDbEntity
  8
0
  6
CONTINUOUS
100
AcDbLine
 10
332.8073729999999
 20
166.853348
 30
0.0
 11
303.640594
 21
166.08931
 31
0.0
  0
ARC
  5
68
330
1E
100
AcDbEntity
  8
0
  6
CONTINUOUS
100
AcDbCircle
 10
332.6763919999999
 20
171.851501
 30
0.0
 40
5.0
100
AcDbArc
 50
271.50061
 51
0.0
  0
LINE
  5
69
330
1E
100
AcDbEntity
  8
0
  6
CONTINUOUS
100
AcDbLine
 10
357.6763919999999
 20
121.091309
 30
0.0
 11
357.676178
 21
91.091309
 31
0.0
  0
LINE
  5
6A
330
1E
100
AcDbEntity
  8
0
  6
CONTINUOUS
100
AcDbLine
 10
356.6763919999999
 20
121.091309
 30
0.0
 11
357.6763919999999
 21
121.091309
 31
0.0
  0
LINE
  5
6B
330
1E
100
AcDbEntity
  8
0
  6
CONTINUOUS
100
AcDbLine
 10
357.676178
 20
120.091309
 30
0.0
 11
402.6763919999999
 21
120.091309
 31
0.0
  0
LINE
  5
6C
330
1E
100
AcDbEntity
  8
0
  6
CONTINUOUS
100
AcDbLine
 10
356.6763919999999
 20
91.091431
 30
0.0
 11
357.676178
 21
91.091309
 31
0.0
  0
LINE
  5
6D
330
1E
100
AcDbEntity
  8
0
  6
CONTINUOUS
100
AcDbLine
 10
357.6763919999999
 20
92.091431
 30
0.0
 11
402.6763919999999
 21
92.091431
 31
0.0
  0
LINE
  5
6E
330
1E
100
AcDbEntity
  8
0
  6
CONTINUOUS
100
AcDbLine
 10
402.6763919999999
 20
120.091309
 30
0.0
 11
402.6763919999999
 21
92.091431
 31
0.0
  0
LINE
  5
6F
330
1E
100
AcDbEntity
  8
0
  6
CONTINUOUS
100
AcDbLine
 10
366.6763919999999
 20
110.091309
 30
0.0
 11
402.6763919999999
 21
110.091309
 31
0.0
  0
LINE
  5
70
330
1E
100
AcDbEntity
  8
0
  6
CONTINUOUS
100
AcDbLine
 10
366.6763919999999
 20
102.091309
 30
0.0
 11
402.6763919999999
 21
102.091309
 31
0.0
  0
ARC
  5
71
330
1E
100
AcDbEntity
  8
0
  6
CONTINUOUS
100
AcDbCircle
 10
366.6763919999999
 20
106.091431
 30
0.0
 40
4.0
100
AcDbArc
 50
90.0
 51
270.0
  0
ARC
  5
72
330
1E
100
AcDbEntity
  8
0
  6
CONTINUOUS
100
AcDbCircle
 10
340.6763919999999
 20
4.012563
 30
0.0
 40
3.0
100
AcDbArc
 50
180.0
 51
267.998596
  0
LINE
  5
73
330
1E
100
AcDbEntity
  8
0
  6
CENTER
100
AcDbLine
 10
358.607117
 20
30.077532
 30
0.0
 11
329.424286
 21
30.077532
 31
0.0
  0
LINE
  5
74
330
1E
100
AcDbEntity
  8
0
  6
CONTINUOUS
100
AcDbLine
 10
352.176697
 20
199.073853
 30
0.0
 11
340.571289
 21
198.6685939999999
 31
0.0
  0
LINE
  5
75
330
1E
100
AcDbEntity
  8
0
  6
CONTINUOUS
100
AcDbLine
 10
352.176697
 20
0.608772
 30
0.0
 11
352.6763919999999
 21
1.091307
 31
0.0
  0
ARC
  5
76
330
1E
100
AcDbEntity
  8
0
  6
CONTINUOUS
100
AcDbCircle
 10
340.675995
 20
195.6704099999999
 30
0.0
 40
3.0
100
AcDbArc
 50
91.99999999999999
 51
180.0
  0
LINE
  5
77
330
1E
100
AcDbEntity
  8
0
  6
CONTINUOUS
100
AcDbLine
 10
352.176697
 20
199.073853
 30
0.0
 11
352.6763919999999
 21
198.591309
 31
0.0
  0
LINE
  5
78
330
1E
100
AcDbEntity
  8
0
  6
CENTER
100
AcDbLine
 10
358.607117
 20
182.105331
 30
0.0
 11
329.424286
 21
182.105331
 31
0.0
  0
LINE
  5
79
330
1E
100
AcDbEntity
  8
0
  6
CONTINUOUS
100
AcDbLine
 10
259.176361
 20
456.08197
 30
0.0
 11
259.693604
 21
456.1000059999999
 31
0.0
  0
ARC
  5
7A
330
1E
100
AcDbEntity
  8
0
  6
CONTINUOUS
100
AcDbCircle
 10
259.676147
 20
456.599701
 30
0.0
 40
0.5
100
AcDbArc
 50
272.0000989999999
 51
0.0
  0
LINE
  5
7B
330
1E
100
AcDbEntity
  8
0
  6
CONTINUOUS
100
AcDbLine
 10
259.176361
 20
341.08197
 30
0.0
 11
259.6933899999999
 21
341.0639039999999
 31
0.0
  0
ARC
  5
7C
330
1E
100
AcDbEntity
  8
0
  6
CONTINUOUS
100
AcDbCircle
 10
259.675964
 20
340.564209
 30
0.0
 40
0.5
100
AcDbArc
 50
0.0
 51
88.0
  0
LINE
  5
7D
330
1E
100
AcDbEntity
  8
0
  6
CONTINUOUS
100
AcDbLine
 10
259.1765749999999
 20
140.0913699999999
 30
0.0
 11
259.69397
 21
140.109436
 31
0.0
  0
ARC
  5
7E
330
1E
100
AcDbEntity
  8
0
  6
CONTINUOUS
100
AcDbCircle
 10
259.6765439999999
 20
140.609131
 30
0.0
 40
0.5
100
AcDbArc
 50
272.000092
 51
0.0
  0
LINE
  5
7F
330
1E
100
AcDbEntity
  8
0
  6
CONTINUOUS
100
AcDbLine
 10
259.1765749999999
 20
25.091368
 30
0.0
 11
259.693787
 21
25.073305
 31
0.0
  0
ARC
  5
80
330
1E
100
AcDbEntity
  8
0
  6
CONTINUOUS
100
AcDbCircle
 10
259.6763609999999
 20
24.573608
 30
0.0
 40
0.5
100
AcDbArc
 50
0.0
 51
88.0
  0
LINE
  5
81
330
1E
100
AcDbEntity
  8
0
  6
CONTINUOUS
100
AcDbLine
 10
262.1238399999999
 20
477.4627989999999
 30
0.0
 11
266.6777039999999
 21
477.5820309999999
 31
0.0
  0
ARC
  5
82
330
1E
100
AcDbEntity
  8
0
  6
CONTINUOUS
100
AcDbCircle
 10
262.1761779999999
 20
475.46347
 30
0.0
 40
2.0
100
AcDbArc
 50
91.5
 51
180.0
  0
LINE
  5
83
330
1E
100
AcDbEntity
  8
0
  6
CONTINUOUS
100
AcDbLine
 10
262.1238399999999
 20
319.7011109999999
 30
0.0
 11
266.6777039999999
 21
319.581879
 31
0.0
  0
ARC
  5
84
330
1E
100
AcDbEntity
  8
0
  6
CONTINUOUS
100
AcDbCircle
 10
262.1761779999999
 20
321.700439
 30
0.0
 40
2.0
100
AcDbArc
 50
180.0
 51
268.5
  0
LINE
  5
85
330
1E
100
AcDbEntity
  8
0
  6
CONTINUOUS
100
AcDbLine
 10
362.676575
 20
385.1659549999999
 30
0.0
 11
402.676575
 21
385.1659549999999
 31
0.0
  0
LINE
  5
86
330
1E
100
AcDbEntity
  8
0
  6
DASHED
100
AcDbLine
 10
352.676575
 20
480.0958559999999
 30
0.0
 11
337.676147
 21
480.0958559999999
 31
0.0
  0
LINE
  5
87
330
1E
100
AcDbEntity
  8
0
  6
DASHED
100
AcDbLine
 10
352.676575
 20
469.0958559999999
 30
0.0
 11
337.676147
 21
469.0958559999999
 31
0.0
  0
LINE
  5
88
330
1E
100
AcDbEntity
  8
0
  6
DASHED
100
AcDbLine
 10
352.676575
 20
328.068054
 30
0.0
 11
337.676147
 21
328.068054
 31
0.0
  0
LINE
  5
89
330
1E
100
AcDbEntity
  8
0
  6
DASHED
100
AcDbLine
 10
352.676575
 20
317.068054
 30
0.0
 11
337.676147
 21
317.068054
 31
0.0
  0
LINE
  5
8A
330
1E
100
AcDbEntity
  8
0
  6
DASHED
100
AcDbLine
 10
352.6763919999999
 20
187.6053309999999
 30
0.0
 11
337.675964
 21
187.6053309999999
 31
0.0
  0
LINE
  5
8B
330
1E
100
AcDbEntity
  8
0
  6
DASHED
100
AcDbLine
 10
352.6763919999999
 20
176.605331
 30
0.0
 11
337.675964
 21
176.605331
 31
0.0
  0
LINE
  5
8C
330
1E
100
AcDbEntity
  8
0
  6
DASHED
100
AcDbLine
 10
352.6763919999999
 20
35.57752999999999
 30
0.0
 11
337.675964
 21
35.57752999999999
 31
0.0
  0
LINE
  5
8D
330
1E
100
AcDbEntity
  8
0
  6
DASHED
100
AcDbLine
 10
352.6763919999999
 20
24.577532
 30
0.0
 11
337.675964
 21
24.577532
 31
0.0
  0
LINE
  5
8E
330
1E
100
AcDbEntity
  8
0
  6
CONTINUOUS
100
AcDbLine
 10
166.176361
 20
456.08197
 30
0.0
 11
166.176361
 21
341.08197
 31
0.0
  0
LINE
  5
8F
330
1E
100
AcDbEntity
  8
0
  6
CONTINUOUS
100
AcDbLine
 10
254.1763609999999
 20
456.08197
 30
0.0
 11
259.176361
 21
456.08197
 31
0.0
  0
LINE
  5
90
330
1E
100
AcDbEntity
  8
0
  6
CONTINUOUS
100
AcDbLine
 10
254.1763609999999
 20
341.08197
 30
0.0
 11
259.176361
 21
341.08197
 31
0.0
  0
LINE
  5
91
330
1E
100
AcDbEntity
  8
0
  6
CONTINUOUS
100
AcDbLine
 10
254.1763609999999
 20
456.08197
 30
0.0
 11
254.1763609999999
 21
341.08197
 31
0.0
  0
LINE
  5
92
330
1E
100
AcDbEntity
  8
0
  6
CONTINUOUS
100
AcDbLine
 10
246.1763609999999
 20
343.33197
 30
0.0
 11
246.1763609999999
 21
453.83197
 31
0.0
  0
LINE
  5
93
330
1E
100
AcDbEntity
  8
0
  6
CONTINUOUS
100
AcDbLine
 10
183.176361
 20
341.33197
 30
0.0
 11
183.176361
 21
455.83197
 31
0.0
  0
LINE
  5
94
330
1E
100
AcDbEntity
  8
0
  6
CONTINUOUS
100
AcDbLine
 10
191.176361
 20
343.33197
 30
0.0
 11
191.176361
 21
453.83197
 31
0.0
  0
LINE
  5
95
330
1E
100
AcDbEntity
  8
0
  6
CONTINUOUS
100
AcDbLine
 10
166.176361
 20
455.83197
 30
0.0
 11
189.176361
 21
455.83197
 31
0.0
  0
LINE
  5
96
330
1E
100
AcDbEntity
  8
0
  6
CONTINUOUS
100
AcDbLine
 10
166.176361
 20
341.33197
 30
0.0
 11
174.676544
 21
341.33197
 31
0.0
  0
LINE
  5
97
330
1E
100
AcDbEntity
  8
0
  6
CONTINUOUS
100
AcDbLine
 10
248.1763609999999
 20
341.33197
 30
0.0
 11
254.1763609999999
 21
341.33197
 31
0.0
  0
LINE
  5
98
330
1E
100
AcDbEntity
  8
0
  6
CONTINUOUS
100
AcDbLine
 10
248.1763609999999
 20
455.83197
 30
0.0
 11
254.1763609999999
 21
455.83197
 31
0.0
  0
ARC
  5
99
330
1E
100
AcDbEntity
  8
0
  6
CONTINUOUS
100
AcDbCircle
 10
189.176361
 20
453.83197
 30
0.0
 40
2.0
100
AcDbArc
 50
0.0
 51
90.0
  0
ARC
  5
9A
330
1E
100
AcDbEntity
  8
0
  6
CONTINUOUS
100
AcDbCircle
 10
248.1763609999999
 20
453.83197
 30
0.0
 40
2.0
100
AcDbArc
 50
90.0
 51
180.0
  0
LINE
  5
9B
330
1E
100
AcDbEntity
  8
0
  6
CONTINUOUS
100
AcDbLine
 10
192.7732389999999
 20
453.58197
 30
0.0
 11
244.579498
 21
453.58197
 31
0.0
  0
ARC
  5
9C
330
1E
100
AcDbEntity
  8
0
  6
CONTINUOUS
100
AcDbCircle
 10
244.579498
 20
455.5819699999999
 30
0.0
 40
2.0
100
AcDbArc
 50
270.0
 51
334.0555109999999
  0
ARC
  5
9D
330
1E
100
AcDbEntity
  8
0
  6
CONTINUOUS
100
AcDbCircle
 10
192.7732389999999
 20
455.5819699999999
 30
0.0
 40
2.0
100
AcDbArc
 50
205.944473
 51
270.0
  0
ARC
  5
9E
330
1E
100
AcDbEntity
  8
0
  6
CONTINUOUS
100
AcDbCircle
 10
189.176361
 20
343.33197
 30
0.0
 40
2.0
100
AcDbArc
 50
270.0
 51
0.0
  0
ARC
  5
9F
330
1E
100
AcDbEntity
  8
0
  6
CONTINUOUS
100
AcDbCircle
 10
248.1763609999999
 20
343.33197
 30
0.0
 40
2.0
100
AcDbArc
 50
180.0
 51
270.0
  0
LINE
  5
A0
330
1E
100
AcDbEntity
  8
0
  6
CONTINUOUS
100
AcDbLine
 10
192.7732389999999
 20
343.58197
 30
0.0
 11
224.676544
 21
343.58197
 31
0.0
  0
ARC
  5
A1
330
1E
100
AcDbEntity
  8
0
  6
CONTINUOUS
100
AcDbCircle
 10
244.579498
 20
341.58197
 30
0.0
 40
2.0
100
AcDbArc
 50
25.94448900000003
 51
90.0
  0
ARC
  5
A2
330
1E
100
AcDbEntity
  8
0
  6
CONTINUOUS
100
AcDbCircle
 10
192.7732389999999
 20
341.58197
 30
0.0
 40
2.0
100
AcDbArc
 50
90.0
 51
154.055527
  0
LINE
  5
A3
330
1E
100
AcDbEntity
  8
0
  6
CONTINUOUS
100
AcDbLine
 10
192.7732389999999
 20
365.58197
 30
0.0
 11
244.579498
 21
365.58197
 31
0.0
  0
LINE
  5
A4
330
1E
100
AcDbEntity
  8
0
  6
CONTINUOUS
100
AcDbLine
 10
192.7732389999999
 20
431.58197
 30
0.0
 11
244.579498
 21
431.58197
 31
0.0
  0
LINE
  5
A5
330
1E
100
AcDbEntity
  8
0
  6
CONTINUOUS
100
AcDbLine
 10
222.1763609999999
 20
344.08197
 30
0.0
 11
230.176361
 21
344.08197
 31
0.0
  0
LINE
  5
A6
330
1E
100
AcDbEntity
  8
0
  6
CONTINUOUS
100
AcDbLine
 10
230.176361
 20
346.6108089999999
 30
0.0
 11
230.176361
 21
344.08197
 31
0.0
  0
LINE
  5
A7
330
1E
100
AcDbEntity
  8
0
  6
CONTINUOUS
100
AcDbLine
 10
222.1763609999999
 20
346.6108089999999
 30
0.0
 11
222.1763609999999
 21
344.08197
 31
0.0
  0
LINE
  5
A8
330
1E
100
AcDbEntity
  8
0
  6
CONTINUOUS
100
AcDbLine
 10
175.487473
 20
343.7185359999999
 30
0.0
 11
174.674683
 21
343.639252
 31
0.0
  0
LINE
  5
A9
330
1E
100
AcDbEntity
  8
0
  6
CONTINUOUS
100
AcDbLine
 10
174.6753079999999
 20
343.637604
 30
0.0
 11
174.054886
 21
343.4022829999999
 31
0.0
  0
LINE
  5
AA
330
1E
100
AcDbEntity
  8
0
  6
CONTINUOUS
100
AcDbLine
 10
174.040207
 20
343.419037
 30
0.0
 11
173.80661
 21
343.2146609999999
 31
0.0
  0
LINE
  5
AB
330
1E
100
AcDbEntity
  8
0
  6
CONTINUOUS
100
AcDbLine
 10
173.817902
 20
343.201752
 30
0.0
 11
173.839401
 21
342.943787
 31
0.0
  0
LINE
  5
AC
330
1E
100
AcDbEntity
  8
0
  6
CONTINUOUS
100
AcDbLine
 10
173.8725889999999
 20
342.9465329999999
 30
0.0
 11
174.036652
 21
342.8006899999999
 31
0.0
  0
LINE
  5
AD
330
1E
100
AcDbEntity
  8
0
  6
CONTINUOUS
100
AcDbLine
 10
174.030045
 20
342.763275
 30
0.0
 11
174.437698
 21
342.691345
 31
0.0
  0
LINE
  5
AE
330
1E
100
AcDbEntity
  8
0
  6
CONTINUOUS
100
AcDbLine
 10
174.440506
 20
342.7137759999999
 30
0.0
 11
174.676544
 21
342.6842649999999
 31
0.0
  0
LINE
  5
AF
330
1E
100
AcDbEntity
  8
0
  6
CONTINUOUS
100
AcDbLine
 10
176.8257139999999
 20
343.7486269999999
 30
0.0
 11
177.208527
 21
343.6574709999999
 31
0.0
  0
LINE
  5
B0
330
1E
100
AcDbEntity
  8
0
  6
CONTINUOUS
100
AcDbLine
 10
177.208527
 20
343.6574709999999
 30
0.0
 11
177.737183
 21
343.566345
 31
0.0
  0
LINE
  5
B1
330
1E
100
AcDbEntity
  8
0
  6
CONTINUOUS
100
AcDbLine
 10
177.737183
 20
343.566345
 30
0.0
 11
178.083527
 21
343.493408
 31
0.0
  0
LINE
  5
B2
330
1E
100
AcDbEntity
  8
0
  6
CONTINUOUS
100
AcDbLine
 10
178.083527
 20
343.493408
 30
0.0
 11
178.265823
 21
343.420502
 31
0.0
  0
LINE
  5
B3
330
1E
100
AcDbEntity
  8
0
  6
CONTINUOUS
100
AcDbLine
 10
178.2972409999999
 20
343.4506839999999
 30
0.0
 11
178.4481199999999
 21
343.2746579999999
 31
0.0
  0
LINE
  5
B4
330
1E
100
AcDbEntity
  8
0
  6
CONTINUOUS
100
AcDbLine
 10
178.4481199999999
 20
343.256439
 30
0.0
 11
178.5337979999999
 21
343.085083
 31
0.0
  0
LINE
  5
B5
330
1E
100
AcDbEntity
  8
0
  6
CONTINUOUS
100
AcDbLine
 10
178.484573
 20
343.037689
 30
0.0
 11
178.338745
 21
342.8918459999999
 31
0.0
  0
LINE
  5
B6
330
1E
100
AcDbEntity
  8
0
  6
CONTINUOUS
100
AcDbLine
 10
178.326996
 20
342.8578799999999
 30
0.0
 11
177.828323
 21
342.7277829999999
 31
0.0
  0
LINE
  5
B7
330
1E
100
AcDbEntity
  8
0
  6
CONTINUOUS
100
AcDbLine
 10
177.819534
 20
342.7117309999999
 30
0.0
 11
177.676544
 21
342.7049259999999
 31
0.0
  0
LINE
  5
B8
330
1E
100
AcDbEntity
  8
0
  6
CONTINUOUS
100
AcDbLine
 10
175.487473
 20
343.7185359999999
 30
0.0
 11
175.768433
 21
343.7258299999999
 31
0.0
  0
LINE
  5
B9
330
1E
100
AcDbEntity
  8
0
  6
CONTINUOUS
100
AcDbLine
 10
175.768433
 20
343.7258299999999
 30
0.0
 11
176.351761
 21
343.7349549999999
 31
0.0
  0
LINE
  5
BA
330
1E
100
AcDbEntity
  8
0
  6
CONTINUOUS
100
AcDbLine
 10
176.351761
 20
343.7349549999999
 30
0.0
 11
176.8257139999999
 21
343.7486269999999
 31
0.0
  0
ARC
  5
BB
330
1E
100
AcDbEntity
  8
0
  6
CONTINUOUS
100
AcDbCircle
 10
226.176361
 20
337.445648
 30
0.0
 40
10.0
100
AcDbArc
 50
66.42182199999999
 51
113.578178
  0
LINE
  5
BC
330
1E
100
AcDbEntity
  8
0
  6
CONTINUOUS
100
AcDbLine
 10
183.176559
 20
139.841476
 30
0.0
 11
183.176559
 21
25.34148
 31
0.0
  0
LINE
  5
BD
330
1E
100
AcDbEntity
  8
0
  6
CONTINUOUS
100
AcDbLine
 10
183.176559
 20
139.841476
 30
0.0
 11
166.1765589999999
 21
139.841476
 31
0.0
  0
LINE
  5
BE
330
1E
100
AcDbEntity
  8
0
  6
CONTINUOUS
100
AcDbLine
 10
183.176559
 20
25.34148
 30
0.0
 11
166.1765589999999
 21
25.34148
 31
0.0
  0
LINE
  5
BF
330
1E
100
AcDbEntity
  8
0
  6
CONTINUOUS
100
AcDbLine
 10
176.1765589999999
 20
96.591476
 30
0.0
 11
176.1765589999999
 21
70.841476
 31
0.0
  0
LINE
  5
C0
330
1E
100
AcDbEntity
  8
0
  6
CONTINUOUS
100
AcDbLine
 10
177.676559
 20
96.591476
 30
0.0
 11
177.676559
 21
69.903976
 31
0.0
  0
LINE
  5
C1
330
1E
100
AcDbEntity
  8
0
  6
CONTINUOUS
100
AcDbLine
 10
174.676559
 20
96.591476
 30
0.0
 11
174.676559
 21
70.30148299999999
 31
0.0
  0
LINE
  5
C2
330
1E
100
AcDbEntity
  8
0
  6
CONTINUOUS
100
AcDbLine
 10
174.676559
 20
70.30148299999999
 30
0.0
 11
176.151566
 21
71.997726
 31
0.0
  0
LINE
  5
C3
330
1E
100
AcDbEntity
  8
0
  6
CONTINUOUS
100
AcDbLine
 10
176.1809839999999
 20
70.848831
 30
0.0
 11
177.697525
 21
69.938911
 31
0.0
  0
ARC
  5
C4
330
1E
100
AcDbEntity
  8
0
  6
CONTINUOUS
100
AcDbCircle
 10
176.926559
 20
96.591476
 30
0.0
 40
0.75
100
AcDbArc
 50
0.0
 51
180.0
  0
ARC
  5
C5
330
1E
100
AcDbEntity
  8
0
  6
CONTINUOUS
100
AcDbCircle
 10
175.4265589999999
 20
96.591476
 30
0.0
 40
0.75
100
AcDbArc
 50
0.0
 51
180.0
  0
ARC
  5
C6
330
1E
100
AcDbEntity
  8
0
  6
CONTINUOUS
100
AcDbCircle
 10
176.1765589999999
 20
96.591476
 30
0.0
 40
3.0
100
AcDbArc
 50
300.0000609999999
 51
239.999893
  0
LINE
  5
C7
330
1E
100
AcDbEntity
  8
0
  6
CONTINUOUS
100
AcDbLine
 10
166.1765589999999
 20
140.091476
 30
0.0
 11
166.1765589999999
 21
25.09147999999999
 31
0.0
  0
LINE
  5
C8
330
1E
100
AcDbEntity
  8
0
  6
CONTINUOUS
100
AcDbLine
 10
254.176559
 20
140.091476
 30
0.0
 11
259.1765749999999
 21
140.091476
 31
0.0
  0
LINE
  5
C9
330
1E
100
AcDbEntity
  8
0
  6
CONTINUOUS
100
AcDbLine
 10
254.176559
 20
25.09147999999999
 30
0.0
 11
259.1765749999999
 21
25.09147999999999
 31
0.0
  0
LINE
  5
CA
330
1E
100
AcDbEntity
  8
0
  6
CONTINUOUS
100
AcDbLine
 10
254.176559
 20
140.091476
 30
0.0
 11
254.176559
 21
25.09147999999999
 31
0.0
  0
LINE
  5
CB
330
1E
100
AcDbEntity
  8
0
  6
CENTER
100
AcDbLine
 10
514.1469729999999
 20
106.0913699999999
 30
0.0
 11
752.442383
 21
106.0913699999999
 31
0.0
  0
LINE
  5
CC
330
1E
100
AcDbEntity
  8
0
  6
CENTER
100
AcDbLine
 10
635.5165409999999
 20
231.95137
 30
0.0
 11
635.5165409999999
 21
-23.01373299999999
 31
0.0
  0
LINE
  5
CD
330
1E
100
AcDbEntity
  8
0
  6
CENTER
100
AcDbLine
 10
734.64679
 20
205.221161
 30
0.0
 11
635.5165409999999
 21
106.0913699999999
 31
0.0
  0
LINE
  5
CE
330
1E
100
AcDbEntity
  8
0
  6
CENTER
100
AcDbLine
 10
733.999146
 20
7.608886999999999
 30
0.0
 11
635.5165409999999
 21
106.0913699999999
 31
0.0
  0
LINE
  5
CF
330
1E
100
AcDbEntity
  8
0
  6
CENTER
100
AcDbLine
 10
538.698975
 20
202.9087679999999
 30
0.0
 11
635.5165409999999
 21
106.0913699999999
 31
0.0
  0
LINE
  5
D0
330
1E
100
AcDbEntity
  8
0
  6
CENTER
100
AcDbLine
 10
537.7707519999999
 20
8.347186999999999
 30
0.0
 11
635.5165409999999
 21
106.0913699999999
 31
0.0
  0
CIRCLE
  5
D1
330
1E
100
AcDbEntity
  8
0
  6
CONTINUOUS
100
AcDbCircle
 10
559.5027469999999
 20
30.07714699999999
 30
0.0
 40
5.5
  0
CIRCLE
  5
D2
330
1E
100
AcDbEntity
  8
0
  6
CONTINUOUS
100
AcDbCircle
 10
559.5027469999999
 20
182.1052859999999
 30
0.0
 40
5.5
  0
LINE
  5
D3
330
1E
100
AcDbEntity
  8
0
  6
CENTER
100
AcDbLine
 10
504.7415769999999
 20
82.59137
 30
0.0
 11
752.442383
 21
82.59137
 31
0.0
  0
CIRCLE
  5
D4
330
1E
100
AcDbEntity
  8
0
  6
CONTINUOUS
100
AcDbCircle
 10
635.5165409999999
 20
106.0913699999999
 30
0.0
 40
85.0
  0
ARC
  5
D5
330
1E
100
AcDbEntity
  8
0
  6
CONTINUOUS
100
AcDbCircle
 10
635.5165409999999
 20
-450.908844
 30
0.0
 40
650.0
100
AcDbArc
 50
90.0
 51
96.84319300000002
  0
ARC
  5
D6
330
1E
100
AcDbEntity
  8
0
  6
CONTINUOUS
100
AcDbCircle
 10
1192.516601999999
 20
106.0913699999999
 30
0.0
 40
650.0
100
AcDbArc
 50
173.1569059999999
 51
186.9355009999999
  0
ARC
  5
D7
330
1E
100
AcDbEntity
  8
0
  6
CONTINUOUS
100
AcDbCircle
 10
559.557983
 20
182.0499879999999
 30
0.0
 40
12.5
100
AcDbArc
 50
96.84353600000001
 51
173.1573939999999
  0
CIRCLE
  5
D8
330
1E
100
AcDbEntity
  8
0
  6
CONTINUOUS
100
AcDbCircle
 10
711.530334
 20
30.07714699999999
 30
0.0
 40
5.5
  0
ARC
  5
D9
330
1E
100
AcDbEntity
  8
0
  6
CONTINUOUS
100
AcDbCircle
 10
78.51670799999999
 20
106.0913699999999
 30
0.0
 40
650.0
100
AcDbArc
 50
353.0644839999999
 51
6.843079
  0
CIRCLE
  5
DA
330
1E
100
AcDbEntity
  8
0
  6
CONTINUOUS
100
AcDbCircle
 10
711.530334
 20
182.1052859999999
 30
0.0
 40
5.5
  0
ARC
  5
DB
330
1E
100
AcDbEntity
  8
0
  6
CONTINUOUS
100
AcDbCircle
 10
635.5165409999999
 20
-450.908844
 30
0.0
 40
650.0
100
AcDbArc
 50
83.15680699999999
 51
90.0
  0
ARC
  5
DC
330
1E
100
AcDbEntity
  8
0
  6
CONTINUOUS
100
AcDbCircle
 10
711.4749759999999
 20
182.0499879999999
 30
0.0
 40
12.5
100
AcDbArc
 50
6.842635999999999
 51
83.156464
  0
CIRCLE
  5
DD
330
1E
100
AcDbEntity
  8
0
  6
CONTINUOUS
100
AcDbCircle
 10
635.5165409999999
 20
106.0913699999999
 30
0.0
 40
80.0
  0
ARC
  5
DE
330
1E
100
AcDbEntity
  8
0
  6
CONTINUOUS
100
AcDbCircle
 10
711.530762
 20
182.1052859999999
 30
0.0
 40
12.5
100
AcDbArc
 50
172.503296
 51
277.496796
  0
ARC
  5
DF
330
1E
100
AcDbEntity
  8
0
  6
CONTINUOUS
100
AcDbCircle
 10
635.5165409999999
 20
-450.908844
 30
0.0
 40
643.0
100
AcDbArc
 50
84.724152
 51
86.20961800000001
  0
ARC
  5
E0
330
1E
100
AcDbEntity
  8
0
  6
CONTINUOUS
100
AcDbCircle
 10
78.51670799999999
 20
106.0913699999999
 30
0.0
 40
643.0
100
AcDbArc
 50
354.7242129999999
 51
356.209808
  0
ARC
  5
E1
330
1E
100
AcDbEntity
  8
0
  6
CONTINUOUS
100
AcDbCircle
 10
78.51670799999999
 20
106.0913699999999
 30
0.0
 40
643.0
100
AcDbArc
 50
3.790226999999999
 51
5.275741
  0
ARC
  5
E2
330
1E
100
AcDbEntity
  8
0
  6
CONTINUOUS
100
AcDbCircle
 10
559.504333
 20
182.1052859999999
 30
0.0
 40
12.5
100
AcDbArc
 50
262.503227
 51
7.496273
  0
ARC
  5
E3
330
1E
100
AcDbEntity
  8
0
  6
CONTINUOUS
100
AcDbCircle
 10
635.5185549999999
 20
-450.908844
 30
0.0
 40
643.0
100
AcDbArc
 50
93.76698299999999
 51
95.27586399999998
  0
ARC
  5
E4
330
1E
100
AcDbEntity
  8
0
  6
CONTINUOUS
100
AcDbCircle
 10
1192.518555
 20
106.0913699999999
 30
0.0
 40
643.0
100
AcDbArc
 50
183.790604
 51
185.2756959999999
  0
ARC
  5
E5
330
1E
100
AcDbEntity
  8
0
  6
CONTINUOUS
100
AcDbCircle
 10
1192.518555
 20
106.0913699999999
 30
0.0
 40
643.0
100
AcDbArc
 50
174.724304
 51
176.209396
  0
LINE
  5
E6
330
1E
100
AcDbEntity
  8
0
  6
CONTINUOUS
100
AcDbLine
 10
704.0561519999999
 20
169.680908
 30
0.0
 11
701.4649659999999
 21
167.089844
 31
0.0
  0
LINE
  5
E7
330
1E
100
AcDbEntity
  8
0
  6
CONTINUOUS
100
AcDbLine
 10
699.005737
 20
174.530029
 30
0.0
 11
696.5153809999999
 21
172.0395509999999
 31
0.0
  0
LINE
  5
E8
330
1E
100
AcDbEntity
  8
0
  6
CONTINUOUS
100
AcDbLine
 10
571.928345
 20
174.629089
 30
0.0
 11
574.872559
 21
171.684921
 31
0.0
  0
LINE
  5
E9
330
1E
100
AcDbEntity
  8
0
  6
CONTINUOUS
100
AcDbLine
 10
566.977966
 20
169.680161
 30
0.0
 11
569.5683589999999
 21
167.0900879999999
 31
0.0
  0
LINE
  5
EA
330
1E
100
AcDbEntity
  8
0
  6
CONTINUOUS
100
AcDbLine
 10
639.0165409999999
 20
182.816589
 30
0.0
 11
639.0165409999999
 21
164.834961
 31
0.0
  0
LINE
  5
EB
330
1E
100
AcDbEntity
  8
0
  6
CONTINUOUS
100
AcDbLine
 10
632.0165409999999
 20
182.816589
 30
0.0
 11
632.0165409999999
 21
164.834961
 31
0.0
  0
ARC
  5
EC
330
1E
100
AcDbEntity
  8
0
  6
CONTINUOUS
100
AcDbCircle
 10
642.016541
 20
182.816589
 30
0.0
 40
3.0
100
AcDbArc
 50
85.15770699999999
 51
180.0
  0
ARC
  5
ED
330
1E
100
AcDbEntity
  8
0
  6
CONTINUOUS
100
AcDbCircle
 10
629.016541
 20
182.816589
 30
0.0
 40
3.0
100
AcDbArc
 50
0.0
 51
94.847847
  0
ARC
  5
EE
330
1E
100
AcDbEntity
  8
0
  6
CONTINUOUS
100
AcDbCircle
 10
711.530762
 20
30.07738699999999
 30
0.0
 40
12.5
100
AcDbArc
 50
82.50266299999999
 51
205.6459049999999
  0
ARC
  5
EF
330
1E
100
AcDbEntity
  8
0
  6
CONTINUOUS
100
AcDbCircle
 10
559.5027469999999
 20
30.07738699999999
 30
0.0
 40
12.5
100
AcDbArc
 50
334.3538489999999
 51
97.49054699999998
  0
ARC
  5
F0
330
1E
100
AcDbEntity
  8
0
  6
CONTINUOUS
100
AcDbCircle
 10
635.5165409999999
 20
200.5913699999999
 30
0.0
 40
200.0
100
AcDbArc
 50
246.143005
 51
270.0
  0
ARC
  5
F1
330
1E
100
AcDbEntity
  8
0
  6
CONTINUOUS
100
AcDbCircle
 10
635.5165409999999
 20
200.5913699999999
 30
0.0
 40
193.0
100
AcDbArc
 50
251.311996
 51
270.0
  0
ARC
  5
F2
330
1E
100
AcDbEntity
  8
0
  6
CONTINUOUS
100
AcDbCircle
 10
559.6813349999999
 20
29.111807
 30
0.0
 40
12.5
100
AcDbArc
 50
186.9355009999999
 51
246.143097
  0
ARC
  5
F3
330
1E
100
AcDbEntity
  8
0
  6
CONTINUOUS
100
AcDbCircle
 10
635.5165409999999
 20
200.5913699999999
 30
0.0
 40
193.0
100
AcDbArc
 50
270.0
 51
288.68811
  0
ARC
  5
F4
330
1E
100
AcDbEntity
  8
0
  6
CONTINUOUS
100
AcDbCircle
 10
635.5165409999999
 20
200.5913699999999
 30
0.0
 40
200.0
100
AcDbArc
 50
270.0
 51
293.857086
  0
ARC
  5
F5
330
1E
100
AcDbEntity
  8
0
  6
CONTINUOUS
100
AcDbCircle
 10
711.35199
 20
29.111807
 30
0.0
 40
12.5
100
AcDbArc
 50
293.8573
 51
353.064606
  0
ARC
  5
F6
330
1E
100
AcDbEntity
  8
0
  6
CONTINUOUS
100
AcDbCircle
 10
706.178345
 20
167.5587619999999
 30
0.0
 40
3.0
100
AcDbArc
 50
69.79881299999999
 51
135.000504
  0
ARC
  5
F7
330
1E
100
AcDbEntity
  8
0
  6
CONTINUOUS
100
AcDbCircle
 10
696.985962
 20
176.748291
 30
0.0
 40
3.0
100
AcDbArc
 50
312.321011
 51
20.21970899999999
  0
ARC
  5
F8
330
1E
100
AcDbEntity
  8
0
  6
CONTINUOUS
100
AcDbCircle
 10
574.050537
 20
176.751282
 30
0.0
 40
3.0
100
AcDbArc
 50
159.7928009999999
 51
225.001602
  0
ARC
  5
F9
330
1E
100
AcDbEntity
  8
0
  6
CONTINUOUS
100
AcDbCircle
 10
564.856567
 20
167.5585939999999
 30
0.0
 40
3.0
100
AcDbArc
 50
45.000778
 51
110.199898
  0
CIRCLE
  5
FA
330
1E
100
AcDbEntity
  8
0
  6
CONTINUOUS
100
AcDbCircle
 10
635.5165409999999
 20
106.0913699999999
 30
0.0
 40
40.0
  0
ARC
  5
FB
330
1E
100
AcDbEntity
  8
0
  6
CONTINUOUS
100
AcDbCircle
 10
694.1803589999999
 20
184.3884889999999
 30
0.0
 40
5.0
100
AcDbArc
 50
352.504028
 51
84.72448700000001
  0
ARC
  5
FC
330
1E
100
AcDbEntity
  8
0
  6
CONTINUOUS
100
AcDbCircle
 10
713.813965
 20
164.754883
 30
0.0
 40
5.0
100
AcDbArc
 50
5.27576
 51
97.49749000000001
  0
ARC
  5
FD
330
1E
100
AcDbEntity
  8
0
  6
CONTINUOUS
100
AcDbCircle
 10
713.813965
 20
47.427727
 30
0.0
 40
5.0
100
AcDbArc
 50
262.5032039999999
 51
354.7246089999999
  0
ARC
  5
FE
330
1E
100
AcDbEntity
  8
0
  6
CONTINUOUS
100
AcDbCircle
 10
695.754578
 20
22.503286
 30
0.0
 40
5.0
100
AcDbArc
 50
288.688477
 51
25.64571
  0
ARC
  5
FF
330
1E
100
AcDbEntity
  8
0
  6
CONTINUOUS
100
AcDbCircle
 10
557.221191
 20
47.42796699999999
 30
0.0
 40
5.0
100
AcDbArc
 50
185.275803
 51
277.491791
  0
ARC
  5
100
330
1E
100
AcDbEntity
  8
0
  6
CONTINUOUS
100
AcDbCircle
 10
575.2787480000001
 20
22.503166
 30
0.0
 40
5.0
100
AcDbArc
 50
154.3542939999999
 51
251.312195
  0
ARC
  5
101
330
1E
100
AcDbEntity
  8
0
  6
CONTINUOUS
100
AcDbCircle
 10
557.221191
 20
164.754883
 30
0.0
 40
5.0
100
AcDbArc
 50
82.50325
 51
174.7245939999999
  0
ARC
  5
102
330
1E
100
AcDbEntity
  8
0
  6
CONTINUOUS
100
AcDbCircle
 10
576.854736
 20
184.3884889999999
 30
0.0
 40
5.0
100
AcDbArc
 50
95.27619900000001
 51
187.496704
  0
ARC
  5
103
330
1E
100
AcDbEntity
  8
0
  6
CONTINUOUS
100
AcDbCircle
 10
635.5165409999999
 20
82.59137
 30
0.0
 40
79.5
100
AcDbArc
 50
31.371229
 51
52.04372000000001
  0
ARC
  5
104
330
1E
100
AcDbEntity
  8
0
  6
CONTINUOUS
100
AcDbCircle
 10
707.663574
 20
126.5805659999999
 30
0.0
 40
5.0
100
AcDbArc
 50
211.371597
 51
15.85430999999999
  0
ARC
  5
105
330
1E
100
AcDbEntity
  8
0
  6
CONTINUOUS
100
AcDbCircle
 10
563.3697509999999
 20
126.5809249999999
 30
0.0
 40
5.0
100
AcDbArc
 50
164.1459959999999
 51
328.628693
  0
ARC
  5
106
330
1E
100
AcDbEntity
  8
0
  6
CONTINUOUS
100
AcDbCircle
 10
635.5165409999999
 20
82.59137
 30
0.0
 40
79.5
100
AcDbArc
 50
94.51804399999998
 51
118.7283019999999
  0
ARC
  5
107
330
1E
100
AcDbEntity
  8
0
  6
CONTINUOUS
100
AcDbCircle
 10
642.0157469999999
 20
164.834961
 30
0.0
 40
3.0
100
AcDbArc
 50
180.0
 51
265.481689
  0
ARC
  5
108
330
1E
100
AcDbEntity
  8
0
  6
CONTINUOUS
100
AcDbCircle
 10
629.0179440000001
 20
164.834961
 30
0.0
 40
3.0
100
AcDbArc
 50
274.518341
 51
0.0
  0
LINE
  5
109
330
1E
100
AcDbEntity
  8
0
  6
CONTINUOUS
100
AcDbLine
 10
692.2443849999999
 20
157.8692629999999
 30
0.0
 11
684.1375730000001
 21
149.7623289999999
 31
0.0
  0
LINE
  5
10A
330
1E
100
AcDbEntity
  8
0
  6
CONTINUOUS
100
AcDbLine
 10
687.2947389999999
 20
162.8190919999999
 30
0.0
 11
677.2911379999999
 21
152.8154299999999
 31
0.0
  0
LINE
  5
10B
330
1E
100
AcDbEntity
  8
0
  6
CONTINUOUS
100
AcDbLine
 10
583.738342
 20
162.8190919999999
 30
0.0
 11
593.741943
 21
152.815674
 31
0.0
  0
LINE
  5
10C
330
1E
100
AcDbEntity
  8
0
  6
CONTINUOUS
100
AcDbLine
 10
578.788757
 20
157.8692629999999
 30
0.0
 11
586.8957519999999
 21
149.762451
 31
0.0
  0
ARC
  5
10D
330
1E
100
AcDbEntity
  8
0
  6
CONTINUOUS
100
AcDbCircle
 10
694.3659669999999
 20
155.7479859999999
 30
0.0
 40
3.0
100
AcDbArc
 50
40.157009
 51
135.000504
  0
ARC
  5
10E
330
1E
100
AcDbEntity
  8
0
  6
CONTINUOUS
100
AcDbCircle
 10
685.17334
 20
164.94043
 30
0.0
 40
3.0
100
AcDbArc
 50
315.000061
 51
49.842072
  0
ARC
  5
10F
330
1E
100
AcDbEntity
  8
0
  6
CONTINUOUS
100
AcDbCircle
 10
686.2589719999999
 20
147.6411129999999
 30
0.0
 40
3.0
100
AcDbArc
 50
134.999603
 51
232.0440979999999
  0
ARC
  5
110
330
1E
100
AcDbEntity
  8
0
  6
CONTINUOUS
100
AcDbCircle
 10
675.1697389999999
 20
154.9368899999999
 30
0.0
 40
3.0
100
AcDbArc
 50
241.2733
 51
315.0004879999999
  0
ARC
  5
111
330
1E
100
AcDbEntity
  8
0
  6
CONTINUOUS
100
AcDbCircle
 10
635.5165409999999
 20
82.59137
 30
0.0
 40
79.5
100
AcDbArc
 50
61.27248
 51
85.48146800000001
  0
ARC
  5
112
330
1E
100
AcDbEntity
  8
0
  6
CONTINUOUS
100
AcDbCircle
 10
595.8625490000001
 20
154.936462
 30
0.0
 40
3.0
100
AcDbArc
 50
225.000397
 51
298.727997
  0
ARC
  5
113
330
1E
100
AcDbEntity
  8
0
  6
CONTINUOUS
100
AcDbCircle
 10
584.774536
 20
147.6413419999999
 30
0.0
 40
3.0
100
AcDbArc
 50
307.955872
 51
45.00037
  0
ARC
  5
114
330
1E
100
AcDbEntity
  8
0
  6
CONTINUOUS
100
AcDbCircle
 10
585.8593749999999
 20
164.93988
 30
0.0
 40
3.0
100
AcDbArc
 50
130.163803
 51
225.0
  0
ARC
  5
115
330
1E
100
AcDbEntity
  8
0
  6
CONTINUOUS
100
AcDbCircle
 10
576.667542
 20
155.748291
 30
0.0
 40
3.0
100
AcDbArc
 50
44.99995
 51
139.8479
  0
ARC
  5
116
330
1E
100
AcDbEntity
  8
0
  6
CONTINUOUS
100
AcDbCircle
 10
635.5165409999999
 20
82.59137
 30
0.0
 40
79.5
100
AcDbArc
 50
127.9561
 51
148.628403
  0
ARC
  5
117
330
1E
100
AcDbEntity
  8
0
  6
CONTINUOUS
100
AcDbCircle
 10
554.916382
 20
148.336044
 30
0.0
 40
4.0
100
AcDbArc
 50
176.2099
 51
332.3357849999999
  0
ARC
  5
118
330
1E
100
AcDbEntity
  8
0
  6
CONTINUOUS
100
AcDbCircle
 10
554.916382
 20
63.846676
 30
0.0
 40
4.0
100
AcDbArc
 50
27.655939
 51
183.7904969999999
  0
ARC
  5
119
330
1E
100
AcDbEntity
  8
0
  6
CONTINUOUS
100
AcDbCircle
 10
716.119141
 20
63.85106999999999
 30
0.0
 40
4.0
100
AcDbArc
 50
356.209961
 51
152.334702
  0
ARC
  5
11A
330
1E
100
AcDbEntity
  8
0
  6
CONTINUOUS
100
AcDbCircle
 10
716.119141
 20
148.3316649999999
 30
0.0
 40
4.0
100
AcDbArc
 50
207.657104
 51
3.790488999999999
  0
ARC
  5
11B
330
1E
100
AcDbEntity
  8
0
  6
CONTINUOUS
100
AcDbCircle
 10
677.7575679999999
 20
186.693481
 30
0.0
 40
4.0
100
AcDbArc
 50
86.209824
 51
242.342194
  0
ARC
  5
11C
330
1E
100
AcDbEntity
  8
0
  6
CONTINUOUS
100
AcDbCircle
 10
593.275391
 20
186.6932219999999
 30
0.0
 40
4.0
100
AcDbArc
 50
297.6585689999999
 51
90.0
  0
ARC
  5
11D
330
1E
100
AcDbEntity
  8
0
  6
CONTINUOUS
100
AcDbCircle
 10
635.5165409999999
 20
106.0913699999999
 30
0.0
 40
87.0
100
AcDbArc
 50
207.6604
 51
332.343292
  0
ARC
  5
11E
330
1E
100
AcDbEntity
  8
0
  6
CONTINUOUS
100
AcDbCircle
 10
635.5165409999999
 20
106.0913699999999
 30
0.0
 40
87.0
100
AcDbArc
 50
27.65707
 51
62.342361
  0
ARC
  5
11F
330
1E
100
AcDbEntity
  8
0
  6
CONTINUOUS
100
AcDbCircle
 10
576.6393429999999
 20
174.161011
 30
0.0
 40
3.0
100
AcDbArc
 50
225.002396
 51
310.858612
  0
ARC
  5
120
330
1E
100
AcDbEntity
  8
0
  6
CONTINUOUS
100
AcDbCircle
 10
567.44696
 20
164.9686889999999
 30
0.0
 40
3.0
100
AcDbArc
 50
319.141449
 51
45.001598
  0
ARC
  5
121
330
1E
100
AcDbEntity
  8
0
  6
CONTINUOUS
100
AcDbCircle
 10
694.393982
 20
174.160767
 30
0.0
 40
3.0
100
AcDbArc
 50
229.1414029999999
 51
315.002502
  0
ARC
  5
122
330
1E
100
AcDbEntity
  8
0
  6
CONTINUOUS
100
AcDbCircle
 10
703.586365
 20
164.968506
 30
0.0
 40
3.0
100
AcDbArc
 50
134.998795
 51
220.858093
  0
CIRCLE
  5
123
330
1E
100
AcDbEntity
  8
0
  6
CENTER
100
AcDbCircle
 10
635.5165409999999
 20
106.0913699999999
 30
0.0
 40
107.4999999999999
  0
ARC
  5
124
330
1E
100
AcDbEntity
  8
0
  6
CONTINUOUS
100
AcDbCircle
 10
635.5165409999999
 20
106.091309
 30
0.0
 40
14.0
100
AcDbArc
 50
196.6013949999999
 51
163.3983
  0
LINE
  5
125
330
1E
100
AcDbEntity
  8
0
  6
CONTINUOUS
100
AcDbLine
 10
625.516541
 20
110.0913699999999
 30
0.0
 11
625.516541
 21
102.091309
 31
0.0
  0
LINE
  5
126
330
1E
100
AcDbEntity
  8
0
  6
CONTINUOUS
100
AcDbLine
 10
618.5165409999999
 20
110.091309
 30
0.0
 11
618.5165409999999
 21
102.0913699999999
 31
0.0
  0
LINE
  5
127
330
1E
100
AcDbEntity
  8
0
  6
CONTINUOUS
100
AcDbLine
 10
618.5165409999999
 20
110.091309
 30
0.0
 11
625.516541
 21
110.0913699999999
 31
0.0
  0
LINE
  5
128
330
1E
100
AcDbEntity
  8
0
  6
CONTINUOUS
100
AcDbLine
 10
618.5165409999999
 20
102.0913699999999
 30
0.0
 11
625.516541
 21
102.091309
 31
0.0
  0
ARC
  5
129
330
1E
100
AcDbEntity
  8
0
  6
CONTINUOUS
100
AcDbCircle
 10
635.5165409999999
 20
106.0913699999999
 30
0.0
 40
87.0
100
AcDbArc
 50
117.6578979999999
 51
152.3399959999999
  0
LINE
  5
12A
330
1E
100
AcDbEntity
  8
0
  6
CONTINUOUS
100
AcDbLine
 10
519.0165409999999
 20
50.091366
 30
0.0
 11
519.0165409999999
 21
115.09137
 31
0.0
  0
LINE
  5
12B
330
1E
100
AcDbEntity
  8
0
  6
CONTINUOUS
100
AcDbLine
 10
521.516541
 20
117.5913699999999
 30
0.0
 11
524.0165409999999
 21
117.5913699999999
 31
0.0
  0
LINE
  5
12C
330
1E
100
AcDbEntity
  8
0
  6
CONTINUOUS
100
AcDbLine
 10
521.516541
 20
47.591366
 30
0.0
 11
524.0165409999999
 21
47.591366
 31
0.0
  0
LINE
  5
12D
330
1E
100
AcDbEntity
  8
0
  6
CONTINUOUS
100
AcDbLine
 10
524.0165409999999
 20
117.5913699999999
 30
0.0
 11
524.0165409999999
 21
47.591366
 31
0.0
  0
LINE
  5
12E
330
1E
100
AcDbEntity
  8
0
  6
CONTINUOUS
100
AcDbLine
 10
525.016541
 20
117.5913699999999
 30
0.0
 11
525.016541
 21
47.591366
 31
0.0
  0
LINE
  5
12F
330
1E
100
AcDbEntity
  8
0
  6
CONTINUOUS
100
AcDbLine
 10
524.0165409999999
 20
117.5913699999999
 30
0.0
 11
525.016541
 21
117.5913699999999
 31
0.0
  0
LINE
  5
130
330
1E
100
AcDbEntity
  8
0
  6
CONTINUOUS
100
AcDbLine
 10
524.0165409999999
 20
47.591366
 30
0.0
 11
525.016541
 21
47.591366
 31
0.0
  0
LINE
  5
131
330
1E
100
AcDbEntity
  8
0
  6
CONTINUOUS
100
AcDbLine
 10
522.0165409999999
 20
109.0784679999999
 30
0.0
 11
522.0165409999999
 21
116.5913699999999
 31
0.0
  0
LINE
  5
132
330
1E
100
AcDbEntity
  8
0
  6
CONTINUOUS
100
AcDbLine
 10
522.0165409999999
 20
56.104305
 30
0.0
 11
522.0165409999999
 21
48.591366
 31
0.0
  0
LINE
  5
133
330
1E
100
AcDbEntity
  8
0
  6
CONTINUOUS
100
AcDbLine
 10
521.529663
 20
108.578667
 30
0.0
 11
519.9903559999999
 21
108.5383679999999
 31
0.0
  0
ARC
  5
134
330
1E
100
AcDbEntity
  8
0
  6
CONTINUOUS
100
AcDbCircle
 10
521.516541
 20
109.0784679999999
 30
0.0
 40
0.5
100
AcDbArc
 50
271.4999999999999
 51
0.0
  0
ARC
  5
135
330
1E
100
AcDbEntity
  8
0
  6
CONTINUOUS
100
AcDbCircle
 10
520.0165409999999
 20
107.5386659999999
 30
0.0
 40
1.0
100
AcDbArc
 50
91.49980199999999
 51
180.0
  0
ARC
  5
136
330
1E
100
AcDbEntity
  8
0
  6
CONTINUOUS
100
AcDbCircle
 10
523.0165409999999
 20
116.5913699999999
 30
0.0
 40
1.0
100
AcDbArc
 50
90.0
 51
180.0
  0
ARC
  5
137
330
1E
100
AcDbEntity
  8
0
  6
CONTINUOUS
100
AcDbCircle
 10
521.516541
 20
115.09137
 30
0.0
 40
2.5
100
AcDbArc
 50
90.0
 51
180.0
  0
LINE
  5
138
330
1E
100
AcDbEntity
  8
0
  6
CONTINUOUS
100
AcDbLine
 10
521.529663
 20
56.604187
 30
0.0
 11
519.9903559999999
 21
56.644466
 31
0.0
  0
ARC
  5
139
330
1E
100
AcDbEntity
  8
0
  6
CONTINUOUS
100
AcDbCircle
 10
520.0165409999999
 20
57.644096
 30
0.0
 40
1.0
100
AcDbArc
 50
180.0
 51
268.4996029999999
  0
ARC
  5
13A
330
1E
100
AcDbEntity
  8
0
  6
CONTINUOUS
100
AcDbCircle
 10
521.516541
 20
56.104305
 30
0.0
 40
0.5
100
AcDbArc
 50
0.0
 51
88.49980200000002
  0
ARC
  5
13B
330
1E
100
AcDbEntity
  8
0
  6
CONTINUOUS
100
AcDbCircle
 10
523.0165409999999
 20
48.591366
 30
0.0
 40
1.0
100
AcDbArc
 50
180.0
 51
270.0
  0
ARC
  5
13C
330
1E
100
AcDbEntity
  8
0
  6
CONTINUOUS
100
AcDbCircle
 10
521.516541
 20
50.091366
 30
0.0
 40
2.5
100
AcDbArc
 50
180.0
 51
270.0
  0
ARC
  5
13D
330
1E
100
AcDbEntity
  8
0
  6
CONTINUOUS
100
AcDbCircle
 10
522.0165409999999
 20
112.5913699999999
 30
0.0
 40
3.0
100
AcDbArc
 50
90.0
 51
270.0
  0
LINE
  5
13E
330
1E
100
AcDbEntity
  8
0
  6
CONTINUOUS
100
AcDbLine
 10
521.516541
 20
115.54937
 30
0.0
 11
521.516541
 21
109.6333689999999
 31
0.0
  0
LINE
  5
13F
330
1E
100
AcDbEntity
  8
0
  6
CONTINUOUS
100
AcDbLine
 10
519.5165409999999
 20
112.5913699999999
 30
0.0
 11
519.0297849999999
 21
112.3102649999999
 31
0.0
  0
LINE
  5
140
330
1E
100
AcDbEntity
  8
0
  6
CONTINUOUS
100
AcDbLine
 10
519.5165409999999
 20
112.5913699999999
 30
0.0
 11
519.0297849999999
 21
112.8724669999999
 31
0.0
  0
ARC
  5
141
330
1E
100
AcDbEntity
  8
0
  6
CONTINUOUS
100
AcDbCircle
 10
522.0165409999999
 20
52.591366
 30
0.0
 40
3.0
100
AcDbArc
 50
90.0
 51
270.0
  0
LINE
  5
142
330
1E
100
AcDbEntity
  8
0
  6
CONTINUOUS
100
AcDbLine
 10
521.516541
 20
55.54937699999999
 30
0.0
 11
521.516541
 21
49.633358
 31
0.0
  0
LINE
  5
143
330
1E
100
AcDbEntity
  8
0
  6
CONTINUOUS
100
AcDbLine
 10
519.5165409999999
 20
52.591366
 30
0.0
 11
519.0297849999999
 21
52.310295
 31
0.0
  0
LINE
  5
144
330
1E
100
AcDbEntity
  8
0
  6
CONTINUOUS
100
AcDbLine
 10
519.5165409999999
 20
52.591366
 30
0.0
 11
519.0297849999999
 21
52.872494
 31
0.0
  0
LINE
  5
145
330
1E
100
AcDbEntity
  8
0
  6
CONTINUOUS
100
AcDbLine
 10
542.610229
 20
117.1247479999999
 30
0.0
 11
525.016541
 21
117.5913699999999
 31
0.0
  0
LINE
  5
146
330
1E
100
AcDbEntity
  8
0
  6
CONTINUOUS
100
AcDbLine
 10
545.1065059999999
 20
48.12394000000001
 30
0.0
 11
525.016541
 21
47.591366
 31
0.0
  0
LINE
  5
147
330
1E
100
AcDbEntity
  8
0
  6
CENTER
100
AcDbLine
 10
541.0165409999999
 20
123.0
 30
0.0
 11
541.0165409999999
 21
40.25
 31
0.0
  0
LINE
  5
14E
330
1E
100
AcDbEntity
  8
0
  6
CONTINUOUS
100
AcDbLine
 10
54.176365
 20
456.08197
 30
0.0
 11
166.176361
 21
456.08197
 31
0.0
  0
LINE
  5
14F
330
1E
100
AcDbEntity
  8
0
  6
CONTINUOUS
100
AcDbLine
 10
166.176361
 20
341.08197
 30
0.0
 11
121.6507419999999
 21
341.08197
 31
0.0
  0
LINE
  5
150
330
1E
100
AcDbEntity
  8
0
  6
CONTINUOUS
100
AcDbLine
 10
54.176365
 20
424.5814509999999
 30
0.0
 11
158.150177
 21
424.5814509999999
 31
0.0
  0
LINE
  5
151
330
1E
100
AcDbEntity
  8
0
  6
CONTINUOUS
100
AcDbLine
 10
54.176365
 20
432.351959
 30
0.0
 11
158.150177
 21
432.351959
 31
0.0
  0
LINE
  5
152
330
1E
100
AcDbEntity
  8
0
  6
CONTINUOUS
100
AcDbLine
 10
55.176365
 20
435.631348
 30
0.0
 11
157.150192
 21
435.631348
 31
0.0
  0
LINE
  5
153
330
1E
100
AcDbEntity
  8
0
  6
CONTINUOUS
100
AcDbLine
 10
54.176365
 20
440.44632
 30
0.0
 11
158.150177
 21
440.44632
 31
0.0
  0
LINE
  5
154
330
1E
100
AcDbEntity
  8
0
  6
CONTINUOUS
100
AcDbLine
 10
55.176365
 20
442.4341429999999
 30
0.0
 11
157.150192
 21
442.4341429999999
 31
0.0
  0
LINE
  5
155
330
1E
100
AcDbEntity
  8
0
  6
CONTINUOUS
100
AcDbLine
 10
54.176365
 20
446.4767759999999
 30
0.0
 11
158.150177
 21
446.4767759999999
 31
0.0
  0
LINE
  5
156
330
1E
100
AcDbEntity
  8
0
  6
CONTINUOUS
100
AcDbLine
 10
54.176365
 20
451.0076289999999
 30
0.0
 11
158.150177
 21
451.0076289999999
 31
0.0
  0
LINE
  5
157
330
1E
100
AcDbEntity
  8
0
  6
CONTINUOUS
100
AcDbLine
 10
54.176365
 20
453.884705
 30
0.0
 11
158.150177
 21
453.884705
 31
0.0
  0
LINE
  5
158
330
1E
100
AcDbEntity
  8
0
  6
CONTINUOUS
100
AcDbLine
 10
54.176365
 20
455.5400389999999
 30
0.0
 11
158.150177
 21
455.5400389999999
 31
0.0
  0
LINE
  5
159
330
1E
100
AcDbEntity
  8
0
  6
CONTINUOUS
100
AcDbLine
 10
158.150177
 20
456.08197
 30
0.0
 11
158.150177
 21
424.5814509999999
 31
0.0
  0
LINE
  5
15A
330
1E
100
AcDbEntity
  8
0
  6
CONTINUOUS
100
AcDbLine
 10
54.176365
 20
372.582458
 30
0.0
 11
158.150177
 21
372.582458
 31
0.0
  0
LINE
  5
15B
330
1E
100
AcDbEntity
  8
0
  6
CONTINUOUS
100
AcDbLine
 10
54.176365
 20
364.8119509999999
 30
0.0
 11
158.150177
 21
364.8119509999999
 31
0.0
  0
LINE
  5
15C
330
1E
100
AcDbEntity
  8
0
  6
CONTINUOUS
100
AcDbLine
 10
54.176365
 20
356.7175899999999
 30
0.0
 11
158.150177
 21
356.7175899999999
 31
0.0
  0
LINE
  5
15D
330
1E
100
AcDbEntity
  8
0
  6
CONTINUOUS
100
AcDbLine
 10
121.150742
 20
346.1562499999999
 30
0.0
 11
158.150177
 21
346.1562499999999
 31
0.0
  0
LINE
  5
15E
330
1E
100
AcDbEntity
  8
0
  6
CONTINUOUS
100
AcDbLine
 10
121.150742
 20
343.2792049999999
 30
0.0
 11
158.150177
 21
343.2792049999999
 31
0.0
  0
LINE
  5
15F
330
1E
100
AcDbEntity
  8
0
  6
CONTINUOUS
100
AcDbLine
 10
121.650734
 20
341.623871
 30
0.0
 11
158.150177
 21
341.623871
 31
0.0
  0
LINE
  5
160
330
1E
100
AcDbEntity
  8
0
  6
CONTINUOUS
100
AcDbLine
 10
158.150177
 20
341.08197
 30
0.0
 11
158.150177
 21
372.582458
 31
0.0
  0
LINE
  5
161
330
1E
100
AcDbEntity
  8
0
  6
CONTINUOUS
100
AcDbLine
 10
121.150742
 20
341.58197
 30
0.0
 11
121.150742
 21
347.781372
 31
0.0
  0
ARC
  5
162
330
1E
100
AcDbEntity
  8
0
  6
CONTINUOUS
100
AcDbCircle
 10
121.650734
 20
342.123871
 30
0.0
 40
0.499992
100
AcDbArc
 50
180.0
 51
270.0
  0
ARC
  5
163
330
1E
100
AcDbEntity
  8
0
  6
CONTINUOUS
100
AcDbCircle
 10
120.150757
 20
343.582825
 30
0.0
 40
0.9999839999999998
100
AcDbArc
 50
270.0
 51
0.0
  0
LINE
  5
164
330
1E
100
AcDbEntity
  8
0
  6
CONTINUOUS
100
AcDbLine
 10
55.176365
 20
361.532562
 30
0.0
 11
157.150192
 21
361.532562
 31
0.0
  0
LINE
  5
165
330
1E
100
AcDbEntity
  8
0
  6
CONTINUOUS
100
AcDbLine
 10
55.176365
 20
354.7297669999999
 30
0.0
 11
157.150192
 21
354.7297669999999
 31
0.0
  0
LINE
  5
166
330
1E
100
AcDbEntity
  8
0
  6
CONTINUOUS
100
AcDbLine
 10
54.176365
 20
350.6871339999999
 30
0.0
 11
158.150177
 21
350.6871339999999
 31
0.0
  0
LINE
  5
167
330
1E
100
AcDbEntity
  8
0
  6
CONTINUOUS
100
AcDbLine
 10
54.176365
 20
347.781372
 30
0.0
 11
121.150742
 21
347.781372
 31
0.0
  0
LINE
  5
168
330
1E
100
AcDbEntity
  8
0
  6
CONTINUOUS
100
AcDbLine
 10
54.176365
 20
342.582825
 30
0.0
 11
100.6987379999999
 21
342.582825
 31
0.0
  0
LINE
  5
169
330
1E
100
AcDbEntity
  8
0
  6
CONTINUOUS
100
AcDbLine
 10
120.150757
 20
342.582825
 30
0.0
 11
100.6987379999999
 21
342.582764
 31
0.0
  0
ARC
  5
16A
330
1E
100
AcDbEntity
  8
0
  6
CONTINUOUS
100
AcDbCircle
 10
121.6507419999999
 20
341.58197
 30
0.0
 40
0.5
100
AcDbArc
 50
180.0
 51
270.0
  0
LINE
  5
173
330
1E
100
AcDbEntity
  8
0
  6
CONTINUOUS
100
AcDbLine
 10
48.238766
 20
328.160156
 30
0.0
 11
47.176365
 21
288.0819699999999
 31
0.0
  0
LINE
  5
174
330
1E
100
AcDbEntity
  8
0
  6
CONTINUOUS
100
AcDbLine
 10
116.1133649999999
 20
328.160156
 30
0.0
 11
117.1763689999999
 21
288.0819699999999
 31
0.0
  0
LINE
  5
175
330
1E
100
AcDbEntity
  8
0
  6
CONTINUOUS
100
AcDbLine
 10
58.15056600000001
 20
341.08197
 30
0.0
 11
70.676369
 21
341.08197
 31
0.0
  0
LINE
  5
176
330
1E
100
AcDbEntity
  8
0
  6
CONTINUOUS
100
AcDbLine
 10
106.2021639999999
 20
341.08197
 30
0.0
 11
70.676369
 21
341.08197
 31
0.0
  0
LINE
  5
177
330
1E
100
AcDbEntity
  8
0
  6
CONTINUOUS
100
AcDbLine
 10
113.1275629999999
 20
331.08197
 30
0.0
 11
95.487564
 21
331.08197
 31
0.0
  0
ARC
  5
178
330
1E
100
AcDbEntity
  8
0
  6
CONTINUOUS
100
AcDbCircle
 10
51.224365
 20
328.08197
 30
0.0
 40
3.0
100
AcDbArc
 50
90.0
 51
178.5002749999999
  0
ARC
  5
179
330
1E
100
AcDbEntity
  8
0
  6
CONTINUOUS
100
AcDbCircle
 10
113.1275629999999
 20
328.08197
 30
0.0
 40
3.0
100
AcDbArc
 50
1.4999
 51
90.0
  0
LINE
  5
17A
330
1E
100
AcDbEntity
  8
0
  6
CONTINUOUS
100
AcDbLine
 10
57.150806
 20
340.108154
 30
0.0
 11
56.96545799999999
 21
333.029602
 31
0.0
  0
LINE
  5
17B
330
1E
100
AcDbEntity
  8
0
  6
CONTINUOUS
100
AcDbLine
 10
107.2014689999999
 20
340.108124
 30
0.0
 11
107.387253
 21
333.0294799999999
 31
0.0
  0
ARC
  5
17C
330
1E
100
AcDbEntity
  8
0
  6
CONTINUOUS
100
AcDbCircle
 10
106.2021639999999
 20
340.08197
 30
0.0
 40
1.0
100
AcDbArc
 50
1.4993
 51
90.0
  0
ARC
  5
17D
330
1E
100
AcDbEntity
  8
0
  6
CONTINUOUS
100
AcDbCircle
 10
58.15056600000001
 20
340.08197
 30
0.0
 40
1.0
100
AcDbArc
 50
90.0
 51
178.4994049999999
  0
LINE
  5
17E
330
1E
100
AcDbEntity
  8
0
  6
CONTINUOUS
100
AcDbLine
 10
51.224564
 20
331.08197
 30
0.0
 11
68.865166
 21
331.08197
 31
0.0
  0
ARC
  5
17F
330
1E
100
AcDbEntity
  8
0
  6
CONTINUOUS
100
AcDbCircle
 10
82.176369
 20
398.58197
 30
0.0
 40
68.800003
100
AcDbArc
 50
258.8442
 51
281.1558
  0
LINE
  5
180
330
1E
100
AcDbEntity
  8
0
  6
CONTINUOUS
100
AcDbLine
 10
49.67636500000001
 20
282.08197
 30
0.0
 11
114.676369
 21
282.08197
 31
0.0
  0
LINE
  5
181
330
1E
100
AcDbEntity
  8
0
  6
CONTINUOUS
100
AcDbLine
 10
117.1763689999999
 20
284.58197
 30
0.0
 11
117.1763689999999
 21
287.08197
 31
0.0
  0
LINE
  5
182
330
1E
100
AcDbEntity
  8
0
  6
CONTINUOUS
100
AcDbLine
 10
47.176365
 20
284.58197
 30
0.0
 11
47.176365
 21
287.08197
 31
0.0
  0
LINE
  5
183
330
1E
100
AcDbEntity
  8
0
  6
CONTINUOUS
100
AcDbLine
 10
117.1763689999999
 20
287.08197
 30
0.0
 11
47.176365
 21
287.08197
 31
0.0
  0
LINE
  5
184
330
1E
100
AcDbEntity
  8
0
  6
CONTINUOUS
100
AcDbLine
 10
117.1763689999999
 20
288.0819699999999
 30
0.0
 11
47.176365
 21
288.0819699999999
 31
0.0
  0
LINE
  5
185
330
1E
100
AcDbEntity
  8
0
  6
CONTINUOUS
100
AcDbLine
 10
117.1763689999999
 20
287.08197
 30
0.0
 11
117.1763689999999
 21
288.0819699999999
 31
0.0
  0
LINE
  5
186
330
1E
100
AcDbEntity
  8
0
  6
CONTINUOUS
100
AcDbLine
 10
47.176365
 20
287.08197
 30
0.0
 11
47.176365
 21
288.0819699999999
 31
0.0
  0
LINE
  5
187
330
1E
100
AcDbEntity
  8
0
  6
CONTINUOUS
100
AcDbLine
 10
108.6635669999999
 20
285.08197
 30
0.0
 11
116.1763689999999
 21
285.08197
 31
0.0
  0
LINE
  5
188
330
1E
100
AcDbEntity
  8
0
  6
CONTINUOUS
100
AcDbLine
 10
55.689365
 20
285.08197
 30
0.0
 11
48.176365
 21
285.08197
 31
0.0
  0
LINE
  5
189
330
1E
100
AcDbEntity
  8
0
  6
CONTINUOUS
100
AcDbLine
 10
108.1635669999999
 20
284.5951539999999
 30
0.0
 11
108.1233669999999
 21
283.055756
 31
0.0
  0
ARC
  5
18A
330
1E
100
AcDbEntity
  8
0
  6
CONTINUOUS
100
AcDbCircle
 10
108.6635669999999
 20
284.58197
 30
0.0
 40
0.5
100
AcDbArc
 50
90.0
 51
178.5
  0
ARC
  5
18B
330
1E
100
AcDbEntity
  8
0
  6
CONTINUOUS
100
AcDbCircle
 10
107.1237639999999
 20
283.08197
 30
0.0
 40
1.0
100
AcDbArc
 50
270.0
 51
358.5002
  0
ARC
  5
18C
330
1E
100
AcDbEntity
  8
0
  6
CONTINUOUS
100
AcDbCircle
 10
116.1763689999999
 20
286.08197
 30
0.0
 40
1.0
100
AcDbArc
 50
270.0
 51
0.0
  0
ARC
  5
18D
330
1E
100
AcDbEntity
  8
0
  6
CONTINUOUS
100
AcDbCircle
 10
114.676369
 20
284.58197
 30
0.0
 40
2.5
100
AcDbArc
 50
270.0
 51
0.0
  0
LINE
  5
18E
330
1E
100
AcDbEntity
  8
0
  6
CONTINUOUS
100
AcDbLine
 10
56.189163
 20
284.5951539999999
 30
0.0
 11
56.229366
 21
283.055756
 31
0.0
  0
ARC
  5
18F
330
1E
100
AcDbEntity
  8
0
  6
CONTINUOUS
100
AcDbCircle
 10
57.229164
 20
283.08197
 30
0.0
 40
1.0
100
AcDbArc
 50
181.500397
 51
270.0
  0
ARC
  5
190
330
1E
100
AcDbEntity
  8
0
  6
CONTINUOUS
100
AcDbCircle
 10
55.689365
 20
284.58197
 30
0.0
 40
0.5
100
AcDbArc
 50
1.500199999999999
 51
90.0
  0
ARC
  5
191
330
1E
100
AcDbEntity
  8
0
  6
CONTINUOUS
100
AcDbCircle
 10
48.176365
 20
286.08197
 30
0.0
 40
1.0
100
AcDbArc
 50
180.0
 51
270.0
  0
ARC
  5
192
330
1E
100
AcDbEntity
  8
0
  6
CONTINUOUS
100
AcDbCircle
 10
49.67636500000001
 20
284.58197
 30
0.0
 40
2.5
100
AcDbArc
 50
180.0
 51
270.0
  0
ARC
  5
193
330
1E
100
AcDbEntity
  8
0
  6
CONTINUOUS
100
AcDbCircle
 10
112.1763689999999
 20
285.08197
 30
0.0
 40
3.0
100
AcDbArc
 50
180.0
 51
0.0
  0
LINE
  5
194
330
1E
100
AcDbEntity
  8
0
  6
CONTINUOUS
100
AcDbLine
 10
115.134361
 20
284.58197
 30
0.0
 11
109.2183689999999
 21
284.58197
 31
0.0
  0
LINE
  5
195
330
1E
100
AcDbEntity
  8
0
  6
CONTINUOUS
100
AcDbLine
 10
112.1763689999999
 20
282.58197
 30
0.0
 11
111.8953629999999
 21
282.0951539999999
 31
0.0
  0
LINE
  5
196
330
1E
100
AcDbEntity
  8
0
  6
CONTINUOUS
100
AcDbLine
 10
112.1763689999999
 20
282.58197
 30
0.0
 11
112.4575649999999
 21
282.0951539999999
 31
0.0
  0
ARC
  5
197
330
1E
100
AcDbEntity
  8
0
  6
CONTINUOUS
100
AcDbCircle
 10
52.17636500000001
 20
285.08197
 30
0.0
 40
3.0
100
AcDbArc
 50
180.0
 51
0.0
  0
LINE
  5
198
330
1E
100
AcDbEntity
  8
0
  6
CONTINUOUS
100
AcDbLine
 10
55.134365
 20
284.58197
 30
0.0
 11
49.21836500000001
 21
284.58197
 31
0.0
  0
LINE
  5
199
330
1E
100
AcDbEntity
  8
0
  6
CONTINUOUS
100
AcDbLine
 10
52.17636500000001
 20
282.58197
 30
0.0
 11
51.895367
 21
282.0951539999999
 31
0.0
  0
LINE
  5
19A
330
1E
100
AcDbEntity
  8
0
  6
CONTINUOUS
100
AcDbLine
 10
52.17636500000001
 20
282.58197
 30
0.0
 11
52.457565
 21
282.0951539999999
 31
0.0
  0
LINE
  5
19B
330
1E
100
AcDbEntity
  8
0
  6
CONTINUOUS
100
AcDbLine
 10
105.176369
 20
341.08197
 30
0.0
 11
105.176369
 21
342.58197
 31
0.0
  0
LINE
  5
19C
330
1E
100
AcDbEntity
  8
0
  6
CONTINUOUS
100
AcDbLine
 10
59.176365
 20
341.08197
 30
0.0
 11
59.176365
 21
342.58197
 31
0.0
  0
LINE
  5
19D
330
1E
100
AcDbEntity
  8
0
  6
CONTINUOUS
100
AcDbLine
 10
19.176365
 20
318.582153
 30
0.0
 11
19.176365
 21
289.58197
 31
0.0
  0
LINE
  5
19E
330
1E
100
AcDbEntity
  8
0
  6
CONTINUOUS
100
AcDbLine
 10
27.176365
 20
318.582153
 30
0.0
 11
27.176365
 21
289.58197
 31
0.0
  0
LINE
  5
19F
330
1E
100
AcDbEntity
  8
0
  6
CONTINUOUS
100
AcDbLine
 10
19.176365
 20
318.582153
 30
0.0
 11
27.176365
 21
318.582153
 31
0.0
  0
LINE
  5
1A0
330
1E
100
AcDbEntity
  8
0
  6
CONTINUOUS
100
AcDbLine
 10
19.176365
 20
289.58197
 30
0.0
 11
27.176365
 21
289.58197
 31
0.0
  0
LINE
  5
1A1
330
1E
100
AcDbEntity
  8
0
  6
CONTINUOUS
100
AcDbLine
 10
36.176365
 20
317.0821529999999
 30
0.0
 11
36.176365
 21
291.08197
 31
0.0
  0
LINE
  5
1A2
330
1E
100
AcDbEntity
  8
0
  6
CONTINUOUS
100
AcDbLine
 10
27.176365
 20
317.0821529999999
 30
0.0
 11
36.176365
 21
317.0821529999999
 31
0.0
  0
LINE
  5
1A3
330
1E
100
AcDbEntity
  8
0
  6
CONTINUOUS
100
AcDbLine
 10
27.176365
 20
291.08197
 30
0.0
 11
36.176365
 21
291.08197
 31
0.0
  0
LINE
  5
1A4
330
1E
100
AcDbEntity
  8
0
  6
CONTINUOUS
100
AcDbLine
 10
36.176365
 20
315.582153
 30
0.0
 11
41.176365
 21
315.582153
 31
0.0
  0
LINE
  5
1A5
330
1E
100
AcDbEntity
  8
0
  6
CONTINUOUS
100
AcDbLine
 10
36.176365
 20
292.58197
 30
0.0
 11
41.176365
 21
292.58197
 31
0.0
  0
LINE
  5
1A6
330
1E
100
AcDbEntity
  8
0
  6
CONTINUOUS
100
AcDbLine
 10
41.176365
 20
317.582153
 30
0.0
 11
41.176365
 21
290.58197
 31
0.0
  0
LINE
  5
1A7
330
1E
100
AcDbEntity
  8
0
  6
CONTINUOUS
100
AcDbLine
 10
45.676365
 20
318.582153
 30
0.0
 11
45.676365
 21
289.58197
 31
0.0
  0
LINE
  5
1A8
330
1E
100
AcDbEntity
  8
0
  6
CONTINUOUS
100
AcDbLine
 10
41.176365
 20
317.582153
 30
0.0
 11
45.676365
 21
317.582153
 31
0.0
  0
LINE
  5
1A9
330
1E
100
AcDbEntity
  8
0
  6
CONTINUOUS
100
AcDbLine
 10
41.176365
 20
290.58197
 30
0.0
 11
45.676365
 21
290.58197
 31
0.0
  0
LINE
  5
1AA
330
1E
100
AcDbEntity
  8
0
  6
CONTINUOUS
100
AcDbLine
 10
45.676365
 20
318.582153
 30
0.0
 11
47.984966
 21
318.582153
 31
0.0
  0
LINE
  5
1AB
330
1E
100
AcDbEntity
  8
0
  6
CONTINUOUS
100
AcDbLine
 10
45.676365
 20
289.58197
 30
0.0
 11
47.216164
 21
289.58197
 31
0.0
  0
LINE
  5
1AC
330
1E
100
AcDbEntity
  8
0
  6
CONTINUOUS
100
AcDbLine
 10
19.176365
 20
312.082153
 30
0.0
 11
27.176365
 21
312.082153
 31
0.0
  0
LINE
  5
1AD
330
1E
100
AcDbEntity
  8
0
  6
CONTINUOUS
100
AcDbLine
 10
19.176365
 20
296.08197
 30
0.0
 11
27.176365
 21
296.08197
 31
0.0
  0
LINE
  5
1AE
330
1E
100
AcDbEntity
  8
0
  6
CONTINUOUS
100
AcDbLine
 10
36.176365
 20
314.082153
 30
0.0
 11
41.176365
 21
314.082153
 31
0.0
  0
LINE
  5
1AF
330
1E
100
AcDbEntity
  8
0
  6
CONTINUOUS
100
AcDbLine
 10
36.176365
 20
294.08197
 30
0.0
 11
41.176365
 21
294.08197
 31
0.0
  0
ARC
  5
1B0
330
1E
100
AcDbEntity
  8
0
  6
CONTINUOUS
100
AcDbCircle
 10
109.386559
 20
333.08197
 30
0.0
 40
2.0
100
AcDbArc
 50
181.5033719999999
 51
270.0
  0
ARC
  5
1B1
330
1E
100
AcDbEntity
  8
0
  6
CONTINUOUS
100
AcDbCircle
 10
54.96614499999999
 20
333.08197
 30
0.0
 40
2.0
100
AcDbArc
 50
270.0
 51
358.500092
  0
ARC
  5
1B2
330
1E
100
AcDbEntity
  8
0
  6
CONTINUOUS
100
AcDbCircle
 10
453.6765749999999
 20
82.591476
 30
0.0
 40
450.0
100
AcDbArc
 50
173.2476039999999
 51
186.752502
  0
LINE
  5
1B3
330
1E
100
AcDbEntity
  8
0
  6
CONTINUOUS
100
AcDbLine
 10
18.71480899999999
 20
146.091476
 30
0.0
 11
22.412769
 21
146.091476
 31
0.0
  0
LINE
  5
1B4
330
1E
100
AcDbEntity
  8
0
  6
CONTINUOUS
100
AcDbLine
 10
18.71486499999999
 20
19.09147999999999
 30
0.0
 11
22.412769
 21
19.09147999999999
 31
0.0
  0
LINE
  5
1B5
330
1E
100
AcDbEntity
  8
0
  6
CONTINUOUS
100
AcDbLine
 10
23.43626599999999
 20
150.091476
 30
0.0
 11
54.176563
 21
150.091476
 31
0.0
  0
LINE
  5
1B6
330
1E
100
AcDbEntity
  8
0
  6
CONTINUOUS
100
AcDbLine
 10
54.176563
 20
150.091476
 30
0.0
 11
54.176563
 21
117.5914689999999
 31
0.0
  0
ARC
  5
1B7
330
1E
100
AcDbEntity
  8
0
  6
CONTINUOUS
100
AcDbCircle
 10
18.714832
 20
134.0914759999999
 30
0.0
 40
12.0
100
AcDbArc
 50
90.0
 51
173.247894
  0
ARC
  5
1B8
330
1E
100
AcDbEntity
  8
0
  6
CONTINUOUS
100
AcDbCircle
 10
23.436268
 20
148.591476
 30
0.0
 40
1.5
100
AcDbArc
 50
90.0
 51
191.662598
  0
ARC
  5
1B9
330
1E
100
AcDbEntity
  8
0
  6
CONTINUOUS
100
AcDbCircle
 10
18.71480199999999
 20
31.09147999999999
 30
0.0
 40
12.0
100
AcDbArc
 50
186.752396
 51
270.0
  0
LINE
  5
1BA
330
1E
100
AcDbEntity
  8
0
  6
CONTINUOUS
100
AcDbLine
 10
54.176563
 20
140.091476
 30
0.0
 11
166.1765589999999
 21
140.091476
 31
0.0
  0
LINE
  5
1BB
330
1E
100
AcDbEntity
  8
0
  6
CONTINUOUS
100
AcDbLine
 10
158.176559
 20
133.8774869999999
 30
0.0
 11
158.176559
 21
129.591476
 31
0.0
  0
LINE
  5
1BC
330
1E
100
AcDbEntity
  8
0
  6
CONTINUOUS
100
AcDbLine
 10
119.176559
 20
109.591476
 30
0.0
 11
117.176559
 21
109.591476
 31
0.0
  0
LINE
  5
1BD
330
1E
100
AcDbEntity
  8
0
  6
CONTINUOUS
100
AcDbLine
 10
119.176559
 20
55.59148
 30
0.0
 11
117.176559
 21
55.59148
 31
0.0
  0
LINE
  5
1BE
330
1E
100
AcDbEntity
  8
0
  6
CONTINUOUS
100
AcDbLine
 10
121.176559
 20
57.59148
 30
0.0
 11
121.176559
 21
107.591476
 31
0.0
  0
LINE
  5
1BF
330
1E
100
AcDbEntity
  8
0
  6
CONTINUOUS
100
AcDbLine
 10
54.176563
 20
120.5914759999999
 30
0.0
 11
158.176559
 21
120.5914759999999
 31
0.0
  0
LINE
  5
1C0
330
1E
100
AcDbEntity
  8
0
  6
CONTINUOUS
100
AcDbLine
 10
54.176563
 20
122.5914759999999
 30
0.0
 11
158.176559
 21
122.5914759999999
 31
0.0
  0
LINE
  5
1C1
330
1E
100
AcDbEntity
  8
0
  6
CONTINUOUS
100
AcDbLine
 10
54.176563
 20
127.591476
 30
0.0
 11
158.176559
 21
127.591476
 31
0.0
  0
LINE
  5
1C2
330
1E
100
AcDbEntity
  8
0
  6
CONTINUOUS
100
AcDbLine
 10
54.176563
 20
129.591476
 30
0.0
 11
158.176559
 21
129.591476
 31
0.0
  0
LINE
  5
1C3
330
1E
100
AcDbEntity
  8
0
  6
CONTINUOUS
100
AcDbLine
 10
54.176563
 20
133.8774869999999
 30
0.0
 11
158.176559
 21
133.8774869999999
 31
0.0
  0
LINE
  5
1C4
330
1E
100
AcDbEntity
  8
0
  6
CONTINUOUS
100
AcDbLine
 10
158.176559
 20
31.30547899999999
 30
0.0
 11
158.176559
 21
35.59147999999999
 31
0.0
  0
LINE
  5
1C5
330
1E
100
AcDbEntity
  8
0
  6
CONTINUOUS
100
AcDbLine
 10
158.176559
 20
37.59147999999999
 30
0.0
 11
158.176559
 21
42.59147999999999
 31
0.0
  0
LINE
  5
1C6
330
1E
100
AcDbEntity
  8
0
  6
CONTINUOUS
100
AcDbLine
 10
158.176559
 20
44.59147999999999
 30
0.0
 11
158.176559
 21
50.09147999999999
 31
0.0
  0
LINE
  5
1C7
330
1E
100
AcDbEntity
  8
0
  6
CONTINUOUS
100
AcDbLine
 10
158.176559
 20
52.09147999999999
 30
0.0
 11
158.176559
 21
58.191479
 31
0.0
  0
LINE
  5
1C8
330
1E
100
AcDbEntity
  8
0
  6
CONTINUOUS
100
AcDbLine
 10
158.176559
 20
60.191479
 30
0.0
 11
158.176559
 21
65.99146999999999
 31
0.0
  0
LINE
  5
1C9
330
1E
100
AcDbEntity
  8
0
  6
CONTINUOUS
100
AcDbLine
 10
158.176559
 20
67.99146999999999
 30
0.0
 11
158.176559
 21
73.791481
 31
0.0
  0
LINE
  5
1CA
330
1E
100
AcDbEntity
  8
0
  6
CONTINUOUS
100
AcDbLine
 10
158.176559
 20
75.79148100000001
 30
0.0
 11
158.176559
 21
81.59148399999999
 31
0.0
  0
LINE
  5
1CB
330
1E
100
AcDbEntity
  8
0
  6
CONTINUOUS
100
AcDbLine
 10
158.176559
 20
83.591476
 30
0.0
 11
158.176559
 21
89.391487
 31
0.0
  0
LINE
  5
1CC
330
1E
100
AcDbEntity
  8
0
  6
CONTINUOUS
100
AcDbLine
 10
158.176559
 20
91.39147900000001
 30
0.0
 11
158.176559
 21
97.191483
 31
0.0
  0
LINE
  5
1CD
330
1E
100
AcDbEntity
  8
0
  6
CONTINUOUS
100
AcDbLine
 10
158.176559
 20
99.19147500000001
 30
0.0
 11
158.176559
 21
104.9914779999999
 31
0.0
  0
LINE
  5
1CE
330
1E
100
AcDbEntity
  8
0
  6
CONTINUOUS
100
AcDbLine
 10
158.176559
 20
106.9914779999999
 30
0.0
 11
158.176559
 21
113.091476
 31
0.0
  0
LINE
  5
1CF
330
1E
100
AcDbEntity
  8
0
  6
CONTINUOUS
100
AcDbLine
 10
158.176559
 20
115.091476
 30
0.0
 11
158.176559
 21
120.5914759999999
 31
0.0
  0
LINE
  5
1D0
330
1E
100
AcDbEntity
  8
0
  6
CONTINUOUS
100
AcDbLine
 10
158.176559
 20
122.5914759999999
 30
0.0
 11
158.176559
 21
127.591476
 31
0.0
  0
ARC
  5
1D1
330
1E
100
AcDbEntity
  8
0
  6
CONTINUOUS
100
AcDbCircle
 10
119.176559
 20
107.591476
 30
0.0
 40
2.0
100
AcDbArc
 50
0.0
 51
90.0
  0
ARC
  5
1D2
330
1E
100
AcDbEntity
  8
0
  6
CONTINUOUS
100
AcDbCircle
 10
119.176559
 20
57.59148
 30
0.0
 40
2.0
100
AcDbArc
 50
270.0
 51
0.0
  0
LINE
  5
1D3
330
1E
100
AcDbEntity
  8
0
  6
CONTINUOUS
100
AcDbLine
 10
158.176559
 20
52.09147999999999
 30
0.0
 11
117.176559
 21
52.09147999999999
 31
0.0
  0
LINE
  5
1D4
330
1E
100
AcDbEntity
  8
0
  6
CONTINUOUS
100
AcDbLine
 10
158.176559
 20
50.09147999999999
 30
0.0
 11
117.176559
 21
50.09153
 31
0.0
  0
LINE
  5
1D5
330
1E
100
AcDbEntity
  8
0
  6
CONTINUOUS
100
AcDbLine
 10
158.176559
 20
44.59147999999999
 30
0.0
 11
68.676613
 21
44.59147999999999
 31
0.0
  0
LINE
  5
1D6
330
1E
100
AcDbEntity
  8
0
  6
CONTINUOUS
100
AcDbLine
 10
158.176559
 20
42.59147999999999
 30
0.0
 11
95.67671199999999
 21
42.59147999999999
 31
0.0
  0
LINE
  5
1D7
330
1E
100
AcDbEntity
  8
0
  6
CONTINUOUS
100
AcDbLine
 10
158.176559
 20
37.59147999999999
 30
0.0
 11
70.67661300000001
 21
37.59147999999999
 31
0.0
  0
LINE
  5
1D8
330
1E
100
AcDbEntity
  8
0
  6
CONTINUOUS
100
AcDbLine
 10
158.176559
 20
35.59147999999999
 30
0.0
 11
95.176712
 21
35.59147999999999
 31
0.0
  0
LINE
  5
1D9
330
1E
100
AcDbEntity
  8
0
  6
CONTINUOUS
100
AcDbLine
 10
158.176559
 20
31.30547899999999
 30
0.0
 11
69.176613
 21
31.30547899999999
 31
0.0
  0
LINE
  5
1DA
330
1E
100
AcDbEntity
  8
0
  6
CONTINUOUS
100
AcDbLine
 10
166.1765589999999
 20
25.09147999999999
 30
0.0
 11
96.676712
 21
25.09147999999999
 31
0.0
  0
LINE
  5
1DB
330
1E
100
AcDbEntity
  8
0
  6
CONTINUOUS
100
AcDbLine
 10
117.176559
 20
115.091469
 30
0.0
 11
117.176559
 21
50.09153
 31
0.0
  0
LINE
  5
1DC
330
1E
100
AcDbEntity
  8
0
  6
CONTINUOUS
100
AcDbLine
 10
47.176563
 20
50.091431
 30
0.0
 11
47.176563
 21
115.091476
 31
0.0
  0
LINE
  5
1DD
330
1E
100
AcDbEntity
  8
0
  6
CONTINUOUS
100
AcDbLine
 10
49.676563
 20
117.5914759999999
 30
0.0
 11
114.676559
 21
117.5914759999999
 31
0.0
  0
LINE
  5
1DE
330
1E
100
AcDbEntity
  8
0
  6
CONTINUOUS
100
AcDbLine
 10
49.676552
 20
47.591431
 30
0.0
 11
114.676559
 21
47.591431
 31
0.0
  0
ARC
  5
1DF
330
1E
100
AcDbEntity
  8
0
  6
CONTINUOUS
100
AcDbCircle
 10
114.676559
 20
50.091431
 30
0.0
 40
2.5
100
AcDbArc
 50
270.0
 51
0.0
  0
ARC
  5
1E0
330
1E
100
AcDbEntity
  8
0
  6
CONTINUOUS
100
AcDbCircle
 10
114.676559
 20
115.091454
 30
0.0
 40
2.5
100
AcDbArc
 50
0.0
 51
90.0
  0
ARC
  5
1E1
330
1E
100
AcDbEntity
  8
0
  6
CONTINUOUS
100
AcDbCircle
 10
49.676563
 20
115.091469
 30
0.0
 40
2.5
100
AcDbArc
 50
90.0
 51
180.0
  0
ARC
  5
1E2
330
1E
100
AcDbEntity
  8
0
  6
CONTINUOUS
100
AcDbCircle
 10
49.676552
 20
50.091431
 30
0.0
 40
2.5
100
AcDbArc
 50
180.0
 51
270.0
  0
ARC
  5
1E3
330
1E
100
AcDbEntity
  8
0
  6
CONTINUOUS
100
AcDbCircle
 10
112.176559
 20
112.5914689999999
 30
0.0
 40
4.0
100
AcDbArc
 50
180.0
 51
270.0
  0
ARC
  5
1E4
330
1E
100
AcDbEntity
  8
0
  6
CONTINUOUS
100
AcDbCircle
 10
112.176559
 20
52.59143100000001
 30
0.0
 40
4.0
100
AcDbArc
 50
90.0
 51
180.0
  0
ARC
  5
1E5
330
1E
100
AcDbEntity
  8
0
  6
CONTINUOUS
100
AcDbCircle
 10
52.176563
 20
52.59143100000001
 30
0.0
 40
4.0
100
AcDbArc
 50
0.0
 51
90.0
  0
ARC
  5
1E6
330
1E
100
AcDbEntity
  8
0
  6
CONTINUOUS
100
AcDbCircle
 10
52.176563
 20
112.5914689999999
 30
0.0
 40
4.0
100
AcDbArc
 50
270.0
 51
0.0
  0
LINE
  5
1E7
330
1E
100
AcDbEntity
  8
0
  6
CONTINUOUS
100
AcDbLine
 10
108.176559
 20
52.59143100000001
 30
0.0
 11
108.176559
 21
50.091431
 31
0.0
  0
LINE
  5
1E8
330
1E
100
AcDbEntity
  8
0
  6
CONTINUOUS
100
AcDbLine
 10
108.176559
 20
112.591476
 30
0.0
 11
108.176559
 21
115.091476
 31
0.0
  0
LINE
  5
1E9
330
1E
100
AcDbEntity
  8
0
  6
CONTINUOUS
100
AcDbLine
 10
56.176563
 20
112.591476
 30
0.0
 11
56.176563
 21
115.091454
 31
0.0
  0
LINE
  5
1EA
330
1E
100
AcDbEntity
  8
0
  6
CONTINUOUS
100
AcDbLine
 10
56.176563
 20
52.59143100000001
 30
0.0
 11
56.176563
 21
50.091431
 31
0.0
  0
LINE
  5
1EB
330
1E
100
AcDbEntity
  8
0
  6
CONTINUOUS
100
AcDbLine
 10
112.176559
 20
56.59143100000001
 30
0.0
 11
114.676559
 21
56.59143100000001
 31
0.0
  0
LINE
  5
1EC
330
1E
100
AcDbEntity
  8
0
  6
CONTINUOUS
100
AcDbLine
 10
112.176559
 20
108.5914689999999
 30
0.0
 11
114.676559
 21
108.5914689999999
 31
0.0
  0
LINE
  5
1ED
330
1E
100
AcDbEntity
  8
0
  6
CONTINUOUS
100
AcDbLine
 10
52.176563
 20
108.5914689999999
 30
0.0
 11
49.676552
 21
108.5914689999999
 31
0.0
  0
LINE
  5
1EE
330
1E
100
AcDbEntity
  8
0
  6
CONTINUOUS
100
AcDbLine
 10
52.176544
 20
56.59143100000001
 30
0.0
 11
49.676552
 21
56.59143100000001
 31
0.0
  0
ARC
  5
1EF
330
1E
100
AcDbEntity
  8
0
  6
CONTINUOUS
100
AcDbCircle
 10
105.676559
 20
115.091469
 30
0.0
 40
2.5
100
AcDbArc
 50
0.0
 51
90.0
  0
ARC
  5
1F0
330
1E
100
AcDbEntity
  8
0
  6
CONTINUOUS
100
AcDbCircle
 10
114.676559
 20
106.0914539999999
 30
0.0
 40
2.5
100
AcDbArc
 50
0.0
 51
90.0
  0
ARC
  5
1F1
330
1E
100
AcDbEntity
  8
0
  6
CONTINUOUS
100
AcDbCircle
 10
114.676559
 20
59.09143100000001
 30
0.0
 40
2.5
100
AcDbArc
 50
270.0
 51
0.0
  0
ARC
  5
1F2
330
1E
100
AcDbEntity
  8
0
  6
CONTINUOUS
100
AcDbCircle
 10
105.676559
 20
50.091431
 30
0.0
 40
2.5
100
AcDbArc
 50
270.0
 51
0.0
  0
ARC
  5
1F3
330
1E
100
AcDbEntity
  8
0
  6
CONTINUOUS
100
AcDbCircle
 10
58.676563
 20
115.091469
 30
0.0
 40
2.5
100
AcDbArc
 50
90.0
 51
180.0
  0
ARC
  5
1F4
330
1E
100
AcDbEntity
  8
0
  6
CONTINUOUS
100
AcDbCircle
 10
49.676563
 20
106.0914689999999
 30
0.0
 40
2.5
100
AcDbArc
 50
90.0
 51
180.0
  0
ARC
  5
1F5
330
1E
100
AcDbEntity
  8
0
  6
CONTINUOUS
100
AcDbCircle
 10
58.676552
 20
50.091431
 30
0.0
 40
2.5
100
AcDbArc
 50
180.0
 51
270.0
  0
ARC
  5
1F6
330
1E
100
AcDbEntity
  8
0
  6
CONTINUOUS
100
AcDbCircle
 10
49.676552
 20
59.09143100000001
 30
0.0
 40
2.5
100
AcDbArc
 50
180.0
 51
270.0
  0
LINE
  5
1F7
330
1E
100
AcDbEntity
  8
0
  6
CONTINUOUS
100
AcDbLine
 10
19.17661299999999
 20
68.09133100000001
 30
0.0
 11
19.17661299999999
 21
97.091431
 31
0.0
  0
LINE
  5
1F8
330
1E
100
AcDbEntity
  8
0
  6
CONTINUOUS
100
AcDbLine
 10
27.176613
 20
68.09133100000001
 30
0.0
 11
27.176613
 21
97.091431
 31
0.0
  0
LINE
  5
1F9
330
1E
100
AcDbEntity
  8
0
  6
CONTINUOUS
100
AcDbLine
 10
19.17661299999999
 20
68.09133100000001
 30
0.0
 11
27.176613
 21
68.09133100000001
 31
0.0
  0
LINE
  5
1FA
330
1E
100
AcDbEntity
  8
0
  6
CONTINUOUS
100
AcDbLine
 10
19.17661299999999
 20
97.091431
 30
0.0
 11
27.176613
 21
97.091431
 31
0.0
  0
LINE
  5
1FB
330
1E
100
AcDbEntity
  8
0
  6
CONTINUOUS
100
AcDbLine
 10
36.176613
 20
69.59133100000001
 30
0.0
 11
36.176613
 21
95.591431
 31
0.0
  0
LINE
  5
1FC
330
1E
100
AcDbEntity
  8
0
  6
CONTINUOUS
100
AcDbLine
 10
27.176613
 20
69.59133100000001
 30
0.0
 11
36.176613
 21
69.59133100000001
 31
0.0
  0
LINE
  5
1FD
330
1E
100
AcDbEntity
  8
0
  6
CONTINUOUS
100
AcDbLine
 10
27.176613
 20
95.591431
 30
0.0
 11
36.176613
 21
95.591431
 31
0.0
  0
LINE
  5
1FE
330
1E
100
AcDbEntity
  8
0
  6
CONTINUOUS
100
AcDbLine
 10
36.176613
 20
71.09133100000001
 30
0.0
 11
41.176613
 21
71.09133100000001
 31
0.0
  0
LINE
  5
1FF
330
1E
100
AcDbEntity
  8
0
  6
CONTINUOUS
100
AcDbLine
 10
36.176613
 20
94.09143099999999
 30
0.0
 11
41.176613
 21
94.09143099999999
 31
0.0
  0
LINE
  5
200
330
1E
100
AcDbEntity
  8
0
  6
CONTINUOUS
100
AcDbLine
 10
41.176613
 20
69.09133100000001
 30
0.0
 11
41.176613
 21
96.091431
 31
0.0
  0
LINE
  5
201
330
1E
100
AcDbEntity
  8
0
  6
CONTINUOUS
100
AcDbLine
 10
45.676613
 20
68.09133100000001
 30
0.0
 11
45.676613
 21
97.091431
 31
0.0
  0
LINE
  5
202
330
1E
100
AcDbEntity
  8
0
  6
CONTINUOUS
100
AcDbLine
 10
41.176613
 20
69.09133100000001
 30
0.0
 11
45.676613
 21
69.09133100000001
 31
0.0
  0
LINE
  5
203
330
1E
100
AcDbEntity
  8
0
  6
CONTINUOUS
100
AcDbLine
 10
41.176613
 20
96.091431
 30
0.0
 11
45.676613
 21
96.091431
 31
0.0
  0
LINE
  5
204
330
1E
100
AcDbEntity
  8
0
  6
CONTINUOUS
100
AcDbLine
 10
45.676613
 20
68.09133100000001
 30
0.0
 11
47.215912
 21
68.09133100000001
 31
0.0
  0
LINE
  5
205
330
1E
100
AcDbEntity
  8
0
  6
CONTINUOUS
100
AcDbLine
 10
45.676613
 20
97.091431
 30
0.0
 11
47.176563
 21
97.091431
 31
0.0
  0
LINE
  5
206
330
1E
100
AcDbEntity
  8
0
  6
CONTINUOUS
100
AcDbLine
 10
19.17661299999999
 20
74.59133100000001
 30
0.0
 11
27.176613
 21
74.59133100000001
 31
0.0
  0
LINE
  5
207
330
1E
100
AcDbEntity
  8
0
  6
CONTINUOUS
100
AcDbLine
 10
19.17661299999999
 20
90.591431
 30
0.0
 11
27.176613
 21
90.591431
 31
0.0
  0
ARC
  5
208
330
1E
100
AcDbEntity
  8
0
  6
CONTINUOUS
100
AcDbCircle
 10
-296.3234249999999
 20
82.591476
 30
0.0
 40
325.0
100
AcDbArc
 50
348.552979
 51
357.70752
  0
LINE
  5
209
330
1E
100
AcDbEntity
  8
0
  6
CONTINUOUS
100
AcDbLine
 10
54.176563
 20
18.09147999999999
 30
0.0
 11
22.211884
 21
18.09147999999999
 31
0.0
  0
LINE
  5
20A
330
1E
100
AcDbEntity
  8
0
  6
CONTINUOUS
100
AcDbLine
 10
117.176559
 20
115.091469
 30
0.0
 11
158.176559
 21
115.091476
 31
0.0
  0
LINE
  5
20B
330
1E
100
AcDbEntity
  8
0
  6
CONTINUOUS
100
AcDbLine
 10
117.176559
 20
113.091476
 30
0.0
 11
158.176559
 21
113.091476
 31
0.0
  0
LINE
  5
20C
330
1E
100
AcDbEntity
  8
0
  6
CONTINUOUS
100
AcDbLine
 10
121.176559
 20
106.9914779999999
 30
0.0
 11
158.176559
 21
106.9914779999999
 31
0.0
  0
LINE
  5
20D
330
1E
100
AcDbEntity
  8
0
  6
CONTINUOUS
100
AcDbLine
 10
121.176559
 20
104.9914779999999
 30
0.0
 11
158.176559
 21
104.9914779999999
 31
0.0
  0
LINE
  5
20E
330
1E
100
AcDbEntity
  8
0
  6
CONTINUOUS
100
AcDbLine
 10
121.176559
 20
99.19147500000001
 30
0.0
 11
158.176559
 21
99.19147500000001
 31
0.0
  0
LINE
  5
20F
330
1E
100
AcDbEntity
  8
0
  6
CONTINUOUS
100
AcDbLine
 10
121.176559
 20
97.191483
 30
0.0
 11
158.176559
 21
97.191483
 31
0.0
  0
LINE
  5
210
330
1E
100
AcDbEntity
  8
0
  6
CONTINUOUS
100
AcDbLine
 10
121.176559
 20
91.39147900000001
 30
0.0
 11
158.176559
 21
91.39147900000001
 31
0.0
  0
LINE
  5
211
330
1E
100
AcDbEntity
  8
0
  6
CONTINUOUS
100
AcDbLine
 10
121.176559
 20
89.391479
 30
0.0
 11
158.176559
 21
89.391479
 31
0.0
  0
LINE
  5
212
330
1E
100
AcDbEntity
  8
0
  6
CONTINUOUS
100
AcDbLine
 10
121.176559
 20
83.591476
 30
0.0
 11
158.176559
 21
83.591476
 31
0.0
  0
LINE
  5
213
330
1E
100
AcDbEntity
  8
0
  6
CONTINUOUS
100
AcDbLine
 10
121.176559
 20
81.591476
 30
0.0
 11
158.176559
 21
81.591476
 31
0.0
  0
LINE
  5
214
330
1E
100
AcDbEntity
  8
0
  6
CONTINUOUS
100
AcDbLine
 10
121.176559
 20
75.79148100000001
 30
0.0
 11
158.176559
 21
75.79148100000001
 31
0.0
  0
LINE
  5
215
330
1E
100
AcDbEntity
  8
0
  6
CONTINUOUS
100
AcDbLine
 10
121.176559
 20
73.791481
 30
0.0
 11
158.176559
 21
73.791481
 31
0.0
  0
LINE
  5
216
330
1E
100
AcDbEntity
  8
0
  6
CONTINUOUS
100
AcDbLine
 10
121.176559
 20
67.99148599999999
 30
0.0
 11
158.176559
 21
67.99148599999999
 31
0.0
  0
LINE
  5
217
330
1E
100
AcDbEntity
  8
0
  6
CONTINUOUS
100
AcDbLine
 10
121.176559
 20
65.99148599999999
 30
0.0
 11
158.176559
 21
65.99148599999999
 31
0.0
  0
LINE
  5
218
330
1E
100
AcDbEntity
  8
0
  6
CONTINUOUS
100
AcDbLine
 10
121.176559
 20
60.191479
 30
0.0
 11
158.176559
 21
60.191479
 31
0.0
  0
LINE
  5
219
330
1E
100
AcDbEntity
  8
0
  6
CONTINUOUS
100
AcDbLine
 10
121.176559
 20
58.191479
 30
0.0
 11
158.176559
 21
58.191479
 31
0.0
  0
LINE
  5
21A
330
1E
100
AcDbEntity
  8
0
  6
CONTINUOUS
100
AcDbLine
 10
54.176563
 20
47.591431
 30
0.0
 11
54.176563
 21
18.09147999999999
 31
0.0
  0
LINE
  5
21B
330
1E
100
AcDbEntity
  8
0
  6
CONTINUOUS
100
AcDbLine
 10
68.676613
 20
44.59147999999999
 30
0.0
 11
54.176563
 21
44.59147999999999
 31
0.0
  0
LINE
  5
21C
330
1E
100
AcDbEntity
  8
0
  6
CONTINUOUS
100
AcDbLine
 10
95.67671199999999
 20
42.59147999999999
 30
0.0
 11
54.176563
 21
42.59147999999999
 31
0.0
  0
LINE
  5
21D
330
1E
100
AcDbEntity
  8
0
  6
CONTINUOUS
100
AcDbLine
 10
95.176712
 20
35.59147999999999
 30
0.0
 11
54.176563
 21
35.59147999999999
 31
0.0
  0
LINE
  5
21E
330
1E
100
AcDbEntity
  8
0
  6
CONTINUOUS
100
AcDbLine
 10
70.67661300000001
 20
37.59147999999999
 30
0.0
 11
54.176563
 21
37.59147999999999
 31
0.0
  0
LINE
  5
21F
330
1E
100
AcDbEntity
  8
0
  6
CONTINUOUS
100
AcDbLine
 10
69.176613
 20
31.30547899999999
 30
0.0
 11
54.176563
 21
31.30547899999999
 31
0.0
  0
LINE
  5
220
330
1E
100
AcDbEntity
  8
0
  6
CONTINUOUS
100
AcDbLine
 10
96.676712
 20
25.09147999999999
 30
0.0
 11
54.176563
 21
25.09147999999999
 31
0.0
  0
ARC
  5
221
330
1E
100
AcDbEntity
  8
0
  6
CONTINUOUS
100
AcDbCircle
 10
-296.3234249999999
 20
82.591476
 30
0.0
 40
325.0
100
AcDbArc
 50
2.292434
 51
11.66233999999999
  0
LINE
  5
222
330
1E
100
AcDbEntity
  8
0
  6
CONTINUOUS
100
AcDbLine
 10
113.926559
 20
112.9914629999999
 30
0.0
 11
113.926559
 21
112.1914439999999
 31
0.0
  0
LINE
  5
223
330
1E
100
AcDbEntity
  8
0
  6
CONTINUOUS
100
AcDbLine
 10
111.7765429999999
 20
114.3414689999999
 30
0.0
 11
112.576553
 21
114.3414689999999
 31
0.0
  0
LINE
  5
224
330
1E
100
AcDbEntity
  8
0
  6
CONTINUOUS
100
AcDbLine
 10
111.7765429999999
 20
110.8414689999999
 30
0.0
 11
112.576553
 21
110.8414689999999
 31
0.0
  0
LINE
  5
225
330
1E
100
AcDbEntity
  8
0
  6
CONTINUOUS
100
AcDbLine
 10
110.426559
 20
112.9914629999999
 30
0.0
 11
110.426559
 21
112.1914439999999
 31
0.0
  0
CIRCLE
  5
226
330
1E
100
AcDbEntity
  8
0
  6
CONTINUOUS
100
AcDbCircle
 10
112.176559
 20
112.5914689999999
 30
0.0
 40
2.75
  0
ARC
  5
227
330
1E
100
AcDbEntity
  8
0
  6
CONTINUOUS
100
AcDbCircle
 10
110.426559
 20
114.3414689999999
 30
0.0
 40
1.35
100
AcDbArc
 50
270.0
 51
0.0
  0
ARC
  5
228
330
1E
100
AcDbEntity
  8
0
  6
CONTINUOUS
100
AcDbCircle
 10
110.426559
 20
110.8414689999999
 30
0.0
 40
1.35
100
AcDbArc
 50
0.0
 51
90.0
  0
ARC
  5
229
330
1E
100
AcDbEntity
  8
0
  6
CONTINUOUS
100
AcDbCircle
 10
113.926559
 20
114.3414689999999
 30
0.0
 40
1.35
100
AcDbArc
 50
180.0
 51
270.0
  0
ARC
  5
22A
330
1E
100
AcDbEntity
  8
0
  6
CONTINUOUS
100
AcDbCircle
 10
113.926559
 20
110.8414689999999
 30
0.0
 40
1.35
100
AcDbArc
 50
90.0
 51
180.0
  0
LINE
  5
22B
330
1E
100
AcDbEntity
  8
0
  6
CONTINUOUS
100
AcDbLine
 10
53.926563
 20
112.9914629999999
 30
0.0
 11
53.926563
 21
112.1914439999999
 31
0.0
  0
LINE
  5
22C
330
1E
100
AcDbEntity
  8
0
  6
CONTINUOUS
100
AcDbLine
 10
51.776539
 20
114.3414689999999
 30
0.0
 11
52.57655699999999
 21
114.3414689999999
 31
0.0
  0
LINE
  5
22D
330
1E
100
AcDbEntity
  8
0
  6
CONTINUOUS
100
AcDbLine
 10
51.776539
 20
110.8414689999999
 30
0.0
 11
52.57655699999999
 21
110.8414689999999
 31
0.0
  0
LINE
  5
22E
330
1E
100
AcDbEntity
  8
0
  6
CONTINUOUS
100
AcDbLine
 10
50.426563
 20
112.9914629999999
 30
0.0
 11
50.426563
 21
112.1914439999999
 31
0.0
  0
CIRCLE
  5
22F
330
1E
100
AcDbEntity
  8
0
  6
CONTINUOUS
100
AcDbCircle
 10
52.176563
 20
112.5914689999999
 30
0.0
 40
2.75
  0
ARC
  5
230
330
1E
100
AcDbEntity
  8
0
  6
CONTINUOUS
100
AcDbCircle
 10
50.426563
 20
114.3414689999999
 30
0.0
 40
1.35
100
AcDbArc
 50
270.0
 51
0.0
  0
ARC
  5
231
330
1E
100
AcDbEntity
  8
0
  6
CONTINUOUS
100
AcDbCircle
 10
50.426563
 20
110.8414689999999
 30
0.0
 40
1.35
100
AcDbArc
 50
0.0
 51
90.0
  0
ARC
  5
232
330
1E
100
AcDbEntity
  8
0
  6
CONTINUOUS
100
AcDbCircle
 10
53.926563
 20
114.3414689999999
 30
0.0
 40
1.35
100
AcDbArc
 50
180.0
 51
270.0
  0
ARC
  5
233
330
1E
100
AcDbEntity
  8
0
  6
CONTINUOUS
100
AcDbCircle
 10
53.926563
 20
110.8414689999999
 30
0.0
 40
1.35
100
AcDbArc
 50
90.0
 51
180.0
  0
LINE
  5
234
330
1E
100
AcDbEntity
  8
0
  6
CONTINUOUS
100
AcDbLine
 10
53.926563
 20
52.991425
 30
0.0
 11
53.926563
 21
52.191406
 31
0.0
  0
LINE
  5
235
330
1E
100
AcDbEntity
  8
0
  6
CONTINUOUS
100
AcDbLine
 10
51.776539
 20
54.341431
 30
0.0
 11
52.57655699999999
 21
54.341431
 31
0.0
  0
LINE
  5
236
330
1E
100
AcDbEntity
  8
0
  6
CONTINUOUS
100
AcDbLine
 10
51.776539
 20
50.841431
 30
0.0
 11
52.57655699999999
 21
50.841431
 31
0.0
  0
LINE
  5
237
330
1E
100
AcDbEntity
  8
0
  6
CONTINUOUS
100
AcDbLine
 10
50.426563
 20
52.991425
 30
0.0
 11
50.426563
 21
52.191406
 31
0.0
  0
CIRCLE
  5
238
330
1E
100
AcDbEntity
  8
0
  6
CONTINUOUS
100
AcDbCircle
 10
52.176563
 20
52.59143100000001
 30
0.0
 40
2.75
  0
ARC
  5
239
330
1E
100
AcDbEntity
  8
0
  6
CONTINUOUS
100
AcDbCircle
 10
50.426563
 20
54.341431
 30
0.0
 40
1.35
100
AcDbArc
 50
270.0
 51
0.0
  0
ARC
  5
23A
330
1E
100
AcDbEntity
  8
0
  6
CONTINUOUS
100
AcDbCircle
 10
50.426563
 20
50.841431
 30
0.0
 40
1.35
100
AcDbArc
 50
0.0
 51
90.0
  0
ARC
  5
23B
330
1E
100
AcDbEntity
  8
0
  6
CONTINUOUS
100
AcDbCircle
 10
53.926563
 20
54.341431
 30
0.0
 40
1.35
100
AcDbArc
 50
180.0
 51
270.0
  0
ARC
  5
23C
330
1E
100
AcDbEntity
  8
0
  6
CONTINUOUS
100
AcDbCircle
 10
53.926563
 20
50.841431
 30
0.0
 40
1.35
100
AcDbArc
 50
90.0
 51
180.0
  0
LINE
  5
23D
330
1E
100
AcDbEntity
  8
0
  6
CONTINUOUS
100
AcDbLine
 10
113.926559
 20
52.991425
 30
0.0
 11
113.926559
 21
52.191406
 31
0.0
  0
LINE
  5
23E
330
1E
100
AcDbEntity
  8
0
  6
CONTINUOUS
100
AcDbLine
 10
111.7765429999999
 20
54.341431
 30
0.0
 11
112.576553
 21
54.341431
 31
0.0
  0
LINE
  5
23F
330
1E
100
AcDbEntity
  8
0
  6
CONTINUOUS
100
AcDbLine
 10
111.7765429999999
 20
50.841431
 30
0.0
 11
112.576553
 21
50.841431
 31
0.0
  0
LINE
  5
240
330
1E
100
AcDbEntity
  8
0
  6
CONTINUOUS
100
AcDbLine
 10
110.426559
 20
52.991425
 30
0.0
 11
110.426559
 21
52.191406
 31
0.0
  0
CIRCLE
  5
241
330
1E
100
AcDbEntity
  8
0
  6
CONTINUOUS
100
AcDbCircle
 10
112.176559
 20
52.59143100000001
 30
0.0
 40
2.75
  0
ARC
  5
242
330
1E
100
AcDbEntity
  8
0
  6
CONTINUOUS
100
AcDbCircle
 10
110.426559
 20
54.341431
 30
0.0
 40
1.35
100
AcDbArc
 50
270.0
 51
0.0
  0
ARC
  5
243
330
1E
100
AcDbEntity
  8
0
  6
CONTINUOUS
100
AcDbCircle
 10
110.426559
 20
50.841431
 30
0.0
 40
1.35
100
AcDbArc
 50
0.0
 51
90.0
  0
ARC
  5
244
330
1E
100
AcDbEntity
  8
0
  6
CONTINUOUS
100
AcDbCircle
 10
113.926559
 20
54.341431
 30
0.0
 40
1.35
100
AcDbArc
 50
180.0
 51
270.0
  0
ARC
  5
245
330
1E
100
AcDbEntity
  8
0
  6
CONTINUOUS
100
AcDbCircle
 10
113.926559
 20
50.841431
 30
0.0
 40
1.35
100
AcDbArc
 50
90.0
 51
180.0
  0
LINE
  5
246
330
1E
100
AcDbEntity
  8
0
  6
CONTINUOUS
100
AcDbLine
 10
174.676544
 20
337.3738399999999
 30
0.0
 11
176.176544
 21
337.802399
 31
0.0
  0
LINE
  5
247
330
1E
100
AcDbEntity
  8
0
  6
CONTINUOUS
100
AcDbLine
 10
176.176544
 20
336.8158569999999
 30
0.0
 11
177.676544
 21
337.3322449999999
 31
0.0
  0
LINE
  5
248
330
1E
100
AcDbEntity
  8
0
  6
CONTINUOUS
100
AcDbLine
 10
174.676544
 20
343.5179749999999
 30
0.0
 11
174.676544
 21
337.3738399999999
 31
0.0
  0
LINE
  5
249
330
1E
100
AcDbEntity
  8
0
  6
CONTINUOUS
100
AcDbLine
 10
176.176544
 20
343.6255799999999
 30
0.0
 11
176.176544
 21
336.8158569999999
 31
0.0
  0
LINE
  5
24A
330
1E
100
AcDbEntity
  8
0
  6
CONTINUOUS
100
AcDbLine
 10
177.676544
 20
343.464203
 30
0.0
 11
177.676544
 21
337.3322449999999
 31
0.0
  0
LINE
  5
24B
330
1E
100
AcDbEntity
  8
0
  6
CONTINUOUS
100
AcDbLine
 10
224.676544
 20
344.08197
 30
0.0
 11
224.676544
 21
339.1309509999999
 31
0.0
  0
LINE
  5
24C
330
1E
100
AcDbEntity
  8
0
  6
CONTINUOUS
100
AcDbLine
 10
226.176544
 20
344.08197
 30
0.0
 11
226.176544
 21
338.572968
 31
0.0
  0
LINE
  5
24D
330
1E
100
AcDbEntity
  8
0
  6
CONTINUOUS
100
AcDbLine
 10
227.676544
 20
344.08197
 30
0.0
 11
227.676544
 21
339.0893549999999
 31
0.0
  0
LINE
  5
24E
330
1E
100
AcDbEntity
  8
0
  6
CONTINUOUS
100
AcDbLine
 10
226.176544
 20
338.572968
 30
0.0
 11
227.676544
 21
339.0893549999999
 31
0.0
  0
LINE
  5
24F
330
1E
100
AcDbEntity
  8
0
  6
CONTINUOUS
100
AcDbLine
 10
224.676544
 20
339.1309509999999
 30
0.0
 11
226.176544
 21
339.559509
 31
0.0
  0
LINE
  5
250
330
1E
100
AcDbEntity
  8
0
  6
CONTINUOUS
100
AcDbLine
 10
227.676544
 20
343.58197
 30
0.0
 11
244.579498
 21
343.58197
 31
0.0
  0
LINE
  5
251
330
1E
100
AcDbEntity
  8
0
  6
CONTINUOUS
100
AcDbLine
 10
177.676544
 20
341.33197
 30
0.0
 11
189.176361
 21
341.33197
 31
0.0
  0
LINE
  5
252
330
1E
100
AcDbEntity
  8
0
  6
CENTER
100
AcDbLine
 10
82.176369
 20
346.192505
 30
0.0
 11
82.176369
 21
272.617493
 31
0.0
  0
LINE
  5
253
330
1E
100
AcDbEntity
  8
0
  6
CENTER
100
AcDbLine
 10
82.17661300000001
 20
121.78875
 30
0.0
 11
82.17661300000001
 21
42.0825
 31
0.0
  0
LINE
  5
254
330
1E
100
AcDbEntity
  8
0
  6
CENTER
100
AcDbLine
 10
16.14562399999999
 20
304.08197
 30
0.0
 11
53.546249
 21
304.08197
 31
0.0
  0
LINE
  5
255
330
1E
100
AcDbEntity
  8
0
  6
CONTINUOUS
100
AcDbLine
 10
191.1765589999999
 20
27.341305
 30
0.0
 11
191.1765589999999
 21
137.841309
 31
0.0
  0
LINE
  5
256
330
1E
100
AcDbEntity
  8
0
  6
CONTINUOUS
100
AcDbLine
 10
246.176559
 20
27.341305
 30
0.0
 11
246.176559
 21
137.841309
 31
0.0
  0
LINE
  5
257
330
1E
100
AcDbEntity
  8
0
  6
CONTINUOUS
100
AcDbLine
 10
193.1765589999999
 20
126.591309
 30
0.0
 11
244.176559
 21
126.591309
 31
0.0
  0
LINE
  5
258
330
1E
100
AcDbEntity
  8
0
  6
CONTINUOUS
100
AcDbLine
 10
193.1765589999999
 20
34.591305
 30
0.0
 11
244.176559
 21
34.591305
 31
0.0
  0
LINE
  5
259
330
1E
100
AcDbEntity
  8
0
  6
CONTINUOUS
100
AcDbLine
 10
183.176559
 20
139.841309
 30
0.0
 11
189.176559
 21
139.841309
 31
0.0
  0
LINE
  5
25A
330
1E
100
AcDbEntity
  8
0
  6
CONTINUOUS
100
AcDbLine
 10
183.176559
 20
25.34130499999999
 30
0.0
 11
189.176559
 21
25.34130499999999
 31
0.0
  0
ARC
  5
25B
330
1E
100
AcDbEntity
  8
0
  6
CONTINUOUS
100
AcDbCircle
 10
193.1765589999999
 20
128.5913089999999
 30
0.0
 40
2.0
100
AcDbArc
 50
180.0
 51
270.0
  0
ARC
  5
25C
330
1E
100
AcDbEntity
  8
0
  6
CONTINUOUS
100
AcDbCircle
 10
244.176559
 20
128.5913089999999
 30
0.0
 40
2.0
100
AcDbArc
 50
270.0
 51
0.0
  0
ARC
  5
25D
330
1E
100
AcDbEntity
  8
0
  6
CONTINUOUS
100
AcDbCircle
 10
193.1765589999999
 20
32.591324
 30
0.0
 40
2.0
100
AcDbArc
 50
90.0
 51
180.0
  0
ARC
  5
25E
330
1E
100
AcDbEntity
  8
0
  6
CONTINUOUS
100
AcDbCircle
 10
244.176559
 20
32.59130499999999
 30
0.0
 40
2.0
100
AcDbArc
 50
0.0
 51
90.0
  0
ARC
  5
25F
330
1E
100
AcDbEntity
  8
0
  6
CONTINUOUS
100
AcDbCircle
 10
189.176559
 20
137.841309
 30
0.0
 40
2.0
100
AcDbArc
 50
0.0
 51
90.0
  0
ARC
  5
260
330
1E
100
AcDbEntity
  8
0
  6
CONTINUOUS
100
AcDbCircle
 10
248.176559
 20
137.8413239999999
 30
0.0
 40
2.0
100
AcDbArc
 50
90.0
 51
180.0
  0
ARC
  5
261
330
1E
100
AcDbEntity
  8
0
  6
CONTINUOUS
100
AcDbCircle
 10
248.176559
 20
27.341305
 30
0.0
 40
2.0
100
AcDbArc
 50
180.0
 51
270.0
  0
ARC
  5
262
330
1E
100
AcDbEntity
  8
0
  6
CONTINUOUS
100
AcDbCircle
 10
189.176559
 20
27.341305
 30
0.0
 40
2.0
100
AcDbArc
 50
270.0
 51
0.0
  0
LINE
  5
263
330
1E
100
AcDbEntity
  8
0
  6
CONTINUOUS
100
AcDbLine
 10
192.1765589999999
 20
73.591309
 30
0.0
 11
192.1765589999999
 21
86.59130899999999
 31
0.0
  0
LINE
  5
264
330
1E
100
AcDbEntity
  8
0
  6
CONTINUOUS
100
AcDbLine
 10
214.1765589999999
 20
86.59130899999999
 30
0.0
 11
214.1765589999999
 21
73.591309
 31
0.0
  0
LINE
  5
265
330
1E
100
AcDbEntity
  8
0
  6
CONTINUOUS
100
AcDbLine
 10
245.1765589999999
 20
73.591309
 30
0.0
 11
245.1765589999999
 21
86.59130899999999
 31
0.0
  0
LINE
  5
266
330
1E
100
AcDbEntity
  8
0
  6
CONTINUOUS
100
AcDbLine
 10
223.176559
 20
73.591309
 30
0.0
 11
223.176559
 21
86.59130899999999
 31
0.0
  0
LINE
  5
267
330
1E
100
AcDbEntity
  8
0
  6
CONTINUOUS
100
AcDbLine
 10
213.176559
 20
87.591309
 30
0.0
 11
193.1765589999999
 21
87.591309
 31
0.0
  0
LINE
  5
268
330
1E
100
AcDbEntity
  8
0
  6
CONTINUOUS
100
AcDbLine
 10
213.176559
 20
72.59130899999999
 30
0.0
 11
193.1765589999999
 21
72.59130899999999
 31
0.0
  0
ARC
  5
269
330
1E
100
AcDbEntity
  8
0
  6
CONTINUOUS
100
AcDbCircle
 10
193.1765589999999
 20
86.59130899999999
 30
0.0
 40
1.0
100
AcDbArc
 50
90.0
 51
180.0
  0
ARC
  5
26A
330
1E
100
AcDbEntity
  8
0
  6
CONTINUOUS
100
AcDbCircle
 10
193.1765589999999
 20
73.591309
 30
0.0
 40
1.0
100
AcDbArc
 50
180.0
 51
270.0
  0
ARC
  5
26B
330
1E
100
AcDbEntity
  8
0
  6
CONTINUOUS
100
AcDbCircle
 10
213.176559
 20
73.591309
 30
0.0
 40
1.0
100
AcDbArc
 50
270.0
 51
0.0
  0
ARC
  5
26C
330
1E
100
AcDbEntity
  8
0
  6
CONTINUOUS
100
AcDbCircle
 10
213.176559
 20
86.59130899999999
 30
0.0
 40
1.0
100
AcDbArc
 50
0.0
 51
90.0
  0
ARC
  5
26D
330
1E
100
AcDbEntity
  8
0
  6
CONTINUOUS
100
AcDbCircle
 10
224.1765589999999
 20
86.59130899999999
 30
0.0
 40
1.0
100
AcDbArc
 50
90.0
 51
180.0
  0
ARC
  5
26E
330
1E
100
AcDbEntity
  8
0
  6
CONTINUOUS
100
AcDbCircle
 10
224.1765589999999
 20
73.591309
 30
0.0
 40
1.0
100
AcDbArc
 50
180.0
 51
270.0
  0
ARC
  5
26F
330
1E
100
AcDbEntity
  8
0
  6
CONTINUOUS
100
AcDbCircle
 10
244.176559
 20
86.59130899999999
 30
0.0
 40
1.0
100
AcDbArc
 50
0.0
 51
90.0
  0
ARC
  5
270
330
1E
100
AcDbEntity
  8
0
  6
CONTINUOUS
100
AcDbCircle
 10
244.176559
 20
73.591309
 30
0.0
 40
1.0
100
AcDbArc
 50
270.0
 51
0.0
  0
LINE
  5
271
330
1E
100
AcDbEntity
  8
0
  6
CONTINUOUS
100
AcDbLine
 10
226.1765589999999
 20
96.591309
 30
0.0
 11
226.1765589999999
 21
70.647362
 31
0.0
  0
LINE
  5
272
330
1E
100
AcDbEntity
  8
0
  6
CONTINUOUS
100
AcDbLine
 10
227.676559
 20
96.591309
 30
0.0
 11
227.676559
 21
69.790215
 31
0.0
  0
LINE
  5
273
330
1E
100
AcDbEntity
  8
0
  6
CONTINUOUS
100
AcDbLine
 10
224.6765589999999
 20
96.591309
 30
0.0
 11
224.6765589999999
 21
70.53228
 31
0.0
  0
LINE
  5
274
330
1E
100
AcDbEntity
  8
0
  6
CONTINUOUS
100
AcDbLine
 10
224.6765589999999
 20
70.53228
 30
0.0
 11
226.1765589999999
 21
71.769768
 31
0.0
  0
LINE
  5
275
330
1E
100
AcDbEntity
  8
0
  6
CONTINUOUS
100
AcDbLine
 10
226.1765589999999
 20
70.647362
 30
0.0
 11
227.676559
 21
69.790215
 31
0.0
  0
ARC
  5
276
330
1E
100
AcDbEntity
  8
0
  6
CONTINUOUS
100
AcDbCircle
 10
226.9265589999999
 20
96.591309
 30
0.0
 40
0.75
100
AcDbArc
 50
0.0
 51
180.0
  0
ARC
  5
277
330
1E
100
AcDbEntity
  8
0
  6
CONTINUOUS
100
AcDbCircle
 10
225.426559
 20
96.591309
 30
0.0
 40
0.75
100
AcDbArc
 50
0.0
 51
180.0
  0
LINE
  5
278
330
1E
100
AcDbEntity
  8
0
  6
CONTINUOUS
100
AcDbLine
 10
224.1765589999999
 20
87.591309
 30
0.0
 11
224.6765589999999
 21
87.591309
 31
0.0
  0
LINE
  5
279
330
1E
100
AcDbEntity
  8
0
  6
CONTINUOUS
100
AcDbLine
 10
224.1765589999999
 20
72.59130899999999
 30
0.0
 11
224.6765589999999
 21
72.59130899999999
 31
0.0
  0
LINE
  5
27A
330
1E
100
AcDbEntity
  8
0
  6
CONTINUOUS
100
AcDbLine
 10
193.0696259999999
 20
68.997063
 30
0.0
 11
244.5203699999999
 21
68.997063
 31
0.0
  0
LINE
  5
27B
330
1E
100
AcDbEntity
  8
0
  6
CONTINUOUS
100
AcDbLine
 10
248.176559
 20
139.841309
 30
0.0
 11
254.176559
 21
139.841309
 31
0.0
  0
LINE
  5
27C
330
1E
100
AcDbEntity
  8
0
  6
CONTINUOUS
100
AcDbLine
 10
248.176559
 20
25.34130499999999
 30
0.0
 11
254.176559
 21
25.34130499999999
 31
0.0
  0
LINE
  5
27D
330
1E
100
AcDbEntity
  8
0
  6
CONTINUOUS
100
AcDbLine
 10
244.176559
 20
72.59130899999999
 30
0.0
 11
227.676559
 21
72.59130899999999
 31
0.0
  0
LINE
  5
27E
330
1E
100
AcDbEntity
  8
0
  6
CONTINUOUS
100
AcDbLine
 10
244.176559
 20
87.591309
 30
0.0
 11
227.676559
 21
87.591309
 31
0.0
  0
LINE
  5
27F
330
1E
100
AcDbEntity
  8
0
  6
CONTINUOUS
100
AcDbLine
 10
193.0696259999999
 20
65.59136999999999
 30
0.0
 11
244.5203699999999
 21
65.59136999999999
 31
0.0
  0
LINE
  5
280
330
1E
100
AcDbEntity
  8
0
  6
CONTINUOUS
100
AcDbLine
 10
234.176559
 20
52.195366
 30
0.0
 11
234.176559
 21
36.59130499999999
 31
0.0
  0
LINE
  5
281
330
1E
100
AcDbEntity
  8
0
  6
CONTINUOUS
100
AcDbLine
 10
203.176559
 20
52.195366
 30
0.0
 11
203.176559
 21
36.59130499999999
 31
0.0
  0
LINE
  5
282
330
1E
100
AcDbEntity
  8
0
  6
CONTINUOUS
100
AcDbLine
 10
193.0696259999999
 20
55.92678499999999
 30
0.0
 11
201.740936
 21
55.92678499999999
 31
0.0
  0
LINE
  5
283
330
1E
100
AcDbEntity
  8
0
  6
CONTINUOUS
100
AcDbLine
 10
235.634689
 20
55.92678499999999
 30
0.0
 11
244.5203699999999
 21
55.92678499999999
 31
0.0
  0
ARC
  5
284
330
1E
100
AcDbEntity
  8
0
  6
CONTINUOUS
100
AcDbCircle
 10
201.1765589999999
 20
36.59130499999999
 30
0.0
 40
2.0
100
AcDbArc
 50
270.0
 51
0.0
  0
ARC
  5
285
330
1E
100
AcDbEntity
  8
0
  6
CONTINUOUS
100
AcDbCircle
 10
236.176559
 20
36.59130499999999
 30
0.0
 40
2.0
100
AcDbArc
 50
180.0
 51
270.0
  0
LINE
  5
286
330
1E
100
AcDbEntity
  8
0
  6
CONTINUOUS
100
AcDbLine
 10
203.834381
 20
45.713188
 30
0.0
 11
233.3418729999999
 21
45.713188
 31
0.0
  0
ARC
  5
287
330
1E
100
AcDbEntity
  8
0
  6
CONTINUOUS
100
AcDbCircle
 10
226.1765589999999
 20
96.591309
 30
0.0
 40
4.0
100
AcDbArc
 50
292.024315
 51
247.9756929999999
  0
TEXT
  5
288
330
1E
100
AcDbEntity
  8
0
100
AcDbText
 10
-10.0
 20
-29.0
 30
0.0
 40
4.0
  1
G3FE-28-100~200-T020A
100
AcDbText
  0
ARC
  5
2EC
330
1E
100
AcDbEntity
  8
TOP
100
AcDbCircle
 10
19.74465523472622
 20
450.0819699999999
 30
0.0
 40
12.0
100
AcDbArc
 50
90.49999999999805
 51
170.9664843358179
  0
ARC
  5
2ED
330
1E
100
AcDbEntity
  8
0
100
AcDbCircle
 10
346.6735314791912
 20
398.5819699999997
 30
0.0
 40
325.0
100
AcDbArc
 50
168.2484724111562
 51
191.7515275888437
  0
LINE
  5
2EE
330
1E
100
AcDbEntity
  8
TOP
100
AcDbLine
 10
54.17636100000004
 20
464.96852071872
 30
0.0
 11
54.17636100000004
 21
332.1954192812797
 31
0.0
  0
ARC
  5
317
330
1E
100
AcDbEntity
  8
TOP
100
AcDbCircle
 10
343.676361
 20
398.5819699999997
 30
0.0
 40
340.0
100
AcDbArc
 50
170.9664843358179
 51
189.033515664182
  0
LINE
  5
318
330
1E
100
AcDbEntity
  8
0
100
AcDbLine
 10
53.17636100000004
 20
331.1954192812797
 30
0.0
 11
29.95407764916603
 21
331.1954192812797
 31
0.0
  0
ARC
  5
319
330
1E
100
AcDbEntity
  8
TOP
100
AcDbCircle
 10
19.74465523472622
 20
347.0819699999998
 30
0.0
 40
12.0
100
AcDbArc
 50
189.033515664182
 51
269.5000000000019
  0
LINE
  5
31A
330
1E
100
AcDbEntity
  8
TOP
100
AcDbLine
 10
19.63993680874568
 20
335.0824269232298
 30
0.0
 11
27.12126246379602
 21
335.0723706468481
 31
0.0
  0
ARC
  5
31B
330
1E
100
AcDbEntity
  8
0
100
AcDbCircle
 10
27.1199182812594
 20
334.0723715502619
 30
0.0
 40
1.0
100
AcDbArc
 50
11.41314332739548
 51
89.92298399056364
  0
ARC
  5
31C
330
1E
100
AcDbEntity
  8
0
100
AcDbCircle
 10
29.95407764916615
 20
332.6954192812797
 30
0.0
 40
1.5
100
AcDbArc
 50
191.7515275888437
 51
270.0
  0
ARC
  5
31D
330
1E
100
AcDbEntity
  8
0
100
AcDbCircle
 10
53.17636100000015
 20
332.1954192812797
 30
0.0
 40
1.0
100
AcDbArc
 50
270.0
 51
0.0
  0
LINE
  5
337
330
1E
100
AcDbEntity
  8
0
100
AcDbLine
 10
53.17636100000004
 20
465.9685207187201
 30
0.0
 11
29.95407764916603
 21
465.9685207187201
 31
0.0
  0
LINE
  5
338
330
1E
100
AcDbEntity
  8
TOP
100
AcDbLine
 10
19.63993680874568
 20
462.08151307677
 30
0.0
 11
27.12126246379602
 21
462.0915693531516
 31
0.0
  0
ARC
  5
339
330
1E
100
AcDbEntity
  8
0
100
AcDbCircle
 10
29.95407764916615
 20
464.46852071872
 30
0.0
 40
1.5
100
AcDbArc
 50
90.0
 51
168.2484724111498
  0
ARC
  5
33A
330
1E
100
AcDbEntity
  8
0
100
AcDbCircle
 10
27.1199182812594
 20
463.0915684497378
 30
0.0
 40
1.0
100
AcDbArc
 50
270.0770160094363
 51
348.5868566726044
  0
ARC
  5
33B
330
1E
100
AcDbEntity
  8
0
100
AcDbCircle
 10
53.17636100000015
 20
464.96852071872
 30
0.0
 40
1.0
100
AcDbArc
 50
0.0
 51
90.0
  0
ENDSEC
  0
SECTION
  2
OBJECTS
  0
DICTIONARY
  5
C
330
0
100
AcDbDictionary
  3
ACAD_GROUP
350
D
  3
ACAD_LAYOUT
350
19
  3
ACAD_MLINESTYLE
350
16
  3
ACAD_PLOTSETTINGS
350
18
  3
ACAD_PLOTSTYLENAME
350
E
  3
ACDBHEADERROUNDTRIPXREC
350
34B
  3
ACDBVARIABLEDICTIONARY
350
348
  0
DICTIONARY
  5
36D
330
1E
100
AcDbDictionary
280
     1
  3
ACAD_LAYOUTSELFREF
360
36E
  0
DICTIONARY
  5
36B
330
1A
100
AcDbDictionary
280
     1
  3
ACAD_LAYOUTSELFREF
360
36C
  0
DICTIONARY
  5
D
102
{ACAD_REACTORS
330
C
102
}
330
C
100
AcDbDictionary
  0
DICTIONARY
  5
19
102
{ACAD_REACTORS
330
C
102
}
330
C
100
AcDbDictionary
  0
DICTIONARY
  5
16
102
{ACAD_REACTORS
330
C
102
}
330
C
100
AcDbDictionary
  3
STANDARD
350
17
  0
DICTIONARY
  5
18
102
{ACAD_REACTORS
330
C
102
}
330
C
100
AcDbDictionary
  0
ACDBDICTIONARYWDFLT
  5
E
102
{ACAD_REACTORS
330
C
102
}
330
C
100
AcDbDictionary
281
     1
  3
Normal
350
F
100
AcDbDictionaryWithDefault
340
F
  0
DICTIONARY
  5
34B
102
{ACAD_REACTORS
330
C
102
}
330
C
100
AcDbDictionary
  3
CEPSNTYPE
350
355
  3
FINGERPRINTGUID
350
356
  3
HYPERLINKBASE
350
34E
  3
INSUNITS
350
354
  3
LAYOUTDICT
350
350
  3
LWETCUNION
350
353
  3
PLOTSETDICT
350
351
  3
PLOTSTYLNAMDICT
350
352
  3
PSVPSCALE
350
358
  3
PUCSBASE
350
35B
  3
PUCSORGBACK
350
361
  3
PUCSORGBOTTOM
350
35D
  3
PUCSORGFRONT
350
360
  3
PUCSORGLEFT
350
35E
  3
PUCSORGRIGHT
350
35F
  3
PUCSORGTOP
350
35C
  3
PUCSORTHOREF
350
359
  3
PUCSORTHOVIEW
350
35A
  3
STYLESHEET
350
34F
  3
TSTACKALIGN
350
34C
  3
TSTACKSIZE
350
34D
  3
UCSBASE
350
364
  3
UCSORGBACK
350
36A
  3
UCSORGBOTTOM
350
366
  3
UCSORGFRONT
350
369
  3
UCSORGLEFT
350
367
  3
UCSORGRIGHT
350
368
  3
UCSORGTOP
350
365
  3
UCSORTHOREF
350
362
  3
UCSORTHOVIEW
350
363
  3
VERSIONGUID
350
357
  0
DICTIONARY
  5
348
102
{ACAD_REACTORS
330
C
102
}
330
C
100
AcDbDictionary
  3
DIMASSOC
350
349
  0
XRECORD
  5
36E
102
{ACAD_REACTORS
330
36D
102
}
330
36D
100
AcDbXrecord
340
1E
  0
XRECORD
  5
36C
102
{ACAD_REACTORS
330
36B
102
}
330
36B
100
AcDbXrecord
340
1A
  0
MLINESTYLE
  5
17
102
{ACAD_REACTORS
330
16
102
}
330
16
100
AcDbMlineStyle
  2
STANDARD
 70
     0
  3

 62
   256
 51
90.0
 52
90.0
 71
     2
 49
0.5
 62
   256
  6
BYLAYER
 49
-0.5
 62
   256
  6
BYLAYER
  0
ACDBPLACEHOLDER
  5
F
102
{ACAD_REACTORS
330
E
102
}
330
E
100
AcDbPlaceHolder
280
     0
  0
XRECORD
  5
355
102
{ACAD_REACTORS
330
34B
102
}
330
34B
100
AcDbXrecord
 90
        0
  0
XRECORD
  5
356
102
{ACAD_REACTORS
330
34B
102
}
330
34B
100
AcDbXrecord
  1
{D9D681F8-61E0-45F9-B3CB-A2F2A4D075FF}
  0
XRECORD
  5
34E
102
{ACAD_REACTORS
330
34B
102
}
330
34B
100
AcDbXrecord
  1

  0
XRECORD
  5
354
102
{ACAD_REACTORS
330
34B
102
}
330
34B
100
AcDbXrecord
 90
        0
  0
XRECORD
  5
350
102
{ACAD_REACTORS
330
34B
102
}
330
34B
100
AcDbXrecord
340
19
  0
XRECORD
  5
353
102
{ACAD_REACTORS
330
34B
102
}
330
34B
100
AcDbXrecord
 90
    10781
  0
XRECORD
  5
351
102
{ACAD_REACTORS
330
34B
102
}
330
34B
100
AcDbXrecord
340
18
  0
XRECORD
  5
352
102
{ACAD_REACTORS
330
34B
102
}
330
34B
100
AcDbXrecord
340
E
  0
XRECORD
  5
358
102
{ACAD_REACTORS
330
34B
102
}
330
34B
100
AcDbXrecord
 40
0.0
  0
XRECORD
  5
35B
102
{ACAD_REACTORS
330
34B
102
}
330
34B
100
AcDbXrecord
340
0
  0
XRECORD
  5
361
102
{ACAD_REACTORS
330
34B
102
}
330
34B
100
AcDbXrecord
 10
0.0
 20
0.0
 30
0.0
  0
XRECORD
  5
35D
102
{ACAD_REACTORS
330
34B
102
}
330
34B
100
AcDbXrecord
 10
0.0
 20
0.0
 30
0.0
  0
XRECORD
  5
360
102
{ACAD_REACTORS
330
34B
102
}
330
34B
100
AcDbXrecord
 10
0.0
 20
0.0
 30
0.0
  0
XRECORD
  5
35E
102
{ACAD_REACTORS
330
34B
102
}
330
34B
100
AcDbXrecord
 10
0.0
 20
0.0
 30
0.0
  0
XRECORD
  5
35F
102
{ACAD_REACTORS
330
34B
102
}
330
34B
100
AcDbXrecord
 10
0.0
 20
0.0
 30
0.0
  0
XRECORD
  5
35C
102
{ACAD_REACTORS
330
34B
102
}
330
34B
100
AcDbXrecord
 10
0.0
 20
0.0
 30
0.0
  0
XRECORD
  5
359
102
{ACAD_REACTORS
330
34B
102
}
330
34B
100
AcDbXrecord
340
0
  0
XRECORD
  5
35A
102
{ACAD_REACTORS
330
34B
102
}
330
34B
100
AcDbXrecord
 70
     0
  0
XRECORD
  5
34F
102
{ACAD_REACTORS
330
34B
102
}
330
34B
100
AcDbXrecord
  1

  0
XRECORD
  5
34C
102
{ACAD_REACTORS
330
34B
102
}
330
34B
100
AcDbXrecord
 90
        1
  0
XRECORD
  5
34D
102
{ACAD_REACTORS
330
34B
102
}
330
34B
100
AcDbXrecord
 90
       70
  0
XRECORD
  5
364
102
{ACAD_REACTORS
330
34B
102
}
330
34B
100
AcDbXrecord
340
0
  0
XRECORD
  5
36A
102
{ACAD_REACTORS
330
34B
102
}
330
34B
100
AcDbXrecord
 10
0.0
 20
0.0
 30
0.0
  0
XRECORD
  5
366
102
{ACAD_REACTORS
330
34B
102
}
330
34B
100
AcDbXrecord
 10
0.0
 20
0.0
 30
0.0
  0
XRECORD
  5
369
102
{ACAD_REACTORS
330
34B
102
}
330
34B
100
AcDbXrecord
 10
0.0
 20
0.0
 30
0.0
  0
XRECORD
  5
367
102
{ACAD_REACTORS
330
34B
102
}
330
34B
100
AcDbXrecord
 10
0.0
 20
0.0
 30
0.0
  0
XRECORD
  5
368
102
{ACAD_REACTORS
330
34B
102
}
330
34B
100
AcDbXrecord
 10
0.0
 20
0.0
 30
0.0
  0
XRECORD
  5
365
102
{ACAD_REACTORS
330
34B
102
}
330
34B
100
AcDbXrecord
 10
0.0
 20
0.0
 30
0.0
  0
XRECORD
  5
362
102
{ACAD_REACTORS
330
34B
102
}
330
34B
100
AcDbXrecord
340
0
  0
XRECORD
  5
363
102
{ACAD_REACTORS
330
34B
102
}
330
34B
100
AcDbXrecord
 70
     0
  0
XRECORD
  5
357
102
{ACAD_REACTORS
330
34B
102
}
330
34B
100
AcDbXrecord
  1
{2111E4FF-B1F9-4693-8DED-AC1267DDBAAB}
  0
DICTIONARYVAR
  5
349
102
{ACAD_REACTORS
330
348
102
}
330
348
100
DictionaryVariables
280
     0
  1
1
  0
ENDSEC
  0
EOF
