  0
SECTION
  2
HEADER
  9
$CLAYER
  8
1
  9
$LTSCALE
 40
3.0
  0
ENDSEC
  0
SECTION
  2
TABLES
  0
TABLE
  2
LTYPE
 70
     4
  0
LTYPE
  2
CONTINUOUS
  3
solid line
 70
    64
 72
    65
 73
     0
 40
0.0
  0
LTYPE
  2
DASHED
  3
__ __ __ __ __ __ __ __ __ __ __ __ __ __ __
 70
    64
 72
    65
 73
     2
 40
0.75
 49
0.5
 49
-0.25
  0
LTYPE
  2
CENTER
  3
____ _ ____ _ ____ _ ____ _ ____ _ ____ _ ____
 70
    64
 72
    65
 73
     4
 40
2.0
 49
1.25
 49
-0.25
 49
0.25
 49
-0.25
  0
LTYPE
  2
PHANTOM
  3
_____ _ _ _____ _ _ _____ _ _ _____ _ _ ____
 70
    64
 72
    65
 73
     6
 40
2.5
 49
1.25
 49
-0.25
 49
0.25
 49
-0.25
 49
0.25
 49
-0.25
  0
ENDTAB
  0
TABLE
  2
LAYER
 70
     1
  0
LAYER
  2
0
 70
    64
 62
     7
  6
CONTINUOUS
  0
ENDTAB
  0
TABLE
  2
STYLE
 70
     1
  0
STYLE
  2
STANDARD
 70
     0
 40
0.000000
 41
1.000000
 50
0.000000
 71
     0
 42
3.000000
  3
txt
  4
BIGFONT
  0
ENDTAB
  0
ENDSEC
  0
SECTION
  2
BLOCKS
  0
ENDSEC
  0
SECTION
  2
ENTITIES
  0
LINE
  8
0
  6
CONTINUOUS
 10
109.896339
 20
370.816681
 11
110.846138
 21
370.401276
  0
LINE
  8
0
  6
CONTINUOUS
 10
105.609703
 20
370.111359
 11
107.636391
 21
370.875153
  0
LINE
  8
0
  6
CONTINUOUS
 10
105.609703
 20
383.726959
 11
105.609703
 21
370.111359
  0
LINE
  8
0
  6
CONTINUOUS
 10
113.084709
 20
370.334747
 11
114.773094
 21
370.956573
  0
LINE
  8
0
  6
CENTER
 10
112.610802
 20
364.043121
 11
112.610802
 21
388.083282
  0
LINE
  8
0
  6
CONTINUOUS
 10
119.611900
 20
383.726959
 11
119.611900
 21
370.115997
  0
LINE
  8
0
  6
CONTINUOUS
 10
116.686806
 20
371.010284
 11
119.611900
 21
370.115997
  0
LINE
  8
0
  6
CONTINUOUS
 10
122.110802
 20
383.726959
 11
103.110802
 21
383.726959
  0
LINE
  8
0
  6
CONTINUOUS
 10
110.796272
 20
90.621841
 11
114.426842
 21
90.621841
  0
LINE
  8
0
  6
CONTINUOUS
 10
113.926765
 20
90.621841
 11
113.926765
 21
132.120132
  0
LINE
  8
0
  6
CONTINUOUS
 10
118.944664
 20
132.120132
 11
118.944664
 21
93.018326
  0
LINE
  8
0
  6
CONTINUOUS
 10
111.296349
 20
132.120132
 11
111.296349
 21
90.621841
  0
LINE
  8
0
  6
CONTINUOUS
 10
106.278450
 20
132.120132
 11
106.278450
 21
93.018326
  0
LINE
  8
0
  6
CONTINUOUS
 10
121.099983
 20
86.100235
 11
122.368034
 21
83.380936
  0
LINE
  8
0
  6
CONTINUOUS
 10
120.705681
 20
85.916397
 11
120.350029
 21
86.679092
  0
LINE
  8
0
  6
CONTINUOUS
 10
123.947624
 20
78.810135
 11
121.914818
 21
83.169571
  0
LINE
  8
0
  6
CONTINUOUS
 10
123.690071
 20
79.362442
 11
121.306114
 21
78.250809
  0
LINE
  8
0
  6
CENTER
 10
120.677986
 20
71.557327
 11
130.660614
 21
76.212296
  0
LINE
  8
0
  6
CENTER
 10
121.219841
 20
81.547867
 11
127.485771
 21
68.110550
  0
LINE
  8
0
  6
CONTINUOUS
 10
117.966072
 20
85.567398
 11
118.321709
 21
84.804764
  0
LINE
  8
0
  6
CONTINUOUS
 10
117.927391
 20
84.313187
 11
119.077614
 21
81.846573
  0
LINE
  8
0
  6
CONTINUOUS
 10
117.427315
 20
76.810318
 11
117.427315
 21
81.620377
  0
LINE
  8
0
  6
CONTINUOUS
 10
116.356804
 20
77.419754
 11
117.427315
 21
77.419754
  0
LINE
  8
0
  6
CONTINUOUS
 10
117.927391
 20
81.620377
 11
117.927391
 21
84.620865
  0
LINE
  8
0
  6
CONTINUOUS
 10
113.926765
 20
82.811234
 11
113.926765
 21
87.621353
  0
LINE
  8
0
  6
CONTINUOUS
 10
114.796898
 20
80.698318
 11
114.796898
 21
81.620377
  0
LINE
  8
0
  6
CONTINUOUS
 10
114.296822
 20
84.620865
 11
114.296822
 21
81.620377
  0
LINE
  8
0
  6
CONTINUOUS
 10
114.426842
 20
90.621841
 11
114.426842
 21
87.621353
  0
LINE
  8
0
  6
CONTINUOUS
 10
114.296822
 20
84.620865
 11
117.927391
 21
84.620865
  0
LINE
  8
0
  6
CONTINUOUS
 10
114.296822
 20
81.620377
 11
117.927391
 21
81.620377
  0
LINE
  8
0
  6
CONTINUOUS
 10
107.295723
 20
84.620865
 11
110.926292
 21
84.620865
  0
LINE
  8
0
  6
CONTINUOUS
 10
107.295723
 20
81.620377
 11
110.926292
 21
81.620377
  0
LINE
  8
0
  6
CONTINUOUS
 10
107.257042
 20
85.567398
 11
106.901405
 21
84.804764
  0
LINE
  8
0
  6
CONTINUOUS
 10
107.795799
 20
76.810318
 11
107.795799
 21
81.620377
  0
LINE
  8
0
  6
CONTINUOUS
 10
107.795799
 20
77.419754
 11
108.860970
 21
77.419754
  0
LINE
  8
0
  6
CONTINUOUS
 10
107.295723
 20
84.620865
 11
107.295723
 21
81.620377
  0
LINE
  8
0
  6
CONTINUOUS
 10
110.426216
 20
80.698318
 11
110.426216
 21
81.620377
  0
LINE
  8
0
  6
CONTINUOUS
 10
104.123131
 20
86.100235
 11
102.855080
 21
83.380936
  0
LINE
  8
0
  6
CONTINUOUS
 10
104.517433
 20
85.916397
 11
104.873085
 21
86.679092
  0
LINE
  8
0
  6
CONTINUOUS
 10
106.145500
 20
81.846573
 11
102.855080
 21
83.380936
  0
LINE
  8
0
  6
CONTINUOUS
 10
103.659447
 20
77.698502
 11
105.692284
 21
82.057877
  0
LINE
  8
0
  6
CONTINUOUS
 10
107.295723
 20
84.620865
 11
104.123131
 21
86.100235
  0
LINE
  8
0
  6
CONTINUOUS
 10
107.295723
 20
84.313187
 11
106.145500
 21
81.846573
  0
LINE
  8
0
  6
CONTINUOUS
 10
111.296349
 20
82.811234
 11
111.296349
 21
87.621353
  0
LINE
  8
0
  6
CONTINUOUS
 10
110.926292
 20
84.620865
 11
110.926292
 21
81.620377
  0
LINE
  8
0
  6
CONTINUOUS
 10
110.796272
 20
90.621841
 11
110.796272
 21
87.621353
  0
LINE
  8
0
  6
CENTER
 10
106.235558
 20
77.619766
 11
119.112587
 21
77.619766
  0
LINE
  8
0
  6
CONTINUOUS
 10
111.296349
 20
83.420670
 11
113.926765
 21
83.420670
  0
LINE
  8
0
  6
CONTINUOUS
 10
110.796272
 20
87.621353
 11
114.426842
 21
87.621353
  0
LINE
  8
0
  6
CENTER
 10
109.111000
 20
75.244400
 11
109.111000
 21
65.617874
  0
LINE
  8
0
  6
CENTER
 10
112.611565
 20
67.618179
 11
112.611565
 21
85.370987
  0
LINE
  8
0
  6
CENTER
 10
116.112114
 20
65.617874
 11
116.112114
 21
85.370987
  0
LINE
  8
0
  6
CONTINUOUS
 10
101.533043
 20
79.362442
 11
103.917000
 21
78.250809
  0
LINE
  8
0
  6
CONTINUOUS
 10
101.275490
 20
78.810135
 11
103.308311
 21
83.169571
  0
LINE
  8
0
  6
CENTER
 10
104.545128
 20
71.557327
 11
94.562508
 21
76.212296
  0
LINE
  8
0
  6
CENTER
 10
104.003273
 20
81.547867
 11
97.737343
 21
68.110550
  0
LINE
  8
0
  6
CONTINUOUS
 10
117.427315
 20
84.620865
 11
117.427315
 21
132.120132
  0
LINE
  8
0
  6
CONTINUOUS
 10
114.796898
 20
132.120132
 11
114.796898
 21
84.620865
  0
LINE
  8
0
  6
CONTINUOUS
 10
110.426216
 20
132.120132
 11
110.426216
 21
84.620865
  0
LINE
  8
0
  6
CONTINUOUS
 10
107.795799
 20
84.620865
 11
107.795799
 21
132.120132
  0
LINE
  8
0
  6
CONTINUOUS
 10
117.927391
 20
84.620865
 11
121.099983
 21
86.100235
  0
LINE
  8
0
  6
CONTINUOUS
 10
119.077614
 20
81.846573
 11
122.368034
 21
83.380936
  0
LINE
  8
0
  6
CENTER
 10
103.297585
 20
71.618790
 11
121.800514
 21
71.618790
  0
LINE
  8
0
  6
CONTINUOUS
 10
121.563667
 20
77.698502
 11
119.530846
 21
82.057877
  0
LINE
  8
0
  6
CONTINUOUS
 10
119.612663
 20
135.870743
 11
119.612663
 21
132.120132
  0
LINE
  8
0
  6
CONTINUOUS
 10
120.612816
 20
138.371109
 11
120.612816
 21
135.870743
  0
LINE
  8
0
  6
CONTINUOUS
 10
101.609825
 20
139.121231
 11
104.610298
 21
139.121231
  0
LINE
  8
0
  6
CONTINUOUS
 10
105.610451
 20
135.870743
 11
105.610451
 21
132.120132
  0
LINE
  8
0
  6
CONTINUOUS
 10
101.609825
 20
135.120621
 11
104.610298
 21
135.120621
  0
LINE
  8
0
  6
CONTINUOUS
 10
101.609825
 20
139.121231
 11
101.609825
 21
135.120621
  0
LINE
  8
0
  6
CONTINUOUS
 10
104.610298
 20
139.121231
 11
104.610298
 21
135.120621
  0
LINE
  8
0
  6
CONTINUOUS
 10
105.610451
 20
132.120132
 11
119.612663
 21
132.120132
  0
LINE
  8
0
  6
CONTINUOUS
 10
104.610298
 20
138.371109
 11
120.612816
 21
138.371109
  0
LINE
  8
0
  6
CONTINUOUS
 10
104.610298
 20
135.870743
 11
120.612816
 21
135.870743
  0
LINE
  8
0
  6
CONTINUOUS
 10
119.612663
 20
157.124039
 11
119.612663
 21
138.371109
  0
LINE
  8
0
  6
CONTINUOUS
 10
105.610451
 20
157.124039
 11
105.610451
 21
138.371109
  0
LINE
  8
0
  6
CENTER
 10
112.611565
 20
173.001602
 11
112.611565
 21
129.394058
  0
CIRCLE
  8
0
  6
CONTINUOUS
 10
116.112114
 20
71.618790
 40
2.150338
  0
CIRCLE
  8
0
  6
CONTINUOUS
 10
109.111000
 20
71.618790
 40
2.150338
  0
CIRCLE
  8
0
  6
CONTINUOUS
 10
112.611565
 20
77.619766
 40
2.150338
  0
ARC
  8
0
  6
CONTINUOUS
 10
103.110802
 20
385.226959
 40
1.500000
 50
180.000000
 51
270.000000
  0
ARC
  8
0
  6
CONTINUOUS
 10
108.694405
 20
368.067902
 40
3.000000
 50
66.381584
 51
110.650711
  0
ARC
  8
0
  6
CONTINUOUS
 10
115.809731
 20
368.141266
 40
3.000000
 50
73.000710
 51
110.215172
  0
ARC
  8
0
  6
CONTINUOUS
 10
112.048073
 20
373.150055
 40
3.000000
 50
246.381592
 51
290.215179
  0
ARC
  8
0
  6
CONTINUOUS
 10
122.110802
 20
385.226959
 40
1.500000
 50
-90.000000
 51
0.000000
  0
ARC
  8
0
  6
CONTINUOUS
 10
126.666985
 20
80.078201
 40
3.000476
 50
205.000000
 51
255.263290
  0
ARC
  8
0
  6
CONTINUOUS
 10
124.949669
 20
73.549210
 40
2.150338
 50
104.239098
 51
305.760895
  0
ARC
  8
0
  6
CONTINUOUS
 10
124.949669
 20
73.549210
 40
2.150338
 50
-75.760895
 51
125.760902
  0
ARC
  8
0
  6
CONTINUOUS
 10
124.949669
 20
73.549210
 40
3.750592
 50
-92.818146
 51
75.263367
  0
ARC
  8
0
  6
CONTINUOUS
 10
118.844307
 20
76.430435
 40
3.000476
 50
-25.263306
 51
25.000000
  0
ARC
  8
0
  6
CONTINUOUS
 10
133.944672
 20
93.018326
 40
17.630417
 50
200.468155
 51
204.999893
  0
ARC
  8
0
  6
CONTINUOUS
 10
116.927238
 20
82.811234
 40
3.000476
 50
180.000000
 51
230.263306
  0
ARC
  8
0
  6
CONTINUOUS
 10
91.278450
 20
93.018326
 40
17.630417
 50
335.000122
 51
339.531769
  0
ARC
  8
0
  6
CONTINUOUS
 10
91.278450
 20
93.018326
 40
15.000000
 50
-24.999878
 51
0.000000
  0
ARC
  8
0
  6
CONTINUOUS
 10
108.295876
 20
82.811234
 40
3.000476
 50
-50.263611
 51
0.000000
  0
ARC
  8
0
  6
CONTINUOUS
 10
116.112114
 20
71.618790
 40
3.750592
 50
-158.968201
 51
50.263371
  0
ARC
  8
0
  6
CONTINUOUS
 10
116.112114
 20
71.618790
 40
3.750592
 50
142.411804
 51
158.967697
  0
ARC
  8
0
  6
CONTINUOUS
 10
109.111000
 20
71.618790
 40
3.750592
 50
-230.263107
 51
37.587730
  0
ARC
  8
0
  6
CONTINUOUS
 10
112.611565
 20
77.619766
 40
3.750592
 50
-230.263107
 51
50.263371
  0
ARC
  8
0
  6
CONTINUOUS
 10
120.427788
 20
76.810318
 40
3.000476
 50
180.000000
 51
230.263306
  0
ARC
  8
0
  6
CONTINUOUS
 10
106.378807
 20
76.430435
 40
3.000476
 50
155.000000
 51
205.263306
  0
ARC
  8
0
  6
CONTINUOUS
 10
104.795326
 20
76.810318
 40
3.000476
 50
-50.263611
 51
0.000000
  0
ARC
  8
0
  6
CONTINUOUS
 10
98.556129
 20
80.078201
 40
3.000476
 50
284.736694
 51
335.000000
  0
ARC
  8
0
  6
CONTINUOUS
 10
100.273445
 20
73.549210
 40
2.150338
 50
54.239098
 51
255.760895
  0
ARC
  8
0
  6
CONTINUOUS
 10
100.273445
 20
73.549210
 40
2.150338
 50
-125.760895
 51
75.760902
  0
ARC
  8
0
  6
CONTINUOUS
 10
100.273445
 20
73.549210
 40
3.750592
 50
104.736633
 51
272.818146
  0
ARC
  8
0
  6
CONTINUOUS
 10
100.273445
 20
73.549210
 40
3.750592
 50
-142.818146
 51
25.263371
  0
ARC
  8
0
  6
CONTINUOUS
 10
133.944672
 20
93.018326
 40
15.000000
 50
180.000000
 51
204.999893
  0
ARC
  8
0
  6
CONTINUOUS
 10
124.949669
 20
73.549210
 40
3.750592
 50
154.736633
 51
322.818146
  0
ARC
  8
0
  6
CONTINUOUS
 10
112.611565
 20
157.124039
 40
7.001104
 50
0.000000
 51
180.000000
  0
ARC
  8
0
  6
CONTINUOUS
 10
112.611565
 20
157.124039
 40
11.001738
 50
-50.478821
 51
230.478806
  0
LINE
  8
0
  6
CONTINUOUS
 10
61.074944
 20
504.726501
 11
68.556267
 21
504.736572
  0
LINE
  8
0
  6
CONTINUOUS
 10
94.611366
 20
508.613495
 11
71.389084
 21
508.613495
  0
LINE
  8
0
  6
CONTINUOUS
 10
61.074944
 20
377.727417
 11
68.556267
 21
377.717346
  0
LINE
  8
0
  6
CONTINUOUS
 10
94.611366
 20
373.840424
 11
71.389084
 21
373.840424
  0
LINE
  8
0
  6
CONTINUOUS
 10
95.611366
 20
507.613495
 11
95.611366
 21
374.840424
  0
LINE
  8
0
  6
CONTINUOUS
 10
245.269379
 20
120.258186
 11
274.776886
 21
120.258186
  0
LINE
  8
0
  6
CONTINUOUS
 10
277.069672
 20
130.471786
 11
285.955353
 21
130.471786
  0
LINE
  8
0
  6
CONTINUOUS
 10
234.504623
 20
130.471786
 11
243.175949
 21
130.471786
  0
LINE
  8
0
  6
CONTINUOUS
 10
244.611572
 20
126.740372
 11
244.611572
 21
111.136307
  0
LINE
  8
0
  6
CONTINUOUS
 10
275.611572
 20
126.740372
 11
275.611572
 21
111.136307
  0
LINE
  8
0
  6
CONTINUOUS
 10
234.504623
 20
140.136368
 11
285.955353
 21
140.136368
  0
LINE
  8
0
  6
CONTINUOUS
 10
285.611572
 20
162.136307
 11
269.111572
 21
162.136307
  0
LINE
  8
0
  6
CONTINUOUS
 10
285.611572
 20
147.136307
 11
269.111572
 21
147.136307
  0
LINE
  8
0
  6
CONTINUOUS
 10
289.611572
 20
99.886307
 11
295.611572
 21
99.886307
  0
LINE
  8
0
  6
CONTINUOUS
 10
289.611572
 20
214.386292
 11
295.611572
 21
214.386292
  0
LINE
  8
0
  6
CONTINUOUS
 10
234.504623
 20
143.542068
 11
285.955353
 21
143.542068
  0
LINE
  8
0
  6
CONTINUOUS
 10
265.611572
 20
147.136307
 11
266.111572
 21
147.136307
  0
LINE
  8
0
  6
CONTINUOUS
 10
265.611572
 20
162.136307
 11
266.111572
 21
162.136307
  0
LINE
  8
0
  6
CONTINUOUS
 10
267.611572
 20
145.192368
 11
269.111572
 21
144.335220
  0
LINE
  8
0
  6
CONTINUOUS
 10
266.111572
 20
145.077271
 11
267.611572
 21
146.314774
  0
LINE
  8
0
  6
CONTINUOUS
 10
266.111572
 20
171.136307
 11
266.111572
 21
145.077271
  0
LINE
  8
0
  6
CONTINUOUS
 10
269.111572
 20
171.136307
 11
269.111572
 21
144.335220
  0
LINE
  8
0
  6
CONTINUOUS
 10
267.611572
 20
171.136307
 11
267.611572
 21
145.192368
  0
LINE
  8
0
  6
CONTINUOUS
 10
254.611572
 20
147.136307
 11
234.611572
 21
147.136307
  0
LINE
  8
0
  6
CONTINUOUS
 10
254.611572
 20
162.136307
 11
234.611572
 21
162.136307
  0
LINE
  8
0
  6
CONTINUOUS
 10
264.611572
 20
148.136307
 11
264.611572
 21
161.136307
  0
LINE
  8
0
  6
CONTINUOUS
 10
286.611572
 20
148.136307
 11
286.611572
 21
161.136307
  0
LINE
  8
0
  6
CONTINUOUS
 10
255.611572
 20
161.136307
 11
255.611572
 21
148.136307
  0
LINE
  8
0
  6
CONTINUOUS
 10
233.611572
 20
148.136307
 11
233.611572
 21
161.136307
  0
LINE
  8
0
  6
CONTINUOUS
 10
224.611572
 20
99.886307
 11
230.611572
 21
99.886307
  0
LINE
  8
0
  6
CONTINUOUS
 10
224.611572
 20
214.386292
 11
230.611572
 21
214.386292
  0
LINE
  8
0
  6
CONTINUOUS
 10
234.611572
 20
109.136307
 11
285.611572
 21
109.136307
  0
LINE
  8
0
  6
CONTINUOUS
 10
234.611572
 20
201.136292
 11
285.611572
 21
201.136292
  0
LINE
  8
0
  6
CONTINUOUS
 10
287.611572
 20
101.886307
 11
287.611572
 21
212.386292
  0
LINE
  8
0
  6
CONTINUOUS
 10
232.611572
 20
101.886307
 11
232.611572
 21
212.386292
  0
LINE
  8
0
  6
CONTINUOUS
 10
269.111542
 20
386.226959
 11
286.014496
 21
386.226959
  0
LINE
  8
0
  6
CONTINUOUS
 10
219.111557
 20
383.976959
 11
230.611374
 21
383.976959
  0
LINE
  8
0
  6
CONTINUOUS
 10
266.111542
 20
381.775940
 11
267.611542
 21
382.204529
  0
LINE
  8
0
  6
CONTINUOUS
 10
267.611542
 20
381.217957
 11
269.111542
 21
381.734375
  0
LINE
  8
0
  6
CONTINUOUS
 10
269.111542
 20
386.726959
 11
269.111542
 21
381.734375
  0
LINE
  8
0
  6
CONTINUOUS
 10
267.611542
 20
386.726959
 11
267.611542
 21
381.217957
  0
LINE
  8
0
  6
CONTINUOUS
 10
266.111542
 20
386.726959
 11
266.111542
 21
381.775940
  0
LINE
  8
0
  6
CONTINUOUS
 10
219.111557
 20
386.109222
 11
219.111557
 21
379.977264
  0
LINE
  8
0
  6
CONTINUOUS
 10
217.611557
 20
386.270569
 11
217.611557
 21
379.460876
  0
LINE
  8
0
  6
CONTINUOUS
 10
216.111557
 20
386.162994
 11
216.111557
 21
380.018829
  0
LINE
  8
0
  6
CONTINUOUS
 10
217.611557
 20
379.460876
 11
219.111557
 21
379.977264
  0
LINE
  8
0
  6
CONTINUOUS
 10
216.111557
 20
380.018829
 11
217.611557
 21
380.447418
  0
LINE
  8
0
  6
CONTINUOUS
 10
295.611572
 20
214.636490
 11
295.611572
 21
99.636482
  0
LINE
  8
0
  6
CONTINUOUS
 10
295.611572
 20
99.636482
 11
300.611542
 21
99.636482
  0
LINE
  8
0
  6
CONTINUOUS
 10
295.611572
 20
214.636490
 11
300.611542
 21
214.636490
  0
LINE
  8
0
  6
CONTINUOUS
 10
207.611572
 20
214.636490
 11
207.611572
 21
99.636482
  0
LINE
  8
0
  6
CONTINUOUS
 10
217.615982
 20
145.393845
 11
219.132523
 21
144.483917
  0
LINE
  8
0
  6
CONTINUOUS
 10
216.111572
 20
144.846497
 11
217.586563
 21
146.542740
  0
LINE
  8
0
  6
CONTINUOUS
 10
216.111572
 20
171.136490
 11
216.111572
 21
144.846497
  0
LINE
  8
0
  6
CONTINUOUS
 10
219.111572
 20
171.136490
 11
219.111572
 21
144.448990
  0
LINE
  8
0
  6
CONTINUOUS
 10
217.611572
 20
171.136490
 11
217.611572
 21
145.386490
  0
LINE
  8
0
  6
CONTINUOUS
 10
224.611572
 20
99.886482
 11
207.611572
 21
99.886482
  0
LINE
  8
0
  6
CONTINUOUS
 10
224.611572
 20
214.386490
 11
207.611572
 21
214.386490
  0
LINE
  8
0
  6
CONTINUOUS
 10
224.611572
 20
214.386490
 11
224.611572
 21
99.886482
  0
LINE
  8
0
  6
CONTINUOUS
 10
95.611565
 20
92.636482
 11
64.867332
 21
92.636482
  0
LINE
  8
0
  6
CONTINUOUS
 10
207.611572
 20
99.636482
 11
118.944664
 21
99.636482
  0
LINE
  8
0
  6
CONTINUOUS
 10
199.611572
 20
105.850456
 11
118.944664
 21
105.850456
  0
LINE
  8
0
  6
CONTINUOUS
 10
199.611572
 20
110.136482
 11
118.944664
 21
110.136482
  0
LINE
  8
0
  6
CONTINUOUS
 10
199.611572
 20
112.136482
 11
118.944664
 21
112.136482
  0
LINE
  8
0
  6
CONTINUOUS
 10
199.611572
 20
117.136482
 11
118.944664
 21
117.136482
  0
LINE
  8
0
  6
CONTINUOUS
 10
199.611572
 20
119.136482
 11
118.944664
 21
119.136482
  0
LINE
  8
0
  6
CONTINUOUS
 10
199.611572
 20
124.636482
 11
118.944664
 21
124.636482
  0
LINE
  8
0
  6
CONTINUOUS
 10
199.611572
 20
126.636482
 11
118.944664
 21
126.636482
  0
LINE
  8
0
  6
CONTINUOUS
 10
95.611565
 20
130.136475
 11
106.278450
 21
130.136475
  0
LINE
  8
0
  6
CONTINUOUS
 10
199.611572
 20
197.136490
 11
199.611572
 21
202.136490
  0
LINE
  8
0
  6
CONTINUOUS
 10
199.611572
 20
189.636490
 11
199.611572
 21
195.136490
  0
LINE
  8
0
  6
CONTINUOUS
 10
199.611572
 20
181.536469
 11
199.611572
 21
187.636490
  0
LINE
  8
0
  6
CONTINUOUS
 10
199.611572
 20
173.736496
 11
199.611572
 21
179.536469
  0
LINE
  8
0
  6
CONTINUOUS
 10
199.611572
 20
165.936462
 11
199.611572
 21
171.736496
  0
LINE
  8
0
  6
CONTINUOUS
 10
199.611572
 20
158.136490
 11
199.611572
 21
163.936508
  0
LINE
  8
0
  6
CONTINUOUS
 10
199.611572
 20
150.336502
 11
199.611572
 21
156.136490
  0
LINE
  8
0
  6
CONTINUOUS
 10
162.611572
 20
156.136490
 11
199.611572
 21
156.136490
  0
LINE
  8
0
  6
CONTINUOUS
 10
162.611572
 20
158.136490
 11
199.611572
 21
158.136490
  0
LINE
  8
0
  6
CONTINUOUS
 10
199.611572
 20
142.536469
 11
199.611572
 21
148.336502
  0
LINE
  8
0
  6
CONTINUOUS
 10
199.611572
 20
134.736481
 11
199.611572
 21
140.536469
  0
LINE
  8
0
  6
CONTINUOUS
 10
199.611572
 20
126.636482
 11
199.611572
 21
132.736481
  0
LINE
  8
0
  6
CONTINUOUS
 10
199.611572
 20
119.136482
 11
199.611572
 21
124.636482
  0
LINE
  8
0
  6
CONTINUOUS
 10
199.611572
 20
112.136482
 11
199.611572
 21
117.136482
  0
LINE
  8
0
  6
CONTINUOUS
 10
199.611572
 20
105.850456
 11
199.611572
 21
110.136482
  0
LINE
  8
0
  6
CONTINUOUS
 10
95.611565
 20
105.850456
 11
106.278450
 21
105.850456
  0
LINE
  8
0
  6
CONTINUOUS
 10
95.611565
 20
208.422501
 11
199.611572
 21
208.422501
  0
LINE
  8
0
  6
CONTINUOUS
 10
95.611565
 20
110.136482
 11
106.278450
 21
110.136482
  0
LINE
  8
0
  6
CONTINUOUS
 10
95.611565
 20
204.136490
 11
199.611572
 21
204.136490
  0
LINE
  8
0
  6
CONTINUOUS
 10
95.611565
 20
112.136482
 11
106.278450
 21
112.136482
  0
LINE
  8
0
  6
CONTINUOUS
 10
95.611565
 20
202.136490
 11
199.611572
 21
202.136490
  0
LINE
  8
0
  6
CONTINUOUS
 10
95.611565
 20
117.136482
 11
106.278450
 21
117.136482
  0
LINE
  8
0
  6
CONTINUOUS
 10
95.611565
 20
197.136490
 11
199.611572
 21
197.136490
  0
LINE
  8
0
  6
CONTINUOUS
 10
95.611565
 20
119.136482
 11
106.278450
 21
119.136482
  0
LINE
  8
0
  6
CONTINUOUS
 10
95.611565
 20
195.136490
 11
199.611572
 21
195.136490
  0
LINE
  8
0
  6
CONTINUOUS
 10
95.611565
 20
124.636482
 11
106.278450
 21
124.636482
  0
LINE
  8
0
  6
CONTINUOUS
 10
95.611565
 20
189.636490
 11
199.611572
 21
189.636490
  0
LINE
  8
0
  6
CONTINUOUS
 10
95.611565
 20
126.636482
 11
106.278450
 21
126.636482
  0
LINE
  8
0
  6
CONTINUOUS
 10
95.611565
 20
187.636490
 11
199.611572
 21
187.636490
  0
LINE
  8
0
  6
CONTINUOUS
 10
162.611572
 20
132.736481
 11
199.611572
 21
132.736481
  0
LINE
  8
0
  6
CONTINUOUS
 10
162.611572
 20
181.536469
 11
199.611572
 21
181.536469
  0
LINE
  8
0
  6
CONTINUOUS
 10
162.611572
 20
134.736481
 11
199.611572
 21
134.736481
  0
LINE
  8
0
  6
CONTINUOUS
 10
162.611572
 20
179.536469
 11
199.611572
 21
179.536469
  0
LINE
  8
0
  6
CONTINUOUS
 10
162.611572
 20
140.536469
 11
199.611572
 21
140.536469
  0
LINE
  8
0
  6
CONTINUOUS
 10
162.611572
 20
142.536469
 11
199.611572
 21
142.536469
  0
LINE
  8
0
  6
CONTINUOUS
 10
162.611572
 20
173.736496
 11
199.611572
 21
173.736496
  0
LINE
  8
0
  6
CONTINUOUS
 10
162.611572
 20
171.736496
 11
199.611572
 21
171.736496
  0
LINE
  8
0
  6
CONTINUOUS
 10
162.611572
 20
148.336502
 11
199.611572
 21
148.336502
  0
LINE
  8
0
  6
CONTINUOUS
 10
162.611572
 20
165.936462
 11
199.611572
 21
165.936462
  0
LINE
  8
0
  6
CONTINUOUS
 10
162.611572
 20
150.336502
 11
199.611572
 21
150.336502
  0
LINE
  8
0
  6
CONTINUOUS
 10
162.611572
 20
163.936462
 11
199.611572
 21
163.936462
  0
LINE
  8
0
  6
CONTINUOUS
 10
162.611572
 20
132.136490
 11
162.611572
 21
182.136490
  0
LINE
  8
0
  6
CONTINUOUS
 10
160.611572
 20
130.136475
 11
118.944664
 21
130.136475
  0
LINE
  8
0
  6
CONTINUOUS
 10
160.611572
 20
184.136490
 11
95.611565
 21
184.136490
  0
LINE
  8
0
  6
CONTINUOUS
 10
199.611572
 20
208.422501
 11
199.611572
 21
204.136490
  0
LINE
  8
0
  6
CONTINUOUS
 10
95.611565
 20
99.636482
 11
106.278450
 21
99.636482
  0
LINE
  8
0
  6
CONTINUOUS
 10
95.611565
 20
214.636490
 11
207.611572
 21
214.636490
  0
LINE
  8
0
  6
CONTINUOUS
 10
95.611565
 20
224.636490
 11
95.611565
 21
92.636482
  0
LINE
  8
0
  6
CONTINUOUS
 10
64.871269
 20
224.636490
 11
95.611565
 21
224.636490
  0
LINE
  8
0
  6
CONTINUOUS
 10
60.149864
 20
93.636482
 11
63.847771
 21
93.636482
  0
LINE
  8
0
  6
CONTINUOUS
 10
60.149799
 20
220.636490
 11
63.847771
 21
220.636490
  0
LINE
  8
0
  6
CONTINUOUS
 10
217.786774
 20
386.379944
 11
218.260727
 21
386.393616
  0
LINE
  8
0
  6
CONTINUOUS
 10
217.203430
 20
386.370850
 11
217.786774
 21
386.379944
  0
LINE
  8
0
  6
CONTINUOUS
 10
216.922485
 20
386.363556
 11
217.203430
 21
386.370850
  0
LINE
  8
0
  6
CONTINUOUS
 10
219.254547
 20
385.356750
 11
219.111557
 21
385.349945
  0
LINE
  8
0
  6
CONTINUOUS
 10
219.762009
 20
385.502899
 11
219.263336
 21
385.372803
  0
LINE
  8
0
  6
CONTINUOUS
 10
219.919586
 20
385.682678
 11
219.773743
 21
385.536865
  0
LINE
  8
0
  6
CONTINUOUS
 10
219.883118
 20
385.901428
 11
219.968796
 21
385.730072
  0
LINE
  8
0
  6
CONTINUOUS
 10
219.732254
 20
386.095703
 11
219.883118
 21
385.919678
  0
LINE
  8
0
  6
CONTINUOUS
 10
219.518539
 20
386.138428
 11
219.700836
 21
386.065491
  0
LINE
  8
0
  6
CONTINUOUS
 10
219.172180
 20
386.211334
 11
219.518539
 21
386.138428
  0
LINE
  8
0
  6
CONTINUOUS
 10
218.643539
 20
386.302490
 11
219.172180
 21
386.211334
  0
LINE
  8
0
  6
CONTINUOUS
 10
218.260727
 20
386.393616
 11
218.643539
 21
386.302490
  0
LINE
  8
0
  6
CONTINUOUS
 10
215.875504
 20
385.358765
 11
216.111557
 21
385.329254
  0
LINE
  8
0
  6
CONTINUOUS
 10
215.465057
 20
385.408264
 11
215.872711
 21
385.336334
  0
LINE
  8
0
  6
CONTINUOUS
 10
215.307602
 20
385.591553
 11
215.471664
 21
385.445709
  0
LINE
  8
0
  6
CONTINUOUS
 10
215.252914
 20
385.846741
 11
215.274414
 21
385.588776
  0
LINE
  8
0
  6
CONTINUOUS
 10
215.475220
 20
386.064056
 11
215.241623
 21
385.859650
  0
LINE
  8
0
  6
CONTINUOUS
 10
216.110306
 20
386.282593
 11
215.489899
 21
386.047272
  0
LINE
  8
0
  6
CONTINUOUS
 10
216.922485
 20
386.363556
 11
216.109680
 21
386.284241
  0
LINE
  8
0
  6
CONTINUOUS
 10
263.611359
 20
389.255829
 11
263.611359
 21
386.726959
  0
LINE
  8
0
  6
CONTINUOUS
 10
271.611359
 20
389.255829
 11
271.611359
 21
386.726959
  0
LINE
  8
0
  6
CONTINUOUS
 10
263.611359
 20
386.726959
 11
271.611359
 21
386.726959
  0
LINE
  8
0
  6
CONTINUOUS
 10
234.208237
 20
474.226959
 11
286.014496
 21
474.226959
  0
LINE
  8
0
  6
CONTINUOUS
 10
234.208237
 20
408.226959
 11
286.014496
 21
408.226959
  0
LINE
  8
0
  6
CONTINUOUS
 10
234.208237
 20
386.226959
 11
266.111542
 21
386.226959
  0
LINE
  8
0
  6
CONTINUOUS
 10
234.208237
 20
496.226959
 11
286.014496
 21
496.226959
  0
LINE
  8
0
  6
CONTINUOUS
 10
289.611359
 20
498.476959
 11
295.611359
 21
498.476959
  0
LINE
  8
0
  6
CONTINUOUS
 10
289.611359
 20
383.976959
 11
295.611359
 21
383.976959
  0
LINE
  8
0
  6
CONTINUOUS
 10
207.611374
 20
383.976959
 11
216.111557
 21
383.976959
  0
LINE
  8
0
  6
CONTINUOUS
 10
207.611374
 20
498.476959
 11
230.611374
 21
498.476959
  0
LINE
  8
0
  6
CONTINUOUS
 10
232.611374
 20
385.976959
 11
232.611374
 21
496.476959
  0
LINE
  8
0
  6
CONTINUOUS
 10
224.611374
 20
383.976959
 11
224.611374
 21
498.476959
  0
LINE
  8
0
  6
CONTINUOUS
 10
287.611359
 20
385.976959
 11
287.611359
 21
496.476959
  0
LINE
  8
0
  6
CONTINUOUS
 10
295.611359
 20
498.726959
 11
295.611359
 21
383.726959
  0
LINE
  8
0
  6
CONTINUOUS
 10
295.611359
 20
383.726959
 11
300.611359
 21
383.726959
  0
LINE
  8
0
  6
CONTINUOUS
 10
295.611359
 20
498.726959
 11
300.611359
 21
498.726959
  0
LINE
  8
0
  6
CONTINUOUS
 10
161.585754
 20
385.227844
 11
142.133743
 21
385.227753
  0
LINE
  8
0
  6
CONTINUOUS
 10
95.611366
 20
385.227844
 11
142.133743
 21
385.227844
  0
LINE
  8
0
  6
CONTINUOUS
 10
95.611366
 20
390.426392
 11
162.585739
 21
390.426392
  0
LINE
  8
0
  6
CONTINUOUS
 10
95.611366
 20
393.332123
 11
199.585175
 21
393.332123
  0
LINE
  8
0
  6
CONTINUOUS
 10
96.611366
 20
397.374756
 11
198.585190
 21
397.374756
  0
LINE
  8
0
  6
CONTINUOUS
 10
96.611366
 20
404.177551
 11
198.585190
 21
404.177551
  0
LINE
  8
0
  6
CONTINUOUS
 10
162.585739
 20
384.226959
 11
162.585739
 21
390.426392
  0
LINE
  8
0
  6
CONTINUOUS
 10
199.585175
 20
383.726959
 11
199.585175
 21
415.227448
  0
LINE
  8
0
  6
CONTINUOUS
 10
163.085739
 20
384.268890
 11
199.585175
 21
384.268890
  0
LINE
  8
0
  6
CONTINUOUS
 10
162.585739
 20
385.924194
 11
199.585175
 21
385.924194
  0
LINE
  8
0
  6
CONTINUOUS
 10
162.585739
 20
388.801270
 11
199.585175
 21
388.801270
  0
LINE
  8
0
  6
CONTINUOUS
 10
95.611366
 20
399.362610
 11
199.585175
 21
399.362610
  0
LINE
  8
0
  6
CONTINUOUS
 10
95.611366
 20
407.456940
 11
199.585175
 21
407.456940
  0
LINE
  8
0
  6
CONTINUOUS
 10
95.611366
 20
415.227448
 11
199.585175
 21
415.227448
  0
LINE
  8
0
  6
CONTINUOUS
 10
199.585175
 20
498.726959
 11
199.585175
 21
467.226471
  0
LINE
  8
0
  6
CONTINUOUS
 10
95.611366
 20
498.185028
 11
199.585175
 21
498.185028
  0
LINE
  8
0
  6
CONTINUOUS
 10
95.611366
 20
496.529724
 11
199.585175
 21
496.529724
  0
LINE
  8
0
  6
CONTINUOUS
 10
95.611366
 20
493.652649
 11
199.585175
 21
493.652649
  0
LINE
  8
0
  6
CONTINUOUS
 10
95.611366
 20
489.121796
 11
199.585175
 21
489.121796
  0
LINE
  8
0
  6
CONTINUOUS
 10
96.611366
 20
485.079163
 11
198.585190
 21
485.079163
  0
LINE
  8
0
  6
CONTINUOUS
 10
95.611366
 20
483.091339
 11
199.585175
 21
483.091339
  0
LINE
  8
0
  6
CONTINUOUS
 10
96.611366
 20
478.276367
 11
198.585190
 21
478.276367
  0
LINE
  8
0
  6
CONTINUOUS
 10
95.611366
 20
474.996979
 11
199.585175
 21
474.996979
  0
LINE
  8
0
  6
CONTINUOUS
 10
95.611366
 20
467.226471
 11
199.585175
 21
467.226471
  0
LINE
  8
0
  6
CONTINUOUS
 10
207.611374
 20
383.726959
 11
163.085739
 21
383.726959
  0
LINE
  8
0
  6
CONTINUOUS
 10
95.611366
 20
498.726959
 11
207.611374
 21
498.726959
  0
LINE
  8
0
  6
CONTINUOUS
 10
207.611374
 20
498.726959
 11
207.611374
 21
383.726959
  0
LINE
  8
0
  6
DASHED
 10
394.111359
 20
99.122536
 11
379.110962
 21
99.122536
  0
LINE
  8
0
  6
DASHED
 10
394.111359
 20
110.122536
 11
379.110962
 21
110.122536
  0
LINE
  8
0
  6
DASHED
 10
394.111359
 20
251.150330
 11
379.110962
 21
251.150330
  0
LINE
  8
0
  6
DASHED
 10
394.111359
 20
262.150330
 11
379.110962
 21
262.150330
  0
LINE
  8
0
  6
DASHED
 10
394.111542
 20
359.713074
 11
379.111145
 21
359.713074
  0
LINE
  8
0
  6
DASHED
 10
394.111542
 20
370.713074
 11
379.111145
 21
370.713074
  0
LINE
  8
0
  6
DASHED
 10
394.111542
 20
511.740875
 11
379.111145
 21
511.740875
  0
LINE
  8
0
  6
DASHED
 10
394.111542
 20
522.740845
 11
379.111145
 21
522.740845
  0
LINE
  8
0
  6
CONTINUOUS
 10
404.111542
 20
427.810974
 11
444.111542
 21
427.810974
  0
LINE
  8
0
  6
CONTINUOUS
 10
303.558807
 20
362.346130
 11
308.112701
 21
362.226898
  0
LINE
  8
0
  6
CONTINUOUS
 10
303.558807
 20
520.107788
 11
308.112701
 21
520.227051
  0
LINE
  8
0
  6
CONTINUOUS
 10
300.611542
 20
99.636368
 11
301.128784
 21
99.618309
  0
LINE
  8
0
  6
CONTINUOUS
 10
300.611542
 20
214.636353
 11
301.128967
 21
214.654449
  0
LINE
  8
0
  6
CONTINUOUS
 10
300.611359
 20
383.726959
 11
301.128387
 21
383.708893
  0
LINE
  8
0
  6
CONTINUOUS
 10
300.611359
 20
498.726959
 11
301.128601
 21
498.745026
  0
LINE
  8
0
  6
CENTER
 10
400.042084
 20
256.650330
 11
370.859283
 21
256.650330
  0
LINE
  8
0
  6
CONTINUOUS
 10
393.611664
 20
273.618866
 11
394.111359
 21
273.136292
  0
LINE
  8
0
  6
CONTINUOUS
 10
393.611664
 20
75.153770
 11
394.111359
 21
75.636307
  0
LINE
  8
0
  6
CONTINUOUS
 10
393.611664
 20
273.618866
 11
382.006287
 21
273.213593
  0
LINE
  8
0
  6
CENTER
 10
400.042084
 20
104.622536
 11
370.859283
 21
104.622536
  0
LINE
  8
0
  6
CONTINUOUS
 10
408.111359
 20
176.636307
 11
444.111359
 21
176.636307
  0
LINE
  8
0
  6
CONTINUOUS
 10
408.111359
 20
184.636307
 11
444.111359
 21
184.636307
  0
LINE
  8
0
  6
CONTINUOUS
 10
444.111359
 20
194.636292
 11
444.111359
 21
166.636429
  0
LINE
  8
0
  6
CONTINUOUS
 10
399.111359
 20
166.636429
 11
444.111359
 21
166.636429
  0
LINE
  8
0
  6
CONTINUOUS
 10
398.111359
 20
165.636429
 11
399.111176
 21
165.636307
  0
LINE
  8
0
  6
CONTINUOUS
 10
399.111176
 20
194.636292
 11
444.111359
 21
194.636292
  0
LINE
  8
0
  6
CONTINUOUS
 10
398.111359
 20
195.636292
 11
399.111359
 21
195.636292
  0
LINE
  8
0
  6
CONTINUOUS
 10
399.111359
 20
195.636292
 11
399.111176
 21
165.636307
  0
LINE
  8
0
  6
CONTINUOUS
 10
374.242371
 20
241.398361
 11
345.075562
 21
240.634308
  0
LINE
  8
0
  6
CONTINUOUS
 10
393.611664
 20
75.153770
 11
336.345245
 21
77.155357
  0
LINE
  8
0
  6
CONTINUOUS
 10
398.111359
 20
261.136444
 11
398.111359
 21
96.136368
  0
LINE
  8
0
  6
CONTINUOUS
 10
310.076721
 20
102.558731
 11
374.324188
 21
101.998451
  0
LINE
  8
0
  6
CONTINUOUS
 10
310.076721
 20
116.204727
 11
374.324188
 21
116.765388
  0
LINE
  8
0
  6
CONTINUOUS
 10
397.611359
 20
95.636368
 11
398.111359
 21
96.136368
  0
LINE
  8
0
  6
CONTINUOUS
 10
394.111359
 20
273.136292
 11
394.111359
 21
75.636307
  0
LINE
  8
0
  6
CONTINUOUS
 10
379.110962
 20
270.215424
 11
379.110962
 21
78.557564
  0
LINE
  8
0
  6
CONTINUOUS
 10
397.611359
 20
265.636444
 11
398.111359
 21
265.136444
  0
LINE
  8
0
  6
CONTINUOUS
 10
308.111542
 20
237.636353
 11
308.111542
 21
157.136368
  0
LINE
  8
0
  6
CONTINUOUS
 10
308.111542
 20
79.636246
 11
308.111542
 21
157.136368
  0
LINE
  8
0
  6
CONTINUOUS
 10
394.111359
 20
95.636368
 11
397.611359
 21
95.636368
  0
LINE
  8
0
  6
CONTINUOUS
 10
397.611359
 20
265.636444
 11
394.111359
 21
265.636444
  0
LINE
  8
0
  6
CONTINUOUS
 10
398.111359
 20
261.136444
 11
398.111359
 21
265.136444
  0
LINE
  8
0
  6
CENTER
 10
347.111572
 20
180.636429
 11
454.861572
 21
180.636429
  0
LINE
  8
0
  6
CONTINUOUS
 10
393.611847
 20
348.244354
 11
394.111542
 21
348.726898
  0
LINE
  8
0
  6
CONTINUOUS
 10
397.611542
 20
356.226959
 11
398.111542
 21
356.726959
  0
LINE
  8
0
  6
CONTINUOUS
 10
393.611847
 20
534.209412
 11
394.111542
 21
533.726868
  0
LINE
  8
0
  6
CONTINUOUS
 10
397.611542
 20
526.226868
 11
398.111542
 21
525.726868
  0
LINE
  8
0
  6
CONTINUOUS
 10
300.611359
 20
498.726959
 11
300.611359
 21
383.726959
  0
LINE
  8
0
  6
CONTINUOUS
 10
301.611176
 20
518.108459
 11
301.611176
 21
364.345459
  0
LINE
  8
0
  6
CONTINUOUS
 10
308.111542
 20
520.076965
 11
308.111542
 21
362.376953
  0
LINE
  8
0
  6
CONTINUOUS
 10
308.111542
 20
520.226929
 11
308.111542
 21
441.226959
  0
LINE
  8
0
  6
CONTINUOUS
 10
308.111542
 20
362.226959
 11
308.111542
 21
441.226959
  0
LINE
  8
0
  6
CENTER
 10
34.132812
 20
157.136368
 11
359.556641
 21
157.136368
  0
LINE
  8
0
  6
CONTINUOUS
 10
622.324585
 20
176.636368
 11
629.324585
 21
176.636307
  0
LINE
  8
0
  6
CONTINUOUS
 10
622.324585
 20
184.636307
 11
629.324585
 21
184.636368
  0
LINE
  8
0
  6
CONTINUOUS
 10
622.324585
 20
184.636307
 11
622.324585
 21
176.636368
  0
LINE
  8
0
  6
CONTINUOUS
 10
629.324585
 20
184.636368
 11
629.324585
 21
176.636307
  0
LINE
  8
0
  6
CONTINUOUS
 10
582.596802
 20
232.414276
 11
590.703796
 21
224.307449
  0
LINE
  8
0
  6
CONTINUOUS
 10
587.546387
 20
237.364090
 11
597.549988
 21
227.360672
  0
LINE
  8
0
  6
CONTINUOUS
 10
691.102783
 20
237.364090
 11
681.099182
 21
227.360428
  0
LINE
  8
0
  6
CONTINUOUS
 10
696.052368
 20
232.414276
 11
687.945618
 21
224.307327
  0
LINE
  8
0
  6
CONTINUOUS
 10
635.824585
 20
257.361572
 11
635.824585
 21
239.379974
  0
LINE
  8
0
  6
CONTINUOUS
 10
642.824585
 20
257.361572
 11
642.824585
 21
239.379974
  0
LINE
  8
0
  6
CONTINUOUS
 10
570.786011
 20
244.225174
 11
573.376404
 21
241.635101
  0
LINE
  8
0
  6
CONTINUOUS
 10
575.736389
 20
249.174088
 11
578.680603
 21
246.229919
  0
LINE
  8
0
  6
CONTINUOUS
 10
702.813782
 20
249.075027
 11
700.323364
 21
246.584549
  0
LINE
  8
0
  6
CONTINUOUS
 10
707.864197
 20
244.225906
 11
705.273010
 21
241.634857
  0
LINE
  8
0
  6
CENTER
 10
520.052734
 20
157.136368
 11
756.250366
 21
157.136368
  0
LINE
  8
0
  6
CENTER
 10
541.578796
 20
82.892189
 11
639.324585
 21
180.636368
  0
LINE
  8
0
  6
CENTER
 10
542.507019
 20
277.453766
 11
639.324585
 21
180.636368
  0
LINE
  8
0
  6
CENTER
 10
737.807190
 20
82.153885
 11
639.324585
 21
180.636368
  0
LINE
  8
0
  6
CENTER
 10
738.454773
 20
279.766174
 11
639.324585
 21
180.636368
  0
LINE
  8
0
  6
CENTER
 10
639.324585
 20
306.496368
 11
639.324585
 21
51.531265
  0
LINE
  8
0
  6
CENTER
 10
517.955017
 20
180.636368
 11
756.250366
 21
180.636368
  0
LINE
  8
0
  6
CONTINUOUS
 10
300.611542
 20
214.636353
 11
300.611542
 21
99.636368
  0
LINE
  8
0
  6
CONTINUOUS
 10
307.127899
 20
102.558792
 11
302.865082
 21
102.558792
  0
LINE
  8
0
  6
CONTINUOUS
 10
307.127899
 20
116.204788
 11
302.865082
 21
116.204788
  0
LINE
  8
0
  6
CONTINUOUS
 10
303.559326
 20
237.517059
 11
308.111542
 21
237.636353
  0
LINE
  8
0
  6
CONTINUOUS
 10
303.559204
 20
79.755669
 11
308.111420
 21
79.636368
  0
LINE
  8
0
  6
CONTINUOUS
 10
301.611542
 20
235.517715
 11
301.611328
 21
81.755089
  0
LINE
  8
0
  6
CENTER
 10
400.042267
 20
365.213074
 11
370.859497
 21
365.213074
  0
LINE
  8
0
  6
CENTER
 10
400.042267
 20
517.240845
 11
370.859497
 21
517.240845
  0
LINE
  8
0
  6
CONTINUOUS
 10
308.111542
 20
520.226929
 11
308.111542
 21
441.226959
  0
LINE
  8
0
  6
CONTINUOUS
 10
308.111542
 20
362.226959
 11
308.111542
 21
441.226959
  0
LINE
  8
0
  6
CONTINUOUS
 10
404.111542
 20
424.226898
 11
444.111542
 21
424.226898
  0
LINE
  8
0
  6
CONTINUOUS
 10
404.111542
 20
427.810974
 11
404.111542
 21
424.226898
  0
LINE
  8
0
  6
CONTINUOUS
 10
444.111542
 20
455.226959
 11
444.111542
 21
424.226898
  0
LINE
  8
0
  6
CONTINUOUS
 10
399.111542
 20
427.226898
 11
404.111542
 21
427.226898
  0
LINE
  8
0
  6
CONTINUOUS
 10
399.111542
 20
455.226898
 11
444.111542
 21
455.226959
  0
LINE
  8
0
  6
CONTINUOUS
 10
398.111542
 20
426.226898
 11
399.111542
 21
426.226959
  0
LINE
  8
0
  6
CONTINUOUS
 10
398.111542
 20
456.226898
 11
399.111542
 21
456.226898
  0
LINE
  8
0
  6
CONTINUOUS
 10
399.111542
 20
456.226898
 11
399.111542
 21
426.226959
  0
LINE
  8
0
  6
CONTINUOUS
 10
397.611542
 20
356.226959
 11
394.111542
 21
356.226959
  0
LINE
  8
0
  6
CONTINUOUS
 10
397.611542
 20
526.226868
 11
394.111542
 21
526.226868
  0
LINE
  8
0
  6
CONTINUOUS
 10
398.111542
 20
356.726959
 11
398.111542
 21
525.726868
  0
LINE
  8
0
  6
CONTINUOUS
 10
374.242279
 20
358.465057
 11
345.077850
 21
359.229034
  0
LINE
  8
0
  6
CONTINUOUS
 10
379.111542
 20
530.804993
 11
379.111206
 21
351.647675
  0
LINE
  8
0
  6
CONTINUOUS
 10
393.611847
 20
534.209412
 11
382.006561
 21
533.804016
  0
LINE
  8
0
  6
CONTINUOUS
 10
393.611847
 20
348.244354
 11
382.006805
 21
348.649750
  0
LINE
  8
0
  6
CONTINUOUS
 10
394.111542
 20
348.726898
 11
394.111542
 21
533.726868
  0
LINE
  8
0
  6
CONTINUOUS
 10
374.242188
 20
523.988708
 11
345.077850
 21
523.224792
  0
LINE
  8
0
  6
CENTER
 10
31.264063
 20
441.226959
 11
455.980316
 21
441.226959
  0
CIRCLE
  8
0
  6
CENTER
 10
639.324585
 20
180.636368
 40
107.500000
  0
CIRCLE
  8
0
  6
CONTINUOUS
 10
639.324585
 20
180.636368
 40
40.000000
  0
CIRCLE
  8
0
  6
CONTINUOUS
 10
639.324585
 20
180.636368
 40
80.000000
  0
CIRCLE
  8
0
  6
CONTINUOUS
 10
715.338379
 20
256.650299
 40
5.500000
  0
CIRCLE
  8
0
  6
CONTINUOUS
 10
715.338379
 20
104.622147
 40
5.500000
  0
CIRCLE
  8
0
  6
CONTINUOUS
 10
639.324585
 20
180.636368
 40
85.000000
  0
CIRCLE
  8
0
  6
CONTINUOUS
 10
563.310791
 20
256.650299
 40
5.500000
  0
CIRCLE
  8
0
  6
CONTINUOUS
 10
563.310791
 20
104.622147
 40
5.500000
  0
ARC
  8
0
  6
CONTINUOUS
 10
94.611366
 20
507.613495
 40
1.000000
 50
0.000000
 51
90.000000
  0
ARC
  8
0
  6
CONTINUOUS
 10
68.554924
 20
505.736572
 40
1.000000
 50
270.077026
 51
348.586853
  0
ARC
  8
0
  6
CONTINUOUS
 10
71.389084
 20
507.113495
 40
1.500000
 50
90.000000
 51
168.248474
  0
ARC
  8
0
  6
CONTINUOUS
 10
94.611366
 20
374.840424
 40
1.000000
 50
-90.000000
 51
0.000000
  0
ARC
  8
0
  6
CONTINUOUS
 10
71.389084
 20
375.340424
 40
1.500000
 50
191.751526
 51
270.000000
  0
ARC
  8
0
  6
CONTINUOUS
 10
68.554924
 20
376.717346
 40
1.000000
 50
11.413143
 51
89.922981
  0
ARC
  8
0
  6
CONTINUOUS
 10
61.179665
 20
389.726959
 40
12.000000
 50
189.033508
 51
269.500000
  0
ARC
  8
0
  6
CONTINUOUS
 10
385.111359
 20
441.226959
 40
340.000000
 50
170.966492
 51
189.033508
  0
ARC
  8
0
  6
CONTINUOUS
 10
388.108521
 20
441.226959
 40
325.000000
 50
168.248474
 51
191.751526
  0
ARC
  8
0
  6
CONTINUOUS
 10
61.179665
 20
492.726959
 40
12.000000
 50
90.500000
 51
170.966492
  0
ARC
  8
0
  6
CONTINUOUS
 10
267.611572
 20
171.136307
 40
4.000000
 50
-67.975677
 51
247.975693
  0
ARC
  8
0
  6
CONTINUOUS
 10
277.611572
 20
111.136307
 40
2.000000
 50
180.000000
 51
270.000000
  0
ARC
  8
0
  6
CONTINUOUS
 10
242.611572
 20
111.136307
 40
2.000000
 50
-90.000000
 51
0.000000
  0
ARC
  8
0
  6
CONTINUOUS
 10
266.861572
 20
171.136307
 40
0.750000
 50
0.000000
 51
180.000000
  0
ARC
  8
0
  6
CONTINUOUS
 10
268.361572
 20
171.136307
 40
0.750000
 50
0.000000
 51
180.000000
  0
ARC
  8
0
  6
CONTINUOUS
 10
285.611572
 20
148.136307
 40
1.000000
 50
-90.000000
 51
0.000000
  0
ARC
  8
0
  6
CONTINUOUS
 10
285.611572
 20
161.136307
 40
1.000000
 50
0.000000
 51
90.000000
  0
ARC
  8
0
  6
CONTINUOUS
 10
265.611572
 20
148.136307
 40
1.000000
 50
180.000000
 51
270.000000
  0
ARC
  8
0
  6
CONTINUOUS
 10
265.611572
 20
161.136307
 40
1.000000
 50
90.000000
 51
180.000000
  0
ARC
  8
0
  6
CONTINUOUS
 10
254.611572
 20
161.136307
 40
1.000000
 50
0.000000
 51
90.000000
  0
ARC
  8
0
  6
CONTINUOUS
 10
254.611572
 20
148.136307
 40
1.000000
 50
-90.000000
 51
0.000000
  0
ARC
  8
0
  6
CONTINUOUS
 10
234.611572
 20
148.136307
 40
1.000000
 50
180.000000
 51
270.000000
  0
ARC
  8
0
  6
CONTINUOUS
 10
234.611572
 20
161.136307
 40
1.000000
 50
90.000000
 51
180.000000
  0
ARC
  8
0
  6
CONTINUOUS
 10
230.611572
 20
101.886307
 40
2.000000
 50
-90.000000
 51
0.000000
  0
ARC
  8
0
  6
CONTINUOUS
 10
289.611572
 20
101.886307
 40
2.000000
 50
180.000000
 51
270.000000
  0
ARC
  8
0
  6
CONTINUOUS
 10
289.611572
 20
212.386337
 40
2.000000
 50
90.000000
 51
180.000000
  0
ARC
  8
0
  6
CONTINUOUS
 10
230.611572
 20
212.386292
 40
2.000000
 50
0.000000
 51
90.000000
  0
ARC
  8
0
  6
CONTINUOUS
 10
285.611572
 20
107.136307
 40
2.000000
 50
0.000000
 51
90.000000
  0
ARC
  8
0
  6
CONTINUOUS
 10
234.611572
 20
107.136330
 40
2.000000
 50
90.000000
 51
180.000000
  0
ARC
  8
0
  6
CONTINUOUS
 10
285.611572
 20
203.136292
 40
2.000000
 50
-90.000000
 51
0.000000
  0
ARC
  8
0
  6
CONTINUOUS
 10
234.611572
 20
203.136292
 40
2.000000
 50
180.000000
 51
270.000000
  0
ARC
  8
0
  6
CONTINUOUS
 10
217.611572
 20
171.136490
 40
3.000000
 50
-59.999939
 51
239.999893
  0
ARC
  8
0
  6
CONTINUOUS
 10
216.861572
 20
171.136490
 40
0.750000
 50
0.000000
 51
180.000000
  0
ARC
  8
0
  6
CONTINUOUS
 10
218.361572
 20
171.136490
 40
0.750000
 50
0.000000
 51
180.000000
  0
ARC
  8
0
  6
CONTINUOUS
 10
64.867332
 20
93.636482
 40
1.000000
 50
168.767807
 51
270.000000
  0
ARC
  8
0
  6
CONTINUOUS
 10
97.611565
 20
132.136490
 40
2.000000
 50
180.000000
 51
270.000000
  0
ARC
  8
0
  6
CONTINUOUS
 10
97.611565
 20
182.136490
 40
2.000000
 50
90.000000
 51
180.000000
  0
ARC
  8
0
  6
CONTINUOUS
 10
160.611572
 20
132.136490
 40
2.000000
 50
-90.000000
 51
0.000000
  0
ARC
  8
0
  6
CONTINUOUS
 10
160.611572
 20
182.136490
 40
2.000000
 50
0.000000
 51
90.000000
  0
ARC
  8
0
  6
CONTINUOUS
 10
60.149799
 20
105.636482
 40
12.000000
 50
186.752396
 51
270.000000
  0
ARC
  8
0
  6
CONTINUOUS
 10
64.871269
 20
223.136490
 40
1.500000
 50
90.000000
 51
191.662598
  0
ARC
  8
0
  6
CONTINUOUS
 10
60.149834
 20
208.636490
 40
12.000000
 50
90.000000
 51
173.247894
  0
ARC
  8
0
  6
CONTINUOUS
 10
-254.888443
 20
157.136490
 40
325.000000
 50
-11.267181
 51
11.662340
  0
ARC
  8
0
  6
CONTINUOUS
 10
495.111542
 20
157.136490
 40
450.000000
 50
173.247604
 51
186.752502
  0
ARC
  8
0
  6
CONTINUOUS
 10
267.611359
 20
380.090668
 40
10.000000
 50
66.421822
 51
113.578178
  0
ARC
  8
0
  6
CONTINUOUS
 10
234.208237
 20
384.226959
 40
2.000000
 50
90.000000
 51
154.055527
  0
ARC
  8
0
  6
CONTINUOUS
 10
286.014496
 20
384.226959
 40
2.000000
 50
25.944489
 51
90.000000
  0
ARC
  8
0
  6
CONTINUOUS
 10
289.611359
 20
385.976959
 40
2.000000
 50
180.000000
 51
270.000000
  0
ARC
  8
0
  6
CONTINUOUS
 10
230.611374
 20
385.976959
 40
2.000000
 50
-90.000000
 51
0.000000
  0
ARC
  8
0
  6
CONTINUOUS
 10
234.208237
 20
498.226959
 40
2.000000
 50
205.944473
 51
270.000000
  0
ARC
  8
0
  6
CONTINUOUS
 10
286.014496
 20
498.226959
 40
2.000000
 50
270.000000
 51
334.055511
  0
ARC
  8
0
  6
CONTINUOUS
 10
289.611359
 20
496.476959
 40
2.000000
 50
90.000000
 51
180.000000
  0
ARC
  8
0
  6
CONTINUOUS
 10
230.611374
 20
496.476959
 40
2.000000
 50
0.000000
 51
90.000000
  0
ARC
  8
0
  6
CONTINUOUS
 10
163.085739
 20
384.226959
 40
0.500000
 50
180.000000
 51
270.000000
  0
ARC
  8
0
  6
CONTINUOUS
 10
161.585754
 20
386.227814
 40
0.999984
 50
-90.000000
 51
0.000000
  0
ARC
  8
0
  6
CONTINUOUS
 10
163.085739
 20
384.768890
 40
0.499992
 50
180.000000
 51
270.000000
  0
ARC
  8
0
  6
CONTINUOUS
 10
303.611176
 20
364.345459
 40
2.000000
 50
180.000000
 51
268.500000
  0
ARC
  8
0
  6
CONTINUOUS
 10
303.611176
 20
518.108459
 40
2.000000
 50
91.500000
 51
180.000000
  0
ARC
  8
0
  6
CONTINUOUS
 10
301.111328
 20
99.118614
 40
0.500000
 50
0.000000
 51
88.000000
  0
ARC
  8
0
  6
CONTINUOUS
 10
301.111511
 20
215.154144
 40
0.500000
 50
-87.999908
 51
0.000000
  0
ARC
  8
0
  6
CONTINUOUS
 10
301.110931
 20
383.209198
 40
0.500000
 50
0.000000
 51
88.000000
  0
ARC
  8
0
  6
CONTINUOUS
 10
301.111145
 20
499.244720
 40
0.500000
 50
-87.999908
 51
0.000000
  0
ARC
  8
0
  6
CONTINUOUS
 10
382.110962
 20
270.215424
 40
3.000000
 50
92.000000
 51
180.000000
  0
ARC
  8
0
  6
CONTINUOUS
 10
382.111359
 20
78.557564
 40
3.000000
 50
180.000000
 51
267.998596
  0
ARC
  8
0
  6
CONTINUOUS
 10
408.111359
 20
180.636429
 40
4.000000
 50
90.000000
 51
270.000000
  0
ARC
  8
0
  6
CONTINUOUS
 10
374.111359
 20
246.396515
 40
5.000000
 50
-88.499390
 51
0.000000
  0
ARC
  8
0
  6
CONTINUOUS
 10
379.110565
 20
725.747009
 40
650.000000
 50
263.729126
 51
266.227631
  0
ARC
  8
0
  6
CONTINUOUS
 10
379.110565
 20
-408.474182
 40
650.000000
 50
93.001541
 51
96.270973
  0
ARC
  8
0
  6
CONTINUOUS
 10
639.324585
 20
180.636368
 40
87.000000
 50
117.657898
 51
152.339996
  0
ARC
  8
0
  6
CONTINUOUS
 10
639.324585
 20
180.636307
 40
14.000000
 50
-163.398605
 51
163.398300
  0
ARC
  8
0
  6
CONTINUOUS
 10
707.394409
 20
239.513519
 40
3.000000
 50
134.998795
 51
220.858093
  0
ARC
  8
0
  6
CONTINUOUS
 10
698.201965
 20
248.705780
 40
3.000000
 50
229.141403
 51
315.002502
  0
ARC
  8
0
  6
CONTINUOUS
 10
571.255005
 20
239.513687
 40
3.000000
 50
-40.858551
 51
45.001598
  0
ARC
  8
0
  6
CONTINUOUS
 10
580.447388
 20
248.706009
 40
3.000000
 50
225.002396
 51
310.858612
  0
ARC
  8
0
  6
CONTINUOUS
 10
639.324585
 20
180.636368
 40
87.000000
 50
27.657070
 51
62.342361
  0
ARC
  8
0
  6
CONTINUOUS
 10
639.324585
 20
180.636368
 40
87.000000
 50
207.660400
 51
332.343292
  0
ARC
  8
0
  6
CONTINUOUS
 10
597.083374
 20
261.238220
 40
4.000000
 50
-62.341431
 51
90.000000
  0
ARC
  8
0
  6
CONTINUOUS
 10
681.565613
 20
261.238495
 40
4.000000
 50
86.209824
 51
242.342194
  0
ARC
  8
0
  6
CONTINUOUS
 10
719.927185
 20
222.876678
 40
4.000000
 50
-152.342896
 51
3.790489
  0
ARC
  8
0
  6
CONTINUOUS
 10
719.927185
 20
138.396072
 40
4.000000
 50
-3.790039
 51
152.334702
  0
ARC
  8
0
  6
CONTINUOUS
 10
558.724365
 20
138.391678
 40
4.000000
 50
27.655939
 51
183.790497
  0
ARC
  8
0
  6
CONTINUOUS
 10
558.724365
 20
222.881042
 40
4.000000
 50
176.209900
 51
332.335785
  0
ARC
  8
0
  6
CONTINUOUS
 10
639.324585
 20
157.136368
 40
79.500000
 50
127.956100
 51
148.628403
  0
ARC
  8
0
  6
CONTINUOUS
 10
580.475586
 20
230.293289
 40
3.000000
 50
44.999950
 51
139.847900
  0
ARC
  8
0
  6
CONTINUOUS
 10
589.667419
 20
239.484879
 40
3.000000
 50
130.163803
 51
225.000000
  0
ARC
  8
0
  6
CONTINUOUS
 10
588.582581
 20
222.186356
 40
3.000000
 50
-52.044128
 51
45.000370
  0
ARC
  8
0
  6
CONTINUOUS
 10
599.670593
 20
229.481476
 40
3.000000
 50
225.000397
 51
298.727997
  0
ARC
  8
0
  6
CONTINUOUS
 10
639.324585
 20
157.136368
 40
79.500000
 50
61.272480
 51
85.481468
  0
ARC
  8
0
  6
CONTINUOUS
 10
678.977783
 20
229.481873
 40
3.000000
 50
241.273300
 51
315.000488
  0
ARC
  8
0
  6
CONTINUOUS
 10
690.067017
 20
222.186111
 40
3.000000
 50
134.999603
 51
232.044098
  0
ARC
  8
0
  6
CONTINUOUS
 10
688.981384
 20
239.485428
 40
3.000000
 50
-44.999939
 51
49.842072
  0
ARC
  8
0
  6
CONTINUOUS
 10
698.174011
 20
230.292999
 40
3.000000
 50
40.157009
 51
135.000504
  0
ARC
  8
0
  6
CONTINUOUS
 10
632.825989
 20
239.379974
 40
3.000000
 50
-85.481659
 51
0.000000
  0
ARC
  8
0
  6
CONTINUOUS
 10
645.823792
 20
239.379974
 40
3.000000
 50
180.000000
 51
265.481689
  0
ARC
  8
0
  6
CONTINUOUS
 10
639.324585
 20
157.136368
 40
79.500000
 50
94.518044
 51
118.728302
  0
ARC
  8
0
  6
CONTINUOUS
 10
567.177795
 20
201.125916
 40
5.000000
 50
164.145996
 51
328.628693
  0
ARC
  8
0
  6
CONTINUOUS
 10
711.471619
 20
201.125580
 40
5.000000
 50
-148.628403
 51
15.854310
  0
ARC
  8
0
  6
CONTINUOUS
 10
639.324585
 20
157.136368
 40
79.500000
 50
31.371229
 51
52.043720
  0
ARC
  8
0
  6
CONTINUOUS
 10
580.662781
 20
258.933472
 40
5.000000
 50
95.276199
 51
187.496704
  0
ARC
  8
0
  6
CONTINUOUS
 10
561.029175
 20
239.299896
 40
5.000000
 50
82.503250
 51
174.724594
  0
ARC
  8
0
  6
CONTINUOUS
 10
579.086792
 20
97.048164
 40
5.000000
 50
154.354294
 51
251.312195
  0
ARC
  8
0
  6
CONTINUOUS
 10
561.029175
 20
121.972969
 40
5.000000
 50
185.275803
 51
277.491791
  0
ARC
  8
0
  6
CONTINUOUS
 10
699.562561
 20
97.048286
 40
5.000000
 50
-71.311523
 51
25.645710
  0
ARC
  8
0
  6
CONTINUOUS
 10
717.622009
 20
121.972725
 40
5.000000
 50
262.503204
 51
354.724609
  0
ARC
  8
0
  6
CONTINUOUS
 10
717.622009
 20
239.299896
 40
5.000000
 50
5.275760
 51
97.497490
  0
ARC
  8
0
  6
CONTINUOUS
 10
697.988403
 20
258.933472
 40
5.000000
 50
-7.495972
 51
84.724487
  0
ARC
  8
0
  6
CONTINUOUS
 10
568.664612
 20
242.103592
 40
3.000000
 50
45.000778
 51
110.199898
  0
ARC
  8
0
  6
CONTINUOUS
 10
577.858582
 20
251.296295
 40
3.000000
 50
159.792801
 51
225.001602
  0
ARC
  8
0
  6
CONTINUOUS
 10
700.794006
 20
251.293289
 40
3.000000
 50
-47.678986
 51
20.219709
  0
ARC
  8
0
  6
CONTINUOUS
 10
709.986389
 20
242.103775
 40
3.000000
 50
69.798813
 51
135.000504
  0
ARC
  8
0
  6
CONTINUOUS
 10
715.159973
 20
103.656807
 40
12.500000
 50
293.857300
 51
353.064606
  0
ARC
  8
0
  6
CONTINUOUS
 10
639.324585
 20
275.136353
 40
200.000000
 50
270.000000
 51
293.857086
  0
ARC
  8
0
  6
CONTINUOUS
 10
639.324585
 20
275.136353
 40
193.000000
 50
270.000000
 51
288.688110
  0
ARC
  8
0
  6
CONTINUOUS
 10
563.489380
 20
103.656807
 40
12.500000
 50
186.935501
 51
246.143097
  0
ARC
  8
0
  6
CONTINUOUS
 10
639.324585
 20
275.136353
 40
193.000000
 50
251.311996
 51
270.000000
  0
ARC
  8
0
  6
CONTINUOUS
 10
639.324585
 20
275.136353
 40
200.000000
 50
246.143005
 51
270.000000
  0
ARC
  8
0
  6
CONTINUOUS
 10
563.310791
 20
104.622391
 40
12.500000
 50
-25.646149
 51
97.490547
  0
ARC
  8
0
  6
CONTINUOUS
 10
715.338806
 20
104.622391
 40
12.500000
 50
82.502663
 51
205.645905
  0
ARC
  8
0
  6
CONTINUOUS
 10
632.824585
 20
257.361572
 40
3.000000
 50
0.000000
 51
94.847847
  0
ARC
  8
0
  6
CONTINUOUS
 10
645.824585
 20
257.361572
 40
3.000000
 50
85.157707
 51
180.000000
  0
ARC
  8
0
  6
CONTINUOUS
 10
1196.326538
 20
180.636368
 40
643.000000
 50
174.724304
 51
176.209396
  0
ARC
  8
0
  6
CONTINUOUS
 10
1196.326538
 20
180.636368
 40
643.000000
 50
183.790604
 51
185.275696
  0
ARC
  8
0
  6
CONTINUOUS
 10
639.326599
 20
-376.363831
 40
643.000000
 50
93.766983
 51
95.275864
  0
ARC
  8
0
  6
CONTINUOUS
 10
563.312378
 20
256.650299
 40
12.500000
 50
-97.496765
 51
7.496273
  0
ARC
  8
0
  6
CONTINUOUS
 10
82.324745
 20
180.636368
 40
643.000000
 50
3.790227
 51
5.275741
  0
ARC
  8
0
  6
CONTINUOUS
 10
82.324745
 20
180.636368
 40
643.000000
 50
354.724213
 51
356.209808
  0
ARC
  8
0
  6
CONTINUOUS
 10
639.324585
 20
-376.363831
 40
643.000000
 50
84.724152
 51
86.209618
  0
ARC
  8
0
  6
CONTINUOUS
 10
715.338806
 20
256.650299
 40
12.500000
 50
172.503296
 51
277.496796
  0
ARC
  8
0
  6
CONTINUOUS
 10
715.283020
 20
256.595001
 40
12.500000
 50
6.842636
 51
83.156464
  0
ARC
  8
0
  6
CONTINUOUS
 10
639.324585
 20
-376.363831
 40
650.000000
 50
83.156807
 51
90.000000
  0
ARC
  8
0
  6
CONTINUOUS
 10
82.324745
 20
180.636368
 40
650.000000
 50
-6.935516
 51
6.843079
  0
ARC
  8
0
  6
CONTINUOUS
 10
563.365967
 20
256.595001
 40
12.500000
 50
96.843536
 51
173.157394
  0
ARC
  8
0
  6
CONTINUOUS
 10
1196.324585
 20
180.636368
 40
650.000000
 50
173.156906
 51
186.935501
  0
ARC
  8
0
  6
CONTINUOUS
 10
639.324585
 20
-376.363831
 40
650.000000
 50
90.000000
 51
96.843193
  0
ARC
  8
0
  6
CONTINUOUS
 10
303.611542
 20
81.755089
 40
2.000000
 50
180.000000
 51
268.499512
  0
ARC
  8
0
  6
CONTINUOUS
 10
303.611664
 20
235.517715
 40
2.000000
 50
91.500931
 51
180.000000
  0
ARC
  8
0
  6
CONTINUOUS
 10
382.111542
 20
351.647675
 40
3.000000
 50
180.000000
 51
267.999115
  0
ARC
  8
0
  6
CONTINUOUS
 10
382.111328
 20
530.804993
 40
3.000000
 50
92.001427
 51
180.000000
  0
ARC
  8
0
  6
CONTINUOUS
 10
374.111328
 20
353.467010
 40
5.000000
 50
0.000000
 51
88.499420
  0
ARC
  8
0
  6
CONTINUOUS
 10
374.111328
 20
528.986389
 40
5.000000
 50
-88.499298
 51
0.000000
  0
ARC
  8
0
  6
CONTINUOUS
 10
379.112640
 20
1008.337341
 40
650.000000
 50
263.729034
 51
266.998474
  0
ARC
  8
0
  6
CONTINUOUS
 10
379.112640
 20
-125.883644
 40
650.000000
 50
93.001541
 51
96.270973
  0
LINE
  8
0
  6
CONTINUOUS
 10
113.926765
 20
130.136475
 11
114.796898
 21
130.136475
  0
LINE
  8
0
  6
CONTINUOUS
 10
111.296349
 20
130.136475
 11
110.426216
 21
130.136475
  0
LINE
  8
0
  6
CONTINUOUS
 10
111.296349
 20
126.636482
 11
110.426216
 21
126.636482
  0
LINE
  8
0
  6
CONTINUOUS
 10
111.296349
 20
124.636482
 11
110.426216
 21
124.636482
  0
LINE
  8
0
  6
CONTINUOUS
 10
111.296349
 20
119.136482
 11
110.426216
 21
119.136482
  0
LINE
  8
0
  6
CONTINUOUS
 10
111.296349
 20
117.136482
 11
110.426216
 21
117.136482
  0
LINE
  8
0
  6
CONTINUOUS
 10
111.296349
 20
112.136482
 11
110.426216
 21
112.136482
  0
LINE
  8
0
  6
CONTINUOUS
 10
111.296349
 20
110.136482
 11
110.426216
 21
110.136482
  0
LINE
  8
0
  6
CONTINUOUS
 10
111.296349
 20
105.850456
 11
110.426216
 21
105.850456
  0
LINE
  8
0
  6
CONTINUOUS
 10
111.296349
 20
99.636482
 11
110.426216
 21
99.636482
  0
LINE
  8
0
  6
CONTINUOUS
 10
113.926765
 20
99.636482
 11
114.796898
 21
99.636482
  0
LINE
  8
0
  6
CONTINUOUS
 10
113.926765
 20
105.850456
 11
114.796898
 21
105.850456
  0
LINE
  8
0
  6
CONTINUOUS
 10
113.926765
 20
110.136482
 11
114.796898
 21
110.136482
  0
LINE
  8
0
  6
CONTINUOUS
 10
113.926765
 20
112.136482
 11
114.796898
 21
112.136482
  0
LINE
  8
0
  6
CONTINUOUS
 10
113.926765
 20
117.136482
 11
114.796898
 21
117.136482
  0
LINE
  8
0
  6
CONTINUOUS
 10
113.926765
 20
119.136482
 11
114.796898
 21
119.136482
  0
LINE
  8
0
  6
CONTINUOUS
 10
113.926765
 20
124.636482
 11
114.796898
 21
124.636482
  0
LINE
  8
0
  6
CONTINUOUS
 10
113.926765
 20
126.636482
 11
114.796898
 21
126.636482
  0
TEXT
  8
0
 10
31.000000
 20
4.000000
 40
10.000000
 41
1.000000
  1
G3FE-28-100~200-T020W
 50
0.000000
  0
ENDSEC
  0
EOF
