  0
SECTION
  2
HEADER
  9
$CLAYER
  8
1
  9
$LTSCALE
 40
3.0
  0
ENDSEC
  0
SECTION
  2
TABLES
  0
TABLE
  2
LTYPE
 70
     4
  0
LTYPE
  2
CONTINUOUS
  3
solid line
 70
    64
 72
    65
 73
     0
 40
0.0
  0
LTYPE
  2
DASHED
  3
__ __ __ __ __ __ __ __ __ __ __ __ __ __ __
 70
    64
 72
    65
 73
     2
 40
0.75
 49
0.5
 49
-0.25
  0
LTYPE
  2
CENTER
  3
____ _ ____ _ ____ _ ____ _ ____ _ ____ _ ____
 70
    64
 72
    65
 73
     4
 40
2.0
 49
1.25
 49
-0.25
 49
0.25
 49
-0.25
  0
LTYPE
  2
PHANTOM
  3
_____ _ _ _____ _ _ _____ _ _ _____ _ _ ____
 70
    64
 72
    65
 73
     6
 40
2.5
 49
1.25
 49
-0.25
 49
0.25
 49
-0.25
 49
0.25
 49
-0.25
  0
ENDTAB
  0
TABLE
  2
LAYER
 70
     1
  0
LAYER
  2
0
 70
    64
 62
     7
  6
CONTINUOUS
  0
ENDTAB
  0
TABLE
  2
STYLE
 70
     1
  0
STYLE
  2
STANDARD
 70
     0
 40
0.000000
 41
1.000000
 50
0.000000
 71
     0
 42
3.000000
  3
txt
  4
BIGFONT
  0
ENDTAB
  0
ENDSEC
  0
SECTION
  2
BLOCKS
  0
ENDSEC
  0
SECTION
  2
ENTITIES
  0
ARC
  8
0
  6
CONTINUOUS
 10
358.541107
 20
-165.052170
 40
650.000000
 50
93.001541
 51
96.270973
  0
LINE
  8
0
  6
CENTER
 10
-19.509375
 20
402.058441
 11
435.408752
 21
402.058441
  0
LINE
  8
0
  6
CONTINUOUS
 10
353.670624
 20
484.820221
 11
324.506287
 21
484.056305
  0
LINE
  8
0
  6
CONTINUOUS
 10
373.540009
 20
309.558380
 11
373.540009
 21
494.558380
  0
LINE
  8
0
  6
CONTINUOUS
 10
373.040314
 20
309.075836
 11
361.435272
 21
309.481232
  0
LINE
  8
0
  6
CONTINUOUS
 10
373.040314
 20
495.040924
 11
361.435028
 21
494.635529
  0
LINE
  8
0
  6
CONTINUOUS
 10
358.540009
 20
491.636505
 11
358.539642
 21
312.479156
  0
ARC
  8
0
  6
CONTINUOUS
 10
358.541107
 20
969.168823
 40
650.000000
 50
-96.270973
 51
-93.001541
  0
LINE
  8
0
  6
CONTINUOUS
 10
353.670746
 20
319.296539
 11
324.506287
 21
320.060516
  0
ARC
  8
0
  6
CONTINUOUS
 10
353.539764
 20
489.817902
 40
5.000000
 50
-88.499298
 51
0.000000
  0
ARC
  8
0
  6
CONTINUOUS
 10
353.539764
 20
314.298492
 40
5.000000
 50
0.000000
 51
88.499420
  0
ARC
  8
0
  6
CONTINUOUS
 10
361.539764
 20
491.636505
 40
3.000000
 50
92.001427
 51
180.000000
  0
ARC
  8
0
  6
CONTINUOUS
 10
361.540009
 20
312.479156
 40
3.000000
 50
180.000000
 51
267.999115
  0
LINE
  8
0
  6
CONTINUOUS
 10
377.540009
 20
317.558441
 11
377.540009
 21
486.558380
  0
LINE
  8
0
  6
CONTINUOUS
 10
377.040009
 20
487.058380
 11
373.540009
 21
487.058380
  0
LINE
  8
0
  6
CONTINUOUS
 10
377.040009
 20
317.058441
 11
373.540009
 21
317.058441
  0
LINE
  8
0
  6
CONTINUOUS
 10
378.540009
 20
417.058380
 11
378.540009
 21
387.058441
  0
LINE
  8
0
  6
CONTINUOUS
 10
377.540009
 20
417.058380
 11
378.540009
 21
417.058380
  0
LINE
  8
0
  6
CONTINUOUS
 10
377.540009
 20
387.058380
 11
378.540009
 21
387.058441
  0
LINE
  8
0
  6
CONTINUOUS
 10
378.540009
 20
416.058380
 11
423.540009
 21
416.058441
  0
LINE
  8
0
  6
CONTINUOUS
 10
378.540009
 20
388.058380
 11
383.540009
 21
388.058380
  0
LINE
  8
0
  6
CONTINUOUS
 10
423.540009
 20
416.058441
 11
423.540009
 21
385.058380
  0
LINE
  8
0
  6
CONTINUOUS
 10
383.540009
 20
388.642426
 11
383.540009
 21
385.058380
  0
LINE
  8
0
  6
CONTINUOUS
 10
383.540009
 20
385.058380
 11
423.540009
 21
385.058380
  0
LINE
  8
0
  6
CONTINUOUS
 10
287.540009
 20
323.058441
 11
287.540009
 21
402.058441
  0
LINE
  8
0
  6
CONTINUOUS
 10
287.540009
 20
481.058441
 11
287.540009
 21
402.058441
  0
LINE
  8
0
  6
CONTINUOUS
 10
281.039917
 20
325.177032
 11
281.039673
 21
478.940155
  0
ARC
  8
0
  6
CONTINUOUS
 10
283.039886
 20
478.940155
 40
2.000000
 50
91.498413
 51
180.000000
  0
LINE
  8
0
  6
CONTINUOUS
 10
278.144684
 20
466.201843
 11
274.040070
 21
466.058441
  0
LINE
  8
0
  6
CONTINUOUS
 10
278.144684
 20
337.915070
 11
274.040070
 21
338.058441
  0
ARC
  8
0
  6
CONTINUOUS
 10
278.039978
 20
334.916931
 40
3.000000
 50
0.000000
 51
87.999672
  0
ARC
  8
0
  6
CONTINUOUS
 10
278.039978
 20
469.199951
 40
3.000000
 50
-87.999657
 51
0.000000
  0
ARC
  8
0
  6
CONTINUOUS
 10
283.039886
 20
325.177032
 40
2.000000
 50
180.000000
 51
268.499115
  0
LINE
  8
0
  6
CONTINUOUS
 10
282.987518
 20
323.177734
 11
287.539886
 21
323.058411
  0
LINE
  8
0
  6
CONTINUOUS
 10
282.987579
 20
480.939331
 11
287.540070
 21
481.058441
  0
LINE
  8
0
  6
CONTINUOUS
 10
377.040009
 20
487.058380
 11
377.540009
 21
486.558380
  0
LINE
  8
0
  6
CONTINUOUS
 10
373.040314
 20
495.040924
 11
373.540009
 21
494.558380
  0
LINE
  8
0
  6
CONTINUOUS
 10
377.040009
 20
317.058441
 11
377.540009
 21
317.558441
  0
LINE
  8
0
  6
CONTINUOUS
 10
373.040314
 20
309.075836
 11
373.540009
 21
309.558380
  0
LINE
  8
0
  6
CENTER
 10
332.277588
 20
114.268188
 11
438.674591
 21
114.268188
  0
LINE
  8
0
  6
CONTINUOUS
 10
377.040009
 20
199.268127
 11
373.540009
 21
199.268127
  0
LINE
  8
0
  6
CONTINUOUS
 10
373.540009
 20
29.268126
 11
377.040009
 21
29.268126
  0
LINE
  8
0
  6
CONTINUOUS
 10
287.540009
 20
13.268005
 11
287.540009
 21
90.768127
  0
LINE
  8
0
  6
CONTINUOUS
 10
287.540009
 20
171.268127
 11
287.540009
 21
90.768127
  0
ARC
  8
0
  6
CONTINUOUS
 10
358.539001
 20
-474.842468
 40
650.000000
 50
93.001541
 51
96.270973
  0
ARC
  8
0
  6
CONTINUOUS
 10
358.539215
 20
659.383057
 40
650.000000
 50
263.728912
 51
269.756287
  0
LINE
  8
0
  6
CONTINUOUS
 10
361.461395
 20
206.965118
 11
373.040009
 21
207.268127
  0
LINE
  8
0
  6
CONTINUOUS
 10
373.540009
 20
206.768127
 11
373.040009
 21
207.268127
  0
ARC
  8
0
  6
CONTINUOUS
 10
361.540009
 20
203.965530
 40
3.000000
 50
91.500214
 51
180.000000
  0
LINE
  8
0
  6
CONTINUOUS
 10
377.040009
 20
199.268127
 11
377.540009
 21
198.768127
  0
LINE
  8
0
  6
CONTINUOUS
 10
358.540009
 20
12.189383
 11
358.539612
 21
203.965530
  0
LINE
  8
0
  6
CONTINUOUS
 10
373.540009
 20
9.268125
 11
373.540009
 21
206.768127
  0
LINE
  8
0
  6
CONTINUOUS
 10
377.040009
 20
29.268126
 11
377.540009
 21
29.768126
  0
LINE
  8
0
  6
CONTINUOUS
 10
289.505188
 20
49.836544
 11
353.752808
 21
50.397205
  0
LINE
  8
0
  6
CONTINUOUS
 10
289.505188
 20
36.190544
 11
353.752808
 21
35.630245
  0
LINE
  8
0
  6
CONTINUOUS
 10
377.540009
 20
198.768127
 11
377.540009
 21
29.768126
  0
LINE
  8
0
  6
CONTINUOUS
 10
355.776398
 20
9.389001
 11
373.040314
 21
8.785590
  0
LINE
  8
0
  6
CONTINUOUS
 10
353.670990
 20
175.030090
 11
324.504211
 21
174.266052
  0
ARC
  8
0
  6
CONTINUOUS
 10
353.540009
 20
180.028259
 40
5.000000
 50
-88.499390
 51
0.000000
  0
LINE
  8
0
  6
CONTINUOUS
 10
378.540009
 20
129.268066
 11
378.540009
 21
99.268066
  0
LINE
  8
0
  6
CONTINUOUS
 10
377.540009
 20
129.268066
 11
378.540009
 21
129.268066
  0
LINE
  8
0
  6
CONTINUOUS
 10
378.540009
 20
128.268066
 11
423.540009
 21
128.268066
  0
LINE
  8
0
  6
CONTINUOUS
 10
377.540009
 20
99.268188
 11
378.540009
 21
99.268066
  0
LINE
  8
0
  6
CONTINUOUS
 10
378.540009
 20
100.268188
 11
423.540009
 21
100.268188
  0
LINE
  8
0
  6
CONTINUOUS
 10
423.540009
 20
128.268066
 11
423.540009
 21
100.268188
  0
LINE
  8
0
  6
CONTINUOUS
 10
387.540009
 20
118.268066
 11
423.540009
 21
118.268066
  0
LINE
  8
0
  6
CONTINUOUS
 10
387.540009
 20
110.268066
 11
423.540009
 21
110.268066
  0
ARC
  8
0
  6
CONTINUOUS
 10
387.540009
 20
114.268188
 40
4.000000
 50
90.000000
 51
270.000000
  0
LINE
  8
0
  6
CONTINUOUS
 10
281.039856
 20
169.149841
 11
281.039856
 21
15.386625
  0
LINE
  8
0
  6
CONTINUOUS
 10
282.987488
 20
13.387425
 11
287.539795
 21
13.268125
  0
LINE
  8
0
  6
CONTINUOUS
 10
282.987488
 20
171.149002
 11
287.539978
 21
171.268127
  0
ARC
  8
0
  6
CONTINUOUS
 10
283.039795
 20
169.149841
 40
2.000000
 50
91.498413
 51
180.000000
  0
ARC
  8
0
  6
CONTINUOUS
 10
283.039886
 20
15.386625
 40
2.000000
 50
180.000000
 51
268.499390
  0
LINE
  8
0
  6
CONTINUOUS
 10
282.615234
 20
49.836544
 11
286.681274
 21
49.836544
  0
LINE
  8
0
  6
CONTINUOUS
 10
282.615234
 20
36.190544
 11
286.681274
 21
36.190544
  0
LINE
  8
0
  6
CONTINUOUS
 10
274.040009
 20
154.768127
 11
274.040009
 21
26.768126
  0
LINE
  8
0
  6
CONTINUOUS
 10
278.144562
 20
154.911453
 11
274.040009
 21
154.768127
  0
LINE
  8
0
  6
CONTINUOUS
 10
278.144562
 20
26.624790
 11
274.040009
 21
26.768126
  0
LINE
  8
0
  6
CONTINUOUS
 10
274.040070
 20
338.058441
 11
274.040070
 21
466.058441
  0
ARC
  8
0
  6
CONTINUOUS
 10
278.039856
 20
157.909637
 40
3.000000
 50
-88.000000
 51
0.000000
  0
ARC
  8
0
  6
CONTINUOUS
 10
278.039856
 20
23.626617
 40
3.000000
 50
0.000000
 51
88.000000
  0
LINE
  8
0
  6
CENTER
 10
379.470734
 20
478.072327
 11
350.287933
 21
478.072327
  0
LINE
  8
0
  6
CENTER
 10
379.470734
 20
326.044525
 11
350.287933
 21
326.044525
  0
LINE
  8
0
  6
CENTER
 10
379.470734
 20
38.254288
 11
350.287903
 21
38.254288
  0
LINE
  8
0
  6
CENTER
 10
379.470734
 20
190.282089
 11
350.287903
 21
190.282089
  0
ARC
  8
0
  6
CONTINUOUS
 10
361.540009
 20
12.189383
 40
3.000000
 50
180.000000
 51
267.998199
  0
LINE
  8
0
  6
CONTINUOUS
 10
373.040314
 20
8.785590
 11
373.540009
 21
9.268125
  0
LINE
  8
0
  6
CONTINUOUS
 10
383.540009
 20
388.642426
 11
423.540009
 21
388.642426
  0
LINE
  8
0
  6
DASHED
 10
373.540009
 20
483.572327
 11
358.539581
 21
483.572327
  0
LINE
  8
0
  6
DASHED
 10
373.540009
 20
472.572327
 11
358.539581
 21
472.572327
  0
LINE
  8
0
  6
DASHED
 10
373.540009
 20
331.544525
 11
358.539581
 21
331.544525
  0
LINE
  8
0
  6
DASHED
 10
373.540009
 20
320.544525
 11
358.539581
 21
320.544525
  0
LINE
  8
0
  6
DASHED
 10
373.540009
 20
195.782089
 11
358.539581
 21
195.782089
  0
LINE
  8
0
  6
DASHED
 10
373.540009
 20
184.782089
 11
358.539581
 21
184.782089
  0
LINE
  8
0
  6
DASHED
 10
373.540009
 20
43.754288
 11
358.539581
 21
43.754288
  0
LINE
  8
0
  6
DASHED
 10
373.540009
 20
32.754288
 11
358.539581
 21
32.754288
  0
LINE
  8
0
  6
CONTINUOUS
 10
173.040070
 20
466.058441
 11
173.040070
 21
338.058441
  0
LINE
  8
0
  6
CONTINUOUS
 10
39.040077
 20
466.058441
 11
49.040077
 21
466.058441
  0
LINE
  8
0
  6
CONTINUOUS
 10
41.040077
 20
338.058441
 11
41.040077
 21
466.058441
  0
LINE
  8
0
  6
CONTINUOUS
 10
49.040077
 20
383.414032
 11
49.040077
 21
337.064636
  0
LINE
  8
0
  6
CONTINUOUS
 10
165.040070
 20
383.414032
 11
165.040070
 21
338.058441
  0
LINE
  8
0
  6
CONTINUOUS
 10
49.540077
 20
383.914032
 11
164.540070
 21
383.914032
  0
LINE
  8
0
  6
CONTINUOUS
 10
49.040077
 20
466.058441
 11
173.040070
 21
466.058441
  0
LINE
  8
0
  6
CONTINUOUS
 10
49.040077
 20
435.825439
 11
49.040077
 21
466.058441
  0
LINE
  8
0
  6
CONTINUOUS
 10
165.040070
 20
435.825439
 11
165.040070
 21
466.058441
  0
ARC
  8
0
  6
CONTINUOUS
 10
164.540070
 20
383.414032
 40
0.500000
 50
0.000000
 51
90.000000
  0
ARC
  8
0
  6
CONTINUOUS
 10
49.540077
 20
383.414032
 40
0.500000
 50
-270.000000
 51
-180.000000
  0
LINE
  8
0
  6
CONTINUOUS
 10
58.040077
 20
291.132080
 11
97.540077
 21
291.132080
  0
LINE
  8
0
  6
CONTINUOUS
 10
112.040077
 20
291.132080
 11
42.040077
 21
291.132080
  0
LINE
  8
0
  6
CONTINUOUS
 10
52.981617
 20
342.364838
 11
65.540077
 21
342.364838
  0
LINE
  8
0
  6
CONTINUOUS
 10
101.098518
 20
342.364838
 11
69.056458
 21
342.364838
  0
LINE
  8
0
  6
CONTINUOUS
 10
107.991455
 20
333.606873
 11
90.351257
 21
333.606873
  0
ARC
  8
0
  6
CONTINUOUS
 10
46.088257
 20
330.606873
 40
3.000000
 50
90.000000
 51
178.500305
  0
ARC
  8
0
  6
CONTINUOUS
 10
107.991455
 20
330.606873
 40
3.000000
 50
1.499893
 51
90.000000
  0
LINE
  8
0
  6
CONTINUOUS
 10
51.905258
 20
338.461090
 11
51.816078
 21
335.054474
  0
LINE
  8
0
  6
CONTINUOUS
 10
102.174873
 20
338.461090
 11
102.263855
 21
335.054474
  0
LINE
  8
0
  6
CONTINUOUS
 10
46.088257
 20
333.606873
 11
63.728855
 21
333.606873
  0
ARC
  8
0
  6
CONTINUOUS
 10
104.263252
 20
335.606873
 40
2.000000
 50
-178.500504
 51
-90.000000
  0
ARC
  8
0
  6
CONTINUOUS
 10
49.816654
 20
335.606873
 40
2.000000
 50
-90.000000
 51
-1.500397
  0
LINE
  8
0
  6
CONTINUOUS
 10
102.097137
 20
341.430573
 11
102.174873
 21
338.461090
  0
LINE
  8
0
  6
CONTINUOUS
 10
51.981960
 20
341.391022
 11
51.905258
 21
338.461090
  0
ARC
  8
0
  6
CONTINUOUS
 10
77.040077
 20
401.106873
 40
68.800003
 50
-101.155800
 51
-78.844177
  0
LINE
  8
0
  6
CONTINUOUS
 10
112.040077
 20
278.864441
 11
112.040077
 21
281.364441
  0
LINE
  8
0
  6
CONTINUOUS
 10
42.040077
 20
278.383789
 11
42.040077
 21
290.132080
  0
LINE
  8
0
  6
CONTINUOUS
 10
112.040077
 20
290.132080
 11
42.040077
 21
290.132080
  0
LINE
  8
0
  6
CONTINUOUS
 10
112.040077
 20
291.132080
 11
42.040077
 21
291.132080
  0
LINE
  8
0
  6
CONTINUOUS
 10
112.040077
 20
290.132080
 11
112.040077
 21
291.132080
  0
LINE
  8
0
  6
CONTINUOUS
 10
42.040077
 20
290.132080
 11
42.040077
 21
291.132080
  0
LINE
  8
0
  6
CONTINUOUS
 10
50.553078
 20
288.018677
 11
43.040077
 21
288.018677
  0
ARC
  8
0
  6
CONTINUOUS
 10
50.553078
 20
287.518677
 40
0.500000
 50
1.500198
 51
90.000000
  0
ARC
  8
0
  6
CONTINUOUS
 10
43.040077
 20
289.018677
 40
1.000000
 50
180.000000
 51
270.000000
  0
LINE
  8
0
  6
CONTINUOUS
 10
49.998055
 20
288.018677
 11
44.082077
 21
288.018677
  0
LINE
  8
0
  6
CONTINUOUS
 10
14.040076
 20
316.918427
 11
14.040076
 21
287.918427
  0
LINE
  8
0
  6
CONTINUOUS
 10
22.040075
 20
316.918427
 11
22.040075
 21
287.918427
  0
LINE
  8
0
  6
CONTINUOUS
 10
14.040076
 20
316.918427
 11
22.040075
 21
316.918427
  0
LINE
  8
0
  6
CONTINUOUS
 10
14.040076
 20
287.918427
 11
22.040075
 21
287.918427
  0
LINE
  8
0
  6
CONTINUOUS
 10
31.040075
 20
315.418427
 11
31.040075
 21
289.418427
  0
LINE
  8
0
  6
CONTINUOUS
 10
22.040075
 20
315.418427
 11
31.040075
 21
315.418427
  0
LINE
  8
0
  6
CONTINUOUS
 10
22.040075
 20
289.418427
 11
31.040075
 21
289.418427
  0
LINE
  8
0
  6
CONTINUOUS
 10
31.040075
 20
313.918427
 11
36.040077
 21
313.918427
  0
LINE
  8
0
  6
CONTINUOUS
 10
31.040075
 20
290.918427
 11
36.040077
 21
290.918427
  0
LINE
  8
0
  6
CONTINUOUS
 10
36.040077
 20
315.918427
 11
36.040077
 21
288.918427
  0
LINE
  8
0
  6
CONTINUOUS
 10
40.540077
 20
316.918427
 11
40.540077
 21
287.918427
  0
LINE
  8
0
  6
CONTINUOUS
 10
36.040077
 20
315.918427
 11
40.540077
 21
315.918427
  0
LINE
  8
0
  6
CONTINUOUS
 10
36.040077
 20
288.918427
 11
40.540077
 21
288.918427
  0
LINE
  8
0
  6
CONTINUOUS
 10
40.540077
 20
316.918427
 11
42.724098
 21
316.918427
  0
LINE
  8
0
  6
CONTINUOUS
 10
40.540077
 20
287.918427
 11
42.040077
 21
287.918427
  0
LINE
  8
0
  6
CONTINUOUS
 10
14.040076
 20
310.418427
 11
22.040075
 21
310.418427
  0
LINE
  8
0
  6
CONTINUOUS
 10
14.040076
 20
294.418427
 11
22.040075
 21
294.418427
  0
LINE
  8
0
  6
CONTINUOUS
 10
69.056458
 20
343.606873
 11
65.540077
 21
343.606873
  0
LINE
  8
0
  6
CONTINUOUS
 10
41.040077
 20
466.058441
 11
41.040077
 21
400.676239
  0
LINE
  8
0
  6
CONTINUOUS
 10
41.040077
 20
400.676239
 11
41.040077
 21
338.058441
  0
ARC
  8
0
  6
CONTINUOUS
 10
352.540070
 20
402.056000
 40
360.000000
 50
-189.120193
 51
-180.000000
  0
LINE
  8
0
  6
CONTINUOUS
 10
15.858196
 20
331.557220
 11
39.040077
 21
331.557220
  0
LINE
  8
0
  6
CONTINUOUS
 10
12.605016
 20
472.557892
 11
39.040077
 21
472.559601
  0
LINE
  8
0
  6
CONTINUOUS
 10
39.040077
 20
331.557220
 11
39.040077
 21
472.559601
  0
LINE
  8
0
  6
CONTINUOUS
 10
9.926316
 20
334.058441
 11
13.330356
 21
334.058441
  0
ARC
  8
0
  6
CONTINUOUS
 10
9.926316
 20
347.058441
 40
13.000000
 50
-170.880905
 51
-90.000000
  0
ARC
  8
0
  6
CONTINUOUS
 10
352.540070
 20
402.056000
 40
360.000000
 50
-180.000000
 51
-170.880493
  0
LINE
  8
0
  6
CONTINUOUS
 10
9.926316
 20
470.058441
 11
10.066697
 21
470.058441
  0
ARC
  8
0
  6
CONTINUOUS
 10
9.926316
 20
457.058441
 40
13.000000
 50
90.000000
 51
170.880905
  0
ARC
  8
0
  6
CONTINUOUS
 10
10.066697
 20
471.058441
 40
1.000000
 50
-90.000000
 51
-9.952286
  0
ARC
  8
0
  6
CONTINUOUS
 10
12.605016
 20
471.057892
 40
1.500000
 50
90.000000
 51
169.974594
  0
ARC
  8
0
  6
CONTINUOUS
 10
350.860077
 20
411.259918
 40
345.000000
 50
-190.025406
 51
-168.425507
  0
ARC
  8
0
  6
CONTINUOUS
 10
-326.856323
 20
281.979401
 40
345.000000
 50
8.476913
 51
10.025380
  0
ARC
  8
0
  6
CONTINUOUS
 10
15.858196
 20
333.057220
 40
1.500000
 50
-171.523102
 51
-90.000000
  0
ARC
  8
0
  6
CONTINUOUS
 10
13.330356
 20
333.058441
 40
1.000000
 50
8.539169
 51
90.000000
  0
LINE
  8
0
  6
CONTINUOUS
 10
49.040077
 20
447.941772
 11
165.040070
 21
447.941772
  0
LINE
  8
0
  6
CONTINUOUS
 10
49.540077
 20
435.325439
 11
164.540070
 21
435.325439
  0
ARC
  8
0
  6
CONTINUOUS
 10
164.540070
 20
435.825439
 40
0.500000
 50
-90.000000
 51
0.000000
  0
ARC
  8
0
  6
CONTINUOUS
 10
49.540077
 20
435.825439
 40
0.500000
 50
180.000000
 51
270.000000
  0
LINE
  8
0
  6
CONTINUOUS
 10
49.040077
 20
442.737213
 11
165.040070
 21
442.737213
  0
LINE
  8
0
  6
CONTINUOUS
 10
49.040077
 20
450.921021
 11
165.040070
 21
450.921021
  0
LINE
  8
0
  6
CONTINUOUS
 10
50.040077
 20
454.086456
 11
164.040070
 21
454.086456
  0
LINE
  8
0
  6
CONTINUOUS
 10
49.040077
 20
457.098785
 11
165.040070
 21
457.098785
  0
LINE
  8
0
  6
CONTINUOUS
 10
50.040077
 20
457.836273
 11
164.040070
 21
457.836273
  0
LINE
  8
0
  6
CONTINUOUS
 10
49.040077
 20
461.532654
 11
165.040070
 21
461.532654
  0
LINE
  8
0
  6
CONTINUOUS
 10
49.040077
 20
464.099335
 11
165.040070
 21
464.099335
  0
LINE
  8
0
  6
CONTINUOUS
 10
49.040077
 20
465.611725
 11
165.040070
 21
465.611725
  0
LINE
  8
0
  6
CONTINUOUS
 10
50.040077
 20
383.427826
 11
164.040070
 21
383.427826
  0
LINE
  8
0
  6
CONTINUOUS
 10
49.040077
 20
375.637939
 11
165.040070
 21
375.637939
  0
LINE
  8
0
  6
CONTINUOUS
 10
50.040077
 20
370.364594
 11
164.040070
 21
370.364594
  0
LINE
  8
0
  6
CONTINUOUS
 10
49.040077
 20
365.485382
 11
165.040070
 21
365.485382
  0
LINE
  8
0
  6
CONTINUOUS
 10
50.040077
 20
360.466980
 11
164.040070
 21
360.466980
  0
LINE
  8
0
  6
CONTINUOUS
 10
49.040077
 20
357.398041
 11
165.040070
 21
357.398041
  0
LINE
  8
0
  6
CONTINUOUS
 10
50.040077
 20
354.712128
 11
164.040070
 21
354.712128
  0
LINE
  8
0
  6
CONTINUOUS
 10
49.040077
 20
351.009277
 11
165.040070
 21
351.009277
  0
LINE
  8
0
  6
CONTINUOUS
 10
116.040077
 20
350.009277
 11
116.040077
 21
337.064636
  0
LINE
  8
0
  6
CONTINUOUS
 10
116.040077
 20
338.058441
 11
173.040070
 21
338.058441
  0
LINE
  8
0
  6
CONTINUOUS
 10
49.040077
 20
344.113068
 11
115.040077
 21
344.113068
  0
LINE
  8
0
  6
CONTINUOUS
 10
116.040077
 20
346.126160
 11
165.040070
 21
346.126160
  0
LINE
  8
0
  6
CONTINUOUS
 10
116.040077
 20
342.660889
 11
165.040070
 21
342.660889
  0
LINE
  8
0
  6
CONTINUOUS
 10
116.040077
 20
340.143768
 11
165.040070
 21
340.143768
  0
LINE
  8
0
  6
CONTINUOUS
 10
116.040077
 20
338.598419
 11
165.040070
 21
338.598419
  0
LINE
  8
0
  6
CONTINUOUS
 10
41.040077
 20
338.058441
 11
49.040077
 21
338.058441
  0
LINE
  8
0
  6
CONTINUOUS
 10
49.040077
 20
337.064636
 11
51.868698
 21
337.064636
  0
LINE
  8
0
  6
CONTINUOUS
 10
54.040077
 20
343.590942
 11
100.040077
 21
343.590942
  0
LINE
  8
0
  6
CONTINUOUS
 10
54.040077
 20
342.364838
 11
100.040077
 21
342.364838
  0
LINE
  8
0
  6
CONTINUOUS
 10
54.040077
 20
342.364838
 11
54.040077
 21
343.590942
  0
LINE
  8
0
  6
CONTINUOUS
 10
100.040077
 20
342.364838
 11
100.040077
 21
343.590942
  0
ARC
  8
0
  6
CONTINUOUS
 10
101.098518
 20
341.364838
 40
1.000000
 50
1.499604
 51
90.000000
  0
ARC
  8
0
  6
CONTINUOUS
 10
52.981617
 20
341.364838
 40
1.000000
 50
90.000000
 51
178.500397
  0
LINE
  8
0
  6
CONTINUOUS
 10
102.211349
 20
337.064636
 11
116.040077
 21
337.064636
  0
ARC
  8
0
  6
CONTINUOUS
 10
52.088829
 20
286.174866
 40
1.000000
 50
181.504028
 51
270.000000
  0
LINE
  8
0
  6
CONTINUOUS
 10
43.089287
 20
330.685394
 11
42.040077
 21
291.132080
  0
LINE
  8
0
  6
CONTINUOUS
 10
110.990425
 20
330.685394
 11
112.040077
 21
291.132080
  0
LINE
  8
0
  6
CONTINUOUS
 10
112.040077
 20
290.132080
 11
112.040077
 21
281.364441
  0
LINE
  8
0
  6
CONTINUOUS
 10
52.088829
 20
285.174866
 11
101.991524
 21
285.174866
  0
ARC
  8
0
  6
CONTINUOUS
 10
50.345215
 20
276.383789
 40
1.000000
 50
6.685660
 51
90.000000
  0
LINE
  8
0
  6
CONTINUOUS
 10
43.040077
 20
277.383789
 11
50.345215
 21
277.383789
  0
ARC
  8
0
  6
CONTINUOUS
 10
43.040077
 20
278.383789
 40
1.000000
 50
180.000000
 51
270.000000
  0
ARC
  8
0
  6
CONTINUOUS
 10
47.040077
 20
279.670776
 40
3.000000
 50
229.669662
 51
310.330322
  0
LINE
  8
0
  6
CONTINUOUS
 10
47.040077
 20
277.170776
 11
46.759075
 21
276.683960
  0
LINE
  8
0
  6
CONTINUOUS
 10
47.040077
 20
277.170776
 11
47.321255
 21
276.683960
  0
ARC
  8
0
  6
CONTINUOUS
 10
50.119255
 20
284.989868
 40
1.000000
 50
-90.000000
 51
1.504025
  0
LINE
  8
0
  6
CONTINUOUS
 10
51.118908
 20
285.016113
 11
51.052856
 21
287.531769
  0
LINE
  8
0
  6
CONTINUOUS
 10
42.540077
 20
283.989868
 11
50.119255
 21
283.989868
  0
ARC
  8
0
  6
CONTINUOUS
 10
42.540077
 20
283.489868
 40
0.500000
 50
90.000000
 51
180.000000
  0
ARC
  8
0
  6
CONTINUOUS
 10
51.835014
 20
276.558441
 40
0.500000
 50
186.685654
 51
270.000000
  0
LINE
  8
0
  6
CONTINUOUS
 10
51.835014
 20
276.058441
 11
102.244698
 21
276.058441
  0
ARC
  8
0
  6
CONTINUOUS
 10
103.734497
 20
276.383789
 40
1.000000
 50
90.000000
 51
173.314346
  0
LINE
  8
0
  6
CONTINUOUS
 10
111.039635
 20
277.383789
 11
103.734497
 21
277.383789
  0
ARC
  8
0
  6
CONTINUOUS
 10
111.039635
 20
278.383789
 40
1.000000
 50
-90.000000
 51
0.000000
  0
ARC
  8
0
  6
CONTINUOUS
 10
107.039635
 20
279.670776
 40
3.000000
 50
-130.330338
 51
-49.669670
  0
LINE
  8
0
  6
CONTINUOUS
 10
107.039635
 20
277.170776
 11
107.320641
 21
276.683960
  0
LINE
  8
0
  6
CONTINUOUS
 10
107.039635
 20
277.170776
 11
106.758461
 21
276.683960
  0
ARC
  8
0
  6
CONTINUOUS
 10
102.244698
 20
276.558441
 40
0.500000
 50
-90.000000
 51
-6.685660
  0
ARC
  8
0
  6
CONTINUOUS
 10
45.450890
 20
286.804382
 40
1.000000
 50
105.358887
 51
217.383194
  0
ARC
  8
0
  6
CONTINUOUS
 10
47.040077
 20
288.018677
 40
3.000000
 50
217.383194
 51
322.616791
  0
ARC
  8
0
  6
CONTINUOUS
 10
48.629261
 20
286.804382
 40
1.000000
 50
-37.383198
 51
74.641113
  0
ARC
  8
0
  6
CONTINUOUS
 10
47.040077
 20
281.018677
 40
7.000000
 50
74.641113
 51
105.358887
  0
LINE
  8
0
  6
CONTINUOUS
 10
45.565960
 20
286.185272
 11
48.586643
 21
286.185272
  0
LINE
  8
0
  6
CONTINUOUS
 10
47.040077
 20
285.065796
 11
47.040077
 21
287.015228
  0
LINE
  8
0
  6
CONTINUOUS
 10
103.526634
 20
288.018677
 11
111.039635
 21
288.018677
  0
ARC
  8
0
  6
CONTINUOUS
 10
103.526634
 20
287.518677
 40
0.500000
 50
90.000000
 51
178.499802
  0
ARC
  8
0
  6
CONTINUOUS
 10
111.039635
 20
289.018677
 40
1.000000
 50
-90.000000
 51
0.000000
  0
LINE
  8
0
  6
CONTINUOUS
 10
104.081657
 20
288.018677
 11
109.997635
 21
288.018677
  0
ARC
  8
0
  6
CONTINUOUS
 10
101.990883
 20
286.174866
 40
1.000000
 50
-90.000000
 51
-1.504025
  0
ARC
  8
0
  6
CONTINUOUS
 10
103.960464
 20
284.989868
 40
1.000000
 50
178.495972
 51
270.000000
  0
LINE
  8
0
  6
CONTINUOUS
 10
102.960808
 20
285.016113
 11
103.026855
 21
287.531769
  0
LINE
  8
0
  6
CONTINUOUS
 10
111.539635
 20
283.989868
 11
103.960464
 21
283.989868
  0
ARC
  8
0
  6
CONTINUOUS
 10
111.539635
 20
283.489868
 40
0.500000
 50
0.000000
 51
90.000000
  0
ARC
  8
0
  6
CONTINUOUS
 10
108.628822
 20
286.804382
 40
1.000000
 50
-37.383198
 51
74.641113
  0
ARC
  8
0
  6
CONTINUOUS
 10
107.039635
 20
288.018677
 40
3.000000
 50
-142.616806
 51
-37.383198
  0
ARC
  8
0
  6
CONTINUOUS
 10
105.450455
 20
286.804382
 40
1.000000
 50
105.358887
 51
217.383194
  0
ARC
  8
0
  6
CONTINUOUS
 10
107.039635
 20
281.018677
 40
7.000000
 50
74.641113
 51
105.358887
  0
LINE
  8
0
  6
CONTINUOUS
 10
108.513756
 20
286.185272
 11
105.493073
 21
286.185272
  0
LINE
  8
0
  6
CONTINUOUS
 10
107.039635
 20
285.065796
 11
107.039635
 21
287.015228
  0
ARC
  8
0
  6
CONTINUOUS
 10
115.040077
 20
343.113068
 40
1.000000
 50
0.000000
 51
90.000000
  0
ARC
  8
0
  6
CONTINUOUS
 10
115.040077
 20
350.009277
 40
1.000000
 50
0.000000
 51
90.000000
  0
LINE
  8
0
  6
CONTINUOUS
 10
173.039993
 20
154.768082
 11
173.039993
 21
26.768085
  0
LINE
  8
0
  6
CENTER
 10
-17.202499
 20
90.768127
 11
337.919678
 21
90.768127
  0
LINE
  8
0
  6
CENTER
 10
554.257568
 20
114.268188
 11
773.305786
 21
114.268188
  0
LINE
  8
0
  6
CENTER
 10
656.380005
 20
240.128189
 11
656.380005
 21
-14.836913
  0
LINE
  8
0
  6
CENTER
 10
755.510193
 20
213.397980
 11
656.380005
 21
114.268188
  0
LINE
  8
0
  6
CENTER
 10
754.862610
 20
15.785705
 11
656.380005
 21
114.268188
  0
LINE
  8
0
  6
CENTER
 10
559.562378
 20
211.085587
 11
656.380005
 21
114.268188
  0
LINE
  8
0
  6
CENTER
 10
558.634216
 20
16.524008
 11
656.380005
 21
114.268188
  0
CIRCLE
  8
0
  6
CONTINUOUS
 10
580.366211
 20
38.253963
 40
5.500000
  0
CIRCLE
  8
0
  6
CONTINUOUS
 10
580.366211
 20
190.282104
 40
5.500000
  0
LINE
  8
0
  6
CENTER
 10
525.604980
 20
90.768188
 11
773.305786
 21
90.768188
  0
CIRCLE
  8
0
  6
CONTINUOUS
 10
656.380005
 20
114.268188
 40
85.000000
  0
ARC
  8
0
  6
CONTINUOUS
 10
656.380005
 20
-442.732025
 40
650.000000
 50
90.000000
 51
96.843193
  0
ARC
  8
0
  6
CONTINUOUS
 10
1213.380005
 20
114.268188
 40
650.000000
 50
173.156906
 51
186.935501
  0
ARC
  8
0
  6
CONTINUOUS
 10
580.421387
 20
190.226807
 40
12.500000
 50
96.843536
 51
173.157394
  0
CIRCLE
  8
0
  6
CONTINUOUS
 10
732.393799
 20
38.253963
 40
5.500000
  0
ARC
  8
0
  6
CONTINUOUS
 10
99.380142
 20
114.268188
 40
650.000000
 50
-6.935516
 51
6.843079
  0
CIRCLE
  8
0
  6
CONTINUOUS
 10
732.393799
 20
190.282104
 40
5.500000
  0
ARC
  8
0
  6
CONTINUOUS
 10
656.380005
 20
-442.732025
 40
650.000000
 50
83.156807
 51
90.000000
  0
ARC
  8
0
  6
CONTINUOUS
 10
732.338379
 20
190.226807
 40
12.500000
 50
6.842636
 51
83.156464
  0
CIRCLE
  8
0
  6
CONTINUOUS
 10
656.380005
 20
114.268188
 40
80.000000
  0
ARC
  8
0
  6
CONTINUOUS
 10
732.394226
 20
190.282104
 40
12.500000
 50
172.503296
 51
277.496796
  0
ARC
  8
0
  6
CONTINUOUS
 10
656.380005
 20
-442.732025
 40
643.000000
 50
84.724152
 51
86.209618
  0
ARC
  8
0
  6
CONTINUOUS
 10
99.380142
 20
114.268188
 40
643.000000
 50
354.724213
 51
356.209808
  0
ARC
  8
0
  6
CONTINUOUS
 10
99.380142
 20
114.268188
 40
643.000000
 50
3.790227
 51
5.275741
  0
ARC
  8
0
  6
CONTINUOUS
 10
580.367798
 20
190.282104
 40
12.500000
 50
-97.496773
 51
7.496273
  0
ARC
  8
0
  6
CONTINUOUS
 10
656.382019
 20
-442.732025
 40
643.000000
 50
93.766983
 51
95.275864
  0
ARC
  8
0
  6
CONTINUOUS
 10
1213.381958
 20
114.268188
 40
643.000000
 50
183.790604
 51
185.275696
  0
ARC
  8
0
  6
CONTINUOUS
 10
1213.381958
 20
114.268188
 40
643.000000
 50
174.724304
 51
176.209396
  0
LINE
  8
0
  6
CONTINUOUS
 10
724.919617
 20
177.857727
 11
722.328430
 21
175.266663
  0
LINE
  8
0
  6
CONTINUOUS
 10
719.869202
 20
182.706848
 11
717.378784
 21
180.216370
  0
LINE
  8
0
  6
CONTINUOUS
 10
592.791809
 20
182.805908
 11
595.736023
 21
179.861740
  0
LINE
  8
0
  6
CONTINUOUS
 10
587.841370
 20
177.856979
 11
590.431824
 21
175.266907
  0
LINE
  8
0
  6
CONTINUOUS
 10
659.880005
 20
190.993408
 11
659.880005
 21
173.011780
  0
LINE
  8
0
  6
CONTINUOUS
 10
652.880005
 20
190.993408
 11
652.880005
 21
173.011780
  0
ARC
  8
0
  6
CONTINUOUS
 10
662.880005
 20
190.993408
 40
3.000000
 50
85.157707
 51
180.000000
  0
ARC
  8
0
  6
CONTINUOUS
 10
649.880005
 20
190.993408
 40
3.000000
 50
0.000000
 51
94.847847
  0
ARC
  8
0
  6
CONTINUOUS
 10
732.394226
 20
38.254204
 40
12.500000
 50
82.502663
 51
205.645905
  0
ARC
  8
0
  6
CONTINUOUS
 10
580.366211
 20
38.254204
 40
12.500000
 50
-25.646151
 51
97.490547
  0
ARC
  8
0
  6
CONTINUOUS
 10
656.380005
 20
208.768188
 40
200.000000
 50
246.143005
 51
270.000000
  0
ARC
  8
0
  6
CONTINUOUS
 10
656.380005
 20
208.768188
 40
193.000000
 50
251.311996
 51
270.000000
  0
ARC
  8
0
  6
CONTINUOUS
 10
580.544800
 20
37.288624
 40
12.500000
 50
186.935501
 51
246.143097
  0
ARC
  8
0
  6
CONTINUOUS
 10
656.380005
 20
208.768188
 40
193.000000
 50
270.000000
 51
288.688110
  0
ARC
  8
0
  6
CONTINUOUS
 10
656.380005
 20
208.768188
 40
200.000000
 50
270.000000
 51
293.857086
  0
ARC
  8
0
  6
CONTINUOUS
 10
732.215393
 20
37.288624
 40
12.500000
 50
293.857300
 51
353.064606
  0
ARC
  8
0
  6
CONTINUOUS
 10
727.041809
 20
175.735580
 40
3.000000
 50
69.798813
 51
135.000504
  0
ARC
  8
0
  6
CONTINUOUS
 10
717.849426
 20
184.925110
 40
3.000000
 50
-47.678989
 51
20.219709
  0
ARC
  8
0
  6
CONTINUOUS
 10
594.914001
 20
184.928101
 40
3.000000
 50
159.792801
 51
225.001602
  0
ARC
  8
0
  6
CONTINUOUS
 10
585.719971
 20
175.735397
 40
3.000000
 50
45.000778
 51
110.199898
  0
CIRCLE
  8
0
  6
CONTINUOUS
 10
656.380005
 20
114.268188
 40
40.000000
  0
ARC
  8
0
  6
CONTINUOUS
 10
715.043823
 20
192.565308
 40
5.000000
 50
-7.495972
 51
84.724487
  0
ARC
  8
0
  6
CONTINUOUS
 10
734.677429
 20
172.931702
 40
5.000000
 50
5.275760
 51
97.497490
  0
ARC
  8
0
  6
CONTINUOUS
 10
734.677429
 20
55.604546
 40
5.000000
 50
262.503204
 51
354.724609
  0
ARC
  8
0
  6
CONTINUOUS
 10
716.617981
 20
30.680105
 40
5.000000
 50
-71.311523
 51
25.645710
  0
ARC
  8
0
  6
CONTINUOUS
 10
578.084595
 20
55.604786
 40
5.000000
 50
185.275803
 51
277.491791
  0
ARC
  8
0
  6
CONTINUOUS
 10
596.142212
 20
30.679985
 40
5.000000
 50
154.354294
 51
251.312195
  0
ARC
  8
0
  6
CONTINUOUS
 10
578.084595
 20
172.931702
 40
5.000000
 50
82.503250
 51
174.724594
  0
ARC
  8
0
  6
CONTINUOUS
 10
597.718201
 20
192.565308
 40
5.000000
 50
95.276199
 51
187.496704
  0
ARC
  8
0
  6
CONTINUOUS
 10
656.380005
 20
90.768188
 40
79.500000
 50
31.371229
 51
52.043720
  0
ARC
  8
0
  6
CONTINUOUS
 10
728.526978
 20
134.757385
 40
5.000000
 50
-148.628403
 51
15.854310
  0
ARC
  8
0
  6
CONTINUOUS
 10
584.233215
 20
134.757751
 40
5.000000
 50
164.145996
 51
328.628693
  0
ARC
  8
0
  6
CONTINUOUS
 10
656.380005
 20
90.768188
 40
79.500000
 50
94.518044
 51
118.728302
  0
ARC
  8
0
  6
CONTINUOUS
 10
662.879211
 20
173.011780
 40
3.000000
 50
180.000000
 51
265.481689
  0
ARC
  8
0
  6
CONTINUOUS
 10
649.881409
 20
173.011780
 40
3.000000
 50
-85.481659
 51
0.000000
  0
LINE
  8
0
  6
CONTINUOUS
 10
713.107788
 20
166.046082
 11
705.000977
 21
157.939148
  0
LINE
  8
0
  6
CONTINUOUS
 10
708.158203
 20
170.995911
 11
698.154602
 21
160.992249
  0
LINE
  8
0
  6
CONTINUOUS
 10
604.601807
 20
170.995911
 11
614.605408
 21
160.992493
  0
LINE
  8
0
  6
CONTINUOUS
 10
599.652222
 20
166.046082
 11
607.759216
 21
157.939270
  0
ARC
  8
0
  6
CONTINUOUS
 10
715.229370
 20
163.924805
 40
3.000000
 50
40.157009
 51
135.000504
  0
ARC
  8
0
  6
CONTINUOUS
 10
706.036804
 20
173.117249
 40
3.000000
 50
-44.999939
 51
49.842072
  0
ARC
  8
0
  6
CONTINUOUS
 10
707.122375
 20
155.817932
 40
3.000000
 50
134.999603
 51
232.044098
  0
ARC
  8
0
  6
CONTINUOUS
 10
696.033203
 20
163.113708
 40
3.000000
 50
241.273300
 51
315.000488
  0
ARC
  8
0
  6
CONTINUOUS
 10
656.380005
 20
90.768188
 40
79.500000
 50
61.272480
 51
85.481468
  0
ARC
  8
0
  6
CONTINUOUS
 10
616.726013
 20
163.113281
 40
3.000000
 50
225.000397
 51
298.727997
  0
ARC
  8
0
  6
CONTINUOUS
 10
605.638000
 20
155.818161
 40
3.000000
 50
-52.044128
 51
45.000370
  0
ARC
  8
0
  6
CONTINUOUS
 10
606.722778
 20
173.116699
 40
3.000000
 50
130.163803
 51
225.000000
  0
ARC
  8
0
  6
CONTINUOUS
 10
597.531006
 20
163.925110
 40
3.000000
 50
44.999950
 51
139.847900
  0
ARC
  8
0
  6
CONTINUOUS
 10
656.380005
 20
90.768188
 40
79.500000
 50
127.956100
 51
148.628403
  0
ARC
  8
0
  6
CONTINUOUS
 10
575.779785
 20
156.512863
 40
4.000000
 50
176.209900
 51
332.335785
  0
ARC
  8
0
  6
CONTINUOUS
 10
575.779785
 20
72.023499
 40
4.000000
 50
27.655939
 51
183.790497
  0
ARC
  8
0
  6
CONTINUOUS
 10
736.982605
 20
72.027885
 40
4.000000
 50
-3.790039
 51
152.334702
  0
ARC
  8
0
  6
CONTINUOUS
 10
736.982605
 20
156.508484
 40
4.000000
 50
-152.342896
 51
3.790489
  0
ARC
  8
0
  6
CONTINUOUS
 10
698.620972
 20
194.870300
 40
4.000000
 50
86.209824
 51
242.342194
  0
ARC
  8
0
  6
CONTINUOUS
 10
614.138794
 20
194.870041
 40
4.000000
 50
-62.341431
 51
90.000000
  0
ARC
  8
0
  6
CONTINUOUS
 10
656.380005
 20
114.268188
 40
87.000000
 50
207.660400
 51
332.343292
  0
ARC
  8
0
  6
CONTINUOUS
 10
656.380005
 20
114.268188
 40
87.000000
 50
27.657070
 51
62.342361
  0
ARC
  8
0
  6
CONTINUOUS
 10
597.502808
 20
182.337830
 40
3.000000
 50
225.002396
 51
310.858612
  0
ARC
  8
0
  6
CONTINUOUS
 10
588.310425
 20
173.145508
 40
3.000000
 50
-40.858551
 51
45.001598
  0
ARC
  8
0
  6
CONTINUOUS
 10
715.257385
 20
182.337585
 40
3.000000
 50
229.141403
 51
315.002502
  0
ARC
  8
0
  6
CONTINUOUS
 10
724.449829
 20
173.145325
 40
3.000000
 50
134.998795
 51
220.858093
  0
CIRCLE
  8
0
  6
CENTER
 10
656.380005
 20
114.268188
 40
107.500000
  0
ARC
  8
0
  6
CONTINUOUS
 10
656.380005
 20
114.268120
 40
14.000000
 50
-163.398605
 51
163.398300
  0
LINE
  8
0
  6
CONTINUOUS
 10
646.380005
 20
118.268188
 11
646.380005
 21
110.268120
  0
LINE
  8
0
  6
CONTINUOUS
 10
639.380005
 20
118.268120
 11
639.380005
 21
110.268188
  0
LINE
  8
0
  6
CONTINUOUS
 10
639.380005
 20
118.268120
 11
646.380005
 21
118.268188
  0
LINE
  8
0
  6
CONTINUOUS
 10
639.380005
 20
110.268188
 11
646.380005
 21
110.268120
  0
ARC
  8
0
  6
CONTINUOUS
 10
656.380005
 20
114.268188
 40
87.000000
 50
117.657898
 51
152.339996
  0
LINE
  8
0
  6
CONTINUOUS
 10
530.685852
 20
74.535698
 11
539.170044
 21
138.979614
  0
LINE
  8
0
  6
CONTINUOUS
 10
544.453552
 20
140.805588
 11
535.316711
 21
71.404449
  0
LINE
  8
0
  6
CONTINUOUS
 10
545.445007
 20
140.675064
 11
536.308167
 21
71.273926
  0
LINE
  8
0
  6
CONTINUOUS
 10
544.453552
 20
140.805588
 11
545.445007
 21
140.675064
  0
LINE
  8
0
  6
CONTINUOUS
 10
535.316711
 20
71.404449
 11
536.308167
 21
71.273926
  0
LINE
  8
0
  6
CONTINUOUS
 10
541.359497
 20
132.626572
 11
542.340149
 21
140.075195
  0
LINE
  8
0
  6
CONTINUOUS
 10
534.445007
 20
80.105614
 11
533.464355
 21
72.656952
  0
LINE
  8
0
  6
CONTINUOUS
 10
540.811523
 20
132.194611
 11
539.280151
 21
132.355560
  0
ARC
  8
0
  6
CONTINUOUS
 10
540.863770
 20
132.691833
 40
0.500000
 50
-96.000000
 51
-7.500000
  0
ARC
  8
0
  6
CONTINUOUS
 10
539.175659
 20
131.360992
 40
1.000000
 50
83.999802
 51
172.500000
  0
ARC
  8
0
  6
CONTINUOUS
 10
543.331604
 20
139.944672
 40
1.000000
 50
82.500000
 51
172.500000
  0
ARC
  8
0
  6
CONTINUOUS
 10
541.648621
 20
138.653290
 40
2.500000
 50
82.500000
 51
172.500000
  0
LINE
  8
0
  6
CONTINUOUS
 10
534.027527
 20
80.664772
 11
532.506653
 21
80.905624
  0
ARC
  8
0
  6
CONTINUOUS
 10
532.663086
 20
81.893288
 40
1.000000
 50
172.500000
 51
260.999603
  0
ARC
  8
0
  6
CONTINUOUS
 10
533.949280
 20
80.170876
 40
0.500000
 50
-7.500000
 51
80.999802
  0
ARC
  8
0
  6
CONTINUOUS
 10
534.455811
 20
72.526421
 40
1.000000
 50
172.500000
 51
262.500000
  0
ARC
  8
0
  6
CONTINUOUS
 10
533.164429
 20
74.209381
 40
2.500000
 50
172.500000
 51
262.500000
  0
ARC
  8
0
  6
CONTINUOUS
 10
541.818054
 20
136.109421
 40
3.000000
 50
82.500000
 51
262.500000
  0
LINE
  8
0
  6
CONTINUOUS
 10
541.708435
 20
139.107376
 11
540.936218
 21
133.241989
  0
LINE
  8
0
  6
CONTINUOUS
 10
539.339417
 20
136.435730
 11
538.820129
 21
136.220581
  0
LINE
  8
0
  6
CONTINUOUS
 10
539.339417
 20
136.435730
 11
538.893494
 21
136.777969
  0
ARC
  8
0
  6
CONTINUOUS
 10
533.986450
 20
76.622726
 40
3.000000
 50
82.500000
 51
262.500000
  0
LINE
  8
0
  6
CONTINUOUS
 10
533.876831
 20
79.620697
 11
533.104675
 21
73.755287
  0
LINE
  8
0
  6
CONTINUOUS
 10
531.507874
 20
76.949043
 11
530.988525
 21
76.733917
  0
LINE
  8
0
  6
CONTINUOUS
 10
531.507874
 20
76.949043
 11
531.061890
 21
77.291306
  0
LINE
  8
0
  6
CONTINUOUS
 10
541.974976
 20
141.131912
 11
544.453552
 21
140.805588
  0
LINE
  8
0
  6
CONTINUOUS
 10
532.838135
 20
71.730766
 11
535.316711
 21
71.404449
  0
LINE
  8
0
  6
CONTINUOUS
 10
565.009827
 20
68.266640
 11
536.308167
 21
71.273926
  0
LINE
  8
0
  6
CONTINUOUS
 10
563.804688
 20
137.760864
 11
545.445007
 21
140.675064
  0
LINE
  8
0
  6
CENTER
 10
77.040077
 20
347.095001
 11
77.040077
 21
270.720001
  0
LINE
  8
0
  6
CENTER
 10
10.810000
 20
302.418427
 11
49.349998
 21
302.418427
  0
LINE
  8
0
  6
CONTINUOUS
 10
185.816269
 20
349.103729
 11
185.764175
 21
347.111542
  0
LINE
  8
0
  6
CONTINUOUS
 10
189.418472
 20
375.058441
 11
224.706772
 21
375.058441
  0
LINE
  8
0
  6
CONTINUOUS
 10
188.991272
 20
362.358429
 11
224.706772
 21
362.358429
  0
LINE
  8
0
  6
CONTINUOUS
 10
176.040070
 20
402.058441
 11
176.040070
 21
338.058441
  0
LINE
  8
0
  6
CONTINUOUS
 10
224.706772
 20
362.358429
 11
260.517792
 21
362.358429
  0
LINE
  8
0
  6
CONTINUOUS
 10
224.706772
 20
375.058441
 11
260.661682
 21
375.058441
  0
LINE
  8
0
  6
CONTINUOUS
 10
263.942963
 20
361.350952
 11
263.040161
 21
395.819122
  0
LINE
  8
0
  6
CONTINUOUS
 10
187.540070
 20
372.058441
 11
187.540070
 21
351.058441
  0
LINE
  8
0
  6
CONTINUOUS
 10
188.789978
 20
350.058441
 11
233.040039
 21
350.058441
  0
LINE
  8
0
  6
CONTINUOUS
 10
186.109482
 20
360.301941
 11
187.039871
 21
395.818634
  0
ARC
  8
0
  6
CONTINUOUS
 10
186.540070
 20
351.058441
 40
1.000000
 50
-82.060577
 51
0.000000
  0
ARC
  8
0
  6
CONTINUOUS
 10
186.816376
 20
349.077637
 40
1.000000
 50
97.941017
 51
178.502808
  0
ARC
  8
0
  6
CONTINUOUS
 10
190.540070
 20
372.058441
 40
3.000000
 50
90.000000
 51
180.000000
  0
ARC
  8
0
  6
CONTINUOUS
 10
186.540070
 20
358.358429
 40
1.000000
 50
0.000000
 51
73.469917
  0
ARC
  8
0
  6
CONTINUOUS
 10
187.109070
 20
360.275726
 40
1.000000
 50
178.499496
 51
253.470200
  0
LINE
  8
0
  6
CONTINUOUS
 10
188.140076
 20
402.058441
 11
187.039871
 21
395.818634
  0
LINE
  8
0
  6
CONTINUOUS
 10
261.940063
 20
402.058441
 11
263.040161
 21
395.819122
  0
ARC
  8
0
  6
CONTINUOUS
 10
189.418472
 20
372.058441
 40
3.000000
 50
90.000000
 51
178.499802
  0
LINE
  8
0
  6
CONTINUOUS
 10
187.755875
 20
395.818634
 11
262.225983
 21
395.819122
  0
LINE
  8
0
  6
CONTINUOUS
 10
261.540070
 20
372.058441
 11
261.540070
 21
351.058441
  0
ARC
  8
0
  6
CONTINUOUS
 10
258.540070
 20
372.058441
 40
3.000000
 50
0.000000
 51
90.000000
  0
ARC
  8
0
  6
CONTINUOUS
 10
260.661682
 20
372.058441
 40
3.000000
 50
1.500198
 51
90.000000
  0
ARC
  8
0
  6
CONTINUOUS
 10
262.540070
 20
358.358429
 40
1.000000
 50
101.464699
 51
180.000000
  0
ARC
  8
0
  6
CONTINUOUS
 10
262.540070
 20
351.058441
 40
1.000000
 50
180.000000
 51
265.243713
  0
ARC
  8
0
  6
CONTINUOUS
 10
261.943787
 20
361.298523
 40
2.000000
 50
-78.535400
 51
1.500488
  0
ARC
  8
0
  6
CONTINUOUS
 10
262.291382
 20
348.068726
 40
2.000000
 50
-7.971832
 51
85.243713
  0
LINE
  8
0
  6
CONTINUOUS
 10
185.816269
 20
455.013123
 11
185.764175
 21
457.005341
  0
LINE
  8
0
  6
CONTINUOUS
 10
189.418472
 20
429.058441
 11
224.706772
 21
429.058441
  0
LINE
  8
0
  6
CONTINUOUS
 10
188.991272
 20
441.758423
 11
224.706772
 21
441.758423
  0
LINE
  8
0
  6
CONTINUOUS
 10
176.040070
 20
402.058441
 11
176.040070
 21
466.058441
  0
LINE
  8
0
  6
CONTINUOUS
 10
224.706772
 20
441.758423
 11
260.517792
 21
441.758423
  0
LINE
  8
0
  6
CONTINUOUS
 10
224.706772
 20
429.058441
 11
260.661682
 21
429.058441
  0
LINE
  8
0
  6
CONTINUOUS
 10
263.942963
 20
442.765930
 11
263.040161
 21
408.297729
  0
LINE
  8
0
  6
CONTINUOUS
 10
187.540070
 20
432.058441
 11
187.540070
 21
453.058441
  0
LINE
  8
0
  6
CONTINUOUS
 10
261.303375
 20
454.058441
 11
188.789978
 21
454.058441
  0
LINE
  8
0
  6
CONTINUOUS
 10
186.109482
 20
443.814941
 11
187.039871
 21
408.298248
  0
ARC
  8
0
  6
CONTINUOUS
 10
186.540070
 20
453.058441
 40
1.000000
 50
0.000000
 51
82.060577
  0
ARC
  8
0
  6
CONTINUOUS
 10
186.816376
 20
455.039246
 40
1.000000
 50
181.497192
 51
262.058990
  0
ARC
  8
0
  6
CONTINUOUS
 10
190.540070
 20
432.058441
 40
3.000000
 50
180.000000
 51
270.000000
  0
ARC
  8
0
  6
CONTINUOUS
 10
186.540070
 20
445.758423
 40
1.000000
 50
-73.469917
 51
0.000000
  0
ARC
  8
0
  6
CONTINUOUS
 10
187.109070
 20
443.841125
 40
1.000000
 50
106.529800
 51
181.500504
  0
LINE
  8
0
  6
CONTINUOUS
 10
188.140076
 20
402.058441
 11
187.039871
 21
408.298248
  0
LINE
  8
0
  6
CONTINUOUS
 10
261.940063
 20
402.058441
 11
263.040161
 21
408.297729
  0
ARC
  8
0
  6
CONTINUOUS
 10
189.418472
 20
432.058441
 40
3.000000
 50
181.500198
 51
270.000000
  0
LINE
  8
0
  6
CONTINUOUS
 10
187.755875
 20
408.298248
 11
262.225983
 21
408.297729
  0
LINE
  8
0
  6
CONTINUOUS
 10
261.540070
 20
432.058441
 11
261.540070
 21
453.058441
  0
ARC
  8
0
  6
CONTINUOUS
 10
258.540070
 20
432.058441
 40
3.000000
 50
-90.000000
 51
0.000000
  0
ARC
  8
0
  6
CONTINUOUS
 10
260.661682
 20
432.058441
 40
3.000000
 50
270.000000
 51
358.499817
  0
ARC
  8
0
  6
CONTINUOUS
 10
262.540070
 20
445.758423
 40
1.000000
 50
180.000000
 51
258.535309
  0
ARC
  8
0
  6
CONTINUOUS
 10
262.540070
 20
453.058441
 40
1.000000
 50
94.756302
 51
180.000000
  0
ARC
  8
0
  6
CONTINUOUS
 10
261.943787
 20
442.818329
 40
2.000000
 50
-1.500488
 51
78.535400
  0
ARC
  8
0
  6
CONTINUOUS
 10
262.291382
 20
456.048126
 40
2.000000
 50
-85.243713
 51
7.971832
  0
LINE
  8
0
  6
CONTINUOUS
 10
264.302338
 20
456.979919
 11
264.514587
 21
465.084625
  0
ARC
  8
0
  6
CONTINUOUS
 10
265.514221
 20
465.058441
 40
1.000000
 50
90.000000
 51
178.500000
  0
LINE
  8
0
  6
CONTINUOUS
 10
265.514221
 20
466.058441
 11
274.040070
 21
466.058441
  0
ARC
  8
0
  6
CONTINUOUS
 10
261.303375
 20
457.058441
 40
3.000000
 50
270.000000
 51
358.500000
  0
LINE
  8
0
  6
CONTINUOUS
 10
184.565918
 20
466.058441
 11
173.040070
 21
466.058441
  0
ARC
  8
0
  6
CONTINUOUS
 10
184.565918
 20
465.058441
 40
1.000000
 50
1.500000
 51
90.000000
  0
LINE
  8
0
  6
CONTINUOUS
 10
185.777802
 20
456.979919
 11
185.565582
 21
465.084625
  0
ARC
  8
0
  6
CONTINUOUS
 10
188.776779
 20
457.058441
 40
3.000000
 50
181.500000
 51
270.000000
  0
LINE
  8
0
  6
CONTINUOUS
 10
265.514221
 20
338.058441
 11
274.040070
 21
338.058441
  0
LINE
  8
0
  6
CONTINUOUS
 10
264.302338
 20
347.136963
 11
264.514587
 21
339.032257
  0
ARC
  8
0
  6
CONTINUOUS
 10
265.514221
 20
339.058441
 40
1.000000
 50
181.500000
 51
270.000000
  0
ARC
  8
0
  6
CONTINUOUS
 10
261.303375
 20
347.058441
 40
3.000000
 50
1.500000
 51
90.000000
  0
LINE
  8
0
  6
CONTINUOUS
 10
184.565918
 20
338.058441
 11
173.040070
 21
338.058441
  0
ARC
  8
0
  6
CONTINUOUS
 10
184.565918
 20
339.058441
 40
1.000000
 50
270.000000
 51
358.500000
  0
LINE
  8
0
  6
CONTINUOUS
 10
185.777802
 20
347.136963
 11
185.565582
 21
339.032257
  0
ARC
  8
0
  6
CONTINUOUS
 10
188.776779
 20
347.058441
 40
3.000000
 50
90.000000
 51
178.500000
  0
LINE
  8
0
  6
CONTINUOUS
 10
240.040070
 20
353.058441
 11
240.040070
 21
352.058441
  0
LINE
  8
0
  6
CONTINUOUS
 10
229.040070
 20
353.058441
 11
229.040070
 21
352.058441
  0
LINE
  8
0
  6
CONTINUOUS
 10
230.040070
 20
354.058441
 11
239.040070
 21
354.058441
  0
ARC
  8
0
  6
CONTINUOUS
 10
239.040070
 20
353.058441
 40
1.000000
 50
0.000000
 51
90.000000
  0
ARC
  8
0
  6
CONTINUOUS
 10
230.040070
 20
353.058441
 40
1.000000
 50
90.000000
 51
180.000000
  0
ARC
  8
0
  6
CONTINUOUS
 10
242.040070
 20
352.058441
 40
2.000000
 50
180.000000
 51
270.000000
  0
ARC
  8
0
  6
CONTINUOUS
 10
227.040070
 20
352.058441
 40
2.000000
 50
-90.000000
 51
0.000000
  0
LINE
  8
0
  6
CONTINUOUS
 10
234.540039
 20
354.058441
 11
234.540039
 21
341.728912
  0
LINE
  8
0
  6
CONTINUOUS
 10
236.040039
 20
354.058441
 11
236.040039
 21
342.544373
  0
LINE
  8
0
  6
CONTINUOUS
 10
233.040039
 20
354.058441
 11
233.040039
 21
341.989105
  0
LINE
  8
0
  6
CONTINUOUS
 10
236.040039
 20
350.058441
 11
261.790161
 21
350.058441
  0
LINE
  8
0
  6
CONTINUOUS
 10
233.040039
 20
341.989105
 11
234.540039
 21
342.856110
  0
LINE
  8
0
  6
CONTINUOUS
 10
234.540039
 20
341.728912
 11
236.040039
 21
342.544373
  0
LINE
  8
0
  6
CONTINUOUS
 10
186.040039
 20
348.287354
 11
186.040039
 21
336.310516
  0
LINE
  8
0
  6
CONTINUOUS
 10
187.540039
 20
349.791656
 11
187.540039
 21
337.126007
  0
LINE
  8
0
  6
CONTINUOUS
 10
184.540039
 20
336.570709
 11
186.040039
 21
337.437714
  0
LINE
  8
0
  6
CONTINUOUS
 10
186.040039
 20
336.310516
 11
187.540039
 21
337.126007
  0
LINE
  8
0
  6
CONTINUOUS
 10
184.540039
 20
338.058441
 11
184.540039
 21
336.570709
  0
LINE
  8
0
  6
CONTINUOUS
 10
261.121490
 20
402.058441
 11
188.852554
 21
402.058441
  0
LINE
  8
0
  6
CONTINUOUS
 10
264.940002
 20
154.768082
 11
274.040009
 21
154.768082
  0
LINE
  8
0
  6
CONTINUOUS
 10
274.040009
 20
26.768085
 11
264.940002
 21
26.768085
  0
LINE
  8
0
  6
CONTINUOUS
 10
173.039993
 20
154.768082
 11
185.139999
 21
154.768082
  0
LINE
  8
0
  6
CONTINUOUS
 10
173.039993
 20
26.768085
 11
185.139999
 21
26.768085
  0
LINE
  8
0
  6
CONTINUOUS
 10
176.039993
 20
154.768082
 11
176.039993
 21
26.768085
  0
LINE
  8
0
  6
CONTINUOUS
 10
261.540009
 20
38.768024
 11
188.539993
 21
38.767826
  0
LINE
  8
0
  6
CONTINUOUS
 10
257.540009
 20
84.768127
 11
257.540009
 21
70.768127
  0
LINE
  8
0
  6
CONTINUOUS
 10
224.539795
 20
84.768127
 11
224.539795
 21
70.768127
  0
LINE
  8
0
  6
CONTINUOUS
 10
192.539993
 20
84.768127
 11
192.539993
 21
70.768127
  0
LINE
  8
0
  6
CONTINUOUS
 10
195.539841
 20
67.768127
 11
221.539795
 21
67.768127
  0
ARC
  8
0
  6
CONTINUOUS
 10
195.539841
 20
70.768127
 40
3.000000
 50
180.000000
 51
270.000000
  0
ARC
  8
0
  6
CONTINUOUS
 10
221.539795
 20
70.768127
 40
3.000000
 50
-90.000000
 51
0.000000
  0
ARC
  8
0
  6
CONTINUOUS
 10
232.539993
 20
70.768127
 40
3.000000
 50
180.000000
 51
270.000000
  0
ARC
  8
0
  6
CONTINUOUS
 10
254.539993
 20
70.768127
 40
3.000000
 50
-90.000000
 51
0.000000
  0
LINE
  8
0
  6
CONTINUOUS
 10
229.539993
 20
84.768127
 11
229.539993
 21
70.768127
  0
LINE
  8
0
  6
CONTINUOUS
 10
232.539993
 20
67.768127
 11
254.539993
 21
67.768127
  0
LINE
  8
0
  6
CONTINUOUS
 10
232.539993
 20
87.768127
 11
233.039902
 21
87.768127
  0
ARC
  8
0
  6
CONTINUOUS
 10
254.539993
 20
84.768097
 40
3.000000
 50
0.000000
 51
90.000000
  0
LINE
  8
0
  6
CONTINUOUS
 10
195.539841
 20
87.768127
 11
221.539795
 21
87.768127
  0
ARC
  8
0
  6
CONTINUOUS
 10
232.539993
 20
84.768127
 40
3.000000
 50
90.000000
 51
180.000000
  0
ARC
  8
0
  6
CONTINUOUS
 10
221.539795
 20
84.768097
 40
3.000000
 50
0.000000
 51
90.000000
  0
ARC
  8
0
  6
CONTINUOUS
 10
195.539841
 20
84.768127
 40
3.000000
 50
90.000000
 51
180.000000
  0
LINE
  8
0
  6
CONTINUOUS
 10
185.539993
 20
151.768066
 11
185.539993
 21
122.620224
  0
LINE
  8
0
  6
CONTINUOUS
 10
188.539993
 20
59.768124
 11
261.540009
 21
59.768124
  0
ARC
  8
0
  6
CONTINUOUS
 10
267.540009
 20
151.768066
 40
3.000000
 50
90.000000
 51
180.000000
  0
ARC
  8
0
  6
CONTINUOUS
 10
182.539993
 20
151.768066
 40
3.000000
 50
0.000000
 51
90.000000
  0
ARC
  8
0
  6
CONTINUOUS
 10
261.540009
 20
56.768085
 40
3.000000
 50
0.000000
 51
90.000000
  0
ARC
  8
0
  6
CONTINUOUS
 10
261.540009
 20
35.768066
 40
3.000000
 50
0.000000
 51
90.000000
  0
ARC
  8
0
  6
CONTINUOUS
 10
267.540009
 20
29.768126
 40
3.000000
 50
180.000000
 51
270.000000
  0
ARC
  8
0
  6
CONTINUOUS
 10
182.539993
 20
29.768126
 40
3.000000
 50
-90.000000
 51
0.000000
  0
ARC
  8
0
  6
CONTINUOUS
 10
188.539993
 20
35.768085
 40
3.000000
 50
90.000000
 51
180.000000
  0
ARC
  8
0
  6
CONTINUOUS
 10
188.539993
 20
56.768124
 40
3.000000
 50
90.000000
 51
180.000000
  0
LINE
  8
0
  6
CONTINUOUS
 10
264.540009
 20
151.768021
 11
264.540009
 21
29.768085
  0
LINE
  8
0
  6
CONTINUOUS
 10
261.540009
 20
142.768219
 11
188.539993
 21
142.768433
  0
ARC
  8
0
  6
CONTINUOUS
 10
261.540009
 20
145.768188
 40
3.000000
 50
-90.000000
 51
0.000000
  0
ARC
  8
0
  6
CONTINUOUS
 10
188.539993
 20
145.768158
 40
3.000000
 50
-180.000000
 51
-90.000000
  0
ARC
  8
0
  6
CONTINUOUS
 10
261.540009
 20
124.768127
 40
3.000000
 50
-90.000000
 51
0.000000
  0
ARC
  8
0
  6
CONTINUOUS
 10
234.539795
 20
114.268127
 40
5.500000
 50
180.000000
 51
254.174469
  0
LINE
  8
0
  6
CONTINUOUS
 10
229.039795
 20
118.768127
 11
229.039902
 21
114.268127
  0
LINE
  8
0
  6
CONTINUOUS
 10
240.039993
 20
118.768127
 11
240.039993
 21
114.268127
  0
LINE
  8
0
  6
CONTINUOUS
 10
226.539795
 20
121.768127
 11
188.539993
 21
121.768127
  0
LINE
  8
0
  6
CONTINUOUS
 10
226.539902
 20
121.768127
 11
243.539993
 21
121.768127
  0
ARC
  8
0
  6
CONTINUOUS
 10
243.039993
 20
118.768127
 40
3.000000
 50
90.000000
 51
180.000000
  0
ARC
  8
0
  6
CONTINUOUS
 10
226.039795
 20
118.768127
 40
3.000000
 50
0.000000
 51
90.000000
  0
LINE
  8
0
  6
CONTINUOUS
 10
261.540009
 20
121.768127
 11
243.539993
 21
121.768127
  0
ARC
  8
0
  6
CONTINUOUS
 10
186.039795
 20
114.268127
 40
5.000000
 50
123.362900
 51
161.336899
  0
ARC
  8
0
  6
CONTINUOUS
 10
180.540100
 20
105.916222
 40
5.000000
 50
36.873718
 51
56.635471
  0
ARC
  8
0
  6
CONTINUOUS
 10
180.540405
 20
122.620224
 40
5.000000
 50
-56.637020
 51
0.000000
  0
ARC
  8
0
  6
CONTINUOUS
 10
188.539993
 20
124.768127
 40
3.000000
 50
180.000000
 51
270.000000
  0
ARC
  8
0
  6
CONTINUOUS
 10
186.039795
 20
114.268127
 40
5.000000
 50
198.663101
 51
236.635498
  0
LINE
  8
0
  6
CONTINUOUS
 10
183.502182
 20
115.868118
 11
176.039993
 21
115.868118
  0
LINE
  8
0
  6
CONTINUOUS
 10
183.502182
 20
112.668137
 11
176.039993
 21
112.668137
  0
LINE
  8
0
  6
CONTINUOUS
 10
186.039902
 20
114.268127
 11
186.039902
 21
88.518127
  0
LINE
  8
0
  6
CONTINUOUS
 10
234.539902
 20
114.268127
 11
234.539902
 21
86.941345
  0
LINE
  8
0
  6
CONTINUOUS
 10
187.539902
 20
114.268127
 11
187.539902
 21
87.580627
  0
LINE
  8
0
  6
CONTINUOUS
 10
184.539902
 20
114.268127
 11
184.539902
 21
87.978134
  0
LINE
  8
0
  6
CONTINUOUS
 10
236.039902
 20
114.268127
 11
236.039902
 21
86.084198
  0
LINE
  8
0
  6
CONTINUOUS
 10
233.039902
 20
114.268127
 11
233.039902
 21
86.826263
  0
LINE
  8
0
  6
CONTINUOUS
 10
184.539902
 20
87.978134
 11
186.014893
 21
89.674377
  0
LINE
  8
0
  6
CONTINUOUS
 10
186.044327
 20
88.525482
 11
187.560867
 21
87.615555
  0
LINE
  8
0
  6
CONTINUOUS
 10
233.039902
 20
86.826263
 11
234.539902
 21
88.063751
  0
LINE
  8
0
  6
CONTINUOUS
 10
234.539902
 20
86.941345
 11
236.039902
 21
86.084198
  0
ARC
  8
0
  6
CONTINUOUS
 10
235.289902
 20
114.268127
 40
0.750000
 50
0.000000
 51
180.000000
  0
ARC
  8
0
  6
CONTINUOUS
 10
233.789902
 20
114.268127
 40
0.750000
 50
0.000000
 51
180.000000
  0
ARC
  8
0
  6
CONTINUOUS
 10
234.539902
 20
114.268127
 40
3.000000
 50
-59.999939
 51
239.999893
  0
ARC
  8
0
  6
CONTINUOUS
 10
186.789902
 20
114.268127
 40
0.750000
 50
0.000000
 51
180.000000
  0
ARC
  8
0
  6
CONTINUOUS
 10
185.289902
 20
114.268127
 40
0.750000
 50
0.000000
 51
180.000000
  0
ARC
  8
0
  6
CONTINUOUS
 10
186.039902
 20
114.268127
 40
3.000000
 50
-59.999939
 51
239.999893
  0
ARC
  8
0
  6
CONTINUOUS
 10
234.539795
 20
114.268127
 40
5.500000
 50
-74.172295
 51
0.000000
  0
LINE
  8
0
  6
CONTINUOUS
 10
185.539871
 20
89.128090
 11
185.539780
 21
29.768126
  0
LINE
  8
0
  6
CONTINUOUS
 10
236.039902
 20
87.768127
 11
254.539993
 21
87.768127
  0
LINE
  8
0
  6
CONTINUOUS
 10
234.181564
 20
87.768127
 11
234.539902
 21
87.768127
  0
LINE
  8
0
  6
CONTINUOUS
 10
188.139999
 20
146.768478
 11
188.139999
 21
151.768127
  0
ARC
  8
0
  6
CONTINUOUS
 10
185.139999
 20
151.768127
 40
3.000000
 50
0.000000
 51
90.000000
  0
ARC
  8
0
  6
CONTINUOUS
 10
191.139999
 20
146.768478
 40
3.000000
 50
180.000000
 51
270.000000
  0
LINE
  8
0
  6
CONTINUOUS
 10
258.940002
 20
143.768250
 11
191.139984
 21
143.768478
  0
ARC
  8
0
  6
CONTINUOUS
 10
258.940002
 20
146.768250
 40
3.000000
 50
-90.000000
 51
0.000000
  0
LINE
  8
0
  6
CONTINUOUS
 10
261.940002
 20
146.768250
 11
261.940002
 21
151.768127
  0
ARC
  8
0
  6
CONTINUOUS
 10
264.940002
 20
151.768127
 40
3.000000
 50
90.000000
 51
180.000000
  0
ARC
  8
0
  6
CONTINUOUS
 10
264.940002
 20
29.768246
 40
3.000000
 50
180.000000
 51
270.000000
  0
LINE
  8
0
  6
CONTINUOUS
 10
261.940002
 20
34.768127
 11
261.940002
 21
29.768246
  0
ARC
  8
0
  6
CONTINUOUS
 10
258.940002
 20
34.768127
 40
3.000000
 50
0.000000
 51
90.000000
  0
LINE
  8
0
  6
CONTINUOUS
 10
258.940002
 20
37.768127
 11
191.139984
 21
37.767895
  0
ARC
  8
0
  6
CONTINUOUS
 10
191.139999
 20
34.767895
 40
3.000000
 50
90.000000
 51
180.000000
  0
LINE
  8
0
  6
CONTINUOUS
 10
188.139999
 20
34.767895
 11
188.139999
 21
29.768246
  0
ARC
  8
0
  6
CONTINUOUS
 10
185.139999
 20
29.768246
 40
3.000000
 50
-90.000000
 51
0.000000
  0
ARC
  8
0
  6
CONTINUOUS
 10
186.539993
 20
137.768188
 40
1.000000
 50
0.000000
 51
90.000000
  0
ARC
  8
0
  6
CONTINUOUS
 10
186.539993
 20
132.117188
 40
1.000000
 50
-90.000000
 51
0.000000
  0
LINE
  8
0
  6
CONTINUOUS
 10
187.539993
 20
137.768188
 11
187.539993
 21
124.768188
  0
ARC
  8
0
  6
CONTINUOUS
 10
186.539993
 20
139.768188
 40
1.000000
 50
180.000000
 51
270.000000
  0
ARC
  8
0
  6
CONTINUOUS
 10
186.539993
 20
130.117188
 40
1.000000
 50
90.000000
 51
180.000000
  0
ARC
  8
0
  6
CONTINUOUS
 10
190.539993
 20
124.768188
 40
3.000000
 50
180.000000
 51
270.000000
  0
LINE
  8
0
  6
CONTINUOUS
 10
187.943054
 20
130.768188
 11
261.284912
 21
130.768188
  0
ARC
  8
0
  6
CONTINUOUS
 10
258.540100
 20
124.768188
 40
3.000000
 50
-90.000000
 51
0.000000
  0
LINE
  8
0
  6
CONTINUOUS
 10
261.540100
 20
137.768188
 11
261.540100
 21
124.768188
  0
ARC
  8
0
  6
CONTINUOUS
 10
262.540100
 20
132.117188
 40
1.000000
 50
180.000000
 51
269.992889
  0
ARC
  8
0
  6
CONTINUOUS
 10
262.540009
 20
129.117188
 40
2.000000
 50
0.000000
 51
90.000000
  0
ARC
  8
0
  6
CONTINUOUS
 10
262.540100
 20
137.768188
 40
1.000000
 50
90.000000
 51
180.000000
  0
ARC
  8
0
  6
CONTINUOUS
 10
262.540009
 20
140.768188
 40
2.000000
 50
-89.996399
 51
0.000000
  0
LINE
  8
0
  6
CONTINUOUS
 10
187.943054
 20
50.768185
 11
261.284912
 21
50.768185
  0
LINE
  8
0
  6
CONTINUOUS
 10
261.540100
 20
43.768185
 11
261.540100
 21
56.768185
  0
ARC
  8
0
  6
CONTINUOUS
 10
258.540100
 20
56.768185
 40
3.000000
 50
0.000000
 51
90.000000
  0
ARC
  8
0
  6
CONTINUOUS
 10
262.540009
 20
52.419186
 40
2.000000
 50
-90.000000
 51
0.000000
  0
ARC
  8
0
  6
CONTINUOUS
 10
262.540100
 20
49.419186
 40
1.000000
 50
90.007103
 51
180.000000
  0
ARC
  8
0
  6
CONTINUOUS
 10
262.540100
 20
43.768185
 40
1.000000
 50
180.000000
 51
270.000000
  0
ARC
  8
0
  6
CONTINUOUS
 10
262.540009
 20
40.768185
 40
2.000000
 50
0.000000
 51
89.996399
  0
ARC
  8
0
  6
CONTINUOUS
 10
186.539993
 20
41.768185
 40
1.000000
 50
90.000000
 51
180.000000
  0
ARC
  8
0
  6
CONTINUOUS
 10
186.539993
 20
43.768185
 40
1.000000
 50
-90.000000
 51
0.000000
  0
LINE
  8
0
  6
CONTINUOUS
 10
187.539993
 20
43.768185
 11
187.539993
 21
56.768185
  0
ARC
  8
0
  6
CONTINUOUS
 10
186.539993
 20
49.419186
 40
1.000000
 50
0.000000
 51
90.000000
  0
ARC
  8
0
  6
CONTINUOUS
 10
186.539993
 20
51.419186
 40
1.000000
 50
180.000000
 51
270.000000
  0
ARC
  8
0
  6
CONTINUOUS
 10
190.539993
 20
56.768185
 40
3.000000
 50
90.000000
 51
180.000000
  0
ARC
  8
0
  6
CONTINUOUS
 10
352.540039
 20
90.768127
 40
360.000000
 50
170.875397
 51
189.124603
  0
LINE
  8
0
  6
CONTINUOUS
 10
7.600434
 20
161.268127
 11
39.040039
 21
161.268127
  0
LINE
  8
0
  6
CONTINUOUS
 10
39.040039
 20
161.268127
 11
39.040039
 21
117.386078
  0
ARC
  8
0
  6
CONTINUOUS
 10
-331.959961
 20
90.768127
 40
345.000000
 50
-11.486330
 51
11.486320
  0
ARC
  8
0
  6
CONTINUOUS
 10
9.931092
 20
35.739906
 40
13.000000
 50
189.124603
 51
254.085403
  0
ARC
  8
0
  6
CONTINUOUS
 10
9.931092
 20
145.796341
 40
13.000000
 50
105.915001
 51
170.875702
  0
ARC
  8
0
  6
CONTINUOUS
 10
7.600434
 20
21.768105
 40
1.500000
 50
168.513794
 51
199.470413
  0
ARC
  8
0
  6
CONTINUOUS
 10
7.600434
 20
159.768127
 40
1.500000
 50
90.000000
 51
191.486496
  0
LINE
  8
0
  6
CONTINUOUS
 10
41.040001
 20
154.768127
 11
41.040001
 21
118.386078
  0
LINE
  8
0
  6
CONTINUOUS
 10
39.040039
 20
154.768127
 11
173.039993
 21
154.768127
  0
LINE
  8
0
  6
CONTINUOUS
 10
39.040039
 20
26.768126
 11
70.985001
 21
26.768126
  0
LINE
  8
0
  6
CONTINUOUS
 10
173.039993
 20
26.768126
 11
70.985001
 21
26.768126
  0
LINE
  8
0
  6
CONTINUOUS
 10
44.540009
 20
141.153229
 11
109.539948
 21
141.153229
  0
LINE
  8
0
  6
CONTINUOUS
 10
109.540047
 20
72.057014
 11
44.540001
 21
72.057014
  0
LINE
  8
0
  6
CONTINUOUS
 10
42.040001
 20
96.159523
 11
42.040001
 21
138.653229
  0
LINE
  8
0
  6
CONTINUOUS
 10
112.040047
 20
96.159523
 11
112.040047
 21
138.653229
  0
ARC
  8
0
  6
CONTINUOUS
 10
109.540047
 20
138.653229
 40
2.500000
 50
0.000000
 51
90.000000
  0
ARC
  8
0
  6
CONTINUOUS
 10
44.540031
 20
138.653229
 40
2.500000
 50
90.000000
 51
180.000000
  0
ARC
  8
0
  6
CONTINUOUS
 10
44.540009
 20
74.557014
 40
2.500000
 50
180.000000
 51
270.000000
  0
ARC
  8
0
  6
CONTINUOUS
 10
109.540047
 20
74.556999
 40
2.500000
 50
-90.000000
 51
0.000000
  0
ARC
  8
0
  6
CONTINUOUS
 10
47.040009
 20
136.153229
 40
4.000000
 50
-90.000000
 51
0.000000
  0
ARC
  8
0
  6
CONTINUOUS
 10
107.040047
 20
136.153229
 40
4.000000
 50
180.000000
 51
270.000000
  0
ARC
  8
0
  6
CONTINUOUS
 10
107.040047
 20
77.057014
 40
4.000000
 50
90.000000
 51
180.000000
  0
ARC
  8
0
  6
CONTINUOUS
 10
47.040009
 20
77.057014
 40
4.000000
 50
0.000000
 51
90.000000
  0
LINE
  8
0
  6
CONTINUOUS
 10
107.040047
 20
132.153229
 11
109.540047
 21
132.153229
  0
LINE
  8
0
  6
CONTINUOUS
 10
47.040001
 20
132.153229
 11
44.540001
 21
132.153229
  0
LINE
  8
0
  6
CONTINUOUS
 10
47.040001
 20
81.057014
 11
44.540031
 21
81.057014
  0
LINE
  8
0
  6
CONTINUOUS
 10
107.040047
 20
81.057014
 11
109.540047
 21
81.057014
  0
LINE
  8
0
  6
CONTINUOUS
 10
103.040047
 20
136.153229
 11
103.040047
 21
138.653229
  0
LINE
  8
0
  6
CONTINUOUS
 10
51.040009
 20
136.153229
 11
51.040009
 21
138.653229
  0
LINE
  8
0
  6
CONTINUOUS
 10
51.040009
 20
77.057014
 11
51.040009
 21
74.556999
  0
LINE
  8
0
  6
CONTINUOUS
 10
103.040047
 20
77.056992
 11
103.040047
 21
74.556999
  0
ARC
  8
0
  6
CONTINUOUS
 10
44.540009
 20
129.653229
 40
2.500000
 50
90.000000
 51
180.000000
  0
ARC
  8
0
  6
CONTINUOUS
 10
53.540031
 20
138.653229
 40
2.500000
 50
90.000000
 51
180.000000
  0
ARC
  8
0
  6
CONTINUOUS
 10
100.540047
 20
138.653229
 40
2.500000
 50
0.000000
 51
90.000000
  0
ARC
  8
0
  6
CONTINUOUS
 10
109.540047
 20
129.653229
 40
2.500000
 50
0.000000
 51
90.000000
  0
ARC
  8
0
  6
CONTINUOUS
 10
44.540009
 20
83.557014
 40
2.500000
 50
180.000000
 51
270.000000
  0
ARC
  8
0
  6
CONTINUOUS
 10
53.540009
 20
74.557014
 40
2.500000
 50
180.000000
 51
270.000000
  0
ARC
  8
0
  6
CONTINUOUS
 10
109.540047
 20
83.556999
 40
2.500000
 50
-90.000000
 51
0.000000
  0
ARC
  8
0
  6
CONTINUOUS
 10
100.540047
 20
74.556999
 40
2.500000
 50
-90.000000
 51
0.000000
  0
LINE
  8
0
  6
CONTINUOUS
 10
112.040047
 20
69.566277
 11
112.040047
 21
96.159523
  0
LINE
  8
0
  6
CONTINUOUS
 10
42.040009
 20
69.566277
 11
42.040001
 21
96.159523
  0
LINE
  8
0
  6
CONTINUOUS
 10
14.040050
 20
89.385979
 11
14.040050
 21
118.386078
  0
LINE
  8
0
  6
CONTINUOUS
 10
22.040051
 20
89.385979
 11
22.040051
 21
118.386078
  0
LINE
  8
0
  6
CONTINUOUS
 10
14.040050
 20
89.385979
 11
22.040051
 21
89.385979
  0
LINE
  8
0
  6
CONTINUOUS
 10
14.040050
 20
118.386078
 11
22.040051
 21
118.386078
  0
LINE
  8
0
  6
CONTINUOUS
 10
31.040051
 20
90.885979
 11
31.040051
 21
116.886078
  0
LINE
  8
0
  6
CONTINUOUS
 10
22.040051
 20
90.885979
 11
31.040051
 21
90.885979
  0
LINE
  8
0
  6
CONTINUOUS
 10
22.040051
 20
116.886078
 11
31.040051
 21
116.886078
  0
LINE
  8
0
  6
CONTINUOUS
 10
31.040051
 20
92.385979
 11
36.040051
 21
92.385979
  0
LINE
  8
0
  6
CONTINUOUS
 10
31.040051
 20
115.386078
 11
36.040051
 21
115.386078
  0
LINE
  8
0
  6
CONTINUOUS
 10
36.040051
 20
90.385979
 11
36.040051
 21
117.386078
  0
LINE
  8
0
  6
CONTINUOUS
 10
40.540051
 20
89.385979
 11
40.540051
 21
118.386078
  0
LINE
  8
0
  6
CONTINUOUS
 10
36.040051
 20
90.385979
 11
40.540051
 21
90.385979
  0
LINE
  8
0
  6
CONTINUOUS
 10
36.040051
 20
117.386078
 11
40.540051
 21
117.386078
  0
LINE
  8
0
  6
CONTINUOUS
 10
40.540051
 20
89.385979
 11
42.079350
 21
89.385979
  0
LINE
  8
0
  6
CONTINUOUS
 10
40.540051
 20
118.386078
 11
42.040001
 21
118.386078
  0
LINE
  8
0
  6
CONTINUOUS
 10
14.040050
 20
95.885979
 11
22.040051
 21
95.885979
  0
LINE
  8
0
  6
CONTINUOUS
 10
14.040050
 20
111.886078
 11
22.040051
 21
111.886078
  0
LINE
  8
0
  6
CONTINUOUS
 10
165.039993
 20
36.181049
 11
165.039993
 21
41.072731
  0
LINE
  8
0
  6
CONTINUOUS
 10
49.040001
 20
152.142426
 11
49.040001
 21
149.143875
  0
LINE
  8
0
  6
CONTINUOUS
 10
165.039993
 20
149.143875
 11
165.039993
 21
152.142426
  0
LINE
  8
0
  6
CONTINUOUS
 10
165.039993
 20
143.415100
 11
165.039993
 21
147.193924
  0
LINE
  8
0
  6
CONTINUOUS
 10
165.039993
 20
136.890671
 11
165.039993
 21
141.751831
  0
LINE
  8
0
  6
CONTINUOUS
 10
165.039993
 20
129.843246
 11
165.039993
 21
134.904114
  0
LINE
  8
0
  6
CONTINUOUS
 10
49.040001
 20
147.193924
 11
49.040001
 21
143.415100
  0
LINE
  8
0
  6
CONTINUOUS
 10
49.040001
 20
65.990524
 11
49.040001
 21
59.557995
  0
LINE
  8
0
  6
CONTINUOUS
 10
165.039993
 20
122.600929
 11
165.039993
 21
127.856682
  0
LINE
  8
0
  6
CONTINUOUS
 10
165.039993
 20
115.199837
 11
165.039993
 21
120.614372
  0
LINE
  8
0
  6
CONTINUOUS
 10
165.039993
 20
107.659386
 11
165.039993
 21
113.213280
  0
LINE
  8
0
  6
CONTINUOUS
 10
165.039993
 20
99.989067
 11
165.039993
 21
105.672829
  0
LINE
  8
0
  6
CONTINUOUS
 10
165.039993
 20
92.192848
 11
165.039993
 21
98.002510
  0
LINE
  8
0
  6
CONTINUOUS
 10
165.039993
 20
84.266754
 11
165.039993
 21
90.206291
  0
LINE
  8
0
  6
CONTINUOUS
 10
165.039993
 20
76.201309
 11
165.039993
 21
82.280197
  0
LINE
  8
0
  6
CONTINUOUS
 10
165.039993
 20
67.977081
 11
165.039993
 21
74.214752
  0
LINE
  8
0
  6
CONTINUOUS
 10
165.039993
 20
59.557995
 11
165.039993
 21
65.990524
  0
LINE
  8
0
  6
CONTINUOUS
 10
165.039993
 20
51.532150
 11
165.039993
 21
57.571407
  0
LINE
  8
0
  6
CONTINUOUS
 10
165.039993
 20
42.998032
 11
165.039993
 21
49.224182
  0
LINE
  8
0
  6
CONTINUOUS
 10
165.039993
 20
152.142426
 11
49.040001
 21
152.142426
  0
LINE
  8
0
  6
CONTINUOUS
 10
165.039993
 20
149.143875
 11
49.040001
 21
149.143875
  0
LINE
  8
0
  6
CONTINUOUS
 10
165.039993
 20
147.193924
 11
49.040001
 21
147.193924
  0
LINE
  8
0
  6
CONTINUOUS
 10
165.039993
 20
143.415100
 11
49.040001
 21
143.415100
  0
LINE
  8
0
  6
CONTINUOUS
 10
165.039993
 20
141.751831
 11
49.040001
 21
141.751831
  0
LINE
  8
0
  6
CONTINUOUS
 10
165.039993
 20
136.890671
 11
112.040047
 21
136.890671
  0
LINE
  8
0
  6
CONTINUOUS
 10
165.039993
 20
134.904114
 11
112.040047
 21
134.904114
  0
LINE
  8
0
  6
CONTINUOUS
 10
165.039993
 20
129.843246
 11
112.040047
 21
129.843246
  0
LINE
  8
0
  6
CONTINUOUS
 10
165.039993
 20
127.856682
 11
112.040047
 21
127.856682
  0
LINE
  8
0
  6
CONTINUOUS
 10
165.039993
 20
122.600929
 11
116.040001
 21
122.600929
  0
LINE
  8
0
  6
CONTINUOUS
 10
165.039993
 20
120.614372
 11
116.040001
 21
120.614372
  0
LINE
  8
0
  6
CONTINUOUS
 10
165.039993
 20
115.199837
 11
116.040001
 21
115.199837
  0
LINE
  8
0
  6
CONTINUOUS
 10
165.039993
 20
107.659386
 11
116.040001
 21
107.659386
  0
LINE
  8
0
  6
CONTINUOUS
 10
165.039993
 20
105.672829
 11
116.040001
 21
105.672829
  0
LINE
  8
0
  6
CONTINUOUS
 10
165.039993
 20
99.989067
 11
116.040001
 21
99.989067
  0
LINE
  8
0
  6
CONTINUOUS
 10
165.039993
 20
98.002510
 11
116.040001
 21
98.002510
  0
LINE
  8
0
  6
CONTINUOUS
 10
165.039993
 20
113.213280
 11
116.040001
 21
113.213280
  0
LINE
  8
0
  6
CONTINUOUS
 10
165.039993
 20
92.192848
 11
116.040001
 21
92.192848
  0
LINE
  8
0
  6
CONTINUOUS
 10
165.039993
 20
90.206291
 11
116.040001
 21
90.206291
  0
LINE
  8
0
  6
CONTINUOUS
 10
165.039993
 20
84.266754
 11
116.040001
 21
84.266754
  0
LINE
  8
0
  6
CONTINUOUS
 10
165.039993
 20
82.280197
 11
116.040001
 21
82.280197
  0
LINE
  8
0
  6
CONTINUOUS
 10
165.039993
 20
76.201309
 11
116.040001
 21
76.201309
  0
LINE
  8
0
  6
CONTINUOUS
 10
165.039993
 20
74.214752
 11
116.040001
 21
74.214752
  0
LINE
  8
0
  6
CONTINUOUS
 10
165.039993
 20
67.977081
 11
111.469933
 21
67.977081
  0
LINE
  8
0
  6
CONTINUOUS
 10
165.039993
 20
65.990524
 11
90.540154
 21
65.990524
  0
LINE
  8
0
  6
CONTINUOUS
 10
165.039993
 20
59.557995
 11
88.540154
 21
59.557995
  0
LINE
  8
0
  6
CONTINUOUS
 10
165.039993
 20
57.571407
 11
90.040154
 21
57.571407
  0
LINE
  8
0
  6
CONTINUOUS
 10
165.039993
 20
51.532150
 11
90.040154
 21
51.532150
  0
LINE
  8
0
  6
CONTINUOUS
 10
165.039993
 20
49.224182
 11
90.040154
 21
49.224182
  0
LINE
  8
0
  6
CONTINUOUS
 10
165.039993
 20
42.998032
 11
91.540154
 21
42.998032
  0
LINE
  8
0
  6
CONTINUOUS
 10
165.039993
 20
41.072731
 11
91.540154
 21
41.072731
  0
LINE
  8
0
  6
CONTINUOUS
 10
165.039993
 20
36.181049
 11
49.039982
 21
36.181049
  0
LINE
  8
0
  6
CONTINUOUS
 10
114.039963
 20
125.629761
 11
112.040047
 21
125.629761
  0
LINE
  8
0
  6
CONTINUOUS
 10
114.540001
 20
72.091736
 11
112.040047
 21
72.091736
  0
LINE
  8
0
  6
CONTINUOUS
 10
116.040001
 20
73.591736
 11
116.040001
 21
123.629761
  0
ARC
  8
0
  6
CONTINUOUS
 10
114.039978
 20
123.629761
 40
2.000000
 50
0.000000
 51
90.000000
  0
LINE
  8
0
  6
CONTINUOUS
 10
90.040154
 20
49.224182
 11
49.040001
 21
49.224182
  0
LINE
  8
0
  6
CONTINUOUS
 10
90.040154
 20
51.532150
 11
49.040001
 21
51.532150
  0
LINE
  8
0
  6
CONTINUOUS
 10
90.040154
 20
57.571407
 11
49.040001
 21
57.571407
  0
LINE
  8
0
  6
CONTINUOUS
 10
88.540154
 20
59.557995
 11
49.040001
 21
59.557995
  0
LINE
  8
0
  6
CONTINUOUS
 10
91.540154
 20
42.998032
 11
49.040001
 21
42.998032
  0
LINE
  8
0
  6
CONTINUOUS
 10
91.540154
 20
41.072731
 11
49.040001
 21
41.072731
  0
ARC
  8
0
  6
CONTINUOUS
 10
114.540001
 20
73.591736
 40
1.500000
 50
-90.000000
 51
0.000000
  0
LINE
  8
0
  6
CONTINUOUS
 10
90.540154
 20
65.990524
 11
49.040001
 21
65.990524
  0
LINE
  8
0
  6
CONTINUOUS
 10
49.040001
 20
57.571407
 11
49.040001
 21
51.532150
  0
LINE
  8
0
  6
CONTINUOUS
 10
49.040001
 20
49.224182
 11
49.040001
 21
42.998032
  0
LINE
  8
0
  6
CONTINUOUS
 10
49.040001
 20
41.072731
 11
49.039982
 21
36.181049
  0
LINE
  8
0
  6
CONTINUOUS
 10
49.040001
 20
141.751831
 11
49.040001
 21
141.153229
  0
LINE
  8
0
  6
CONTINUOUS
 10
39.040039
 20
90.385979
 11
39.040039
 21
21.268126
  0
LINE
  8
0
  6
CONTINUOUS
 10
41.040001
 20
89.385979
 11
41.040001
 21
26.768126
  0
LINE
  8
0
  6
CONTINUOUS
 10
39.040039
 20
21.268126
 11
6.186214
 21
21.268126
  0
CIRCLE
  8
0
  6
CONTINUOUS
 10
107.040047
 20
136.153229
 40
2.750000
  0
LINE
  8
0
  6
CONTINUOUS
 10
108.840050
 20
136.653229
 11
108.840050
 21
135.653229
  0
LINE
  8
0
  6
CONTINUOUS
 10
106.540047
 20
137.953232
 11
107.540047
 21
137.953232
  0
LINE
  8
0
  6
CONTINUOUS
 10
107.540047
 20
137.953232
 11
107.540047
 21
136.653229
  0
LINE
  8
0
  6
CONTINUOUS
 10
108.840050
 20
136.653229
 11
107.540047
 21
136.653229
  0
LINE
  8
0
  6
CONTINUOUS
 10
108.840050
 20
135.653229
 11
107.540047
 21
135.653229
  0
LINE
  8
0
  6
CONTINUOUS
 10
106.540047
 20
137.953232
 11
106.540047
 21
136.653229
  0
LINE
  8
0
  6
CONTINUOUS
 10
106.540047
 20
134.353226
 11
107.540047
 21
134.353226
  0
LINE
  8
0
  6
CONTINUOUS
 10
107.540047
 20
134.353226
 11
107.540047
 21
135.653229
  0
LINE
  8
0
  6
CONTINUOUS
 10
105.240051
 20
135.653229
 11
106.540047
 21
135.653229
  0
LINE
  8
0
  6
CONTINUOUS
 10
105.240051
 20
136.653229
 11
106.540047
 21
136.653229
  0
LINE
  8
0
  6
CONTINUOUS
 10
105.240051
 20
136.653229
 11
105.240051
 21
135.653229
  0
LINE
  8
0
  6
CONTINUOUS
 10
106.540047
 20
134.353226
 11
106.540047
 21
135.653229
  0
LINE
  8
0
  6
CONTINUOUS
 10
48.840012
 20
136.653229
 11
48.840012
 21
135.653229
  0
LINE
  8
0
  6
CONTINUOUS
 10
46.540009
 20
137.953232
 11
47.540009
 21
137.953232
  0
LINE
  8
0
  6
CONTINUOUS
 10
47.540009
 20
137.953232
 11
47.540009
 21
136.653229
  0
LINE
  8
0
  6
CONTINUOUS
 10
48.840012
 20
136.653229
 11
47.540009
 21
136.653229
  0
LINE
  8
0
  6
CONTINUOUS
 10
48.840012
 20
135.653229
 11
47.540009
 21
135.653229
  0
LINE
  8
0
  6
CONTINUOUS
 10
46.540009
 20
137.953232
 11
46.540009
 21
136.653229
  0
LINE
  8
0
  6
CONTINUOUS
 10
46.540009
 20
134.353226
 11
47.540009
 21
134.353226
  0
LINE
  8
0
  6
CONTINUOUS
 10
47.540009
 20
134.353226
 11
47.540009
 21
135.653229
  0
LINE
  8
0
  6
CONTINUOUS
 10
45.240013
 20
135.653229
 11
46.540009
 21
135.653229
  0
LINE
  8
0
  6
CONTINUOUS
 10
45.240013
 20
136.653229
 11
46.540009
 21
136.653229
  0
LINE
  8
0
  6
CONTINUOUS
 10
45.240013
 20
136.653229
 11
45.240013
 21
135.653229
  0
LINE
  8
0
  6
CONTINUOUS
 10
46.540009
 20
134.353226
 11
46.540009
 21
135.653229
  0
CIRCLE
  8
0
  6
CONTINUOUS
 10
47.040009
 20
77.057014
 40
2.750000
  0
LINE
  8
0
  6
CONTINUOUS
 10
48.840012
 20
77.557014
 11
48.840012
 21
76.557014
  0
LINE
  8
0
  6
CONTINUOUS
 10
46.540009
 20
78.857010
 11
47.540009
 21
78.857010
  0
LINE
  8
0
  6
CONTINUOUS
 10
47.540009
 20
78.857010
 11
47.540009
 21
77.557014
  0
LINE
  8
0
  6
CONTINUOUS
 10
48.840012
 20
77.557014
 11
47.540009
 21
77.557014
  0
LINE
  8
0
  6
CONTINUOUS
 10
48.840012
 20
76.557014
 11
47.540009
 21
76.557014
  0
LINE
  8
0
  6
CONTINUOUS
 10
46.540009
 20
78.857010
 11
46.540009
 21
77.557014
  0
LINE
  8
0
  6
CONTINUOUS
 10
46.540009
 20
75.257011
 11
47.540009
 21
75.257011
  0
LINE
  8
0
  6
CONTINUOUS
 10
47.540009
 20
75.257011
 11
47.540009
 21
76.557014
  0
LINE
  8
0
  6
CONTINUOUS
 10
45.240013
 20
76.557014
 11
46.540009
 21
76.557014
  0
LINE
  8
0
  6
CONTINUOUS
 10
45.240013
 20
77.557014
 11
46.540009
 21
77.557014
  0
LINE
  8
0
  6
CONTINUOUS
 10
45.240013
 20
77.557014
 11
45.240013
 21
76.557014
  0
LINE
  8
0
  6
CONTINUOUS
 10
46.540009
 20
75.257011
 11
46.540009
 21
76.557014
  0
CIRCLE
  8
0
  6
CONTINUOUS
 10
107.040047
 20
77.057014
 40
2.750000
  0
LINE
  8
0
  6
CONTINUOUS
 10
108.840050
 20
77.557014
 11
108.840050
 21
76.557014
  0
LINE
  8
0
  6
CONTINUOUS
 10
106.540047
 20
78.857010
 11
107.540047
 21
78.857010
  0
LINE
  8
0
  6
CONTINUOUS
 10
107.540047
 20
78.857010
 11
107.540047
 21
77.557014
  0
LINE
  8
0
  6
CONTINUOUS
 10
108.840050
 20
77.557014
 11
107.540047
 21
77.557014
  0
LINE
  8
0
  6
CONTINUOUS
 10
108.840050
 20
76.557014
 11
107.540047
 21
76.557014
  0
LINE
  8
0
  6
CONTINUOUS
 10
106.540047
 20
78.857010
 11
106.540047
 21
77.557014
  0
LINE
  8
0
  6
CONTINUOUS
 10
106.540047
 20
75.257011
 11
107.540047
 21
75.257011
  0
LINE
  8
0
  6
CONTINUOUS
 10
107.540047
 20
75.257011
 11
107.540047
 21
76.557014
  0
LINE
  8
0
  6
CONTINUOUS
 10
105.240051
 20
76.557014
 11
106.540047
 21
76.557014
  0
LINE
  8
0
  6
CONTINUOUS
 10
105.240051
 20
77.557014
 11
106.540047
 21
77.557014
  0
LINE
  8
0
  6
CONTINUOUS
 10
105.240051
 20
77.557014
 11
105.240051
 21
76.557014
  0
LINE
  8
0
  6
CONTINUOUS
 10
106.540047
 20
75.257011
 11
106.540047
 21
76.557014
  0
LINE
  8
0
  6
CENTER
 10
77.040047
 20
143.636963
 11
77.040047
 21
64.441963
  0
LINE
  8
0
  6
CENTER
 10
10.377675
 20
103.885979
 11
47.037674
 21
103.885979
  0
LINE
  8
0
  6
CONTINUOUS
 10
109.540047
 20
67.066277
 11
44.540009
 21
67.066277
  0
ARC
  8
0
  6
CONTINUOUS
 10
44.540009
 20
69.566277
 40
2.500000
 50
180.000000
 51
270.000000
  0
ARC
  8
0
  6
CONTINUOUS
 10
109.540047
 20
69.566277
 40
2.500000
 50
-90.000000
 51
0.000000
  0
CIRCLE
  8
0
  6
CONTINUOUS
 10
47.040051
 20
136.153229
 40
2.750000
  0
TEXT
  8
0
 10
-19.000000
 20
-30.000000
 40
4.000000
 41
1.000000
  1
G3FE-28-30~100-T040WA
 50
0.000000
  0
ENDSEC
  0
EOF
