  0
SECTION
  2
HEADER
  9
$CLAYER
  8
1
  9
$LTSCALE
 40
3.0
  0
ENDSEC
  0
SECTION
  2
TABLES
  0
TABLE
  2
LTYPE
 70
     4
  0
LTYPE
  2
CONTINUOUS
  3
solid line
 70
    64
 72
    65
 73
     0
 40
0.0
  0
LTYPE
  2
DASHED
  3
__ __ __ __ __ __ __ __ __ __ __ __ __ __ __
 70
    64
 72
    65
 73
     2
 40
0.75
 49
0.5
 49
-0.25
  0
LTYPE
  2
CENTER
  3
____ _ ____ _ ____ _ ____ _ ____ _ ____ _ ____
 70
    64
 72
    65
 73
     4
 40
2.0
 49
1.25
 49
-0.25
 49
0.25
 49
-0.25
  0
LTYPE
  2
PHANTOM
  3
_____ _ _ _____ _ _ _____ _ _ _____ _ _ ____
 70
    64
 72
    65
 73
     6
 40
2.5
 49
1.25
 49
-0.25
 49
0.25
 49
-0.25
 49
0.25
 49
-0.25
  0
ENDTAB
  0
TABLE
  2
LAYER
 70
     1
  0
LAYER
  2
0
 70
    64
 62
     7
  6
CONTINUOUS
  0
ENDTAB
  0
TABLE
  2
STYLE
 70
     1
  0
STYLE
  2
STANDARD
 70
     0
 40
0.000000
 41
1.000000
 50
0.000000
 71
     0
 42
3.000000
  3
txt
  4
BIGFONT
  0
ENDTAB
  0
ENDSEC
  0
SECTION
  2
BLOCKS
  0
ENDSEC
  0
SECTION
  2
ENTITIES
  0
LINE
  8
0
  6
CONTINUOUS
 10
289.910187
 20
346.869720
 11
289.910187
 21
441.869690
  0
LINE
  8
0
  6
CONTINUOUS
 10
289.910187
 20
536.869629
 11
289.910187
 21
441.869690
  0
LINE
  8
0
  6
CONTINUOUS
 10
282.909515
 20
349.975525
 11
282.909851
 21
533.763855
  0
LINE
  8
0
  6
CONTINUOUS
 10
279.410187
 20
505.869629
 11
280.014587
 21
505.890686
  0
LINE
  8
0
  6
CONTINUOUS
 10
280.014740
 20
377.848602
 11
279.410187
 21
377.869751
  0
ARC
  8
0
  6
CONTINUOUS
 10
279.910034
 20
374.850494
 40
3.000000
 50
0.000000
 51
88.000107
  0
ARC
  8
0
  6
CONTINUOUS
 10
279.910217
 20
508.888885
 40
3.000000
 50
-88.006126
 51
0.000000
  0
LINE
  8
0
  6
CONTINUOUS
 10
279.410187
 20
505.869629
 11
279.410187
 21
377.869751
  0
LINE
  8
0
  6
CENTER
 10
-14.812500
 20
441.869690
 11
464.489990
 21
441.869690
  0
LINE
  8
0
  6
CONTINUOUS
 10
282.910065
 20
18.524641
 11
282.910095
 21
203.313095
  0
LINE
  8
0
  6
CONTINUOUS
 10
288.634369
 20
53.241367
 11
284.062714
 21
53.241367
  0
LINE
  8
0
  6
CONTINUOUS
 10
288.634369
 20
31.089027
 11
284.062714
 21
31.089027
  0
LINE
  8
0
  6
CONTINUOUS
 10
279.410095
 20
173.918869
 11
279.410095
 21
45.918865
  0
LINE
  8
0
  6
CONTINUOUS
 10
391.910278
 20
531.369690
 11
391.910278
 21
352.369690
  0
LINE
  8
0
  6
CONTINUOUS
 10
391.410278
 20
531.869690
 11
387.910278
 21
531.869690
  0
LINE
  8
0
  6
CONTINUOUS
 10
391.410278
 20
351.869690
 11
387.910278
 21
351.869690
  0
ARC
  8
0
  6
CONTINUOUS
 10
372.910553
 20
-228.643906
 40
770.000000
 50
93.001129
 51
96.188087
  0
LINE
  8
0
  6
CONTINUOUS
 10
372.910187
 20
545.948425
 11
372.909821
 21
337.790985
  0
LINE
  8
0
  6
CONTINUOUS
 10
387.910278
 20
548.869690
 11
387.910278
 21
334.869690
  0
LINE
  8
0
  6
CONTINUOUS
 10
368.271515
 20
541.234924
 11
332.597809
 21
540.300354
  0
LINE
  8
0
  6
CONTINUOUS
 10
392.910278
 20
458.869690
 11
392.910278
 21
424.869690
  0
LINE
  8
0
  6
CONTINUOUS
 10
391.910278
 20
458.869690
 11
392.910278
 21
458.869690
  0
LINE
  8
0
  6
CONTINUOUS
 10
391.910278
 20
424.869690
 11
392.910278
 21
424.869690
  0
LINE
  8
0
  6
CONTINUOUS
 10
392.910278
 20
457.869690
 11
447.910278
 21
457.869690
  0
LINE
  8
0
  6
CONTINUOUS
 10
447.910278
 20
457.869690
 11
447.910278
 21
422.869690
  0
LINE
  8
0
  6
CONTINUOUS
 10
392.910187
 20
425.869690
 11
397.910278
 21
425.869690
  0
LINE
  8
0
  6
CONTINUOUS
 10
387.410583
 20
549.352234
 11
375.805359
 21
548.946594
  0
ARC
  8
0
  6
CONTINUOUS
 10
372.913269
 20
1112.383301
 40
770.000000
 50
-96.188087
 51
-93.001129
  0
LINE
  8
0
  6
CONTINUOUS
 10
368.270782
 20
342.504456
 11
332.600494
 21
343.439026
  0
ARC
  8
0
  6
CONTINUOUS
 10
368.139282
 20
546.232971
 40
5.000000
 50
271.500793
 51
347.713806
  0
ARC
  8
0
  6
CONTINUOUS
 10
368.138702
 20
337.506409
 40
5.000000
 50
17.403490
 51
88.499580
  0
LINE
  8
0
  6
CONTINUOUS
 10
397.910278
 20
426.670685
 11
397.910278
 21
422.869690
  0
LINE
  8
0
  6
CONTINUOUS
 10
397.910278
 20
422.869690
 11
447.910278
 21
422.869690
  0
ARC
  8
0
  6
CONTINUOUS
 10
375.910187
 20
545.948425
 40
3.000000
 50
92.002228
 51
180.000000
  0
LINE
  8
0
  6
CONTINUOUS
 10
387.410583
 20
334.387146
 11
375.805359
 21
334.792816
  0
ARC
  8
0
  6
CONTINUOUS
 10
375.910187
 20
337.790955
 40
3.000000
 50
-180.000000
 51
-92.002228
  0
LINE
  8
0
  6
CENTER
 10
393.193146
 20
530.258118
 11
368.430145
 21
530.258118
  0
LINE
  8
0
  6
CENTER
 10
393.193146
 20
353.481293
 11
368.430145
 21
353.481293
  0
LINE
  8
0
  6
CONTINUOUS
 10
387.410583
 20
334.387146
 11
387.910278
 21
334.869690
  0
LINE
  8
0
  6
CONTINUOUS
 10
391.410278
 20
351.869690
 11
391.910278
 21
352.369690
  0
LINE
  8
0
  6
CONTINUOUS
 10
391.410278
 20
531.869690
 11
391.910278
 21
531.369690
  0
LINE
  8
0
  6
CONTINUOUS
 10
387.410583
 20
549.352234
 11
387.910278
 21
548.869690
  0
LINE
  8
0
  6
CONTINUOUS
 10
289.910095
 20
206.418869
 11
289.910095
 21
15.418867
  0
LINE
  8
0
  6
CENTER
 10
323.661469
 20
138.418854
 11
459.661469
 21
138.418854
  0
LINE
  8
0
  6
CONTINUOUS
 10
391.910278
 20
227.918854
 11
391.910278
 21
48.918854
  0
LINE
  8
0
  6
CONTINUOUS
 10
391.410278
 20
228.418854
 11
387.910278
 21
228.418854
  0
LINE
  8
0
  6
CONTINUOUS
 10
391.410278
 20
48.418854
 11
387.910278
 21
48.418854
  0
ARC
  8
0
  6
CONTINUOUS
 10
372.910461
 20
-559.094666
 40
770.000000
 50
93.001129
 51
96.188087
  0
LINE
  8
0
  6
CONTINUOUS
 10
292.726074
 20
53.241375
 11
368.925873
 21
55.902855
  0
LINE
  8
0
  6
CONTINUOUS
 10
292.730103
 20
31.089014
 11
368.925873
 21
28.428614
  0
LINE
  8
0
  6
CONTINUOUS
 10
372.909882
 20
15.339666
 11
372.910095
 21
242.497971
  0
LINE
  8
0
  6
CONTINUOUS
 10
391.410278
 20
48.418854
 11
391.910278
 21
48.918854
  0
LINE
  8
0
  6
CONTINUOUS
 10
391.410278
 20
228.418854
 11
391.910278
 21
227.918854
  0
LINE
  8
0
  6
CONTINUOUS
 10
387.910095
 20
12.418896
 11
387.910309
 21
245.418854
  0
LINE
  8
0
  6
CONTINUOUS
 10
368.042267
 20
210.778000
 11
332.597870
 21
209.849518
  0
ARC
  8
0
  6
CONTINUOUS
 10
367.910095
 20
215.776276
 40
5.000000
 50
-88.498718
 51
0.000000
  0
LINE
  8
0
  6
CONTINUOUS
 10
387.410400
 20
11.936343
 11
300.870819
 21
14.957849
  0
LINE
  8
0
  6
CONTINUOUS
 10
392.910278
 20
155.418854
 11
392.910278
 21
121.418854
  0
LINE
  8
0
  6
CONTINUOUS
 10
391.910278
 20
155.418854
 11
392.910278
 21
155.418854
  0
LINE
  8
0
  6
CONTINUOUS
 10
391.910278
 20
121.418854
 11
392.910278
 21
121.418854
  0
LINE
  8
0
  6
CONTINUOUS
 10
392.910278
 20
154.418854
 11
447.910278
 21
154.418854
  0
LINE
  8
0
  6
CONTINUOUS
 10
447.910278
 20
154.418854
 11
447.910278
 21
122.418732
  0
LINE
  8
0
  6
CONTINUOUS
 10
402.910095
 20
133.418854
 11
447.910278
 21
133.418854
  0
ARC
  8
0
  6
CONTINUOUS
 10
402.910278
 20
138.418854
 40
5.000000
 50
90.000000
 51
270.000000
  0
LINE
  8
0
  6
CONTINUOUS
 10
392.910095
 20
122.418732
 11
447.910278
 21
122.418732
  0
LINE
  8
0
  6
CONTINUOUS
 10
402.910278
 20
143.418854
 11
447.910278
 21
143.418854
  0
LINE
  8
0
  6
CENTER
 10
393.193146
 20
50.030457
 11
368.430145
 21
50.030457
  0
LINE
  8
0
  6
CONTINUOUS
 10
387.410583
 20
245.901413
 11
375.805389
 21
245.496140
  0
ARC
  8
0
  6
CONTINUOUS
 10
375.910095
 20
242.497971
 40
3.000000
 50
92.000000
 51
180.000000
  0
LINE
  8
0
  6
CONTINUOUS
 10
387.410583
 20
245.901413
 11
387.910278
 21
245.418854
  0
ARC
  8
0
  6
CONTINUOUS
 10
375.909882
 20
15.339666
 40
3.000000
 50
180.000000
 51
268.000336
  0
ARC
  8
0
  6
CONTINUOUS
 10
327.738800
 20
784.488953
 40
770.000000
 50
267.184113
 51
268.000336
  0
LINE
  8
0
  6
CENTER
 10
393.193146
 20
226.807251
 11
368.430145
 21
226.807251
  0
LINE
  8
0
  6
CONTINUOUS
 10
285.831299
 20
536.762817
 11
289.910187
 21
536.869629
  0
ARC
  8
0
  6
CONTINUOUS
 10
285.909851
 20
533.763855
 40
3.000000
 50
91.500000
 51
180.000000
  0
LINE
  8
0
  6
CONTINUOUS
 10
285.830994
 20
346.976532
 11
289.910187
 21
346.869720
  0
ARC
  8
0
  6
CONTINUOUS
 10
285.909515
 20
349.975525
 40
3.000000
 50
180.000000
 51
268.500000
  0
LINE
  8
0
  6
CONTINUOUS
 10
285.831573
 20
206.312073
 11
289.910095
 21
206.418869
  0
ARC
  8
0
  6
CONTINUOUS
 10
285.910095
 20
203.313095
 40
3.000000
 50
91.500015
 51
180.000000
  0
LINE
  8
0
  6
CONTINUOUS
 10
285.831512
 20
15.525668
 11
289.910095
 21
15.418867
  0
ARC
  8
0
  6
CONTINUOUS
 10
285.910065
 20
18.524639
 40
3.000000
 50
180.000000
 51
268.500000
  0
LINE
  8
0
  6
CONTINUOUS
 10
397.910278
 20
426.670685
 11
447.910278
 21
426.670685
  0
LINE
  8
0
  6
DASHED
 10
387.910309
 20
536.758118
 11
372.909943
 21
536.758118
  0
LINE
  8
0
  6
DASHED
 10
387.910309
 20
523.758118
 11
372.909943
 21
523.758118
  0
LINE
  8
0
  6
DASHED
 10
387.910309
 20
359.981293
 11
372.909943
 21
359.981293
  0
LINE
  8
0
  6
DASHED
 10
387.910309
 20
346.981293
 11
372.909943
 21
346.981293
  0
LINE
  8
0
  6
DASHED
 10
387.910278
 20
233.307251
 11
372.909943
 21
233.307251
  0
LINE
  8
0
  6
DASHED
 10
387.910278
 20
220.307251
 11
372.909943
 21
220.307251
  0
LINE
  8
0
  6
DASHED
 10
387.910278
 20
56.530457
 11
372.909943
 21
56.530457
  0
LINE
  8
0
  6
DASHED
 10
387.910278
 20
43.530457
 11
372.909943
 21
43.530457
  0
LINE
  8
0
  6
CONTINUOUS
 10
178.410172
 20
505.869690
 11
178.410172
 21
377.869690
  0
LINE
  8
0
  6
CONTINUOUS
 10
44.410175
 20
505.869690
 11
54.410175
 21
505.869690
  0
LINE
  8
0
  6
CONTINUOUS
 10
46.410175
 20
377.869720
 11
46.410175
 21
505.869690
  0
LINE
  8
0
  6
CONTINUOUS
 10
54.410175
 20
423.225281
 11
54.410175
 21
376.875885
  0
LINE
  8
0
  6
CONTINUOUS
 10
170.410172
 20
423.225281
 11
170.410172
 21
377.869720
  0
LINE
  8
0
  6
CONTINUOUS
 10
54.910175
 20
423.725281
 11
169.910172
 21
423.725281
  0
LINE
  8
0
  6
CONTINUOUS
 10
54.410175
 20
505.869690
 11
178.410172
 21
505.869690
  0
LINE
  8
0
  6
CONTINUOUS
 10
54.410175
 20
475.636688
 11
54.410175
 21
505.869690
  0
LINE
  8
0
  6
CONTINUOUS
 10
170.410172
 20
475.636688
 11
170.410172
 21
505.869690
  0
ARC
  8
0
  6
CONTINUOUS
 10
169.910172
 20
423.225281
 40
0.500000
 50
0.000000
 51
90.000000
  0
ARC
  8
0
  6
CONTINUOUS
 10
54.910175
 20
423.225281
 40
0.500000
 50
-270.000000
 51
-180.000000
  0
LINE
  8
0
  6
CONTINUOUS
 10
63.410175
 20
330.943329
 11
102.910179
 21
330.943329
  0
LINE
  8
0
  6
CONTINUOUS
 10
117.410179
 20
330.943329
 11
47.410175
 21
330.943329
  0
LINE
  8
0
  6
CONTINUOUS
 10
58.351719
 20
382.176086
 11
70.910179
 21
382.176086
  0
LINE
  8
0
  6
CONTINUOUS
 10
106.468613
 20
382.176086
 11
74.426559
 21
382.176086
  0
LINE
  8
0
  6
CONTINUOUS
 10
113.361557
 20
373.418121
 11
95.721352
 21
373.418121
  0
ARC
  8
0
  6
CONTINUOUS
 10
51.458359
 20
370.418121
 40
3.000000
 50
90.000000
 51
178.500305
  0
ARC
  8
0
  6
CONTINUOUS
 10
113.361557
 20
370.418121
 40
3.000000
 50
1.499893
 51
90.000000
  0
LINE
  8
0
  6
CONTINUOUS
 10
57.275356
 20
378.272339
 11
57.186176
 21
374.865723
  0
LINE
  8
0
  6
CONTINUOUS
 10
107.544975
 20
378.272339
 11
107.633957
 21
374.865723
  0
LINE
  8
0
  6
CONTINUOUS
 10
51.458359
 20
373.418121
 11
69.098953
 21
373.418121
  0
ARC
  8
0
  6
CONTINUOUS
 10
109.633354
 20
375.418121
 40
2.000000
 50
-178.500504
 51
-90.000000
  0
ARC
  8
0
  6
CONTINUOUS
 10
55.186756
 20
375.418121
 40
2.000000
 50
-90.000000
 51
-1.500397
  0
LINE
  8
0
  6
CONTINUOUS
 10
107.467239
 20
381.241821
 11
107.544975
 21
378.272339
  0
LINE
  8
0
  6
CONTINUOUS
 10
57.352062
 20
381.202271
 11
57.275356
 21
378.272339
  0
ARC
  8
0
  6
CONTINUOUS
 10
82.410179
 20
440.918121
 40
68.800003
 50
-101.155800
 51
-78.844177
  0
LINE
  8
0
  6
CONTINUOUS
 10
117.410179
 20
318.675690
 11
117.410179
 21
321.175690
  0
LINE
  8
0
  6
CONTINUOUS
 10
47.410175
 20
318.195068
 11
47.410175
 21
329.943329
  0
LINE
  8
0
  6
CONTINUOUS
 10
117.410179
 20
329.943329
 11
47.410175
 21
329.943329
  0
LINE
  8
0
  6
CONTINUOUS
 10
117.410179
 20
330.943329
 11
47.410175
 21
330.943329
  0
LINE
  8
0
  6
CONTINUOUS
 10
117.410179
 20
329.943329
 11
117.410179
 21
330.943329
  0
LINE
  8
0
  6
CONTINUOUS
 10
47.410175
 20
329.943329
 11
47.410175
 21
330.943329
  0
LINE
  8
0
  6
CONTINUOUS
 10
55.923176
 20
327.829926
 11
48.410175
 21
327.829926
  0
ARC
  8
0
  6
CONTINUOUS
 10
55.923176
 20
327.329926
 40
0.500000
 50
1.500198
 51
90.000000
  0
ARC
  8
0
  6
CONTINUOUS
 10
48.410175
 20
328.829926
 40
1.000000
 50
180.000000
 51
270.000000
  0
LINE
  8
0
  6
CONTINUOUS
 10
55.368156
 20
327.829926
 11
49.452175
 21
327.829926
  0
LINE
  8
0
  6
CONTINUOUS
 10
19.410175
 20
356.729675
 11
19.410175
 21
327.729675
  0
LINE
  8
0
  6
CONTINUOUS
 10
27.410175
 20
356.729675
 11
27.410175
 21
327.729675
  0
LINE
  8
0
  6
CONTINUOUS
 10
19.410175
 20
356.729675
 11
27.410175
 21
356.729675
  0
LINE
  8
0
  6
CONTINUOUS
 10
19.410175
 20
327.729675
 11
27.410175
 21
327.729675
  0
LINE
  8
0
  6
CONTINUOUS
 10
36.410175
 20
355.229675
 11
36.410175
 21
329.229675
  0
LINE
  8
0
  6
CONTINUOUS
 10
27.410175
 20
355.229675
 11
36.410175
 21
355.229675
  0
LINE
  8
0
  6
CONTINUOUS
 10
27.410175
 20
329.229675
 11
36.410175
 21
329.229675
  0
LINE
  8
0
  6
CONTINUOUS
 10
36.410175
 20
353.729675
 11
41.410175
 21
353.729675
  0
LINE
  8
0
  6
CONTINUOUS
 10
36.410175
 20
330.729675
 11
41.410175
 21
330.729675
  0
LINE
  8
0
  6
CONTINUOUS
 10
41.410175
 20
355.729675
 11
41.410175
 21
328.729675
  0
LINE
  8
0
  6
CONTINUOUS
 10
45.910175
 20
356.729675
 11
45.910175
 21
327.729675
  0
LINE
  8
0
  6
CONTINUOUS
 10
41.410175
 20
355.729675
 11
45.910175
 21
355.729675
  0
LINE
  8
0
  6
CONTINUOUS
 10
41.410175
 20
328.729675
 11
45.910175
 21
328.729675
  0
LINE
  8
0
  6
CONTINUOUS
 10
45.910175
 20
356.729675
 11
48.094196
 21
356.729675
  0
LINE
  8
0
  6
CONTINUOUS
 10
45.910175
 20
327.729675
 11
47.410175
 21
327.729675
  0
LINE
  8
0
  6
CONTINUOUS
 10
19.410175
 20
350.229675
 11
27.410175
 21
350.229675
  0
LINE
  8
0
  6
CONTINUOUS
 10
19.410175
 20
334.229675
 11
27.410175
 21
334.229675
  0
LINE
  8
0
  6
CONTINUOUS
 10
74.426559
 20
383.418121
 11
70.910179
 21
383.418121
  0
LINE
  8
0
  6
CONTINUOUS
 10
46.410175
 20
505.869690
 11
46.410175
 21
440.487488
  0
LINE
  8
0
  6
CONTINUOUS
 10
46.410175
 20
440.487488
 11
46.410175
 21
377.869720
  0
ARC
  8
0
  6
CONTINUOUS
 10
357.910187
 20
441.867249
 40
360.000000
 50
-189.120193
 51
-180.000000
  0
LINE
  8
0
  6
CONTINUOUS
 10
21.228296
 20
371.368469
 11
44.410175
 21
371.368469
  0
LINE
  8
0
  6
CONTINUOUS
 10
17.975117
 20
512.369141
 11
44.410175
 21
512.370850
  0
LINE
  8
0
  6
CONTINUOUS
 10
44.410175
 20
371.368469
 11
44.410175
 21
512.370850
  0
LINE
  8
0
  6
CONTINUOUS
 10
15.296416
 20
373.869690
 11
18.700457
 21
373.869690
  0
ARC
  8
0
  6
CONTINUOUS
 10
15.296416
 20
386.869690
 40
13.000000
 50
-170.880905
 51
-90.000000
  0
ARC
  8
0
  6
CONTINUOUS
 10
357.910187
 20
441.867249
 40
360.000000
 50
-180.000000
 51
-170.880493
  0
LINE
  8
0
  6
CONTINUOUS
 10
15.296416
 20
509.869690
 11
15.436797
 21
509.869690
  0
ARC
  8
0
  6
CONTINUOUS
 10
15.296416
 20
496.869690
 40
13.000000
 50
90.000000
 51
170.880905
  0
ARC
  8
0
  6
CONTINUOUS
 10
15.436797
 20
510.869690
 40
1.000000
 50
-90.000000
 51
-9.952286
  0
ARC
  8
0
  6
CONTINUOUS
 10
17.975117
 20
510.869141
 40
1.500000
 50
90.000000
 51
169.974594
  0
ARC
  8
0
  6
CONTINUOUS
 10
356.230164
 20
451.071167
 40
345.000000
 50
-190.025406
 51
-168.425507
  0
ARC
  8
0
  6
CONTINUOUS
 10
-321.486237
 20
321.790649
 40
345.000000
 50
8.476913
 51
10.025380
  0
ARC
  8
0
  6
CONTINUOUS
 10
21.228296
 20
372.868469
 40
1.500000
 50
-171.523102
 51
-90.000000
  0
ARC
  8
0
  6
CONTINUOUS
 10
18.700457
 20
372.869690
 40
1.000000
 50
8.539169
 51
90.000000
  0
LINE
  8
0
  6
CONTINUOUS
 10
54.410175
 20
487.753052
 11
170.410172
 21
487.753052
  0
LINE
  8
0
  6
CONTINUOUS
 10
54.910175
 20
475.136688
 11
169.910172
 21
475.136688
  0
ARC
  8
0
  6
CONTINUOUS
 10
169.910172
 20
475.636688
 40
0.500000
 50
-90.000000
 51
0.000000
  0
ARC
  8
0
  6
CONTINUOUS
 10
54.910175
 20
475.636688
 40
0.500000
 50
180.000000
 51
270.000000
  0
LINE
  8
0
  6
CONTINUOUS
 10
54.410175
 20
482.548462
 11
170.410172
 21
482.548462
  0
LINE
  8
0
  6
CONTINUOUS
 10
54.410175
 20
490.732269
 11
170.410172
 21
490.732269
  0
LINE
  8
0
  6
CONTINUOUS
 10
55.410175
 20
493.897736
 11
169.410172
 21
493.897736
  0
LINE
  8
0
  6
CONTINUOUS
 10
54.410175
 20
496.910034
 11
170.410172
 21
496.910034
  0
LINE
  8
0
  6
CONTINUOUS
 10
55.410175
 20
497.647522
 11
169.410172
 21
497.647522
  0
LINE
  8
0
  6
CONTINUOUS
 10
54.410175
 20
501.343903
 11
170.410172
 21
501.343903
  0
LINE
  8
0
  6
CONTINUOUS
 10
54.410175
 20
503.910583
 11
170.410172
 21
503.910583
  0
LINE
  8
0
  6
CONTINUOUS
 10
54.410175
 20
505.422974
 11
170.410172
 21
505.422974
  0
LINE
  8
0
  6
CONTINUOUS
 10
55.410175
 20
423.239075
 11
169.410172
 21
423.239075
  0
LINE
  8
0
  6
CONTINUOUS
 10
54.410175
 20
415.449188
 11
170.410172
 21
415.449188
  0
LINE
  8
0
  6
CONTINUOUS
 10
55.410175
 20
410.175842
 11
169.410172
 21
410.175842
  0
LINE
  8
0
  6
CONTINUOUS
 10
54.410175
 20
405.296631
 11
170.410172
 21
405.296631
  0
LINE
  8
0
  6
CONTINUOUS
 10
55.410175
 20
400.278229
 11
169.410172
 21
400.278229
  0
LINE
  8
0
  6
CONTINUOUS
 10
54.410175
 20
397.209290
 11
170.410172
 21
397.209290
  0
LINE
  8
0
  6
CONTINUOUS
 10
55.410175
 20
394.523376
 11
169.410172
 21
394.523376
  0
LINE
  8
0
  6
CONTINUOUS
 10
54.410175
 20
390.820526
 11
170.410172
 21
390.820526
  0
LINE
  8
0
  6
CONTINUOUS
 10
121.410179
 20
389.820526
 11
121.410179
 21
376.875885
  0
LINE
  8
0
  6
CONTINUOUS
 10
121.410179
 20
377.869720
 11
178.410172
 21
377.869720
  0
LINE
  8
0
  6
CONTINUOUS
 10
54.410175
 20
383.924316
 11
120.410179
 21
383.924316
  0
LINE
  8
0
  6
CONTINUOUS
 10
121.410179
 20
385.937408
 11
170.410172
 21
385.937408
  0
LINE
  8
0
  6
CONTINUOUS
 10
121.410179
 20
382.472137
 11
170.410172
 21
382.472137
  0
LINE
  8
0
  6
CONTINUOUS
 10
121.410179
 20
379.955017
 11
170.410172
 21
379.955017
  0
LINE
  8
0
  6
CONTINUOUS
 10
121.410179
 20
378.409668
 11
170.410172
 21
378.409668
  0
LINE
  8
0
  6
CONTINUOUS
 10
46.410175
 20
377.869690
 11
54.410175
 21
377.869690
  0
LINE
  8
0
  6
CONTINUOUS
 10
54.410175
 20
376.875885
 11
57.238800
 21
376.875885
  0
LINE
  8
0
  6
CONTINUOUS
 10
59.410175
 20
383.402222
 11
105.410179
 21
383.402222
  0
LINE
  8
0
  6
CONTINUOUS
 10
59.410175
 20
382.176086
 11
105.410179
 21
382.176086
  0
LINE
  8
0
  6
CONTINUOUS
 10
59.410175
 20
382.176086
 11
59.410175
 21
383.402222
  0
LINE
  8
0
  6
CONTINUOUS
 10
105.410179
 20
382.176086
 11
105.410179
 21
383.402222
  0
ARC
  8
0
  6
CONTINUOUS
 10
106.468613
 20
381.176086
 40
1.000000
 50
1.499604
 51
90.000000
  0
ARC
  8
0
  6
CONTINUOUS
 10
58.351719
 20
381.176086
 40
1.000000
 50
90.000000
 51
178.500397
  0
LINE
  8
0
  6
CONTINUOUS
 10
107.581451
 20
376.875885
 11
121.410179
 21
376.875885
  0
ARC
  8
0
  6
CONTINUOUS
 10
57.458927
 20
325.986115
 40
1.000000
 50
181.504028
 51
270.000000
  0
LINE
  8
0
  6
CONTINUOUS
 10
48.459385
 20
370.496643
 11
47.410175
 21
330.943329
  0
LINE
  8
0
  6
CONTINUOUS
 10
116.360527
 20
370.496643
 11
117.410179
 21
330.943329
  0
LINE
  8
0
  6
CONTINUOUS
 10
117.410179
 20
329.943329
 11
117.410179
 21
321.175690
  0
LINE
  8
0
  6
CONTINUOUS
 10
57.458927
 20
324.986115
 11
107.361618
 21
324.986115
  0
ARC
  8
0
  6
CONTINUOUS
 10
55.715317
 20
316.195068
 40
1.000000
 50
6.685660
 51
90.000000
  0
LINE
  8
0
  6
CONTINUOUS
 10
48.410175
 20
317.195068
 11
55.715317
 21
317.195068
  0
ARC
  8
0
  6
CONTINUOUS
 10
48.410175
 20
318.195068
 40
1.000000
 50
180.000000
 51
270.000000
  0
ARC
  8
0
  6
CONTINUOUS
 10
52.410175
 20
319.482025
 40
3.000000
 50
229.669662
 51
310.330322
  0
LINE
  8
0
  6
CONTINUOUS
 10
52.410175
 20
316.982025
 11
52.129177
 21
316.495209
  0
LINE
  8
0
  6
CONTINUOUS
 10
52.410175
 20
316.982025
 11
52.691357
 21
316.495209
  0
ARC
  8
0
  6
CONTINUOUS
 10
55.489353
 20
324.801117
 40
1.000000
 50
-90.000000
 51
1.504025
  0
LINE
  8
0
  6
CONTINUOUS
 10
56.489010
 20
324.827362
 11
56.422958
 21
327.343018
  0
LINE
  8
0
  6
CONTINUOUS
 10
47.910175
 20
323.801117
 11
55.489353
 21
323.801117
  0
ARC
  8
0
  6
CONTINUOUS
 10
47.910175
 20
323.301117
 40
0.500000
 50
90.000000
 51
180.000000
  0
ARC
  8
0
  6
CONTINUOUS
 10
57.205116
 20
316.369690
 40
0.500000
 50
186.685654
 51
270.000000
  0
LINE
  8
0
  6
CONTINUOUS
 10
57.205116
 20
315.869690
 11
107.614799
 21
315.869690
  0
ARC
  8
0
  6
CONTINUOUS
 10
109.104599
 20
316.195068
 40
1.000000
 50
90.000000
 51
173.314346
  0
LINE
  8
0
  6
CONTINUOUS
 10
116.409737
 20
317.195068
 11
109.104599
 21
317.195068
  0
ARC
  8
0
  6
CONTINUOUS
 10
116.409737
 20
318.195068
 40
1.000000
 50
-90.000000
 51
0.000000
  0
ARC
  8
0
  6
CONTINUOUS
 10
112.409737
 20
319.482025
 40
3.000000
 50
-130.330338
 51
-49.669670
  0
LINE
  8
0
  6
CONTINUOUS
 10
112.409737
 20
316.982025
 11
112.690735
 21
316.495209
  0
LINE
  8
0
  6
CONTINUOUS
 10
112.409737
 20
316.982025
 11
112.128563
 21
316.495209
  0
ARC
  8
0
  6
CONTINUOUS
 10
107.614799
 20
316.369690
 40
0.500000
 50
-90.000000
 51
-6.685660
  0
ARC
  8
0
  6
CONTINUOUS
 10
50.820992
 20
326.615631
 40
1.000000
 50
105.358887
 51
217.383194
  0
ARC
  8
0
  6
CONTINUOUS
 10
52.410175
 20
327.829926
 40
3.000000
 50
217.383194
 51
322.616791
  0
ARC
  8
0
  6
CONTINUOUS
 10
53.999363
 20
326.615631
 40
1.000000
 50
-37.383198
 51
74.641113
  0
ARC
  8
0
  6
CONTINUOUS
 10
52.410175
 20
320.829926
 40
7.000000
 50
74.641113
 51
105.358887
  0
LINE
  8
0
  6
CONTINUOUS
 10
50.936062
 20
325.996521
 11
53.956741
 21
325.996521
  0
LINE
  8
0
  6
CONTINUOUS
 10
52.410175
 20
324.877045
 11
52.410175
 21
326.826477
  0
LINE
  8
0
  6
CONTINUOUS
 10
108.896736
 20
327.829926
 11
116.409737
 21
327.829926
  0
ARC
  8
0
  6
CONTINUOUS
 10
108.896736
 20
327.329926
 40
0.500000
 50
90.000000
 51
178.499802
  0
ARC
  8
0
  6
CONTINUOUS
 10
116.409737
 20
328.829926
 40
1.000000
 50
-90.000000
 51
0.000000
  0
LINE
  8
0
  6
CONTINUOUS
 10
109.451759
 20
327.829926
 11
115.367737
 21
327.829926
  0
ARC
  8
0
  6
CONTINUOUS
 10
107.360985
 20
325.986115
 40
1.000000
 50
-90.000000
 51
-1.504025
  0
ARC
  8
0
  6
CONTINUOUS
 10
109.330559
 20
324.801117
 40
1.000000
 50
178.495972
 51
270.000000
  0
LINE
  8
0
  6
CONTINUOUS
 10
108.330902
 20
324.827362
 11
108.396957
 21
327.343018
  0
LINE
  8
0
  6
CONTINUOUS
 10
116.909737
 20
323.801117
 11
109.330559
 21
323.801117
  0
ARC
  8
0
  6
CONTINUOUS
 10
116.909737
 20
323.301117
 40
0.500000
 50
0.000000
 51
90.000000
  0
ARC
  8
0
  6
CONTINUOUS
 10
113.998924
 20
326.615631
 40
1.000000
 50
-37.383198
 51
74.641113
  0
ARC
  8
0
  6
CONTINUOUS
 10
112.409737
 20
327.829926
 40
3.000000
 50
-142.616806
 51
-37.383198
  0
ARC
  8
0
  6
CONTINUOUS
 10
110.820557
 20
326.615631
 40
1.000000
 50
105.358887
 51
217.383194
  0
ARC
  8
0
  6
CONTINUOUS
 10
112.409737
 20
320.829926
 40
7.000000
 50
74.641113
 51
105.358887
  0
LINE
  8
0
  6
CONTINUOUS
 10
113.883858
 20
325.996521
 11
110.863174
 21
325.996521
  0
LINE
  8
0
  6
CONTINUOUS
 10
112.409737
 20
324.877045
 11
112.409737
 21
326.826477
  0
ARC
  8
0
  6
CONTINUOUS
 10
120.410179
 20
382.924316
 40
1.000000
 50
0.000000
 51
90.000000
  0
ARC
  8
0
  6
CONTINUOUS
 10
120.410179
 20
389.820526
 40
1.000000
 50
0.000000
 51
90.000000
  0
LINE
  8
0
  6
CENTER
 10
-9.850000
 20
109.918869
 11
339.141876
 21
109.918869
  0
LINE
  8
0
  6
CONTINUOUS
 10
178.410095
 20
173.918823
 11
178.410095
 21
45.918827
  0
LINE
  8
0
  6
CENTER
 10
517.000000
 20
109.918869
 11
780.734985
 21
109.918869
  0
LINE
  8
0
  6
CENTER
 10
655.020020
 20
276.418854
 11
655.020020
 21
-0.911153
  0
CIRCLE
  8
0
  6
CONTINUOUS
 10
566.631775
 20
226.807159
 40
6.500000
  0
CIRCLE
  8
0
  6
CONTINUOUS
 10
566.630371
 20
50.031845
 40
6.500000
  0
ARC
  8
0
  6
CONTINUOUS
 10
655.020020
 20
-524.081116
 40
770.000000
 50
90.000000
 51
96.716454
  0
ARC
  8
0
  6
CONTINUOUS
 10
1317.520142
 20
138.418869
 40
770.000000
 50
173.290894
 51
186.822098
  0
ARC
  8
0
  6
CONTINUOUS
 10
566.697388
 20
226.741623
 40
14.000000
 50
97.151688
 51
173.290695
  0
ARC
  8
0
  6
CONTINUOUS
 10
655.020020
 20
211.918869
 40
200.000000
 50
-118.106201
 51
-90.000000
  0
ARC
  8
0
  6
CONTINUOUS
 10
567.865601
 20
48.734608
 40
15.000000
 50
-173.178101
 51
-118.106201
  0
LINE
  8
0
  6
CENTER
 10
517.000000
 20
138.418869
 11
787.900024
 21
138.418869
  0
CIRCLE
  8
0
  6
CONTINUOUS
 10
655.020020
 20
138.418869
 40
90.000000
  0
ARC
  8
0
  6
CONTINUOUS
 10
566.630371
 20
50.031845
 40
15.000000
 50
-29.631590
 51
95.716057
  0
ARC
  8
0
  6
CONTINUOUS
 10
566.631775
 20
226.807159
 40
15.000000
 50
-95.719360
 51
5.719240
  0
LINE
  8
0
  6
CENTER
 10
543.535217
 20
249.903946
 11
766.869629
 21
26.568447
  0
CIRCLE
  8
0
  6
CONTINUOUS
 10
655.020020
 20
138.418869
 40
44.000000
  0
ARC
  8
0
  6
CONTINUOUS
 10
655.020020
 20
109.918869
 40
94.500000
 50
94.117500
 51
118.830002
  0
ARC
  8
0
  6
CONTINUOUS
 10
655.020020
 20
109.918869
 40
94.500000
 50
127.247803
 51
137.459595
  0
ARC
  8
0
  6
CONTINUOUS
 10
655.020020
 20
-524.081116
 40
762.000000
 50
92.634644
 51
95.122261
  0
ARC
  8
0
  6
CONTINUOUS
 10
655.020020
 20
211.918869
 40
192.000000
 50
247.847397
 51
270.000000
  0
ARC
  8
0
  6
CONTINUOUS
 10
655.020020
 20
138.418869
 40
93.000000
 50
200.549301
 51
339.450897
  0
ARC
  8
0
  6
CONTINUOUS
 10
620.270386
 20
231.119659
 40
6.000000
 50
-69.453773
 51
92.634888
  0
ARC
  8
0
  6
CONTINUOUS
 10
587.527222
 20
228.900070
 40
6.000000
 50
94.131416
 51
185.719299
  0
LINE
  8
0
  6
CONTINUOUS
 10
582.517822
 20
216.578049
 11
588.203430
 21
210.892868
  0
LINE
  8
0
  6
CONTINUOUS
 10
576.860596
 20
210.922043
 11
582.546387
 21
205.236252
  0
ARC
  8
0
  6
CONTINUOUS
 10
586.760376
 20
220.820602
 40
6.000000
 50
163.436707
 51
225.000198
  0
ARC
  8
0
  6
CONTINUOUS
 10
592.446594
 20
215.136261
 40
6.000000
 50
225.000397
 51
309.198792
  0
ARC
  8
0
  6
CONTINUOUS
 10
572.617188
 20
206.678268
 40
6.000000
 50
45.000980
 51
106.560303
  0
ARC
  8
0
  6
CONTINUOUS
 10
578.302979
 20
200.992844
 40
6.000000
 50
-39.205021
 51
45.000370
  0
ARC
  8
0
  6
CONTINUOUS
 10
564.539185
 20
205.911667
 40
6.000000
 50
84.280296
 51
174.878494
  0
ARC
  8
0
  6
CONTINUOUS
 10
1317.520142
 20
138.418869
 40
762.000000
 50
174.878006
 51
177.365601
  0
ARC
  8
0
  6
CONTINUOUS
 10
562.319214
 20
173.168869
 40
6.000000
 50
177.365799
 51
339.447906
  0
ARC
  8
0
  6
CONTINUOUS
 10
562.319214
 20
103.668869
 40
6.000000
 50
20.546129
 51
182.634506
  0
ARC
  8
0
  6
CONTINUOUS
 10
564.538818
 20
70.927589
 40
6.000000
 50
185.121902
 51
275.716187
  0
ARC
  8
0
  6
CONTINUOUS
 10
584.883972
 20
39.649029
 40
6.000000
 50
150.368195
 51
247.847305
  0
LINE
  8
0
  6
CONTINUOUS
 10
600.787170
 20
198.308762
 11
605.883179
 21
193.212570
  0
LINE
  8
0
  6
CONTINUOUS
 10
595.130371
 20
192.651794
 11
598.129028
 21
189.653366
  0
ARC
  8
0
  6
CONTINUOUS
 10
596.007202
 20
187.531662
 40
3.000000
 50
-52.751888
 51
44.999950
  0
ARC
  8
0
  6
CONTINUOUS
 10
608.004822
 20
195.334274
 40
3.000000
 50
225.000000
 51
298.830292
  0
ARC
  8
0
  6
CONTINUOUS
 10
648.019409
 20
207.167160
 40
3.000000
 50
-85.881470
 51
0.000000
  0
CIRCLE
  8
0
  6
CONTINUOUS
 10
655.020020
 20
138.418869
 40
84.000000
  0
ARC
  8
0
  6
CONTINUOUS
 10
602.907227
 20
200.429001
 40
3.000000
 50
130.048294
 51
225.001205
  0
ARC
  8
0
  6
CONTINUOUS
 10
648.019409
 20
219.115768
 40
3.000000
 50
0.000000
 51
94.963966
  0
ARC
  8
0
  6
CONTINUOUS
 10
583.182373
 20
175.839767
 40
3.000000
 50
152.489807
 51
317.459595
  0
ARC
  8
0
  6
CONTINUOUS
 10
593.009399
 20
190.531052
 40
3.000000
 50
45.000778
 51
139.962494
  0
LINE
  8
0
  6
CONTINUOUS
 10
651.020020
 20
207.167160
 11
651.020020
 21
219.115768
  0
CIRCLE
  8
0
  6
CONTINUOUS
 10
743.408386
 20
226.807159
 40
6.500000
  0
CIRCLE
  8
0
  6
CONTINUOUS
 10
743.408386
 20
50.031845
 40
6.500000
  0
ARC
  8
0
  6
CONTINUOUS
 10
655.020020
 20
-524.081116
 40
770.000000
 50
83.283546
 51
90.000000
  0
ARC
  8
0
  6
CONTINUOUS
 10
-7.479960
 20
138.418869
 40
770.000000
 50
-6.822098
 51
6.709106
  0
ARC
  8
0
  6
CONTINUOUS
 10
743.342407
 20
226.741623
 40
14.000000
 50
6.709305
 51
82.848312
  0
ARC
  8
0
  6
CONTINUOUS
 10
655.020020
 20
211.918869
 40
200.000000
 50
270.000000
 51
298.106201
  0
ARC
  8
0
  6
CONTINUOUS
 10
742.174377
 20
48.734608
 40
15.000000
 50
298.106201
 51
353.178101
  0
ARC
  8
0
  6
CONTINUOUS
 10
743.408386
 20
50.031845
 40
15.000000
 50
84.283943
 51
209.631607
  0
ARC
  8
0
  6
CONTINUOUS
 10
743.408386
 20
226.807159
 40
15.000000
 50
174.280807
 51
275.719391
  0
LINE
  8
0
  6
CENTER
 10
767.085022
 20
250.483932
 11
543.592773
 21
26.991146
  0
ARC
  8
0
  6
CONTINUOUS
 10
655.020020
 20
109.918869
 40
94.500000
 50
61.170040
 51
85.882500
  0
ARC
  8
0
  6
CONTINUOUS
 10
655.020020
 20
109.918869
 40
94.500000
 50
42.540409
 51
52.752239
  0
ARC
  8
0
  6
CONTINUOUS
 10
655.020020
 20
-524.081116
 40
762.000000
 50
84.877739
 51
87.365356
  0
ARC
  8
0
  6
CONTINUOUS
 10
655.020020
 20
211.918869
 40
192.000000
 50
-90.000000
 51
-67.847443
  0
ARC
  8
0
  6
CONTINUOUS
 10
689.770386
 20
231.119659
 40
6.000000
 50
87.365112
 51
249.453796
  0
ARC
  8
0
  6
CONTINUOUS
 10
722.513184
 20
228.900070
 40
6.000000
 50
-5.719299
 51
85.868584
  0
LINE
  8
0
  6
CONTINUOUS
 10
727.522400
 20
216.578049
 11
721.837219
 21
210.892868
  0
LINE
  8
0
  6
CONTINUOUS
 10
733.178406
 20
210.922043
 11
727.494385
 21
205.236252
  0
ARC
  8
0
  6
CONTINUOUS
 10
723.279175
 20
220.820602
 40
6.000000
 50
-45.000149
 51
16.563290
  0
ARC
  8
0
  6
CONTINUOUS
 10
717.593201
 20
215.136261
 40
6.000000
 50
-129.198807
 51
-45.000370
  0
ARC
  8
0
  6
CONTINUOUS
 10
737.422424
 20
206.678268
 40
6.000000
 50
73.439651
 51
134.998993
  0
ARC
  8
0
  6
CONTINUOUS
 10
731.736389
 20
200.992844
 40
6.000000
 50
134.999603
 51
219.205002
  0
ARC
  8
0
  6
CONTINUOUS
 10
745.500427
 20
205.911667
 40
6.000000
 50
5.121521
 51
95.719704
  0
ARC
  8
0
  6
CONTINUOUS
 10
-7.479960
 20
138.418869
 40
762.000000
 50
354.877899
 51
357.365387
  0
ARC
  8
0
  6
CONTINUOUS
 10
745.500427
 20
70.927589
 40
6.000000
 50
-95.716187
 51
-5.121872
  0
ARC
  8
0
  6
CONTINUOUS
 10
725.156372
 20
39.649029
 40
6.000000
 50
-67.847313
 51
29.631790
  0
LINE
  8
0
  6
CONTINUOUS
 10
709.253174
 20
198.308762
 11
704.157227
 21
193.212570
  0
LINE
  8
0
  6
CONTINUOUS
 10
714.909180
 20
192.651794
 11
711.911194
 21
189.653366
  0
ARC
  8
0
  6
CONTINUOUS
 10
714.033203
 20
187.531662
 40
3.000000
 50
135.000000
 51
232.751907
  0
ARC
  8
0
  6
CONTINUOUS
 10
702.035217
 20
195.334274
 40
3.000000
 50
-118.830299
 51
-44.999950
  0
ARC
  8
0
  6
CONTINUOUS
 10
662.020630
 20
207.167160
 40
3.000000
 50
180.000000
 51
265.881500
  0
ARC
  8
0
  6
CONTINUOUS
 10
707.133179
 20
200.429001
 40
3.000000
 50
-45.001190
 51
49.951691
  0
ARC
  8
0
  6
CONTINUOUS
 10
662.020813
 20
219.115768
 40
3.000000
 50
85.036034
 51
180.000000
  0
ARC
  8
0
  6
CONTINUOUS
 10
726.858398
 20
175.839767
 40
3.000000
 50
-137.459595
 51
27.510210
  0
ARC
  8
0
  6
CONTINUOUS
 10
717.030212
 20
190.531052
 40
3.000000
 50
40.037460
 51
134.999207
  0
LINE
  8
0
  6
CONTINUOUS
 10
659.020020
 20
207.167160
 11
659.020020
 21
219.115768
  0
ARC
  8
0
  6
CONTINUOUS
 10
629.020020
 20
76.918869
 40
28.000000
 50
106.235603
 51
173.092804
  0
ARC
  8
0
  6
CONTINUOUS
 10
598.244995
 20
80.647011
 40
3.000000
 50
225.503601
 51
353.093506
  0
ARC
  8
0
  6
CONTINUOUS
 10
620.353027
 20
106.682671
 40
3.000000
 50
-73.765991
 51
42.469879
  0
ARC
  8
0
  6
CONTINUOUS
 10
656.408997
 20
91.439369
 40
3.000000
 50
91.688263
 51
207.931000
  0
ARC
  8
0
  6
CONTINUOUS
 10
653.136597
 20
57.440845
 40
3.000000
 50
141.073395
 51
268.673187
  0
ARC
  8
0
  6
CONTINUOUS
 10
629.020020
 20
76.918869
 40
28.000000
 50
-38.926270
 51
27.930740
  0
ARC
  8
0
  6
CONTINUOUS
 10
-7.479960
 20
138.418869
 40
762.000000
 50
2.634558
 51
5.121964
  0
ARC
  8
0
  6
CONTINUOUS
 10
1317.520142
 20
138.418869
 40
762.000000
 50
182.634598
 51
185.122101
  0
ARC
  8
0
  6
CONTINUOUS
 10
747.720398
 20
173.168869
 40
6.000000
 50
-159.450500
 51
2.634794
  0
ARC
  8
0
  6
CONTINUOUS
 10
655.020020
 20
138.418869
 40
93.000000
 50
20.549030
 51
69.450630
  0
ARC
  8
0
  6
CONTINUOUS
 10
747.720398
 20
103.668983
 40
6.000000
 50
-2.634491
 51
159.451202
  0
ARC
  8
0
  6
CONTINUOUS
 10
655.020020
 20
138.418869
 40
16.000000
 50
-161.789993
 51
161.789993
  0
LINE
  8
0
  6
CONTINUOUS
 10
644.020020
 20
143.418869
 11
644.020020
 21
133.418869
  0
LINE
  8
0
  6
CONTINUOUS
 10
636.020020
 20
143.418869
 11
636.020020
 21
133.418869
  0
LINE
  8
0
  6
CONTINUOUS
 10
636.020020
 20
143.418869
 11
644.020020
 21
143.418869
  0
LINE
  8
0
  6
CONTINUOUS
 10
636.020020
 20
133.418869
 11
644.020020
 21
133.418869
  0
CIRCLE
  8
0
  6
CENTER
 10
655.020020
 20
138.418869
 40
125.000000
  0
ARC
  8
0
  6
CONTINUOUS
 10
655.020020
 20
138.418869
 40
93.000000
 50
110.549202
 51
159.451096
  0
LINE
  8
0
  6
CONTINUOUS
 10
529.325806
 20
93.686378
 11
537.809998
 21
158.130295
  0
LINE
  8
0
  6
CONTINUOUS
 10
543.093567
 20
159.956268
 11
533.956726
 21
90.555138
  0
LINE
  8
0
  6
CONTINUOUS
 10
544.085022
 20
159.825745
 11
534.948181
 21
90.424606
  0
LINE
  8
0
  6
CONTINUOUS
 10
543.093567
 20
159.956268
 11
544.085022
 21
159.825745
  0
LINE
  8
0
  6
CONTINUOUS
 10
533.956726
 20
90.555138
 11
534.948181
 21
90.424606
  0
LINE
  8
0
  6
CONTINUOUS
 10
539.999512
 20
151.777252
 11
540.980164
 21
159.225876
  0
LINE
  8
0
  6
CONTINUOUS
 10
533.085022
 20
99.256294
 11
532.104370
 21
91.807632
  0
LINE
  8
0
  6
CONTINUOUS
 10
539.451538
 20
151.345291
 11
537.920166
 21
151.506256
  0
ARC
  8
0
  6
CONTINUOUS
 10
539.503784
 20
151.842514
 40
0.500000
 50
-96.000000
 51
-7.500000
  0
ARC
  8
0
  6
CONTINUOUS
 10
537.815674
 20
150.511688
 40
1.000000
 50
83.999802
 51
172.500000
  0
ARC
  8
0
  6
CONTINUOUS
 10
541.971619
 20
159.095352
 40
1.000000
 50
82.500000
 51
172.500000
  0
ARC
  8
0
  6
CONTINUOUS
 10
540.288635
 20
157.803986
 40
2.500000
 50
82.500000
 51
172.500000
  0
LINE
  8
0
  6
CONTINUOUS
 10
532.667542
 20
99.815453
 11
531.146667
 21
100.056313
  0
ARC
  8
0
  6
CONTINUOUS
 10
531.303101
 20
101.043968
 40
1.000000
 50
172.500000
 51
260.999603
  0
ARC
  8
0
  6
CONTINUOUS
 10
532.589294
 20
99.321564
 40
0.500000
 50
-7.500000
 51
80.999802
  0
ARC
  8
0
  6
CONTINUOUS
 10
533.095825
 20
91.677109
 40
1.000000
 50
172.500000
 51
262.500000
  0
ARC
  8
0
  6
CONTINUOUS
 10
531.804443
 20
93.360062
 40
2.500000
 50
172.500000
 51
262.500000
  0
ARC
  8
0
  6
CONTINUOUS
 10
540.458069
 20
155.260101
 40
3.000000
 50
82.500000
 51
262.500000
  0
LINE
  8
0
  6
CONTINUOUS
 10
540.348450
 20
158.258057
 11
539.576233
 21
152.392670
  0
LINE
  8
0
  6
CONTINUOUS
 10
537.979431
 20
155.586426
 11
537.460083
 21
155.371262
  0
LINE
  8
0
  6
CONTINUOUS
 10
537.979431
 20
155.586426
 11
537.533508
 21
155.928650
  0
ARC
  8
0
  6
CONTINUOUS
 10
532.626465
 20
95.773415
 40
3.000000
 50
82.500000
 51
262.500000
  0
LINE
  8
0
  6
CONTINUOUS
 10
532.516846
 20
98.771378
 11
531.744629
 21
92.905968
  0
LINE
  8
0
  6
CONTINUOUS
 10
530.147888
 20
96.099724
 11
529.628540
 21
95.884605
  0
LINE
  8
0
  6
CONTINUOUS
 10
530.147888
 20
96.099724
 11
529.701904
 21
96.441994
  0
LINE
  8
0
  6
CONTINUOUS
 10
540.614929
 20
160.282593
 11
543.093567
 21
159.956268
  0
LINE
  8
0
  6
CONTINUOUS
 10
531.478149
 20
90.881454
 11
533.956726
 21
90.555138
  0
LINE
  8
0
  6
CONTINUOUS
 10
549.111511
 20
88.940613
 11
534.948181
 21
90.424606
  0
LINE
  8
0
  6
CONTINUOUS
 10
547.801636
 20
159.235809
 11
544.085022
 21
159.825745
  0
LINE
  8
0
  6
CENTER
 10
15.745000
 20
342.229675
 11
52.404999
 21
342.229675
  0
LINE
  8
0
  6
CENTER
 10
82.410179
 20
388.095001
 11
82.410179
 21
310.309998
  0
LINE
  8
0
  6
CONTINUOUS
 10
280.014923
 20
45.897717
 11
279.410095
 21
45.918865
  0
ARC
  8
0
  6
CONTINUOUS
 10
279.910065
 20
42.899548
 40
3.000000
 50
0.000000
 51
87.997017
  0
LINE
  8
0
  6
CONTINUOUS
 10
280.014923
 20
173.940018
 11
279.410095
 21
173.918869
  0
ARC
  8
0
  6
CONTINUOUS
 10
279.910065
 20
176.938187
 40
3.000000
 50
-87.997017
 51
0.000000
  0
LINE
  8
0
  6
CONTINUOUS
 10
191.186371
 20
388.914978
 11
191.134277
 21
386.922791
  0
LINE
  8
0
  6
CONTINUOUS
 10
194.788574
 20
414.869690
 11
230.076874
 21
414.869690
  0
LINE
  8
0
  6
CONTINUOUS
 10
194.361374
 20
402.169678
 11
230.076874
 21
402.169678
  0
LINE
  8
0
  6
CONTINUOUS
 10
181.410172
 20
441.869690
 11
181.410172
 21
377.869690
  0
LINE
  8
0
  6
CONTINUOUS
 10
230.076874
 20
402.169678
 11
265.887878
 21
402.169678
  0
LINE
  8
0
  6
CONTINUOUS
 10
230.076874
 20
414.869690
 11
266.031769
 21
414.869690
  0
LINE
  8
0
  6
CONTINUOUS
 10
269.313080
 20
401.162201
 11
268.410278
 21
435.630402
  0
LINE
  8
0
  6
CONTINUOUS
 10
192.910172
 20
411.869690
 11
192.910172
 21
390.869690
  0
LINE
  8
0
  6
CONTINUOUS
 10
194.160080
 20
389.869690
 11
238.410141
 21
389.869690
  0
LINE
  8
0
  6
CONTINUOUS
 10
191.479568
 20
400.113190
 11
192.409973
 21
435.629883
  0
ARC
  8
0
  6
CONTINUOUS
 10
191.910172
 20
390.869690
 40
1.000000
 50
-82.060577
 51
0.000000
  0
ARC
  8
0
  6
CONTINUOUS
 10
192.186478
 20
388.888885
 40
1.000000
 50
97.941017
 51
178.502808
  0
ARC
  8
0
  6
CONTINUOUS
 10
195.910172
 20
411.869690
 40
3.000000
 50
90.000000
 51
180.000000
  0
ARC
  8
0
  6
CONTINUOUS
 10
191.910172
 20
398.169678
 40
1.000000
 50
0.000000
 51
73.469917
  0
ARC
  8
0
  6
CONTINUOUS
 10
192.479172
 20
400.086975
 40
1.000000
 50
178.499496
 51
253.470200
  0
LINE
  8
0
  6
CONTINUOUS
 10
193.510178
 20
441.869690
 11
192.409973
 21
435.629883
  0
LINE
  8
0
  6
CONTINUOUS
 10
267.310181
 20
441.869690
 11
268.410278
 21
435.630402
  0
ARC
  8
0
  6
CONTINUOUS
 10
194.788574
 20
411.869690
 40
3.000000
 50
90.000000
 51
178.499802
  0
LINE
  8
0
  6
CONTINUOUS
 10
193.125977
 20
435.629883
 11
267.596069
 21
435.630402
  0
LINE
  8
0
  6
CONTINUOUS
 10
266.910187
 20
411.869690
 11
266.910187
 21
390.869690
  0
ARC
  8
0
  6
CONTINUOUS
 10
263.910187
 20
411.869690
 40
3.000000
 50
0.000000
 51
90.000000
  0
ARC
  8
0
  6
CONTINUOUS
 10
266.031769
 20
411.869690
 40
3.000000
 50
1.500198
 51
90.000000
  0
ARC
  8
0
  6
CONTINUOUS
 10
267.910187
 20
398.169678
 40
1.000000
 50
101.464699
 51
180.000000
  0
ARC
  8
0
  6
CONTINUOUS
 10
267.910187
 20
390.869690
 40
1.000000
 50
180.000000
 51
265.243713
  0
ARC
  8
0
  6
CONTINUOUS
 10
267.313873
 20
401.109802
 40
2.000000
 50
-78.535400
 51
1.500488
  0
ARC
  8
0
  6
CONTINUOUS
 10
267.661469
 20
387.879974
 40
2.000000
 50
-7.971832
 51
85.243713
  0
LINE
  8
0
  6
CONTINUOUS
 10
191.186371
 20
494.824402
 11
191.134277
 21
496.816589
  0
LINE
  8
0
  6
CONTINUOUS
 10
194.788574
 20
468.869690
 11
230.076874
 21
468.869690
  0
LINE
  8
0
  6
CONTINUOUS
 10
194.361374
 20
481.569702
 11
230.076874
 21
481.569702
  0
LINE
  8
0
  6
CONTINUOUS
 10
181.410172
 20
441.869690
 11
181.410172
 21
505.869690
  0
LINE
  8
0
  6
CONTINUOUS
 10
230.076874
 20
481.569702
 11
265.887878
 21
481.569702
  0
LINE
  8
0
  6
CONTINUOUS
 10
230.076874
 20
468.869690
 11
266.031769
 21
468.869690
  0
LINE
  8
0
  6
CONTINUOUS
 10
269.313080
 20
482.577179
 11
268.410278
 21
448.108978
  0
LINE
  8
0
  6
CONTINUOUS
 10
192.910172
 20
471.869690
 11
192.910172
 21
492.869690
  0
LINE
  8
0
  6
CONTINUOUS
 10
266.673462
 20
493.869690
 11
194.160080
 21
493.869690
  0
LINE
  8
0
  6
CONTINUOUS
 10
191.479568
 20
483.626190
 11
192.409973
 21
448.109497
  0
ARC
  8
0
  6
CONTINUOUS
 10
191.910172
 20
492.869690
 40
1.000000
 50
0.000000
 51
82.060577
  0
ARC
  8
0
  6
CONTINUOUS
 10
192.186478
 20
494.850494
 40
1.000000
 50
181.497192
 51
262.058990
  0
ARC
  8
0
  6
CONTINUOUS
 10
195.910172
 20
471.869690
 40
3.000000
 50
180.000000
 51
270.000000
  0
ARC
  8
0
  6
CONTINUOUS
 10
191.910172
 20
485.569702
 40
1.000000
 50
-73.469917
 51
0.000000
  0
ARC
  8
0
  6
CONTINUOUS
 10
192.479172
 20
483.652374
 40
1.000000
 50
106.529800
 51
181.500504
  0
LINE
  8
0
  6
CONTINUOUS
 10
193.510178
 20
441.869690
 11
192.409973
 21
448.109497
  0
LINE
  8
0
  6
CONTINUOUS
 10
267.310181
 20
441.869690
 11
268.410278
 21
448.108978
  0
ARC
  8
0
  6
CONTINUOUS
 10
194.788574
 20
471.869690
 40
3.000000
 50
181.500198
 51
270.000000
  0
LINE
  8
0
  6
CONTINUOUS
 10
193.125977
 20
448.109497
 11
267.596069
 21
448.108978
  0
LINE
  8
0
  6
CONTINUOUS
 10
266.910187
 20
471.869690
 11
266.910187
 21
492.869690
  0
ARC
  8
0
  6
CONTINUOUS
 10
263.910187
 20
471.869690
 40
3.000000
 50
-90.000000
 51
0.000000
  0
ARC
  8
0
  6
CONTINUOUS
 10
266.031769
 20
471.869690
 40
3.000000
 50
270.000000
 51
358.499817
  0
ARC
  8
0
  6
CONTINUOUS
 10
267.910187
 20
485.569702
 40
1.000000
 50
180.000000
 51
258.535309
  0
ARC
  8
0
  6
CONTINUOUS
 10
267.910187
 20
492.869690
 40
1.000000
 50
94.756302
 51
180.000000
  0
ARC
  8
0
  6
CONTINUOUS
 10
267.313873
 20
482.629578
 40
2.000000
 50
-1.500488
 51
78.535400
  0
ARC
  8
0
  6
CONTINUOUS
 10
267.661469
 20
495.859375
 40
2.000000
 50
-85.243713
 51
7.971832
  0
LINE
  8
0
  6
CONTINUOUS
 10
269.672455
 20
496.791168
 11
269.884674
 21
504.895874
  0
ARC
  8
0
  6
CONTINUOUS
 10
270.884338
 20
504.869690
 40
1.000000
 50
90.000000
 51
178.500000
  0
LINE
  8
0
  6
CONTINUOUS
 10
270.884338
 20
505.869690
 11
279.410187
 21
505.869690
  0
ARC
  8
0
  6
CONTINUOUS
 10
266.673462
 20
496.869690
 40
3.000000
 50
270.000000
 51
358.500000
  0
LINE
  8
0
  6
CONTINUOUS
 10
189.936020
 20
505.869690
 11
178.410172
 21
505.869690
  0
ARC
  8
0
  6
CONTINUOUS
 10
189.936020
 20
504.869690
 40
1.000000
 50
1.500000
 51
90.000000
  0
LINE
  8
0
  6
CONTINUOUS
 10
191.147903
 20
496.791168
 11
190.935669
 21
504.895874
  0
ARC
  8
0
  6
CONTINUOUS
 10
194.146881
 20
496.869690
 40
3.000000
 50
181.500000
 51
270.000000
  0
LINE
  8
0
  6
CONTINUOUS
 10
270.884338
 20
377.869690
 11
279.410187
 21
377.869690
  0
LINE
  8
0
  6
CONTINUOUS
 10
269.672455
 20
386.948212
 11
269.884674
 21
378.843506
  0
ARC
  8
0
  6
CONTINUOUS
 10
270.884338
 20
378.869690
 40
1.000000
 50
181.500000
 51
270.000000
  0
ARC
  8
0
  6
CONTINUOUS
 10
266.673462
 20
386.869690
 40
3.000000
 50
1.500000
 51
90.000000
  0
LINE
  8
0
  6
CONTINUOUS
 10
189.936020
 20
377.869690
 11
178.410172
 21
377.869690
  0
ARC
  8
0
  6
CONTINUOUS
 10
189.936020
 20
378.869690
 40
1.000000
 50
270.000000
 51
358.500000
  0
LINE
  8
0
  6
CONTINUOUS
 10
191.147903
 20
386.948212
 11
190.935669
 21
378.843506
  0
ARC
  8
0
  6
CONTINUOUS
 10
194.146881
 20
386.869690
 40
3.000000
 50
90.000000
 51
178.500000
  0
LINE
  8
0
  6
CONTINUOUS
 10
245.410172
 20
392.869690
 11
245.410172
 21
391.869690
  0
LINE
  8
0
  6
CONTINUOUS
 10
234.410172
 20
392.869690
 11
234.410172
 21
391.869690
  0
LINE
  8
0
  6
CONTINUOUS
 10
235.410172
 20
393.869690
 11
244.410172
 21
393.869690
  0
ARC
  8
0
  6
CONTINUOUS
 10
244.410172
 20
392.869690
 40
1.000000
 50
0.000000
 51
90.000000
  0
ARC
  8
0
  6
CONTINUOUS
 10
235.410172
 20
392.869690
 40
1.000000
 50
90.000000
 51
180.000000
  0
ARC
  8
0
  6
CONTINUOUS
 10
247.410172
 20
391.869690
 40
2.000000
 50
180.000000
 51
270.000000
  0
ARC
  8
0
  6
CONTINUOUS
 10
232.410172
 20
391.869690
 40
2.000000
 50
-90.000000
 51
0.000000
  0
LINE
  8
0
  6
CONTINUOUS
 10
239.910141
 20
393.869690
 11
239.910141
 21
381.540161
  0
LINE
  8
0
  6
CONTINUOUS
 10
241.410141
 20
393.869690
 11
241.410141
 21
382.355652
  0
LINE
  8
0
  6
CONTINUOUS
 10
238.410141
 20
393.869690
 11
238.410141
 21
381.800354
  0
LINE
  8
0
  6
CONTINUOUS
 10
241.410141
 20
389.869690
 11
267.160278
 21
389.869690
  0
LINE
  8
0
  6
CONTINUOUS
 10
238.410141
 20
381.800354
 11
239.910141
 21
382.667358
  0
LINE
  8
0
  6
CONTINUOUS
 10
239.910141
 20
381.540161
 11
241.410141
 21
382.355652
  0
LINE
  8
0
  6
CONTINUOUS
 10
191.410141
 20
388.098602
 11
191.410141
 21
376.121765
  0
LINE
  8
0
  6
CONTINUOUS
 10
192.910141
 20
389.602905
 11
192.910141
 21
376.937256
  0
LINE
  8
0
  6
CONTINUOUS
 10
189.910141
 20
376.381958
 11
191.410141
 21
377.248962
  0
LINE
  8
0
  6
CONTINUOUS
 10
191.410141
 20
376.121765
 11
192.910141
 21
376.937256
  0
LINE
  8
0
  6
CONTINUOUS
 10
189.910141
 20
377.869690
 11
189.910141
 21
376.381958
  0
LINE
  8
0
  6
CONTINUOUS
 10
266.491577
 20
441.869690
 11
194.222656
 21
441.869690
  0
LINE
  8
0
  6
CONTINUOUS
 10
270.310089
 20
173.918823
 11
279.410095
 21
173.918823
  0
LINE
  8
0
  6
CONTINUOUS
 10
279.410095
 20
45.918827
 11
270.310089
 21
45.918827
  0
LINE
  8
0
  6
CONTINUOUS
 10
178.410095
 20
173.918823
 11
190.510101
 21
173.918823
  0
LINE
  8
0
  6
CONTINUOUS
 10
178.410095
 20
45.918827
 11
190.510101
 21
45.918827
  0
LINE
  8
0
  6
CONTINUOUS
 10
181.410095
 20
173.918823
 11
181.410095
 21
45.918827
  0
LINE
  8
0
  6
CONTINUOUS
 10
266.910095
 20
57.918766
 11
193.910095
 21
57.918568
  0
LINE
  8
0
  6
CONTINUOUS
 10
262.910095
 20
103.918869
 11
262.910095
 21
89.918869
  0
LINE
  8
0
  6
CONTINUOUS
 10
229.909897
 20
103.918869
 11
229.909897
 21
89.918869
  0
LINE
  8
0
  6
CONTINUOUS
 10
197.910095
 20
103.918869
 11
197.910095
 21
89.918869
  0
LINE
  8
0
  6
CONTINUOUS
 10
200.909943
 20
86.918869
 11
226.909897
 21
86.918869
  0
ARC
  8
0
  6
CONTINUOUS
 10
200.909943
 20
89.918869
 40
3.000000
 50
180.000000
 51
270.000000
  0
ARC
  8
0
  6
CONTINUOUS
 10
226.909897
 20
89.918869
 40
3.000000
 50
-90.000000
 51
0.000000
  0
ARC
  8
0
  6
CONTINUOUS
 10
237.910095
 20
89.918869
 40
3.000000
 50
180.000000
 51
270.000000
  0
ARC
  8
0
  6
CONTINUOUS
 10
259.910095
 20
89.918869
 40
3.000000
 50
-90.000000
 51
0.000000
  0
LINE
  8
0
  6
CONTINUOUS
 10
234.910095
 20
103.918869
 11
234.910095
 21
89.918869
  0
LINE
  8
0
  6
CONTINUOUS
 10
237.910095
 20
86.918869
 11
259.910095
 21
86.918869
  0
LINE
  8
0
  6
CONTINUOUS
 10
237.910095
 20
106.918869
 11
238.409988
 21
106.918869
  0
ARC
  8
0
  6
CONTINUOUS
 10
259.910095
 20
103.918839
 40
3.000000
 50
0.000000
 51
90.000000
  0
LINE
  8
0
  6
CONTINUOUS
 10
200.909943
 20
106.918869
 11
226.909897
 21
106.918869
  0
ARC
  8
0
  6
CONTINUOUS
 10
237.910095
 20
103.918869
 40
3.000000
 50
90.000000
 51
180.000000
  0
ARC
  8
0
  6
CONTINUOUS
 10
226.909897
 20
103.918839
 40
3.000000
 50
0.000000
 51
90.000000
  0
ARC
  8
0
  6
CONTINUOUS
 10
200.909943
 20
103.918869
 40
3.000000
 50
90.000000
 51
180.000000
  0
LINE
  8
0
  6
CONTINUOUS
 10
190.910095
 20
170.918808
 11
190.910095
 21
141.770966
  0
LINE
  8
0
  6
CONTINUOUS
 10
193.910095
 20
78.918869
 11
266.910095
 21
78.918869
  0
ARC
  8
0
  6
CONTINUOUS
 10
272.910095
 20
170.918808
 40
3.000000
 50
90.000000
 51
180.000000
  0
ARC
  8
0
  6
CONTINUOUS
 10
187.910095
 20
170.918808
 40
3.000000
 50
0.000000
 51
90.000000
  0
ARC
  8
0
  6
CONTINUOUS
 10
266.910095
 20
75.918823
 40
3.000000
 50
0.000000
 51
90.000000
  0
ARC
  8
0
  6
CONTINUOUS
 10
266.910095
 20
54.918808
 40
3.000000
 50
0.000000
 51
90.000000
  0
ARC
  8
0
  6
CONTINUOUS
 10
272.910095
 20
48.918865
 40
3.000000
 50
180.000000
 51
270.000000
  0
ARC
  8
0
  6
CONTINUOUS
 10
187.910095
 20
48.918865
 40
3.000000
 50
-90.000000
 51
0.000000
  0
ARC
  8
0
  6
CONTINUOUS
 10
193.910095
 20
54.918827
 40
3.000000
 50
90.000000
 51
180.000000
  0
ARC
  8
0
  6
CONTINUOUS
 10
193.910095
 20
75.918869
 40
3.000000
 50
90.000000
 51
180.000000
  0
LINE
  8
0
  6
CONTINUOUS
 10
269.910095
 20
170.918762
 11
269.910095
 21
48.918827
  0
LINE
  8
0
  6
CONTINUOUS
 10
266.910095
 20
161.918961
 11
193.910095
 21
161.919174
  0
ARC
  8
0
  6
CONTINUOUS
 10
266.910095
 20
164.918930
 40
3.000000
 50
-90.000000
 51
0.000000
  0
ARC
  8
0
  6
CONTINUOUS
 10
193.910095
 20
164.918900
 40
3.000000
 50
-180.000000
 51
-90.000000
  0
ARC
  8
0
  6
CONTINUOUS
 10
266.910095
 20
143.918869
 40
3.000000
 50
-90.000000
 51
0.000000
  0
ARC
  8
0
  6
CONTINUOUS
 10
239.909897
 20
133.418869
 40
5.500000
 50
180.000000
 51
254.174469
  0
LINE
  8
0
  6
CONTINUOUS
 10
234.409897
 20
137.918869
 11
234.409988
 21
133.418869
  0
LINE
  8
0
  6
CONTINUOUS
 10
245.410095
 20
137.918869
 11
245.410095
 21
133.418869
  0
LINE
  8
0
  6
CONTINUOUS
 10
231.909897
 20
140.918869
 11
193.910095
 21
140.918869
  0
LINE
  8
0
  6
CONTINUOUS
 10
231.909988
 20
140.918869
 11
248.910095
 21
140.918869
  0
ARC
  8
0
  6
CONTINUOUS
 10
248.410095
 20
137.918869
 40
3.000000
 50
90.000000
 51
180.000000
  0
ARC
  8
0
  6
CONTINUOUS
 10
231.409897
 20
137.918869
 40
3.000000
 50
0.000000
 51
90.000000
  0
LINE
  8
0
  6
CONTINUOUS
 10
266.910095
 20
140.918869
 11
248.910095
 21
140.918869
  0
ARC
  8
0
  6
CONTINUOUS
 10
191.409897
 20
133.418869
 40
5.000000
 50
123.362900
 51
161.336899
  0
ARC
  8
0
  6
CONTINUOUS
 10
185.910187
 20
125.066963
 40
5.000000
 50
36.873718
 51
56.635471
  0
ARC
  8
0
  6
CONTINUOUS
 10
185.910492
 20
141.770966
 40
5.000000
 50
-56.637020
 51
0.000000
  0
ARC
  8
0
  6
CONTINUOUS
 10
193.910095
 20
143.918869
 40
3.000000
 50
180.000000
 51
270.000000
  0
ARC
  8
0
  6
CONTINUOUS
 10
191.409897
 20
133.418869
 40
5.000000
 50
198.663101
 51
236.635498
  0
LINE
  8
0
  6
CONTINUOUS
 10
188.872269
 20
135.018860
 11
181.410095
 21
135.018860
  0
LINE
  8
0
  6
CONTINUOUS
 10
188.872269
 20
131.818878
 11
181.410095
 21
131.818878
  0
LINE
  8
0
  6
CONTINUOUS
 10
191.409988
 20
133.418869
 11
191.409988
 21
107.668869
  0
LINE
  8
0
  6
CONTINUOUS
 10
239.909988
 20
133.418869
 11
239.909988
 21
106.092087
  0
LINE
  8
0
  6
CONTINUOUS
 10
192.909988
 20
133.418869
 11
192.909988
 21
106.731369
  0
LINE
  8
0
  6
CONTINUOUS
 10
189.909988
 20
133.418869
 11
189.909988
 21
107.128876
  0
LINE
  8
0
  6
CONTINUOUS
 10
241.409988
 20
133.418869
 11
241.409988
 21
105.234940
  0
LINE
  8
0
  6
CONTINUOUS
 10
238.409988
 20
133.418869
 11
238.409988
 21
105.977005
  0
LINE
  8
0
  6
CONTINUOUS
 10
189.909988
 20
107.128876
 11
191.384995
 21
108.825119
  0
LINE
  8
0
  6
CONTINUOUS
 10
191.414413
 20
107.676224
 11
192.930954
 21
106.766296
  0
LINE
  8
0
  6
CONTINUOUS
 10
238.409988
 20
105.977005
 11
239.909988
 21
107.214493
  0
LINE
  8
0
  6
CONTINUOUS
 10
239.909988
 20
106.092087
 11
241.409988
 21
105.234940
  0
ARC
  8
0
  6
CONTINUOUS
 10
240.659988
 20
133.418869
 40
0.750000
 50
0.000000
 51
180.000000
  0
ARC
  8
0
  6
CONTINUOUS
 10
239.159988
 20
133.418869
 40
0.750000
 50
0.000000
 51
180.000000
  0
ARC
  8
0
  6
CONTINUOUS
 10
239.909988
 20
133.418869
 40
3.000000
 50
-59.999939
 51
239.999893
  0
ARC
  8
0
  6
CONTINUOUS
 10
192.159988
 20
133.418869
 40
0.750000
 50
0.000000
 51
180.000000
  0
ARC
  8
0
  6
CONTINUOUS
 10
190.659988
 20
133.418869
 40
0.750000
 50
0.000000
 51
180.000000
  0
ARC
  8
0
  6
CONTINUOUS
 10
191.409988
 20
133.418869
 40
3.000000
 50
-59.999939
 51
239.999893
  0
ARC
  8
0
  6
CONTINUOUS
 10
239.909897
 20
133.418869
 40
5.500000
 50
-74.172295
 51
0.000000
  0
LINE
  8
0
  6
CONTINUOUS
 10
190.909958
 20
108.278831
 11
190.909882
 21
48.918865
  0
LINE
  8
0
  6
CONTINUOUS
 10
241.409988
 20
106.918869
 11
259.910095
 21
106.918869
  0
LINE
  8
0
  6
CONTINUOUS
 10
239.551666
 20
106.918869
 11
239.909988
 21
106.918869
  0
LINE
  8
0
  6
CONTINUOUS
 10
193.510101
 20
165.919220
 11
193.510101
 21
170.918869
  0
ARC
  8
0
  6
CONTINUOUS
 10
190.510101
 20
170.918869
 40
3.000000
 50
0.000000
 51
90.000000
  0
ARC
  8
0
  6
CONTINUOUS
 10
196.510101
 20
165.919220
 40
3.000000
 50
180.000000
 51
270.000000
  0
LINE
  8
0
  6
CONTINUOUS
 10
264.310089
 20
162.918991
 11
196.510086
 21
162.919220
  0
ARC
  8
0
  6
CONTINUOUS
 10
264.310089
 20
165.918991
 40
3.000000
 50
-90.000000
 51
0.000000
  0
LINE
  8
0
  6
CONTINUOUS
 10
267.310089
 20
165.918991
 11
267.310089
 21
170.918869
  0
ARC
  8
0
  6
CONTINUOUS
 10
270.310089
 20
170.918869
 40
3.000000
 50
90.000000
 51
180.000000
  0
ARC
  8
0
  6
CONTINUOUS
 10
270.310089
 20
48.918987
 40
3.000000
 50
180.000000
 51
270.000000
  0
LINE
  8
0
  6
CONTINUOUS
 10
267.310089
 20
53.918869
 11
267.310089
 21
48.918987
  0
ARC
  8
0
  6
CONTINUOUS
 10
264.310089
 20
53.918869
 40
3.000000
 50
0.000000
 51
90.000000
  0
LINE
  8
0
  6
CONTINUOUS
 10
264.310089
 20
56.918869
 11
196.510086
 21
56.918636
  0
ARC
  8
0
  6
CONTINUOUS
 10
196.510101
 20
53.918636
 40
3.000000
 50
90.000000
 51
180.000000
  0
LINE
  8
0
  6
CONTINUOUS
 10
193.510101
 20
53.918636
 11
193.510101
 21
48.918987
  0
ARC
  8
0
  6
CONTINUOUS
 10
190.510101
 20
48.918987
 40
3.000000
 50
-90.000000
 51
0.000000
  0
ARC
  8
0
  6
CONTINUOUS
 10
191.910095
 20
156.918930
 40
1.000000
 50
0.000000
 51
90.000000
  0
ARC
  8
0
  6
CONTINUOUS
 10
191.910095
 20
151.267929
 40
1.000000
 50
-90.000000
 51
0.000000
  0
LINE
  8
0
  6
CONTINUOUS
 10
192.910095
 20
156.918930
 11
192.910095
 21
143.918930
  0
ARC
  8
0
  6
CONTINUOUS
 10
191.910095
 20
158.918930
 40
1.000000
 50
180.000000
 51
270.000000
  0
ARC
  8
0
  6
CONTINUOUS
 10
191.910095
 20
149.267929
 40
1.000000
 50
90.000000
 51
180.000000
  0
ARC
  8
0
  6
CONTINUOUS
 10
195.910095
 20
143.918930
 40
3.000000
 50
180.000000
 51
270.000000
  0
LINE
  8
0
  6
CONTINUOUS
 10
193.313141
 20
149.918930
 11
266.654999
 21
149.918930
  0
ARC
  8
0
  6
CONTINUOUS
 10
263.910187
 20
143.918930
 40
3.000000
 50
-90.000000
 51
0.000000
  0
LINE
  8
0
  6
CONTINUOUS
 10
266.910187
 20
156.918930
 11
266.910187
 21
143.918930
  0
ARC
  8
0
  6
CONTINUOUS
 10
267.910187
 20
151.267929
 40
1.000000
 50
180.000000
 51
269.992889
  0
ARC
  8
0
  6
CONTINUOUS
 10
267.910095
 20
148.267929
 40
2.000000
 50
0.000000
 51
90.000000
  0
ARC
  8
0
  6
CONTINUOUS
 10
267.910187
 20
156.918930
 40
1.000000
 50
90.000000
 51
180.000000
  0
ARC
  8
0
  6
CONTINUOUS
 10
267.910095
 20
159.918930
 40
2.000000
 50
-89.996399
 51
0.000000
  0
LINE
  8
0
  6
CONTINUOUS
 10
193.313141
 20
69.918930
 11
266.654999
 21
69.918930
  0
LINE
  8
0
  6
CONTINUOUS
 10
266.910187
 20
62.918926
 11
266.910187
 21
75.918930
  0
ARC
  8
0
  6
CONTINUOUS
 10
263.910187
 20
75.918930
 40
3.000000
 50
0.000000
 51
90.000000
  0
ARC
  8
0
  6
CONTINUOUS
 10
267.910095
 20
71.569923
 40
2.000000
 50
-90.000000
 51
0.000000
  0
ARC
  8
0
  6
CONTINUOUS
 10
267.910187
 20
68.569923
 40
1.000000
 50
90.007103
 51
180.000000
  0
ARC
  8
0
  6
CONTINUOUS
 10
267.910187
 20
62.918926
 40
1.000000
 50
180.000000
 51
270.000000
  0
ARC
  8
0
  6
CONTINUOUS
 10
267.910095
 20
59.918926
 40
2.000000
 50
0.000000
 51
89.996399
  0
ARC
  8
0
  6
CONTINUOUS
 10
191.910095
 20
60.918926
 40
1.000000
 50
90.000000
 51
180.000000
  0
ARC
  8
0
  6
CONTINUOUS
 10
191.910095
 20
62.918926
 40
1.000000
 50
-90.000000
 51
0.000000
  0
LINE
  8
0
  6
CONTINUOUS
 10
192.910095
 20
62.918926
 11
192.910095
 21
75.918930
  0
ARC
  8
0
  6
CONTINUOUS
 10
191.910095
 20
68.569923
 40
1.000000
 50
0.000000
 51
90.000000
  0
ARC
  8
0
  6
CONTINUOUS
 10
191.910095
 20
70.569923
 40
1.000000
 50
180.000000
 51
270.000000
  0
ARC
  8
0
  6
CONTINUOUS
 10
195.910095
 20
75.918930
 40
3.000000
 50
90.000000
 51
180.000000
  0
ARC
  8
0
  6
CONTINUOUS
 10
357.910126
 20
109.918869
 40
360.000000
 50
170.875397
 51
189.124603
  0
LINE
  8
0
  6
CONTINUOUS
 10
12.970530
 20
180.418869
 11
44.410137
 21
180.418869
  0
LINE
  8
0
  6
CONTINUOUS
 10
44.410137
 20
180.418869
 11
44.410137
 21
136.536819
  0
ARC
  8
0
  6
CONTINUOUS
 10
-326.589874
 20
109.918869
 40
345.000000
 50
-11.486330
 51
11.486320
  0
ARC
  8
0
  6
CONTINUOUS
 10
15.301188
 20
54.890648
 40
13.000000
 50
189.124603
 51
254.085403
  0
ARC
  8
0
  6
CONTINUOUS
 10
15.301188
 20
164.947083
 40
13.000000
 50
105.915001
 51
170.875702
  0
ARC
  8
0
  6
CONTINUOUS
 10
12.970530
 20
40.918846
 40
1.500000
 50
168.513794
 51
199.470413
  0
ARC
  8
0
  6
CONTINUOUS
 10
12.970530
 20
178.918869
 40
1.500000
 50
90.000000
 51
191.486496
  0
LINE
  8
0
  6
CONTINUOUS
 10
46.410095
 20
173.918869
 11
46.410095
 21
137.536819
  0
LINE
  8
0
  6
CONTINUOUS
 10
44.410137
 20
173.918869
 11
178.410095
 21
173.918869
  0
LINE
  8
0
  6
CONTINUOUS
 10
44.410137
 20
45.918865
 11
76.355095
 21
45.918865
  0
LINE
  8
0
  6
CONTINUOUS
 10
178.410095
 20
45.918865
 11
76.355095
 21
45.918865
  0
LINE
  8
0
  6
CONTINUOUS
 10
49.910107
 20
160.303970
 11
114.910049
 21
160.303970
  0
LINE
  8
0
  6
CONTINUOUS
 10
114.910149
 20
91.207756
 11
49.910095
 21
91.207756
  0
LINE
  8
0
  6
CONTINUOUS
 10
47.410095
 20
115.310265
 11
47.410095
 21
157.803970
  0
LINE
  8
0
  6
CONTINUOUS
 10
117.410149
 20
115.310265
 11
117.410149
 21
157.803970
  0
ARC
  8
0
  6
CONTINUOUS
 10
114.910149
 20
157.803970
 40
2.500000
 50
0.000000
 51
90.000000
  0
ARC
  8
0
  6
CONTINUOUS
 10
49.910126
 20
157.803970
 40
2.500000
 50
90.000000
 51
180.000000
  0
ARC
  8
0
  6
CONTINUOUS
 10
49.910107
 20
93.707756
 40
2.500000
 50
180.000000
 51
270.000000
  0
ARC
  8
0
  6
CONTINUOUS
 10
114.910149
 20
93.707748
 40
2.500000
 50
-90.000000
 51
0.000000
  0
ARC
  8
0
  6
CONTINUOUS
 10
52.410107
 20
155.303970
 40
4.000000
 50
-90.000000
 51
0.000000
  0
ARC
  8
0
  6
CONTINUOUS
 10
112.410149
 20
155.303970
 40
4.000000
 50
180.000000
 51
270.000000
  0
ARC
  8
0
  6
CONTINUOUS
 10
112.410149
 20
96.207756
 40
4.000000
 50
90.000000
 51
180.000000
  0
ARC
  8
0
  6
CONTINUOUS
 10
52.410107
 20
96.207756
 40
4.000000
 50
0.000000
 51
90.000000
  0
LINE
  8
0
  6
CONTINUOUS
 10
112.410149
 20
151.303970
 11
114.910149
 21
151.303970
  0
LINE
  8
0
  6
CONTINUOUS
 10
52.410095
 20
151.303970
 11
49.910095
 21
151.303970
  0
LINE
  8
0
  6
CONTINUOUS
 10
52.410095
 20
100.207756
 11
49.910126
 21
100.207756
  0
LINE
  8
0
  6
CONTINUOUS
 10
112.410149
 20
100.207756
 11
114.910149
 21
100.207756
  0
LINE
  8
0
  6
CONTINUOUS
 10
108.410149
 20
155.303970
 11
108.410149
 21
157.803970
  0
LINE
  8
0
  6
CONTINUOUS
 10
56.410107
 20
155.303970
 11
56.410107
 21
157.803970
  0
LINE
  8
0
  6
CONTINUOUS
 10
56.410107
 20
96.207756
 11
56.410107
 21
93.707748
  0
LINE
  8
0
  6
CONTINUOUS
 10
108.410149
 20
96.207733
 11
108.410149
 21
93.707748
  0
ARC
  8
0
  6
CONTINUOUS
 10
49.910107
 20
148.803970
 40
2.500000
 50
90.000000
 51
180.000000
  0
ARC
  8
0
  6
CONTINUOUS
 10
58.910126
 20
157.803970
 40
2.500000
 50
90.000000
 51
180.000000
  0
ARC
  8
0
  6
CONTINUOUS
 10
105.910149
 20
157.803970
 40
2.500000
 50
0.000000
 51
90.000000
  0
ARC
  8
0
  6
CONTINUOUS
 10
114.910149
 20
148.803970
 40
2.500000
 50
0.000000
 51
90.000000
  0
ARC
  8
0
  6
CONTINUOUS
 10
49.910107
 20
102.707756
 40
2.500000
 50
180.000000
 51
270.000000
  0
ARC
  8
0
  6
CONTINUOUS
 10
58.910107
 20
93.707756
 40
2.500000
 50
180.000000
 51
270.000000
  0
ARC
  8
0
  6
CONTINUOUS
 10
114.910149
 20
102.707748
 40
2.500000
 50
-90.000000
 51
0.000000
  0
ARC
  8
0
  6
CONTINUOUS
 10
105.910149
 20
93.707748
 40
2.500000
 50
-90.000000
 51
0.000000
  0
LINE
  8
0
  6
CONTINUOUS
 10
117.410149
 20
88.717018
 11
117.410149
 21
115.310265
  0
LINE
  8
0
  6
CONTINUOUS
 10
47.410107
 20
88.717018
 11
47.410095
 21
115.310265
  0
LINE
  8
0
  6
CONTINUOUS
 10
19.410147
 20
108.536720
 11
19.410147
 21
137.536819
  0
LINE
  8
0
  6
CONTINUOUS
 10
27.410147
 20
108.536720
 11
27.410147
 21
137.536819
  0
LINE
  8
0
  6
CONTINUOUS
 10
19.410147
 20
108.536720
 11
27.410147
 21
108.536720
  0
LINE
  8
0
  6
CONTINUOUS
 10
19.410147
 20
137.536819
 11
27.410147
 21
137.536819
  0
LINE
  8
0
  6
CONTINUOUS
 10
36.410145
 20
110.036720
 11
36.410145
 21
136.036819
  0
LINE
  8
0
  6
CONTINUOUS
 10
27.410147
 20
110.036720
 11
36.410145
 21
110.036720
  0
LINE
  8
0
  6
CONTINUOUS
 10
27.410147
 20
136.036819
 11
36.410145
 21
136.036819
  0
LINE
  8
0
  6
CONTINUOUS
 10
36.410145
 20
111.536720
 11
41.410145
 21
111.536720
  0
LINE
  8
0
  6
CONTINUOUS
 10
36.410145
 20
134.536819
 11
41.410145
 21
134.536819
  0
LINE
  8
0
  6
CONTINUOUS
 10
41.410145
 20
109.536720
 11
41.410145
 21
136.536819
  0
LINE
  8
0
  6
CONTINUOUS
 10
45.910145
 20
108.536720
 11
45.910145
 21
137.536819
  0
LINE
  8
0
  6
CONTINUOUS
 10
41.410145
 20
109.536720
 11
45.910145
 21
109.536720
  0
LINE
  8
0
  6
CONTINUOUS
 10
41.410145
 20
136.536819
 11
45.910145
 21
136.536819
  0
LINE
  8
0
  6
CONTINUOUS
 10
45.910145
 20
108.536720
 11
47.449448
 21
108.536720
  0
LINE
  8
0
  6
CONTINUOUS
 10
45.910145
 20
137.536819
 11
47.410095
 21
137.536819
  0
LINE
  8
0
  6
CONTINUOUS
 10
19.410147
 20
115.036720
 11
27.410147
 21
115.036720
  0
LINE
  8
0
  6
CONTINUOUS
 10
19.410147
 20
131.036819
 11
27.410147
 21
131.036819
  0
LINE
  8
0
  6
CONTINUOUS
 10
170.410095
 20
55.331795
 11
170.410095
 21
60.223473
  0
LINE
  8
0
  6
CONTINUOUS
 10
54.410095
 20
171.293167
 11
54.410095
 21
168.294617
  0
LINE
  8
0
  6
CONTINUOUS
 10
170.410095
 20
168.294617
 11
170.410095
 21
171.293167
  0
LINE
  8
0
  6
CONTINUOUS
 10
170.410095
 20
162.565842
 11
170.410095
 21
166.344666
  0
LINE
  8
0
  6
CONTINUOUS
 10
170.410095
 20
156.041412
 11
170.410095
 21
160.902573
  0
LINE
  8
0
  6
CONTINUOUS
 10
170.410095
 20
148.993988
 11
170.410095
 21
154.054855
  0
LINE
  8
0
  6
CONTINUOUS
 10
54.410095
 20
166.344666
 11
54.410095
 21
162.565842
  0
LINE
  8
0
  6
CONTINUOUS
 10
54.410095
 20
85.141266
 11
54.410095
 21
78.708740
  0
LINE
  8
0
  6
CONTINUOUS
 10
170.410095
 20
141.751663
 11
170.410095
 21
147.007416
  0
LINE
  8
0
  6
CONTINUOUS
 10
170.410095
 20
134.350586
 11
170.410095
 21
139.765106
  0
LINE
  8
0
  6
CONTINUOUS
 10
170.410095
 20
126.810127
 11
170.410095
 21
132.364014
  0
LINE
  8
0
  6
CONTINUOUS
 10
170.410095
 20
119.139809
 11
170.410095
 21
124.823570
  0
LINE
  8
0
  6
CONTINUOUS
 10
170.410095
 20
111.343590
 11
170.410095
 21
117.153252
  0
LINE
  8
0
  6
CONTINUOUS
 10
170.410095
 20
103.417496
 11
170.410095
 21
109.357033
  0
LINE
  8
0
  6
CONTINUOUS
 10
170.410095
 20
95.352051
 11
170.410095
 21
101.430939
  0
LINE
  8
0
  6
CONTINUOUS
 10
170.410095
 20
87.127823
 11
170.410095
 21
93.365494
  0
LINE
  8
0
  6
CONTINUOUS
 10
170.410095
 20
78.708740
 11
170.410095
 21
85.141266
  0
LINE
  8
0
  6
CONTINUOUS
 10
170.410095
 20
70.682892
 11
170.410095
 21
76.722153
  0
LINE
  8
0
  6
CONTINUOUS
 10
170.410095
 20
62.148773
 11
170.410095
 21
68.374924
  0
LINE
  8
0
  6
CONTINUOUS
 10
170.410095
 20
171.293167
 11
54.410095
 21
171.293167
  0
LINE
  8
0
  6
CONTINUOUS
 10
170.410095
 20
168.294617
 11
54.410095
 21
168.294617
  0
LINE
  8
0
  6
CONTINUOUS
 10
170.410095
 20
166.344666
 11
54.410095
 21
166.344666
  0
LINE
  8
0
  6
CONTINUOUS
 10
170.410095
 20
162.565842
 11
54.410095
 21
162.565842
  0
LINE
  8
0
  6
CONTINUOUS
 10
170.410095
 20
160.902573
 11
54.410095
 21
160.902573
  0
LINE
  8
0
  6
CONTINUOUS
 10
170.410095
 20
156.041412
 11
117.410149
 21
156.041412
  0
LINE
  8
0
  6
CONTINUOUS
 10
170.410095
 20
154.054855
 11
117.410149
 21
154.054855
  0
LINE
  8
0
  6
CONTINUOUS
 10
170.410095
 20
148.993988
 11
117.410149
 21
148.993988
  0
LINE
  8
0
  6
CONTINUOUS
 10
170.410095
 20
147.007416
 11
117.410149
 21
147.007416
  0
LINE
  8
0
  6
CONTINUOUS
 10
170.410095
 20
141.751663
 11
121.410095
 21
141.751663
  0
LINE
  8
0
  6
CONTINUOUS
 10
170.410095
 20
139.765106
 11
121.410095
 21
139.765106
  0
LINE
  8
0
  6
CONTINUOUS
 10
170.410095
 20
134.350586
 11
121.410095
 21
134.350586
  0
LINE
  8
0
  6
CONTINUOUS
 10
170.410095
 20
126.810127
 11
121.410095
 21
126.810127
  0
LINE
  8
0
  6
CONTINUOUS
 10
170.410095
 20
124.823570
 11
121.410095
 21
124.823570
  0
LINE
  8
0
  6
CONTINUOUS
 10
170.410095
 20
119.139809
 11
121.410095
 21
119.139809
  0
LINE
  8
0
  6
CONTINUOUS
 10
170.410095
 20
117.153252
 11
121.410095
 21
117.153252
  0
LINE
  8
0
  6
CONTINUOUS
 10
170.410095
 20
132.364014
 11
121.410095
 21
132.364014
  0
LINE
  8
0
  6
CONTINUOUS
 10
170.410095
 20
111.343590
 11
121.410095
 21
111.343590
  0
LINE
  8
0
  6
CONTINUOUS
 10
170.410095
 20
109.357033
 11
121.410095
 21
109.357033
  0
LINE
  8
0
  6
CONTINUOUS
 10
170.410095
 20
103.417496
 11
121.410095
 21
103.417496
  0
LINE
  8
0
  6
CONTINUOUS
 10
170.410095
 20
101.430939
 11
121.410095
 21
101.430939
  0
LINE
  8
0
  6
CONTINUOUS
 10
170.410095
 20
95.352051
 11
121.410095
 21
95.352051
  0
LINE
  8
0
  6
CONTINUOUS
 10
170.410095
 20
93.365494
 11
121.410095
 21
93.365494
  0
LINE
  8
0
  6
CONTINUOUS
 10
170.410095
 20
87.127823
 11
116.840027
 21
87.127823
  0
LINE
  8
0
  6
CONTINUOUS
 10
170.410095
 20
85.141266
 11
95.910248
 21
85.141266
  0
LINE
  8
0
  6
CONTINUOUS
 10
170.410095
 20
78.708740
 11
93.910248
 21
78.708740
  0
LINE
  8
0
  6
CONTINUOUS
 10
170.410095
 20
76.722153
 11
95.410248
 21
76.722153
  0
LINE
  8
0
  6
CONTINUOUS
 10
170.410095
 20
70.682892
 11
95.410248
 21
70.682892
  0
LINE
  8
0
  6
CONTINUOUS
 10
170.410095
 20
68.374924
 11
95.410248
 21
68.374924
  0
LINE
  8
0
  6
CONTINUOUS
 10
170.410095
 20
62.148773
 11
96.910248
 21
62.148773
  0
LINE
  8
0
  6
CONTINUOUS
 10
170.410095
 20
60.223473
 11
96.910248
 21
60.223473
  0
LINE
  8
0
  6
CONTINUOUS
 10
170.410095
 20
55.331795
 11
54.410076
 21
55.331795
  0
LINE
  8
0
  6
CONTINUOUS
 10
119.410057
 20
144.780502
 11
117.410149
 21
144.780502
  0
LINE
  8
0
  6
CONTINUOUS
 10
119.910095
 20
91.242477
 11
117.410149
 21
91.242477
  0
LINE
  8
0
  6
CONTINUOUS
 10
121.410095
 20
92.742477
 11
121.410095
 21
142.780502
  0
ARC
  8
0
  6
CONTINUOUS
 10
119.410072
 20
142.780502
 40
2.000000
 50
0.000000
 51
90.000000
  0
LINE
  8
0
  6
CONTINUOUS
 10
95.410248
 20
68.374924
 11
54.410095
 21
68.374924
  0
LINE
  8
0
  6
CONTINUOUS
 10
95.410248
 20
70.682892
 11
54.410095
 21
70.682892
  0
LINE
  8
0
  6
CONTINUOUS
 10
95.410248
 20
76.722153
 11
54.410095
 21
76.722153
  0
LINE
  8
0
  6
CONTINUOUS
 10
93.910248
 20
78.708740
 11
54.410095
 21
78.708740
  0
LINE
  8
0
  6
CONTINUOUS
 10
96.910248
 20
62.148773
 11
54.410095
 21
62.148773
  0
LINE
  8
0
  6
CONTINUOUS
 10
96.910248
 20
60.223473
 11
54.410095
 21
60.223473
  0
ARC
  8
0
  6
CONTINUOUS
 10
119.910095
 20
92.742477
 40
1.500000
 50
-90.000000
 51
0.000000
  0
LINE
  8
0
  6
CONTINUOUS
 10
95.910248
 20
85.141266
 11
54.410095
 21
85.141266
  0
LINE
  8
0
  6
CONTINUOUS
 10
54.410095
 20
76.722153
 11
54.410095
 21
70.682892
  0
LINE
  8
0
  6
CONTINUOUS
 10
54.410095
 20
68.374924
 11
54.410095
 21
62.148773
  0
LINE
  8
0
  6
CONTINUOUS
 10
54.410095
 20
60.223473
 11
54.410076
 21
55.331795
  0
LINE
  8
0
  6
CONTINUOUS
 10
54.410095
 20
160.902573
 11
54.410095
 21
160.303970
  0
LINE
  8
0
  6
CONTINUOUS
 10
44.410137
 20
109.536720
 11
44.410137
 21
40.418865
  0
LINE
  8
0
  6
CONTINUOUS
 10
46.410095
 20
108.536720
 11
46.410095
 21
45.918865
  0
LINE
  8
0
  6
CONTINUOUS
 10
44.410137
 20
40.418865
 11
11.556310
 21
40.418865
  0
CIRCLE
  8
0
  6
CONTINUOUS
 10
112.410149
 20
155.303970
 40
2.750000
  0
LINE
  8
0
  6
CONTINUOUS
 10
114.210152
 20
155.803970
 11
114.210152
 21
154.803970
  0
LINE
  8
0
  6
CONTINUOUS
 10
111.910149
 20
157.103973
 11
112.910149
 21
157.103973
  0
LINE
  8
0
  6
CONTINUOUS
 10
112.910149
 20
157.103973
 11
112.910149
 21
155.803970
  0
LINE
  8
0
  6
CONTINUOUS
 10
114.210152
 20
155.803970
 11
112.910149
 21
155.803970
  0
LINE
  8
0
  6
CONTINUOUS
 10
114.210152
 20
154.803970
 11
112.910149
 21
154.803970
  0
LINE
  8
0
  6
CONTINUOUS
 10
111.910149
 20
157.103973
 11
111.910149
 21
155.803970
  0
LINE
  8
0
  6
CONTINUOUS
 10
111.910149
 20
153.503967
 11
112.910149
 21
153.503967
  0
LINE
  8
0
  6
CONTINUOUS
 10
112.910149
 20
153.503967
 11
112.910149
 21
154.803970
  0
LINE
  8
0
  6
CONTINUOUS
 10
110.610146
 20
154.803970
 11
111.910149
 21
154.803970
  0
LINE
  8
0
  6
CONTINUOUS
 10
110.610146
 20
155.803970
 11
111.910149
 21
155.803970
  0
LINE
  8
0
  6
CONTINUOUS
 10
110.610146
 20
155.803970
 11
110.610146
 21
154.803970
  0
LINE
  8
0
  6
CONTINUOUS
 10
111.910149
 20
153.503967
 11
111.910149
 21
154.803970
  0
LINE
  8
0
  6
CONTINUOUS
 10
54.210110
 20
155.803970
 11
54.210110
 21
154.803970
  0
LINE
  8
0
  6
CONTINUOUS
 10
51.910107
 20
157.103973
 11
52.910107
 21
157.103973
  0
LINE
  8
0
  6
CONTINUOUS
 10
52.910107
 20
157.103973
 11
52.910107
 21
155.803970
  0
LINE
  8
0
  6
CONTINUOUS
 10
54.210110
 20
155.803970
 11
52.910107
 21
155.803970
  0
LINE
  8
0
  6
CONTINUOUS
 10
54.210110
 20
154.803970
 11
52.910107
 21
154.803970
  0
LINE
  8
0
  6
CONTINUOUS
 10
51.910107
 20
157.103973
 11
51.910107
 21
155.803970
  0
LINE
  8
0
  6
CONTINUOUS
 10
51.910107
 20
153.503967
 11
52.910107
 21
153.503967
  0
LINE
  8
0
  6
CONTINUOUS
 10
52.910107
 20
153.503967
 11
52.910107
 21
154.803970
  0
LINE
  8
0
  6
CONTINUOUS
 10
50.610107
 20
154.803970
 11
51.910107
 21
154.803970
  0
LINE
  8
0
  6
CONTINUOUS
 10
50.610107
 20
155.803970
 11
51.910107
 21
155.803970
  0
LINE
  8
0
  6
CONTINUOUS
 10
50.610107
 20
155.803970
 11
50.610107
 21
154.803970
  0
LINE
  8
0
  6
CONTINUOUS
 10
51.910107
 20
153.503967
 11
51.910107
 21
154.803970
  0
CIRCLE
  8
0
  6
CONTINUOUS
 10
52.410107
 20
96.207756
 40
2.750000
  0
LINE
  8
0
  6
CONTINUOUS
 10
54.210110
 20
96.707756
 11
54.210110
 21
95.707756
  0
LINE
  8
0
  6
CONTINUOUS
 10
51.910107
 20
98.007751
 11
52.910107
 21
98.007751
  0
LINE
  8
0
  6
CONTINUOUS
 10
52.910107
 20
98.007751
 11
52.910107
 21
96.707756
  0
LINE
  8
0
  6
CONTINUOUS
 10
54.210110
 20
96.707756
 11
52.910107
 21
96.707756
  0
LINE
  8
0
  6
CONTINUOUS
 10
54.210110
 20
95.707756
 11
52.910107
 21
95.707756
  0
LINE
  8
0
  6
CONTINUOUS
 10
51.910107
 20
98.007751
 11
51.910107
 21
96.707756
  0
LINE
  8
0
  6
CONTINUOUS
 10
51.910107
 20
94.407753
 11
52.910107
 21
94.407753
  0
LINE
  8
0
  6
CONTINUOUS
 10
52.910107
 20
94.407753
 11
52.910107
 21
95.707756
  0
LINE
  8
0
  6
CONTINUOUS
 10
50.610107
 20
95.707756
 11
51.910107
 21
95.707756
  0
LINE
  8
0
  6
CONTINUOUS
 10
50.610107
 20
96.707756
 11
51.910107
 21
96.707756
  0
LINE
  8
0
  6
CONTINUOUS
 10
50.610107
 20
96.707756
 11
50.610107
 21
95.707756
  0
LINE
  8
0
  6
CONTINUOUS
 10
51.910107
 20
94.407753
 11
51.910107
 21
95.707756
  0
CIRCLE
  8
0
  6
CONTINUOUS
 10
112.410149
 20
96.207756
 40
2.750000
  0
LINE
  8
0
  6
CONTINUOUS
 10
114.210152
 20
96.707756
 11
114.210152
 21
95.707756
  0
LINE
  8
0
  6
CONTINUOUS
 10
111.910149
 20
98.007751
 11
112.910149
 21
98.007751
  0
LINE
  8
0
  6
CONTINUOUS
 10
112.910149
 20
98.007751
 11
112.910149
 21
96.707756
  0
LINE
  8
0
  6
CONTINUOUS
 10
114.210152
 20
96.707756
 11
112.910149
 21
96.707756
  0
LINE
  8
0
  6
CONTINUOUS
 10
114.210152
 20
95.707756
 11
112.910149
 21
95.707756
  0
LINE
  8
0
  6
CONTINUOUS
 10
111.910149
 20
98.007751
 11
111.910149
 21
96.707756
  0
LINE
  8
0
  6
CONTINUOUS
 10
111.910149
 20
94.407753
 11
112.910149
 21
94.407753
  0
LINE
  8
0
  6
CONTINUOUS
 10
112.910149
 20
94.407753
 11
112.910149
 21
95.707756
  0
LINE
  8
0
  6
CONTINUOUS
 10
110.610146
 20
95.707756
 11
111.910149
 21
95.707756
  0
LINE
  8
0
  6
CONTINUOUS
 10
110.610146
 20
96.707756
 11
111.910149
 21
96.707756
  0
LINE
  8
0
  6
CONTINUOUS
 10
110.610146
 20
96.707756
 11
110.610146
 21
95.707756
  0
LINE
  8
0
  6
CONTINUOUS
 10
111.910149
 20
94.407753
 11
111.910149
 21
95.707756
  0
LINE
  8
0
  6
CENTER
 10
82.410149
 20
162.787704
 11
82.410149
 21
83.592705
  0
LINE
  8
0
  6
CENTER
 10
15.747771
 20
123.036720
 11
52.407772
 21
123.036720
  0
LINE
  8
0
  6
CONTINUOUS
 10
114.910149
 20
86.217018
 11
49.910107
 21
86.217018
  0
ARC
  8
0
  6
CONTINUOUS
 10
49.910107
 20
88.717018
 40
2.500000
 50
180.000000
 51
270.000000
  0
ARC
  8
0
  6
CONTINUOUS
 10
114.910149
 20
88.717018
 40
2.500000
 50
-90.000000
 51
0.000000
  0
CIRCLE
  8
0
  6
CONTINUOUS
 10
52.410145
 20
155.303970
 40
2.750000
  0
LINE
  8
0
  6
CONTINUOUS
 10
387.410400
 20
11.936343
 11
387.910095
 21
12.418896
  0
TEXT
  8
0
 10
-14.000000
 20
-27.000000
 40
4.000000
 41
1.000000
  1
G3FE-32-100~200-T040WA
 50
0.000000
  0
ENDSEC
  0
EOF
