  0
SECTION
  2
HEADER
  9
$CLAYER
  8
1
  9
$LTSCALE
 40
3.0
  0
ENDSEC
  0
SECTION
  2
TABLES
  0
TABLE
  2
LTYPE
 70
     4
  0
LTYPE
  2
CONTINUOUS
  3
solid line
 70
    64
 72
    65
 73
     0
 40
0.0
  0
LTYPE
  2
DASHED
  3
__ __ __ __ __ __ __ __ __ __ __ __ __ __ __
 70
    64
 72
    65
 73
     2
 40
0.75
 49
0.5
 49
-0.25
  0
LTYPE
  2
CENTER
  3
____ _ ____ _ ____ _ ____ _ ____ _ ____ _ ____
 70
    64
 72
    65
 73
     4
 40
2.0
 49
1.25
 49
-0.25
 49
0.25
 49
-0.25
  0
LTYPE
  2
PHANTOM
  3
_____ _ _ _____ _ _ _____ _ _ _____ _ _ ____
 70
    64
 72
    65
 73
     6
 40
2.5
 49
1.25
 49
-0.25
 49
0.25
 49
-0.25
 49
0.25
 49
-0.25
  0
ENDTAB
  0
TABLE
  2
LAYER
 70
     1
  0
LAYER
  2
0
 70
    64
 62
     7
  6
CONTINUOUS
  0
ENDTAB
  0
TABLE
  2
STYLE
 70
     1
  0
STYLE
  2
STANDARD
 70
     0
 40
0.000000
 41
1.000000
 50
0.000000
 71
     0
 42
3.000000
  3
txt
  4
BIGFONT
  0
ENDTAB
  0
ENDSEC
  0
SECTION
  2
BLOCKS
  0
ENDSEC
  0
SECTION
  2
ENTITIES
  0
LINE
  8
0
  6
CENTER
 10
224.171448
 20
170.017868
 11
224.171448
 21
6.517865
  0
LINE
  8
0
  6
CENTER
 10
179.921448
 20
117.767868
 11
263.171448
 21
117.767868
  0
LINE
  8
0
  6
CONTINUOUS
 10
171.171448
 20
12.767865
 11
277.171448
 21
12.767865
  0
LINE
  8
0
  6
CONTINUOUS
 10
205.742020
 20
162.767868
 11
242.600845
 21
162.767868
  0
LINE
  8
0
  6
CONTINUOUS
 10
277.171448
 20
137.158112
 11
277.171448
 21
12.767885
  0
LINE
  8
0
  6
CONTINUOUS
 10
171.171448
 20
37.767864
 11
171.171448
 21
12.767865
  0
LINE
  8
0
  6
CONTINUOUS
 10
159.421448
 20
144.517868
 11
177.044357
 21
144.517868
  0
LINE
  8
0
  6
CONTINUOUS
 10
159.421448
 20
30.017864
 11
166.171463
 21
30.017864
  0
LINE
  8
0
  6
CONTINUOUS
 10
167.421448
 20
41.767864
 11
167.421448
 21
132.767868
  0
LINE
  8
0
  6
CONTINUOUS
 10
275.030426
 20
141.260101
 11
245.459839
 21
161.869843
  0
LINE
  8
0
  6
CONTINUOUS
 10
173.312485
 20
141.260101
 11
202.883041
 21
161.869843
  0
LINE
  8
0
  6
CONTINUOUS
 10
205.109848
 20
24.767864
 11
171.171448
 21
24.767864
  0
LINE
  8
0
  6
CONTINUOUS
 10
210.733047
 20
34.767864
 11
237.609848
 21
34.767864
  0
LINE
  8
0
  6
CONTINUOUS
 10
239.171448
 20
33.330364
 11
239.171448
 21
25.767864
  0
LINE
  8
0
  6
CONTINUOUS
 10
209.171448
 20
33.142864
 11
209.171448
 21
25.767864
  0
LINE
  8
0
  6
CONTINUOUS
 10
207.050247
 20
26.282785
 11
208.792648
 21
33.252945
  0
LINE
  8
0
  6
CONTINUOUS
 10
241.292648
 20
26.282785
 11
239.550247
 21
33.252926
  0
LINE
  8
0
  6
CONTINUOUS
 10
177.171448
 20
23.705364
 11
177.171448
 21
12.767865
  0
LINE
  8
0
  6
CONTINUOUS
 10
271.171448
 20
23.705364
 11
271.171448
 21
12.767865
  0
LINE
  8
0
  6
CENTER
 10
189.171448
 20
28.517864
 11
189.171448
 21
8.517865
  0
LINE
  8
0
  6
CENTER
 10
259.171448
 20
29.517864
 11
259.171448
 21
9.017865
  0
LINE
  8
0
  6
DASHED
 10
183.671448
 20
24.767864
 11
183.671448
 21
12.767865
  0
LINE
  8
0
  6
DASHED
 10
194.671448
 20
24.767864
 11
194.671448
 21
12.767865
  0
LINE
  8
0
  6
DASHED
 10
253.671448
 20
24.767864
 11
253.671448
 21
12.767865
  0
LINE
  8
0
  6
DASHED
 10
264.671448
 20
24.767864
 11
264.671448
 21
12.767865
  0
ARC
  8
0
  6
CONTINUOUS
 10
242.600845
 20
157.767868
 40
5.000000
 50
55.124809
 51
90.000000
  0
ARC
  8
0
  6
CONTINUOUS
 10
205.742020
 20
157.767868
 40
5.000000
 50
90.000000
 51
124.875603
  0
ARC
  8
0
  6
CONTINUOUS
 10
272.171448
 20
137.158112
 40
5.000000
 50
0.000000
 51
55.124851
  0
ARC
  8
0
  6
CONTINUOUS
 10
176.171463
 20
137.158127
 40
5.000000
 50
124.875702
 51
180.000000
  0
LINE
  8
0
  6
CONTINUOUS
 10
159.421448
 20
134.767868
 11
169.171448
 21
134.767868
  0
LINE
  8
0
  6
CONTINUOUS
 10
165.421448
 20
39.767864
 11
159.421448
 21
39.767864
  0
LINE
  8
0
  6
CONTINUOUS
 10
159.421448
 20
119.227867
 11
166.296448
 21
119.227867
  0
LINE
  8
0
  6
CONTINUOUS
 10
159.421448
 20
55.307865
 11
166.421448
 21
55.307865
  0
ARC
  8
0
  6
CONTINUOUS
 10
177.044342
 20
147.517868
 40
3.000000
 50
270.000000
 51
304.875397
  0
ARC
  8
0
  6
CONTINUOUS
 10
165.421463
 20
132.767868
 40
2.000000
 50
0.000000
 51
90.000000
  0
ARC
  8
0
  6
CONTINUOUS
 10
169.171448
 20
136.767868
 40
2.000000
 50
-90.000000
 51
0.000000
  0
LINE
  8
0
  6
CONTINUOUS
 10
171.171463
 20
137.158127
 11
171.171448
 21
136.767868
  0
ARC
  8
0
  6
CONTINUOUS
 10
169.171448
 20
37.767864
 40
2.000000
 50
0.000000
 51
90.000000
  0
LINE
  8
0
  6
CONTINUOUS
 10
165.421448
 20
39.767864
 11
169.171448
 21
39.767864
  0
ARC
  8
0
  6
CONTINUOUS
 10
165.421448
 20
41.767864
 40
2.000000
 50
-90.000000
 51
0.000000
  0
ARC
  8
0
  6
CONTINUOUS
 10
166.171463
 20
25.017845
 40
5.000000
 50
0.000000
 51
90.000000
  0
ARC
  8
0
  6
CONTINUOUS
 10
237.609848
 20
32.767864
 40
2.000000
 50
14.036440
 51
90.000000
  0
ARC
  8
0
  6
CONTINUOUS
 10
210.733047
 20
32.767864
 40
2.000000
 50
90.000000
 51
165.963898
  0
LINE
  8
0
  6
CONTINUOUS
 10
243.233047
 20
24.767864
 11
277.171448
 21
24.767864
  0
ARC
  8
0
  6
CONTINUOUS
 10
205.109848
 20
26.767864
 40
2.000000
 50
270.000000
 51
345.963715
  0
LINE
  8
0
  6
CONTINUOUS
 10
243.233047
 20
24.767864
 11
205.109848
 21
24.767864
  0
ARC
  8
0
  6
CONTINUOUS
 10
243.233047
 20
26.767864
 40
2.000000
 50
194.036194
 51
270.000000
  0
ARC
  8
0
  6
CONTINUOUS
 10
208.171448
 20
25.767864
 40
1.000000
 50
-90.000000
 51
0.000000
  0
ARC
  8
0
  6
CONTINUOUS
 10
240.171448
 20
25.767864
 40
1.000000
 50
180.000000
 51
270.000000
  0
CIRCLE
  8
0
  6
CONTINUOUS
 10
224.171448
 20
117.767868
 40
27.500000
  0
ARC
  8
0
  6
CONTINUOUS
 10
224.171448
 20
117.767868
 40
31.750000
 50
7.552697
 51
172.447403
  0
ARC
  8
0
  6
CONTINUOUS
 10
207.421448
 20
76.267868
 40
20.600000
 50
172.447403
 51
270.000000
  0
ARC
  8
0
  6
CONTINUOUS
 10
240.921448
 20
76.267868
 40
20.600000
 50
-90.000000
 51
7.552700
  0
LINE
  8
0
  6
CONTINUOUS
 10
255.646042
 20
121.941025
 11
261.342651
 21
78.975494
  0
LINE
  8
0
  6
CONTINUOUS
 10
187.000168
 20
78.975456
 11
192.696838
 21
121.940964
  0
LINE
  8
0
  6
CONTINUOUS
 10
207.421448
 20
55.667866
 11
240.921448
 21
55.667866
  0
ARC
  8
0
  6
CONTINUOUS
 10
207.421448
 20
76.267868
 40
19.000000
 50
172.447601
 51
270.000000
  0
ARC
  8
0
  6
CONTINUOUS
 10
240.921448
 20
76.267868
 40
19.000000
 50
-90.000000
 51
7.552700
  0
ARC
  8
0
  6
CONTINUOUS
 10
224.171448
 20
117.767868
 40
30.150000
 50
-187.552597
 51
7.552697
  0
LINE
  8
0
  6
CONTINUOUS
 10
188.586288
 20
78.765152
 11
194.283020
 21
121.730682
  0
LINE
  8
0
  6
CONTINUOUS
 10
254.059845
 20
121.730728
 11
259.756653
 21
78.765190
  0
LINE
  8
0
  6
CONTINUOUS
 10
207.421448
 20
57.267864
 11
240.921448
 21
57.267864
  0
LINE
  8
0
  6
CONTINUOUS
 10
213.875046
 20
64.767868
 11
209.714645
 21
64.767868
  0
LINE
  8
0
  6
CONTINUOUS
 10
216.171448
 20
71.736618
 11
216.171448
 21
64.767868
  0
LINE
  8
0
  6
CONTINUOUS
 10
220.171448
 20
74.267868
 11
220.171448
 21
76.767868
  0
LINE
  8
0
  6
CONTINUOUS
 10
228.171448
 20
74.267868
 11
228.171448
 21
76.767868
  0
LINE
  8
0
  6
CONTINUOUS
 10
223.390244
 20
75.299118
 11
223.390244
 21
66.080368
  0
LINE
  8
0
  6
CONTINUOUS
 10
224.890244
 20
75.299118
 11
224.890244
 21
66.080368
  0
LINE
  8
0
  6
CONTINUOUS
 10
232.765244
 20
75.299118
 11
232.765244
 21
66.017868
  0
LINE
  8
0
  6
CONTINUOUS
 10
234.140244
 20
70.377235
 11
234.140244
 21
66.017868
  0
LINE
  8
0
  6
CONTINUOUS
 10
214.273438
 20
75.174118
 11
210.418442
 21
75.174118
  0
LINE
  8
0
  6
CONTINUOUS
 10
210.418442
 20
75.174118
 11
209.515244
 21
74.054115
  0
LINE
  8
0
  6
CONTINUOUS
 10
209.623840
 20
76.767868
 11
208.171448
 21
74.908104
  0
LINE
  8
0
  6
CONTINUOUS
 10
209.515244
 20
67.140785
 11
210.432846
 21
66.174103
  0
LINE
  8
0
  6
CONTINUOUS
 10
208.171448
 20
66.325027
 11
209.714645
 21
64.767868
  0
LINE
  8
0
  6
CONTINUOUS
 10
208.171448
 20
74.908104
 11
208.171448
 21
66.325027
  0
LINE
  8
0
  6
CONTINUOUS
 10
209.515244
 20
74.054115
 11
209.515244
 21
67.140785
  0
LINE
  8
0
  6
CONTINUOUS
 10
215.015244
 20
74.457008
 11
214.258240
 21
75.174118
  0
LINE
  8
0
  6
CONTINUOUS
 10
215.003220
 20
76.767868
 11
216.171448
 21
75.471375
  0
LINE
  8
0
  6
CONTINUOUS
 10
215.015244
 20
74.267868
 11
216.171448
 21
74.267868
  0
LINE
  8
0
  6
CONTINUOUS
 10
209.623840
 20
76.767868
 11
215.003220
 21
76.767868
  0
LINE
  8
0
  6
CONTINUOUS
 10
212.921448
 20
71.736618
 11
216.171448
 21
71.736618
  0
LINE
  8
0
  6
CONTINUOUS
 10
215.015244
 20
70.424118
 11
212.921448
 21
70.424118
  0
LINE
  8
0
  6
CONTINUOUS
 10
212.515244
 20
66.174103
 11
210.432846
 21
66.174103
  0
LINE
  8
0
  6
CONTINUOUS
 10
215.015244
 20
69.174118
 11
215.015244
 21
70.174118
  0
ARC
  8
0
  6
CONTINUOUS
 10
212.515244
 20
68.674110
 40
2.500000
 50
-89.999786
 51
0.000109
  0
LINE
  8
0
  6
CONTINUOUS
 10
215.015244
 20
65.724426
 11
215.015244
 21
64.767868
  0
LINE
  8
0
  6
CONTINUOUS
 10
216.171448
 20
75.471375
 11
216.171448
 21
74.267868
  0
LINE
  8
0
  6
CONTINUOUS
 10
215.015244
 20
70.424118
 11
215.015244
 21
68.674110
  0
LINE
  8
0
  6
CONTINUOUS
 10
212.921448
 20
71.736618
 11
212.921448
 21
70.424118
  0
LINE
  8
0
  6
CONTINUOUS
 10
215.015244
 20
64.767868
 11
216.171448
 21
64.767868
  0
LINE
  8
0
  6
CONTINUOUS
 10
215.015244
 20
65.724426
 11
213.875046
 21
64.767868
  0
LINE
  8
0
  6
CONTINUOUS
 10
224.890244
 20
66.080368
 11
225.390244
 21
66.080368
  0
LINE
  8
0
  6
CONTINUOUS
 10
222.796448
 20
66.080368
 11
222.796448
 21
64.767868
  0
LINE
  8
0
  6
CONTINUOUS
 10
225.390244
 20
66.080368
 11
225.390244
 21
64.767868
  0
LINE
  8
0
  6
CONTINUOUS
 10
227.337036
 20
74.267868
 11
228.171448
 21
74.267868
  0
LINE
  8
0
  6
CONTINUOUS
 10
220.171448
 20
74.267868
 11
221.059448
 21
74.267868
  0
LINE
  8
0
  6
CONTINUOUS
 10
220.171448
 20
76.767868
 11
228.171448
 21
76.767868
  0
LINE
  8
0
  6
CONTINUOUS
 10
222.796448
 20
64.767868
 11
225.390244
 21
64.767868
  0
LINE
  8
0
  6
CONTINUOUS
 10
222.796448
 20
66.080368
 11
223.390244
 21
66.080368
  0
ARC
  8
0
  6
CONTINUOUS
 10
236.968445
 20
73.564743
 40
3.203126
 50
-73.981873
 51
90.003510
  0
ARC
  8
0
  6
CONTINUOUS
 10
236.968445
 20
73.564743
 40
1.954124
 50
-82.585274
 51
62.411850
  0
LINE
  8
0
  6
CONTINUOUS
 10
232.171448
 20
76.767868
 11
236.968445
 21
76.767868
  0
LINE
  8
0
  6
CONTINUOUS
 10
237.220444
 20
71.626953
 11
234.140244
 21
71.626953
  0
LINE
  8
0
  6
CONTINUOUS
 10
232.171448
 20
76.767868
 11
232.171448
 21
75.299118
  0
LINE
  8
0
  6
CONTINUOUS
 10
234.140244
 20
75.299118
 11
234.140244
 21
71.626953
  0
LINE
  8
0
  6
CONTINUOUS
 10
237.852234
 20
70.485977
 11
239.834641
 21
66.017868
  0
LINE
  8
0
  6
CONTINUOUS
 10
236.700638
 20
70.377235
 11
238.576843
 21
66.017868
  0
LINE
  8
0
  6
CONTINUOUS
 10
232.171448
 20
66.017868
 11
232.765244
 21
66.017868
  0
LINE
  8
0
  6
CONTINUOUS
 10
234.140244
 20
66.017868
 11
234.687042
 21
66.017868
  0
LINE
  8
0
  6
CONTINUOUS
 10
234.687042
 20
64.767868
 11
232.171448
 21
64.767868
  0
LINE
  8
0
  6
CONTINUOUS
 10
238.327637
 20
66.017868
 11
238.576843
 21
66.017868
  0
LINE
  8
0
  6
CONTINUOUS
 10
239.834641
 20
66.017868
 11
240.171448
 21
66.017868
  0
LINE
  8
0
  6
CONTINUOUS
 10
238.327637
 20
64.767868
 11
240.171448
 21
64.767868
  0
LINE
  8
0
  6
CONTINUOUS
 10
240.171448
 20
66.017868
 11
240.171448
 21
64.767868
  0
LINE
  8
0
  6
CONTINUOUS
 10
238.327637
 20
66.017868
 11
238.327637
 21
64.767868
  0
LINE
  8
0
  6
CONTINUOUS
 10
234.687042
 20
66.017868
 11
234.687042
 21
64.767868
  0
LINE
  8
0
  6
CONTINUOUS
 10
232.171448
 20
66.017868
 11
232.171448
 21
64.767868
  0
LINE
  8
0
  6
CONTINUOUS
 10
221.489243
 20
75.299118
 11
221.059448
 21
74.267868
  0
LINE
  8
0
  6
CONTINUOUS
 10
226.974640
 20
75.299118
 11
227.337036
 21
74.267868
  0
LINE
  8
0
  6
CONTINUOUS
 10
224.890244
 20
75.299118
 11
226.974640
 21
75.299118
  0
LINE
  8
0
  6
CONTINUOUS
 10
223.390244
 20
75.299118
 11
221.489243
 21
75.299118
  0
LINE
  8
0
  6
CONTINUOUS
 10
234.140244
 20
70.377235
 11
236.700638
 21
70.377235
  0
LINE
  8
0
  6
CONTINUOUS
 10
232.171448
 20
75.299118
 11
232.765244
 21
75.299118
  0
LINE
  8
0
  6
CONTINUOUS
 10
234.140244
 20
75.299118
 11
237.873245
 21
75.296684
  0
LINE
  8
0
  6
CONTINUOUS
 10
215.015244
 20
74.457008
 11
215.015244
 21
74.267868
  0
LINE
  8
0
  6
CONTINUOUS
 10
231.671448
 20
114.767883
 11
231.671448
 21
120.767883
  0
LINE
  8
0
  6
CONTINUOUS
 10
237.671448
 20
114.767906
 11
237.671448
 21
120.767906
  0
LINE
  8
0
  6
CONTINUOUS
 10
237.671448
 20
114.767906
 11
231.671448
 21
114.767883
  0
LINE
  8
0
  6
CONTINUOUS
 10
237.671448
 20
120.767906
 11
231.671448
 21
120.767883
  0
ARC
  8
0
  6
CONTINUOUS
 10
224.171448
 20
117.767868
 40
11.000000
 50
15.826600
 51
344.173401
  0
LINE
  8
0
  6
CONTINUOUS
 10
159.421448
 20
144.767868
 11
159.421448
 21
29.767864
  0
LINE
  8
0
  6
CENTER
 10
-6.760000
 20
87.267868
 11
181.427261
 21
87.267868
  0
LINE
  8
0
  6
CONTINUOUS
 10
54.421436
 20
145.267822
 11
54.421436
 21
101.767929
  0
LINE
  8
0
  6
CONTINUOUS
 10
54.421436
 20
144.767868
 11
159.421448
 21
144.767868
  0
LINE
  8
0
  6
CONTINUOUS
 10
62.421436
 20
138.553879
 11
62.421436
 21
134.267868
  0
LINE
  8
0
  6
CONTINUOUS
 10
151.421448
 20
138.553879
 11
151.421448
 21
134.267868
  0
LINE
  8
0
  6
CONTINUOUS
 10
129.421448
 20
94.067856
 11
151.421448
 21
94.067856
  0
LINE
  8
0
  6
CONTINUOUS
 10
129.421448
 20
80.467880
 11
151.421448
 21
80.467880
  0
LINE
  8
0
  6
CONTINUOUS
 10
129.421448
 20
96.067856
 11
151.421448
 21
96.067856
  0
LINE
  8
0
  6
CONTINUOUS
 10
129.421448
 20
78.467880
 11
151.421448
 21
78.467880
  0
LINE
  8
0
  6
CONTINUOUS
 10
129.421448
 20
101.867874
 11
151.421448
 21
101.867874
  0
LINE
  8
0
  6
CONTINUOUS
 10
129.421448
 20
103.867874
 11
151.421448
 21
103.867874
  0
LINE
  8
0
  6
CONTINUOUS
 10
129.421448
 20
72.667862
 11
151.421448
 21
72.667862
  0
LINE
  8
0
  6
CONTINUOUS
 10
129.421448
 20
70.667862
 11
151.421448
 21
70.667862
  0
LINE
  8
0
  6
CONTINUOUS
 10
129.421448
 20
109.667862
 11
151.421448
 21
109.667862
  0
LINE
  8
0
  6
CONTINUOUS
 10
129.421448
 20
64.867867
 11
151.421448
 21
64.867867
  0
LINE
  8
0
  6
CONTINUOUS
 10
129.421448
 20
111.667862
 11
151.421448
 21
111.667862
  0
LINE
  8
0
  6
CONTINUOUS
 10
129.421448
 20
62.867867
 11
151.421448
 21
62.867867
  0
LINE
  8
0
  6
CONTINUOUS
 10
62.421436
 20
125.267868
 11
151.421448
 21
125.267868
  0
LINE
  8
0
  6
CONTINUOUS
 10
62.421436
 20
127.267868
 11
151.421448
 21
127.267868
  0
LINE
  8
0
  6
CONTINUOUS
 10
62.421436
 20
132.267868
 11
151.421448
 21
132.267868
  0
LINE
  8
0
  6
CONTINUOUS
 10
62.421436
 20
134.267868
 11
151.421448
 21
134.267868
  0
LINE
  8
0
  6
CONTINUOUS
 10
62.421436
 20
138.553879
 11
151.421448
 21
138.553879
  0
LINE
  8
0
  6
CONTINUOUS
 10
62.421436
 20
35.981846
 11
62.421436
 21
40.267864
  0
LINE
  8
0
  6
CONTINUOUS
 10
62.421436
 20
132.267868
 11
62.421436
 21
127.267868
  0
LINE
  8
0
  6
CONTINUOUS
 10
62.421436
 20
125.267868
 11
62.421436
 21
122.267975
  0
LINE
  8
0
  6
CONTINUOUS
 10
62.421436
 20
52.267975
 11
62.421436
 21
49.267864
  0
LINE
  8
0
  6
CONTINUOUS
 10
62.421436
 20
47.267864
 11
62.421436
 21
42.267864
  0
LINE
  8
0
  6
CONTINUOUS
 10
151.421448
 20
35.981846
 11
151.421448
 21
40.267864
  0
LINE
  8
0
  6
CONTINUOUS
 10
151.421448
 20
42.267864
 11
151.421448
 21
47.267864
  0
LINE
  8
0
  6
CONTINUOUS
 10
151.421448
 20
49.267864
 11
151.421448
 21
54.767864
  0
LINE
  8
0
  6
CONTINUOUS
 10
151.421448
 20
56.767864
 11
151.421448
 21
62.867867
  0
LINE
  8
0
  6
CONTINUOUS
 10
151.421448
 20
64.867867
 11
151.421448
 21
70.667862
  0
LINE
  8
0
  6
CONTINUOUS
 10
151.421448
 20
72.667862
 11
151.421448
 21
78.467880
  0
LINE
  8
0
  6
CONTINUOUS
 10
129.421448
 20
88.267868
 11
151.421448
 21
88.267868
  0
LINE
  8
0
  6
CONTINUOUS
 10
129.421448
 20
86.267868
 11
151.421448
 21
86.267868
  0
LINE
  8
0
  6
CONTINUOUS
 10
151.421448
 20
80.467880
 11
151.421448
 21
86.267868
  0
LINE
  8
0
  6
CONTINUOUS
 10
151.421448
 20
88.267868
 11
151.421448
 21
94.067886
  0
LINE
  8
0
  6
CONTINUOUS
 10
151.421448
 20
96.067856
 11
151.421448
 21
101.867874
  0
LINE
  8
0
  6
CONTINUOUS
 10
151.421448
 20
103.867874
 11
151.421448
 21
109.667862
  0
LINE
  8
0
  6
CONTINUOUS
 10
151.421448
 20
111.667862
 11
151.421448
 21
117.767868
  0
LINE
  8
0
  6
CONTINUOUS
 10
151.421448
 20
119.767868
 11
151.421448
 21
125.267868
  0
LINE
  8
0
  6
CONTINUOUS
 10
151.421448
 20
127.267868
 11
151.421448
 21
132.267868
  0
LINE
  8
0
  6
CONTINUOUS
 10
151.421448
 20
56.767864
 11
125.421494
 21
56.767864
  0
LINE
  8
0
  6
CONTINUOUS
 10
151.421448
 20
54.767864
 11
125.421494
 21
54.767941
  0
LINE
  8
0
  6
CONTINUOUS
 10
151.421448
 20
49.267864
 11
62.421436
 21
49.267864
  0
LINE
  8
0
  6
CONTINUOUS
 10
151.421448
 20
47.267864
 11
62.421436
 21
47.267864
  0
LINE
  8
0
  6
CONTINUOUS
 10
151.421448
 20
42.267864
 11
62.421436
 21
42.267864
  0
LINE
  8
0
  6
CONTINUOUS
 10
151.421448
 20
40.267864
 11
62.421436
 21
40.267864
  0
LINE
  8
0
  6
CONTINUOUS
 10
151.421448
 20
35.981846
 11
62.421436
 21
35.981846
  0
LINE
  8
0
  6
CONTINUOUS
 10
159.421448
 20
29.767864
 11
59.421436
 21
29.767864
  0
LINE
  8
0
  6
CENTER
 10
224.171448
 20
404.709747
 11
224.171448
 21
231.839737
  0
LINE
  8
0
  6
CENTER
 10
-6.056250
 20
332.063690
 11
293.510895
 21
332.063690
  0
LINE
  8
0
  6
CONTINUOUS
 10
172.953415
 20
364.063690
 11
271.699402
 21
364.063690
  0
LINE
  8
0
  6
CONTINUOUS
 10
172.953415
 20
300.063690
 11
271.699402
 21
300.063690
  0
LINE
  8
0
  6
CONTINUOUS
 10
267.109558
 20
390.063690
 11
224.171448
 21
390.063690
  0
LINE
  8
0
  6
CONTINUOUS
 10
181.233337
 20
274.063690
 11
213.171448
 21
274.063690
  0
LINE
  8
0
  6
CONTINUOUS
 10
277.171448
 20
332.063690
 11
276.612885
 21
364.063690
  0
LINE
  8
0
  6
CONTINUOUS
 10
272.003510
 20
386.087952
 11
276.612885
 21
364.063690
  0
ARC
  8
0
  6
CONTINUOUS
 10
267.109558
 20
385.063690
 40
5.000000
 50
11.820596
 51
90.000000
  0
LINE
  8
0
  6
CONTINUOUS
 10
277.171448
 20
332.063690
 11
276.612885
 21
300.063690
  0
LINE
  8
0
  6
CONTINUOUS
 10
272.003510
 20
278.039459
 11
276.612885
 21
300.063690
  0
ARC
  8
0
  6
CONTINUOUS
 10
267.109558
 20
279.063690
 40
5.000000
 50
-90.000000
 51
-11.820596
  0
LINE
  8
0
  6
CONTINUOUS
 10
244.171448
 20
302.063690
 11
244.171448
 21
362.063690
  0
LINE
  8
0
  6
CONTINUOUS
 10
204.171448
 20
302.063690
 11
204.171448
 21
362.063690
  0
ARC
  8
0
  6
CONTINUOUS
 10
271.699402
 20
359.063690
 40
5.000000
 50
1.000000
 51
90.000000
  0
ARC
  8
0
  6
CONTINUOUS
 10
271.699402
 20
305.063690
 40
5.000000
 50
270.000000
 51
359.000000
  0
LINE
  8
0
  6
CONTINUOUS
 10
167.497940
 20
277.735168
 11
167.955139
 21
295.194580
  0
LINE
  8
0
  6
CONTINUOUS
 10
159.421448
 20
389.563690
 11
159.421448
 21
274.563690
  0
LINE
  8
0
  6
CONTINUOUS
 10
177.986435
 20
350.063690
 11
177.986435
 21
314.063690
  0
LINE
  8
0
  6
CONTINUOUS
 10
159.421448
 20
389.313690
 11
164.498962
 21
389.313690
  0
LINE
  8
0
  6
CONTINUOUS
 10
164.498962
 20
274.813690
 11
159.421448
 21
274.813690
  0
ARC
  8
0
  6
CONTINUOUS
 10
172.953415
 20
295.063690
 40
5.000000
 50
90.000000
 51
178.500000
  0
ARC
  8
0
  6
CONTINUOUS
 10
164.498962
 20
277.813690
 40
3.000000
 50
270.000000
 51
358.500000
  0
LINE
  8
0
  6
CONTINUOUS
 10
167.497940
 20
386.392242
 11
167.955139
 21
368.932800
  0
ARC
  8
0
  6
CONTINUOUS
 10
172.953415
 20
369.063690
 40
5.000000
 50
-178.500000
 51
-90.000000
  0
ARC
  8
0
  6
CONTINUOUS
 10
164.498962
 20
386.313690
 40
3.000000
 50
-358.500000
 51
-270.000000
  0
LINE
  8
0
  6
CONTINUOUS
 10
176.339371
 20
386.087952
 11
171.760239
 21
364.208160
  0
ARC
  8
0
  6
CONTINUOUS
 10
181.233337
 20
385.063690
 40
5.000000
 50
90.000000
 51
168.179398
  0
LINE
  8
0
  6
CONTINUOUS
 10
176.339371
 20
278.039459
 11
171.760239
 21
299.919250
  0
ARC
  8
0
  6
CONTINUOUS
 10
181.233337
 20
279.063690
 40
5.000000
 50
-168.179398
 51
-90.000000
  0
LINE
  8
0
  6
CENTER
 10
248.721832
 20
287.063690
 11
269.576019
 21
287.063690
  0
LINE
  8
0
  6
CENTER
 10
259.171448
 20
294.621002
 11
259.171448
 21
277.850159
  0
CIRCLE
  8
0
  6
CONTINUOUS
 10
259.171448
 20
287.063690
 40
5.500000
  0
LINE
  8
0
  6
CENTER
 10
199.621048
 20
287.063690
 11
178.766876
 21
287.063690
  0
LINE
  8
0
  6
CENTER
 10
189.171448
 20
294.621002
 11
189.171448
 21
277.850159
  0
CIRCLE
  8
0
  6
CONTINUOUS
 10
189.171448
 20
287.063690
 40
5.500000
  0
LINE
  8
0
  6
CENTER
 10
248.721832
 20
377.063690
 11
269.576019
 21
377.063690
  0
LINE
  8
0
  6
CENTER
 10
259.171448
 20
369.506409
 11
259.171448
 21
386.277252
  0
CIRCLE
  8
0
  6
CONTINUOUS
 10
259.171448
 20
377.063690
 40
5.500000
  0
LINE
  8
0
  6
CENTER
 10
199.621048
 20
377.063690
 11
178.766876
 21
377.063690
  0
LINE
  8
0
  6
CENTER
 10
189.171448
 20
369.506409
 11
189.171448
 21
386.277252
  0
CIRCLE
  8
0
  6
CONTINUOUS
 10
189.171448
 20
377.063690
 40
5.500000
  0
LINE
  8
0
  6
CONTINUOUS
 10
198.978592
 20
284.063690
 11
249.364288
 21
284.063690
  0
LINE
  8
0
  6
CONTINUOUS
 10
254.327698
 20
294.063690
 11
257.614532
 21
294.063690
  0
ARC
  8
0
  6
CONTINUOUS
 10
249.364288
 20
287.063690
 40
3.000000
 50
270.000000
 51
345.124329
  0
LINE
  8
0
  6
CONTINUOUS
 10
260.513977
 20
296.293518
 11
260.923126
 21
297.833862
  0
ARC
  8
0
  6
CONTINUOUS
 10
257.614532
 20
297.063690
 40
3.000000
 50
270.000000
 51
345.124329
  0
ARC
  8
0
  6
CONTINUOUS
 10
263.822601
 20
297.063690
 40
3.000000
 50
90.000000
 51
165.124313
  0
LINE
  8
0
  6
CONTINUOUS
 10
254.327698
 20
294.063690
 11
252.263748
 21
286.293518
  0
LINE
  8
0
  6
CONTINUOUS
 10
187.828888
 20
296.293518
 11
187.419739
 21
297.833862
  0
ARC
  8
0
  6
CONTINUOUS
 10
190.728348
 20
297.063690
 40
3.000000
 50
-165.124313
 51
-90.000000
  0
ARC
  8
0
  6
CONTINUOUS
 10
184.520279
 20
297.063690
 40
3.000000
 50
14.875682
 51
90.000000
  0
LINE
  8
0
  6
CONTINUOUS
 10
194.015198
 20
294.063690
 11
190.728348
 21
294.063690
  0
ARC
  8
0
  6
CONTINUOUS
 10
198.978592
 20
287.063690
 40
3.000000
 50
-165.124313
 51
-90.000000
  0
LINE
  8
0
  6
CONTINUOUS
 10
194.015198
 20
294.063690
 11
196.079147
 21
286.293518
  0
CIRCLE
  8
0
  6
CONTINUOUS
 10
259.171448
 20
377.063690
 40
5.500000
  0
LINE
  8
0
  6
CONTINUOUS
 10
198.978592
 20
380.063690
 11
249.364288
 21
380.063690
  0
LINE
  8
0
  6
CONTINUOUS
 10
254.327698
 20
370.063690
 11
257.614532
 21
370.063690
  0
ARC
  8
0
  6
CONTINUOUS
 10
249.364288
 20
377.063690
 40
3.000000
 50
-345.124329
 51
-270.000000
  0
LINE
  8
0
  6
CONTINUOUS
 10
260.513977
 20
367.833862
 11
260.923126
 21
366.293518
  0
ARC
  8
0
  6
CONTINUOUS
 10
257.614532
 20
367.063690
 40
3.000000
 50
-345.124329
 51
-270.000000
  0
ARC
  8
0
  6
CONTINUOUS
 10
263.822601
 20
367.063690
 40
3.000000
 50
-165.124313
 51
-90.000000
  0
LINE
  8
0
  6
CONTINUOUS
 10
254.327698
 20
370.063690
 11
252.263748
 21
377.833862
  0
LINE
  8
0
  6
CONTINUOUS
 10
187.828888
 20
367.833862
 11
187.419739
 21
366.293518
  0
ARC
  8
0
  6
CONTINUOUS
 10
190.728348
 20
367.063690
 40
3.000000
 50
90.000000
 51
165.124313
  0
ARC
  8
0
  6
CONTINUOUS
 10
184.520279
 20
367.063690
 40
3.000000
 50
-90.000000
 51
-14.875682
  0
LINE
  8
0
  6
CONTINUOUS
 10
194.015198
 20
370.063690
 11
190.728348
 21
370.063690
  0
ARC
  8
0
  6
CONTINUOUS
 10
198.978592
 20
377.063690
 40
3.000000
 50
90.000000
 51
165.124313
  0
LINE
  8
0
  6
CONTINUOUS
 10
194.015198
 20
370.063690
 11
196.079147
 21
377.833862
  0
LINE
  8
0
  6
CONTINUOUS
 10
213.171448
 20
242.063705
 11
237.671448
 21
242.063705
  0
LINE
  8
0
  6
CONTINUOUS
 10
235.171448
 20
282.063690
 11
235.171448
 21
277.063690
  0
LINE
  8
0
  6
CONTINUOUS
 10
213.171448
 20
282.063690
 11
213.171448
 21
242.063705
  0
LINE
  8
0
  6
CONTINUOUS
 10
236.671448
 20
284.063690
 11
236.671448
 21
282.063690
  0
LINE
  8
0
  6
CONTINUOUS
 10
211.671448
 20
284.063690
 11
211.671448
 21
282.063690
  0
LINE
  8
0
  6
CONTINUOUS
 10
211.671448
 20
282.063690
 11
236.671448
 21
282.063690
  0
LINE
  8
0
  6
CONTINUOUS
 10
237.671448
 20
274.063690
 11
267.109558
 21
274.063690
  0
LINE
  8
0
  6
CONTINUOUS
 10
237.671448
 20
277.063690
 11
237.671448
 21
242.063705
  0
LINE
  8
0
  6
CONTINUOUS
 10
234.754456
 20
242.063705
 11
234.754456
 21
277.063690
  0
LINE
  8
0
  6
CONTINUOUS
 10
234.754456
 20
277.063690
 11
237.671448
 21
277.063690
  0
LINE
  8
0
  6
CONTINUOUS
 10
224.171448
 20
390.063690
 11
181.055176
 21
390.063690
  0
LINE
  8
0
  6
CONTINUOUS
 10
159.421448
 20
379.563690
 11
164.754288
 21
379.563690
  0
ARC
  8
0
  6
CONTINUOUS
 10
164.754288
 20
376.563690
 40
3.000000
 50
1.500000
 51
90.000000
  0
LINE
  8
0
  6
CONTINUOUS
 10
167.711914
 20
364.063690
 11
159.421448
 21
364.063690
  0
LINE
  8
0
  6
CONTINUOUS
 10
167.711914
 20
300.063690
 11
159.421448
 21
300.063690
  0
LINE
  8
0
  6
CONTINUOUS
 10
159.421448
 20
284.563690
 11
164.754288
 21
284.563690
  0
ARC
  8
0
  6
CONTINUOUS
 10
164.754288
 20
287.563690
 40
3.000000
 50
-90.000000
 51
-1.500000
  0
LINE
  8
0
  6
CONTINUOUS
 10
54.421543
 20
389.563690
 11
159.421509
 21
389.563690
  0
LINE
  8
0
  6
CONTINUOUS
 10
54.421543
 20
274.563690
 11
62.421543
 21
274.563690
  0
LINE
  8
0
  6
CONTINUOUS
 10
54.421543
 20
390.063690
 11
54.421543
 21
274.063690
  0
LINE
  8
0
  6
CONTINUOUS
 10
62.421543
 20
389.563690
 11
62.421543
 21
358.063599
  0
LINE
  8
0
  6
CONTINUOUS
 10
62.421543
 20
358.063599
 11
151.421555
 21
358.063599
  0
LINE
  8
0
  6
CONTINUOUS
 10
62.421543
 20
365.834229
 11
151.421555
 21
365.834229
  0
LINE
  8
0
  6
CONTINUOUS
 10
63.421543
 20
369.113678
 11
150.421555
 21
369.113678
  0
LINE
  8
0
  6
CONTINUOUS
 10
62.421543
 20
373.928711
 11
151.421555
 21
373.928711
  0
LINE
  8
0
  6
CONTINUOUS
 10
63.421543
 20
375.916565
 11
150.421555
 21
375.916565
  0
LINE
  8
0
  6
CONTINUOUS
 10
62.421543
 20
379.959290
 11
151.421555
 21
379.959290
  0
LINE
  8
0
  6
CONTINUOUS
 10
62.421543
 20
384.490204
 11
151.421555
 21
384.490204
  0
LINE
  8
0
  6
CONTINUOUS
 10
62.421543
 20
387.367310
 11
151.421555
 21
387.367310
  0
LINE
  8
0
  6
CONTINUOUS
 10
62.421543
 20
389.022644
 11
151.421555
 21
389.022644
  0
LINE
  8
0
  6
CONTINUOUS
 10
151.421555
 20
389.563690
 11
151.421555
 21
358.063599
  0
LINE
  8
0
  6
CONTINUOUS
 10
62.421543
 20
274.563690
 11
62.421543
 21
306.063812
  0
LINE
  8
0
  6
CONTINUOUS
 10
62.421543
 20
306.063812
 11
151.421555
 21
306.063812
  0
LINE
  8
0
  6
CONTINUOUS
 10
62.421543
 20
298.293213
 11
151.421555
 21
298.293213
  0
LINE
  8
0
  6
CONTINUOUS
 10
63.421543
 20
295.013733
 11
150.421555
 21
295.013733
  0
LINE
  8
0
  6
CONTINUOUS
 10
62.421543
 20
290.198700
 11
151.421555
 21
290.198700
  0
LINE
  8
0
  6
CONTINUOUS
 10
63.421543
 20
288.210815
 11
150.421555
 21
288.210815
  0
LINE
  8
0
  6
CONTINUOUS
 10
62.421543
 20
284.168152
 11
151.421555
 21
284.168152
  0
LINE
  8
0
  6
CONTINUOUS
 10
129.421509
 20
279.637207
 11
151.421555
 21
279.637207
  0
LINE
  8
0
  6
CONTINUOUS
 10
129.421509
 20
276.760071
 11
151.421555
 21
276.760071
  0
LINE
  8
0
  6
CONTINUOUS
 10
129.921509
 20
275.104736
 11
151.421555
 21
275.104736
  0
LINE
  8
0
  6
CONTINUOUS
 10
151.421555
 20
274.563690
 11
151.421555
 21
306.063812
  0
LINE
  8
0
  6
CONTINUOUS
 10
63.421543
 20
276.063690
 11
128.421555
 21
276.063690
  0
LINE
  8
0
  6
CONTINUOUS
 10
129.921509
 20
274.563690
 11
159.421509
 21
274.563690
  0
LINE
  8
0
  6
CONTINUOUS
 10
129.421509
 20
275.063751
 11
129.421509
 21
281.262329
  0
ARC
  8
0
  6
CONTINUOUS
 10
129.921509
 20
275.063751
 40
0.500000
 50
-180.000000
 51
-90.000000
  0
ARC
  8
0
  6
CONTINUOUS
 10
129.921509
 20
275.604767
 40
0.500000
 50
-180.000000
 51
-90.000000
  0
LINE
  8
0
  6
CONTINUOUS
 10
62.421543
 20
281.262329
 11
129.421509
 21
281.262329
  0
ARC
  8
0
  6
CONTINUOUS
 10
128.421555
 20
277.063690
 40
1.000000
 50
-90.000000
 51
0.000000
  0
ARC
  8
0
  6
CONTINUOUS
 10
63.421543
 20
277.063690
 40
1.000000
 50
-180.000000
 51
-90.000000
  0
LINE
  8
0
  6
CONTINUOUS
 10
56.483887
 20
261.641846
 11
55.421440
 21
221.563690
  0
LINE
  8
0
  6
CONTINUOUS
 10
124.358490
 20
261.641876
 11
125.421440
 21
221.563690
  0
LINE
  8
0
  6
CONTINUOUS
 10
114.447243
 20
274.563690
 11
66.395538
 21
274.563690
  0
LINE
  8
0
  6
CONTINUOUS
 10
121.372742
 20
264.563690
 11
103.732712
 21
264.563690
  0
ARC
  8
0
  6
CONTINUOUS
 10
59.469540
 20
261.563690
 40
3.000000
 50
90.000000
 51
178.500275
  0
ARC
  8
0
  6
CONTINUOUS
 10
121.372742
 20
261.563690
 40
3.000000
 50
1.499900
 51
90.000000
  0
LINE
  8
0
  6
CONTINUOUS
 10
65.395882
 20
273.589874
 11
65.210533
 21
266.511353
  0
LINE
  8
0
  6
CONTINUOUS
 10
115.446899
 20
273.589874
 11
115.632248
 21
266.511353
  0
ARC
  8
0
  6
CONTINUOUS
 10
114.447243
 20
273.563690
 40
1.000000
 50
1.499300
 51
90.000000
  0
ARC
  8
0
  6
CONTINUOUS
 10
66.395538
 20
273.563690
 40
1.000000
 50
90.000000
 51
178.499405
  0
LINE
  8
0
  6
CONTINUOUS
 10
59.469643
 20
264.563690
 11
77.110168
 21
264.563690
  0
ARC
  8
0
  6
CONTINUOUS
 10
90.421440
 20
332.063690
 40
68.800003
 50
-101.155815
 51
-78.844185
  0
LINE
  8
0
  6
CENTER
 10
90.421440
 20
278.389801
 11
90.421440
 21
204.087494
  0
LINE
  8
0
  6
CONTINUOUS
 10
57.921440
 20
215.563690
 11
122.921440
 21
215.563690
  0
LINE
  8
0
  6
CONTINUOUS
 10
125.421440
 20
218.063690
 11
125.421440
 21
220.563690
  0
LINE
  8
0
  6
CONTINUOUS
 10
55.421440
 20
218.063690
 11
55.421440
 21
220.563690
  0
LINE
  8
0
  6
CONTINUOUS
 10
125.421440
 20
220.563690
 11
55.421440
 21
220.563690
  0
LINE
  8
0
  6
CONTINUOUS
 10
125.421440
 20
221.563690
 11
55.421440
 21
221.563690
  0
LINE
  8
0
  6
CONTINUOUS
 10
125.421440
 20
220.563690
 11
125.421440
 21
221.563690
  0
LINE
  8
0
  6
CONTINUOUS
 10
55.421440
 20
220.563690
 11
55.421440
 21
221.563690
  0
LINE
  8
0
  6
CENTER
 10
60.421440
 20
237.563690
 11
23.501991
 21
237.563690
  0
LINE
  8
0
  6
CONTINUOUS
 10
116.908539
 20
218.563690
 11
124.421440
 21
218.563690
  0
LINE
  8
0
  6
CONTINUOUS
 10
63.934380
 20
218.563690
 11
56.421440
 21
218.563690
  0
LINE
  8
0
  6
CONTINUOUS
 10
116.408745
 20
218.076797
 11
116.368439
 21
216.537491
  0
ARC
  8
0
  6
CONTINUOUS
 10
116.908539
 20
218.063690
 40
0.500000
 50
90.000000
 51
178.500000
  0
ARC
  8
0
  6
CONTINUOUS
 10
115.368744
 20
216.563690
 40
1.000000
 50
-90.000000
 51
-1.499802
  0
ARC
  8
0
  6
CONTINUOUS
 10
124.421440
 20
219.563690
 40
1.000000
 50
-90.000000
 51
0.000000
  0
ARC
  8
0
  6
CONTINUOUS
 10
122.921440
 20
218.063690
 40
2.500000
 50
-90.000000
 51
0.000000
  0
LINE
  8
0
  6
CONTINUOUS
 10
64.434258
 20
218.076797
 11
64.474541
 21
216.537491
  0
ARC
  8
0
  6
CONTINUOUS
 10
65.474174
 20
216.563690
 40
1.000000
 50
-178.499603
 51
-90.000000
  0
ARC
  8
0
  6
CONTINUOUS
 10
63.934380
 20
218.063690
 40
0.500000
 50
1.500198
 51
90.000000
  0
ARC
  8
0
  6
CONTINUOUS
 10
56.421440
 20
219.563690
 40
1.000000
 50
-180.000000
 51
-90.000000
  0
ARC
  8
0
  6
CONTINUOUS
 10
57.921440
 20
218.063690
 40
2.500000
 50
-180.000000
 51
-90.000000
  0
ARC
  8
0
  6
CONTINUOUS
 10
120.421440
 20
218.563690
 40
3.000000
 50
-180.000000
 51
0.000000
  0
LINE
  8
0
  6
CONTINUOUS
 10
123.379440
 20
218.063690
 11
117.463440
 21
218.063690
  0
LINE
  8
0
  6
CONTINUOUS
 10
120.421440
 20
216.063690
 11
120.140343
 21
215.576889
  0
LINE
  8
0
  6
CONTINUOUS
 10
120.421440
 20
216.063690
 11
120.702538
 21
215.576889
  0
ARC
  8
0
  6
CONTINUOUS
 10
60.421440
 20
218.563690
 40
3.000000
 50
-180.000000
 51
0.000000
  0
LINE
  8
0
  6
CONTINUOUS
 10
63.379452
 20
218.063690
 11
57.463432
 21
218.063690
  0
LINE
  8
0
  6
CONTINUOUS
 10
60.421440
 20
216.063690
 11
60.140369
 21
215.576889
  0
LINE
  8
0
  6
CONTINUOUS
 10
60.421440
 20
216.063690
 11
60.702568
 21
215.576889
  0
LINE
  8
0
  6
CONTINUOUS
 10
113.421440
 20
274.563690
 11
113.421440
 21
276.063690
  0
LINE
  8
0
  6
CONTINUOUS
 10
67.421440
 20
274.563690
 11
67.421440
 21
276.063690
  0
LINE
  8
0
  6
CONTINUOUS
 10
27.421492
 20
252.063843
 11
27.421492
 21
223.063751
  0
LINE
  8
0
  6
CONTINUOUS
 10
35.421490
 20
252.063843
 11
35.421490
 21
223.063751
  0
LINE
  8
0
  6
CONTINUOUS
 10
27.421492
 20
252.063843
 11
35.421490
 21
252.063843
  0
LINE
  8
0
  6
CONTINUOUS
 10
27.421492
 20
223.063751
 11
35.421490
 21
223.063751
  0
LINE
  8
0
  6
CONTINUOUS
 10
44.421490
 20
250.563843
 11
44.421490
 21
224.563751
  0
LINE
  8
0
  6
CONTINUOUS
 10
35.421490
 20
250.563843
 11
44.421490
 21
250.563843
  0
LINE
  8
0
  6
CONTINUOUS
 10
35.421490
 20
224.563751
 11
44.421490
 21
224.563751
  0
LINE
  8
0
  6
CONTINUOUS
 10
44.421490
 20
249.063843
 11
49.421490
 21
249.063843
  0
LINE
  8
0
  6
CONTINUOUS
 10
44.421490
 20
226.063751
 11
49.421490
 21
226.063751
  0
LINE
  8
0
  6
CONTINUOUS
 10
49.421490
 20
251.063843
 11
49.421490
 21
224.063751
  0
LINE
  8
0
  6
CONTINUOUS
 10
53.921490
 20
252.063843
 11
53.921490
 21
223.063751
  0
LINE
  8
0
  6
CONTINUOUS
 10
49.421490
 20
251.063843
 11
53.921490
 21
251.063843
  0
LINE
  8
0
  6
CONTINUOUS
 10
49.421490
 20
224.063751
 11
53.921490
 21
224.063751
  0
LINE
  8
0
  6
CONTINUOUS
 10
53.921490
 20
252.063843
 11
56.229980
 21
252.063843
  0
LINE
  8
0
  6
CONTINUOUS
 10
53.921490
 20
223.063751
 11
55.461208
 21
223.063751
  0
LINE
  8
0
  6
CONTINUOUS
 10
27.421492
 20
245.563843
 11
35.421490
 21
245.563843
  0
LINE
  8
0
  6
CONTINUOUS
 10
27.421492
 20
229.563751
 11
35.421490
 21
229.563751
  0
ARC
  8
0
  6
CONTINUOUS
 10
63.211220
 20
266.563690
 40
2.000000
 50
-90.000000
 51
-1.499917
  0
ARC
  8
0
  6
CONTINUOUS
 10
117.631561
 20
266.563690
 40
2.000000
 50
-178.500046
 51
-90.000000
  0
LINE
  8
0
  6
CONTINUOUS
 10
127.421440
 20
114.267975
 11
125.421494
 21
114.267975
  0
LINE
  8
0
  6
CONTINUOUS
 10
127.421440
 20
60.267975
 11
125.421494
 21
60.267975
  0
LINE
  8
0
  6
CONTINUOUS
 10
129.421448
 20
62.267975
 11
129.421448
 21
112.267975
  0
ARC
  8
0
  6
CONTINUOUS
 10
127.421440
 20
112.267975
 40
2.000000
 50
0.000000
 51
90.000000
  0
ARC
  8
0
  6
CONTINUOUS
 10
127.421440
 20
62.267975
 40
2.000000
 50
-90.000000
 51
0.000000
  0
LINE
  8
0
  6
CONTINUOUS
 10
122.921494
 20
52.267975
 11
57.921440
 21
52.267975
  0
LINE
  8
0
  6
CONTINUOUS
 10
55.421440
 20
87.267868
 11
55.421440
 21
119.767975
  0
LINE
  8
0
  6
CONTINUOUS
 10
125.421494
 20
87.267868
 11
125.421494
 21
119.767975
  0
ARC
  8
0
  6
CONTINUOUS
 10
57.921452
 20
54.767975
 40
2.500000
 50
180.000000
 51
270.000000
  0
ARC
  8
0
  6
CONTINUOUS
 10
122.921494
 20
54.767967
 40
2.500000
 50
-90.000000
 51
0.000000
  0
ARC
  8
0
  6
CONTINUOUS
 10
60.421452
 20
117.267975
 40
4.000000
 50
-90.000000
 51
0.000000
  0
ARC
  8
0
  6
CONTINUOUS
 10
120.421494
 20
117.267975
 40
4.000000
 50
180.000000
 51
270.000000
  0
ARC
  8
0
  6
CONTINUOUS
 10
120.421494
 20
57.267975
 40
4.000000
 50
90.000000
 51
180.000000
  0
ARC
  8
0
  6
CONTINUOUS
 10
60.421452
 20
57.267975
 40
4.000000
 50
0.000000
 51
90.000000
  0
LINE
  8
0
  6
CONTINUOUS
 10
120.421494
 20
113.267975
 11
122.921494
 21
113.267975
  0
LINE
  8
0
  6
CONTINUOUS
 10
60.421440
 20
113.267975
 11
57.921440
 21
113.267975
  0
LINE
  8
0
  6
CONTINUOUS
 10
60.421440
 20
61.267975
 11
57.921471
 21
61.267975
  0
LINE
  8
0
  6
CONTINUOUS
 10
120.421494
 20
61.267975
 11
122.921494
 21
61.267975
  0
LINE
  8
0
  6
CONTINUOUS
 10
116.421494
 20
117.267975
 11
116.421494
 21
119.767975
  0
LINE
  8
0
  6
CONTINUOUS
 10
64.421448
 20
117.267975
 11
64.421448
 21
119.767975
  0
LINE
  8
0
  6
CONTINUOUS
 10
64.421448
 20
57.267975
 11
64.421448
 21
54.767967
  0
LINE
  8
0
  6
CONTINUOUS
 10
116.421494
 20
57.267956
 11
116.421494
 21
54.767967
  0
ARC
  8
0
  6
CONTINUOUS
 10
57.921452
 20
110.767975
 40
2.500000
 50
90.000000
 51
180.000000
  0
ARC
  8
0
  6
CONTINUOUS
 10
122.921494
 20
110.767975
 40
2.500000
 50
0.000000
 51
90.000000
  0
ARC
  8
0
  6
CONTINUOUS
 10
57.921452
 20
63.767975
 40
2.500000
 50
180.000000
 51
270.000000
  0
ARC
  8
0
  6
CONTINUOUS
 10
66.921448
 20
54.767975
 40
2.500000
 50
180.000000
 51
270.000000
  0
ARC
  8
0
  6
CONTINUOUS
 10
122.921494
 20
63.767967
 40
2.500000
 50
-90.000000
 51
0.000000
  0
ARC
  8
0
  6
CONTINUOUS
 10
113.921494
 20
54.767967
 40
2.500000
 50
-90.000000
 51
0.000000
  0
LINE
  8
0
  6
CONTINUOUS
 10
125.421494
 20
54.767975
 11
125.421494
 21
87.267868
  0
LINE
  8
0
  6
CONTINUOUS
 10
55.421452
 20
54.767975
 11
55.421452
 21
87.267868
  0
LINE
  8
0
  6
CONTINUOUS
 10
27.421492
 20
72.767822
 11
27.421492
 21
101.767929
  0
LINE
  8
0
  6
CONTINUOUS
 10
35.421490
 20
72.767822
 11
35.421490
 21
101.767929
  0
LINE
  8
0
  6
CONTINUOUS
 10
27.421492
 20
72.767822
 11
35.421490
 21
72.767822
  0
LINE
  8
0
  6
CONTINUOUS
 10
27.421492
 20
101.767929
 11
35.421490
 21
101.767929
  0
LINE
  8
0
  6
CONTINUOUS
 10
44.421490
 20
74.267822
 11
44.421490
 21
100.267929
  0
LINE
  8
0
  6
CONTINUOUS
 10
35.421490
 20
74.267822
 11
44.421490
 21
74.267822
  0
LINE
  8
0
  6
CONTINUOUS
 10
35.421490
 20
100.267929
 11
44.421490
 21
100.267929
  0
LINE
  8
0
  6
CONTINUOUS
 10
44.421490
 20
75.767822
 11
49.421490
 21
75.767822
  0
LINE
  8
0
  6
CONTINUOUS
 10
44.421490
 20
98.767929
 11
49.421490
 21
98.767929
  0
LINE
  8
0
  6
CONTINUOUS
 10
49.421490
 20
73.767822
 11
49.421490
 21
100.767929
  0
LINE
  8
0
  6
CONTINUOUS
 10
53.921490
 20
72.767822
 11
53.921490
 21
101.767929
  0
LINE
  8
0
  6
CONTINUOUS
 10
49.421490
 20
73.767822
 11
53.921490
 21
73.767822
  0
LINE
  8
0
  6
CONTINUOUS
 10
49.421490
 20
100.767929
 11
53.921490
 21
100.767929
  0
LINE
  8
0
  6
CONTINUOUS
 10
53.921490
 20
72.767822
 11
55.460793
 21
72.767822
  0
LINE
  8
0
  6
CONTINUOUS
 10
53.921490
 20
101.767929
 11
55.421440
 21
101.767929
  0
LINE
  8
0
  6
CONTINUOUS
 10
27.421492
 20
79.267822
 11
35.421490
 21
79.267822
  0
LINE
  8
0
  6
CONTINUOUS
 10
27.421492
 20
95.267929
 11
35.421490
 21
95.267929
  0
LINE
  8
0
  6
CENTER
 10
90.421440
 20
42.892975
 11
90.421440
 21
133.745377
  0
LINE
  8
0
  6
CONTINUOUS
 10
57.921452
 20
122.267975
 11
122.921394
 21
122.267975
  0
ARC
  8
0
  6
CONTINUOUS
 10
57.921471
 20
119.767975
 40
2.500000
 50
90.000000
 51
180.000000
  0
ARC
  8
0
  6
CONTINUOUS
 10
66.921471
 20
119.767975
 40
2.500000
 50
90.000000
 51
180.000000
  0
ARC
  8
0
  6
CONTINUOUS
 10
113.921494
 20
119.767975
 40
2.500000
 50
0.000000
 51
90.000000
  0
ARC
  8
0
  6
CONTINUOUS
 10
122.921494
 20
119.767975
 40
2.500000
 50
0.000000
 51
90.000000
  0
LINE
  8
0
  6
CONTINUOUS
 10
151.421448
 20
119.767868
 11
125.421494
 21
119.767975
  0
LINE
  8
0
  6
CONTINUOUS
 10
151.421448
 20
117.767868
 11
125.421494
 21
117.767868
  0
LINE
  8
0
  6
CENTER
 10
463.268280
 20
-5.792135
 11
463.268280
 21
177.345001
  0
LINE
  8
0
  6
CENTER
 10
337.448120
 20
87.267868
 11
545.018250
 21
87.267868
  0
LINE
  8
0
  6
CENTER
 10
361.518280
 20
117.767868
 11
518.705872
 21
117.767868
  0
LINE
  8
0
  6
CONTINUOUS
 10
488.268280
 20
12.767865
 11
521.268250
 21
12.767865
  0
LINE
  8
0
  6
CONTINUOUS
 10
405.268280
 20
23.394264
 11
405.268280
 21
12.767865
  0
LINE
  8
0
  6
CONTINUOUS
 10
521.268250
 20
23.394264
 11
521.268250
 21
12.767865
  0
LINE
  8
0
  6
CONTINUOUS
 10
407.268280
 20
24.767864
 11
428.268280
 21
24.767864
  0
LINE
  8
0
  6
CONTINUOUS
 10
519.268250
 20
24.767864
 11
498.268280
 21
24.767864
  0
LINE
  8
0
  6
CONTINUOUS
 10
431.268280
 20
36.141464
 11
431.268280
 21
160.243790
  0
LINE
  8
0
  6
CONTINUOUS
 10
495.268280
 20
36.141464
 11
495.268280
 21
160.244141
  0
LINE
  8
0
  6
CONTINUOUS
 10
493.303070
 20
162.243851
 11
463.268280
 21
162.767868
  0
LINE
  8
0
  6
CONTINUOUS
 10
433.233276
 20
162.243500
 11
463.268280
 21
162.767868
  0
ARC
  8
0
  6
CONTINUOUS
 10
433.268280
 20
160.243805
 40
2.000000
 50
91.000580
 51
180.000000
  0
ARC
  8
0
  6
CONTINUOUS
 10
493.268280
 20
160.244141
 40
2.000000
 50
0.000000
 51
89.000519
  0
LINE
  8
0
  6
CONTINUOUS
 10
495.268280
 20
27.767864
 11
495.268280
 21
12.767865
  0
ARC
  8
0
  6
CONTINUOUS
 10
498.268280
 20
27.767864
 40
3.000000
 50
180.000000
 51
270.000000
  0
LINE
  8
0
  6
CONTINUOUS
 10
431.268280
 20
27.767864
 11
431.268280
 21
12.767865
  0
ARC
  8
0
  6
CONTINUOUS
 10
428.268280
 20
27.767845
 40
3.000000
 50
-90.000000
 51
0.000000
  0
ARC
  8
0
  6
CONTINUOUS
 10
407.268280
 20
22.767864
 40
2.000000
 50
90.000000
 51
180.000000
  0
ARC
  8
0
  6
CONTINUOUS
 10
519.268250
 20
22.767864
 40
2.000000
 50
0.000000
 51
90.000000
  0
LINE
  8
0
  6
CENTER
 10
418.268280
 20
29.057865
 11
418.268280
 21
8.657865
  0
LINE
  8
0
  6
CENTER
 10
508.268280
 20
30.077866
 11
508.268280
 21
8.147865
  0
LINE
  8
0
  6
CONTINUOUS
 10
429.986267
 20
34.274784
 11
406.550293
 21
25.260965
  0
ARC
  8
0
  6
CONTINUOUS
 10
407.268280
 20
23.394285
 40
2.000000
 50
111.037903
 51
180.000000
  0
LINE
  8
0
  6
CONTINUOUS
 10
431.268280
 20
36.141464
 11
431.268280
 21
27.767864
  0
ARC
  8
0
  6
CONTINUOUS
 10
429.268280
 20
36.141464
 40
2.000000
 50
-68.962189
 51
0.000000
  0
LINE
  8
0
  6
CONTINUOUS
 10
496.550293
 20
34.274765
 11
519.986267
 21
25.260965
  0
ARC
  8
0
  6
CONTINUOUS
 10
519.268250
 20
23.394264
 40
2.000000
 50
0.000000
 51
68.962646
  0
LINE
  8
0
  6
CONTINUOUS
 10
495.268280
 20
36.141464
 11
495.268280
 21
27.767864
  0
ARC
  8
0
  6
CONTINUOUS
 10
497.268280
 20
36.141483
 40
2.000000
 50
180.000000
 51
248.962799
  0
LINE
  8
0
  6
CONTINUOUS
 10
415.268280
 20
92.575012
 11
415.268280
 21
142.960709
  0
LINE
  8
0
  6
CONTINUOUS
 10
511.268280
 20
92.575020
 11
511.268280
 21
142.960709
  0
LINE
  8
0
  6
CONTINUOUS
 10
501.268280
 20
59.572704
 11
501.268280
 21
119.837868
  0
LINE
  8
0
  6
CONTINUOUS
 10
425.268280
 20
59.572704
 11
425.268280
 21
119.837868
  0
LINE
  8
0
  6
CONTINUOUS
 10
509.038483
 20
145.860168
 11
497.498077
 21
148.925568
  0
LINE
  8
0
  6
CONTINUOUS
 10
509.038483
 20
89.675560
 11
503.498077
 21
88.203911
  0
LINE
  8
0
  6
CONTINUOUS
 10
499.041290
 20
56.674004
 11
497.495270
 21
56.261726
  0
LINE
  8
0
  6
CONTINUOUS
 10
427.495270
 20
56.673985
 11
429.041290
 21
56.261726
  0
LINE
  8
0
  6
CONTINUOUS
 10
417.498077
 20
89.675560
 11
423.038483
 21
88.203911
  0
LINE
  8
0
  6
CONTINUOUS
 10
417.498077
 20
145.860168
 11
429.038483
 21
148.925568
  0
ARC
  8
0
  6
CONTINUOUS
 10
418.268280
 20
142.960724
 40
3.000000
 50
104.876099
 51
180.000000
  0
ARC
  8
0
  6
CONTINUOUS
 10
418.268280
 20
92.575035
 40
3.000000
 50
180.000000
 51
255.124603
  0
ARC
  8
0
  6
CONTINUOUS
 10
508.268280
 20
142.960709
 40
3.000000
 50
0.000000
 51
75.124413
  0
ARC
  8
0
  6
CONTINUOUS
 10
508.268280
 20
92.575012
 40
3.000000
 50
-75.124207
 51
0.000000
  0
ARC
  8
0
  6
CONTINUOUS
 10
428.268280
 20
59.572723
 40
3.000000
 50
180.000000
 51
255.069000
  0
ARC
  8
0
  6
CONTINUOUS
 10
498.268280
 20
59.572704
 40
3.000000
 50
-75.068420
 51
0.000000
  0
ARC
  8
0
  6
CONTINUOUS
 10
498.268280
 20
151.825043
 40
3.000000
 50
180.000000
 51
255.124603
  0
ARC
  8
0
  6
CONTINUOUS
 10
504.268280
 20
85.304474
 40
3.000000
 50
104.876099
 51
180.000000
  0
ARC
  8
0
  6
CONTINUOUS
 10
498.268280
 20
53.363045
 40
3.000000
 50
104.931801
 51
180.000000
  0
ARC
  8
0
  6
CONTINUOUS
 10
428.268280
 20
53.363026
 40
3.000000
 50
0.000000
 51
75.068779
  0
ARC
  8
0
  6
CONTINUOUS
 10
422.268280
 20
85.304443
 40
3.000000
 50
0.000000
 51
75.124496
  0
ARC
  8
0
  6
CONTINUOUS
 10
428.268280
 20
151.825012
 40
3.000000
 50
-75.124153
 51
0.000000
  0
LINE
  8
0
  6
DASHED
 10
412.768280
 20
24.767864
 11
412.768280
 21
12.767865
  0
LINE
  8
0
  6
DASHED
 10
423.768280
 20
24.767864
 11
423.768280
 21
12.767865
  0
LINE
  8
0
  6
DASHED
 10
502.768280
 20
24.767864
 11
502.768280
 21
12.767865
  0
LINE
  8
0
  6
DASHED
 10
513.768250
 20
24.767864
 11
513.768250
 21
12.767865
  0
LINE
  8
0
  6
CONTINUOUS
 10
433.498291
 20
139.767868
 11
493.168274
 21
139.767868
  0
LINE
  8
0
  6
CONTINUOUS
 10
415.768280
 20
44.767864
 11
415.768280
 21
53.819206
  0
LINE
  8
0
  6
CONTINUOUS
 10
510.768280
 20
44.767864
 11
510.768280
 21
53.819206
  0
LINE
  8
0
  6
CONTINUOUS
 10
420.768280
 20
39.767864
 11
429.799469
 21
39.767864
  0
LINE
  8
0
  6
CONTINUOUS
 10
505.768280
 20
39.767864
 11
496.716888
 21
39.767864
  0
ARC
  8
0
  6
CONTINUOUS
 10
463.268280
 20
87.267868
 40
57.250000
 50
-32.501888
 51
33.025478
  0
ARC
  8
0
  6
CONTINUOUS
 10
463.268280
 20
87.267868
 40
57.250000
 50
160.085907
 51
212.501907
  0
ARC
  8
0
  6
CONTINUOUS
 10
420.768280
 20
44.767864
 40
5.000000
 50
180.000000
 51
270.000000
  0
ARC
  8
0
  6
CONTINUOUS
 10
505.768280
 20
44.767864
 40
5.000000
 50
-90.000000
 51
0.000000
  0
ARC
  8
0
  6
CONTINUOUS
 10
429.819672
 20
34.767864
 40
5.000000
 50
73.158257
 51
90.230461
  0
ARC
  8
0
  6
CONTINUOUS
 10
496.716888
 20
34.767864
 40
5.000000
 50
90.000000
 51
106.842003
  0
ARC
  8
0
  6
CONTINUOUS
 10
410.768280
 20
53.819206
 40
5.000000
 50
0.000000
 51
32.499691
  0
ARC
  8
0
  6
CONTINUOUS
 10
515.768250
 20
53.819206
 40
5.000000
 50
147.498306
 51
180.000000
  0
LINE
  8
0
  6
CONTINUOUS
 10
439.268280
 20
13.767865
 11
487.268280
 21
13.767865
  0
LINE
  8
0
  6
CONTINUOUS
 10
438.268280
 20
12.767865
 11
405.268280
 21
12.767865
  0
LINE
  8
0
  6
CONTINUOUS
 10
488.268280
 20
12.767865
 11
487.268280
 21
13.767865
  0
LINE
  8
0
  6
CONTINUOUS
 10
438.268280
 20
12.767865
 11
439.268280
 21
13.767865
  0
LINE
  8
0
  6
CONTINUOUS
 10
373.268280
 20
106.767868
 11
373.268280
 21
128.767868
  0
LINE
  8
0
  6
CONTINUOUS
 10
413.268280
 20
128.767868
 11
373.268280
 21
128.767868
  0
LINE
  8
0
  6
CONTINUOUS
 10
413.268280
 20
106.767868
 11
373.268280
 21
106.767868
  0
LINE
  8
0
  6
CONTINUOUS
 10
413.268280
 20
130.267868
 11
413.268280
 21
105.267868
  0
LINE
  8
0
  6
CONTINUOUS
 10
415.268280
 20
130.267868
 11
413.268280
 21
130.267868
  0
LINE
  8
0
  6
CONTINUOUS
 10
415.268280
 20
105.267868
 11
413.268280
 21
105.267868
  0
ARC
  8
0
  6
CONTINUOUS
 10
405.268280
 20
117.767868
 40
3.000000
 50
-90.000000
 51
90.000000
  0
LINE
  8
0
  6
CONTINUOUS
 10
405.268280
 20
120.767868
 11
373.268280
 21
120.767868
  0
LINE
  8
0
  6
CONTINUOUS
 10
405.268280
 20
114.767868
 11
373.268280
 21
114.767868
  0
LINE
  8
0
  6
CONTINUOUS
 10
407.268494
 20
61.233585
 11
407.268280
 21
74.220009
  0
LINE
  8
0
  6
CONTINUOUS
 10
408.233490
 20
60.234203
 11
412.601288
 21
60.081684
  0
ARC
  8
0
  6
CONTINUOUS
 10
408.268280
 20
61.233604
 40
0.999998
 50
180.000000
 51
268.000488
  0
LINE
  8
0
  6
CONTINUOUS
 10
407.268280
 20
106.767868
 11
407.268280
 21
100.315529
  0
ARC
  8
0
  6
CONTINUOUS
 10
463.268280
 20
87.267868
 40
57.499901
 50
303.815613
 51
303.996887
  0
ARC
  8
0
  6
CONTINUOUS
 10
463.268280
 20
87.267868
 40
57.499901
 50
160.176102
 51
213.996796
  0
ARC
  8
0
  6
CONTINUOUS
 10
463.268280
 20
87.267868
 40
57.499901
 50
236.003098
 51
236.184296
  0
ARC
  8
0
  6
CONTINUOUS
 10
463.268280
 20
87.267868
 40
57.499901
 50
-33.996880
 51
33.406670
  0
LINE
  8
0
  6
CONTINUOUS
 10
392.846436
 20
53.330311
 11
352.768280
 21
52.267864
  0
LINE
  8
0
  6
CONTINUOUS
 10
373.268280
 20
121.724167
 11
352.768280
 21
122.267868
  0
LINE
  8
0
  6
CONTINUOUS
 10
405.768280
 20
63.241966
 11
405.768280
 21
75.767868
  0
LINE
  8
0
  6
CONTINUOUS
 10
405.768280
 20
106.767868
 11
405.768280
 21
75.767868
  0
ARC
  8
0
  6
CONTINUOUS
 10
392.768280
 20
56.315964
 40
3.000000
 50
-88.500267
 51
0.000000
  0
LINE
  8
0
  6
CONTINUOUS
 10
400.622467
 20
62.133064
 11
397.715942
 21
62.056957
  0
ARC
  8
0
  6
CONTINUOUS
 10
404.768280
 20
63.241966
 40
1.000000
 50
-88.499397
 51
0.000000
  0
LINE
  8
0
  6
CONTINUOUS
 10
395.768280
 20
56.316067
 11
395.768280
 21
73.956596
  0
LINE
  8
0
  6
CONTINUOUS
 10
404.794495
 20
62.242367
 11
400.622467
 21
62.133064
  0
ARC
  8
0
  6
CONTINUOUS
 10
463.268280
 20
87.267868
 40
68.800003
 50
168.844193
 51
191.155807
  0
LINE
  8
0
  6
CONTINUOUS
 10
346.768280
 20
54.767864
 11
346.768280
 21
119.767868
  0
LINE
  8
0
  6
CONTINUOUS
 10
349.268280
 20
122.267868
 11
351.768280
 21
122.267868
  0
LINE
  8
0
  6
CONTINUOUS
 10
349.268280
 20
52.267864
 11
351.768280
 21
52.267864
  0
LINE
  8
0
  6
CONTINUOUS
 10
351.768280
 20
122.267868
 11
351.768280
 21
52.267864
  0
LINE
  8
0
  6
CONTINUOUS
 10
352.768280
 20
122.267868
 11
352.768280
 21
52.267864
  0
LINE
  8
0
  6
CONTINUOUS
 10
351.768280
 20
122.267868
 11
352.768280
 21
122.267868
  0
LINE
  8
0
  6
CONTINUOUS
 10
351.768280
 20
52.267864
 11
352.768280
 21
52.267864
  0
LINE
  8
0
  6
CENTER
 10
368.768280
 20
129.724869
 11
368.768280
 21
42.928749
  0
LINE
  8
0
  6
CONTINUOUS
 10
349.768280
 20
113.754967
 11
349.768280
 21
121.267868
  0
LINE
  8
0
  6
CONTINUOUS
 10
349.768280
 20
60.780804
 11
349.768280
 21
53.267864
  0
LINE
  8
0
  6
CONTINUOUS
 10
349.281372
 20
113.255165
 11
347.742065
 21
113.214867
  0
ARC
  8
0
  6
CONTINUOUS
 10
349.268280
 20
113.754967
 40
0.500000
 50
-88.500000
 51
0.000000
  0
ARC
  8
0
  6
CONTINUOUS
 10
347.768280
 20
112.215164
 40
1.000000
 50
91.499802
 51
180.000000
  0
ARC
  8
0
  6
CONTINUOUS
 10
350.768280
 20
121.267868
 40
1.000000
 50
90.000000
 51
180.000000
  0
ARC
  8
0
  6
CONTINUOUS
 10
349.268280
 20
119.767868
 40
2.500000
 50
90.000000
 51
180.000000
  0
LINE
  8
0
  6
CONTINUOUS
 10
349.281372
 20
61.280685
 11
347.742065
 21
61.320965
  0
ARC
  8
0
  6
CONTINUOUS
 10
347.768280
 20
62.320595
 40
1.000000
 50
180.000000
 51
268.499603
  0
ARC
  8
0
  6
CONTINUOUS
 10
349.268280
 20
60.780804
 40
0.500000
 50
0.000000
 51
88.499802
  0
ARC
  8
0
  6
CONTINUOUS
 10
350.768280
 20
53.267864
 40
1.000000
 50
180.000000
 51
270.000000
  0
ARC
  8
0
  6
CONTINUOUS
 10
349.268280
 20
54.767864
 40
2.500000
 50
180.000000
 51
270.000000
  0
ARC
  8
0
  6
CONTINUOUS
 10
349.768280
 20
117.267868
 40
3.000000
 50
90.000000
 51
270.000000
  0
LINE
  8
0
  6
CONTINUOUS
 10
349.268280
 20
120.225868
 11
349.268280
 21
114.309868
  0
LINE
  8
0
  6
CONTINUOUS
 10
347.268280
 20
117.267868
 11
346.781494
 21
116.986763
  0
LINE
  8
0
  6
CONTINUOUS
 10
347.268280
 20
117.267868
 11
346.781494
 21
117.548965
  0
ARC
  8
0
  6
CONTINUOUS
 10
349.768280
 20
57.267864
 40
3.000000
 50
90.000000
 51
270.000000
  0
LINE
  8
0
  6
CONTINUOUS
 10
349.268280
 20
60.225876
 11
349.268280
 21
54.309856
  0
LINE
  8
0
  6
CONTINUOUS
 10
347.268280
 20
57.267864
 11
346.781494
 21
56.986794
  0
LINE
  8
0
  6
CONTINUOUS
 10
347.268280
 20
57.267864
 11
346.781494
 21
57.548992
  0
LINE
  8
0
  6
CONTINUOUS
 10
405.768280
 20
64.267868
 11
407.268280
 21
64.267868
  0
LINE
  8
0
  6
CONTINUOUS
 10
407.268311
 20
61.233543
 11
407.268280
 21
74.219986
  0
LINE
  8
0
  6
CONTINUOUS
 10
408.233398
 20
60.234165
 11
412.601135
 21
60.081646
  0
ARC
  8
0
  6
CONTINUOUS
 10
408.268280
 20
61.233566
 40
1.000000
 50
180.000000
 51
268.000488
  0
LINE
  8
0
  6
CONTINUOUS
 10
407.268250
 20
106.767868
 11
407.268219
 21
100.315552
  0
ARC
  8
0
  6
CONTINUOUS
 10
397.768280
 20
60.057644
 40
2.000000
 50
91.499916
 51
180.000000
  0
LINE
  8
0
  6
CONTINUOUS
 10
395.768280
 20
106.767868
 11
395.768280
 21
100.579140
  0
LINE
  8
0
  6
CONTINUOUS
 10
54.421436
 20
72.767822
 11
54.421436
 21
37.642456
  0
ARC
  8
0
  6
CONTINUOUS
 10
342.921539
 20
332.066437
 40
340.000000
 50
170.966705
 51
180.000000
  0
ARC
  8
0
  6
CONTINUOUS
 10
18.989742
 20
383.566254
 40
12.000000
 50
90.000000
 51
170.966904
  0
LINE
  8
0
  6
CONTINUOUS
 10
47.908451
 20
399.550507
 11
29.175957
 21
399.387024
  0
LINE
  8
0
  6
CONTINUOUS
 10
18.989542
 20
395.559845
 11
27.184742
 21
395.559845
  0
LINE
  8
0
  6
CONTINUOUS
 10
49.421543
 20
398.050537
 11
49.421543
 21
332.063690
  0
ARC
  8
0
  6
CONTINUOUS
 10
345.921539
 20
332.063232
 40
325.000000
 50
168.259811
 51
179.999924
  0
LINE
  8
0
  6
CONTINUOUS
 10
49.421543
 20
390.063690
 11
54.421543
 21
390.063690
  0
LINE
  8
0
  6
CONTINUOUS
 10
49.421543
 20
274.063690
 11
54.421543
 21
274.063690
  0
LINE
  8
0
  6
CONTINUOUS
 10
49.921543
 20
325.563690
 11
49.921543
 21
338.563690
  0
LINE
  8
0
  6
CONTINUOUS
 10
49.421543
 20
338.563690
 11
49.921543
 21
338.563690
  0
LINE
  8
0
  6
CONTINUOUS
 10
49.421543
 20
325.563690
 11
49.921543
 21
325.563690
  0
ARC
  8
0
  6
CONTINUOUS
 10
47.921543
 20
398.050537
 40
1.500000
 50
0.000000
 51
90.500000
  0
ARC
  8
0
  6
CONTINUOUS
 10
29.189047
 20
397.887085
 40
1.500000
 50
90.500000
 51
168.259811
  0
ARC
  8
0
  6
CONTINUOUS
 10
342.921539
 20
332.060944
 40
340.000000
 50
-180.000000
 51
-170.966705
  0
ARC
  8
0
  6
CONTINUOUS
 10
18.989742
 20
280.561157
 40
12.000000
 50
-170.966904
 51
-90.000000
  0
LINE
  8
0
  6
CONTINUOUS
 10
47.908451
 20
264.576904
 11
29.175957
 21
264.740387
  0
LINE
  8
0
  6
CONTINUOUS
 10
18.989542
 20
268.567535
 11
27.184742
 21
268.567535
  0
LINE
  8
0
  6
CONTINUOUS
 10
49.421543
 20
266.076843
 11
49.421543
 21
332.063690
  0
ARC
  8
0
  6
CONTINUOUS
 10
345.921539
 20
332.064148
 40
325.000000
 50
-179.999924
 51
-168.259811
  0
ARC
  8
0
  6
CONTINUOUS
 10
47.921543
 20
266.076843
 40
1.500000
 50
-90.500000
 51
0.000000
  0
ARC
  8
0
  6
CONTINUOUS
 10
29.189047
 20
266.240326
 40
1.500000
 50
-168.259811
 51
-90.500000
  0
ARC
  8
0
  6
CONTINUOUS
 10
51.421436
 20
30.226259
 40
8.000000
 50
0.000000
 51
90.000000
  0
ARC
  8
0
  6
CONTINUOUS
 10
51.421436
 20
30.226259
 40
5.000000
 50
0.000000
 51
90.000000
  0
ARC
  8
0
  6
CONTINUOUS
 10
51.421436
 20
30.226259
 40
2.000000
 50
0.000000
 51
90.000000
  0
LINE
  8
0
  6
CONTINUOUS
 10
51.421436
 20
32.226257
 11
49.421436
 21
32.226257
  0
LINE
  8
0
  6
CONTINUOUS
 10
53.421436
 20
30.226259
 11
53.421436
 21
21.511839
  0
LINE
  8
0
  6
CONTINUOUS
 10
56.421436
 20
30.226259
 11
56.421436
 21
20.253839
  0
LINE
  8
0
  6
CONTINUOUS
 10
59.421436
 20
30.226259
 11
59.421436
 21
23.099138
  0
LINE
  8
0
  6
CONTINUOUS
 10
51.421436
 20
35.226257
 11
49.421436
 21
35.226257
  0
LINE
  8
0
  6
CONTINUOUS
 10
53.421436
 20
21.511839
 11
56.421436
 21
20.253839
  0
LINE
  8
0
  6
CONTINUOUS
 10
56.421436
 20
21.966040
 11
59.421436
 21
23.099138
  0
LINE
  8
0
  6
CONTINUOUS
 10
54.921413
 20
20.882679
 11
54.921413
 21
15.581139
  0
LINE
  8
0
  6
CONTINUOUS
 10
57.921436
 20
22.532459
 11
57.921436
 21
17.351839
  0
LINE
  8
0
  6
CONTINUOUS
 10
58.121414
 20
22.608059
 11
58.121414
 21
17.351839
  0
LINE
  8
0
  6
CONTINUOUS
 10
57.721436
 20
22.456940
 11
57.721436
 21
17.351839
  0
LINE
  8
0
  6
CONTINUOUS
 10
58.321434
 20
22.683599
 11
58.321434
 21
17.351839
  0
LINE
  8
0
  6
CONTINUOUS
 10
57.521435
 20
22.381378
 11
57.521435
 21
17.351839
  0
LINE
  8
0
  6
CONTINUOUS
 10
58.521435
 20
22.759159
 11
58.521435
 21
17.351839
  0
LINE
  8
0
  6
CONTINUOUS
 10
57.321434
 20
22.305840
 11
57.321434
 21
17.351839
  0
LINE
  8
0
  6
CONTINUOUS
 10
58.721436
 20
22.834719
 11
58.721436
 21
17.351839
  0
LINE
  8
0
  6
CONTINUOUS
 10
57.121414
 20
22.230280
 11
57.121414
 21
17.351839
  0
LINE
  8
0
  6
CONTINUOUS
 10
58.921413
 20
22.910238
 11
58.921413
 21
17.351839
  0
LINE
  8
0
  6
CONTINUOUS
 10
56.921436
 20
22.154718
 11
56.921436
 21
17.351839
  0
LINE
  8
0
  6
CONTINUOUS
 10
59.121456
 20
22.985840
 11
59.121414
 21
17.351839
  0
LINE
  8
0
  6
CONTINUOUS
 10
56.721416
 20
22.079159
 11
56.721416
 21
17.351839
  0
LINE
  8
0
  6
CONTINUOUS
 10
55.121414
 20
20.798939
 11
55.121414
 21
15.581139
  0
LINE
  8
0
  6
CONTINUOUS
 10
54.721416
 20
20.966740
 11
54.721416
 21
15.581139
  0
LINE
  8
0
  6
CONTINUOUS
 10
55.321396
 20
20.714939
 11
55.321396
 21
15.581139
  0
LINE
  8
0
  6
CONTINUOUS
 10
54.521416
 20
21.050480
 11
54.521416
 21
15.581139
  0
LINE
  8
0
  6
CONTINUOUS
 10
55.521435
 20
20.631159
 11
55.521435
 21
15.581139
  0
LINE
  8
0
  6
CONTINUOUS
 10
54.321434
 20
21.134279
 11
54.321434
 21
15.581139
  0
LINE
  8
0
  6
CONTINUOUS
 10
55.721416
 20
20.547400
 11
55.721416
 21
15.581139
  0
LINE
  8
0
  6
CONTINUOUS
 10
54.121414
 20
21.218260
 11
54.121414
 21
15.581139
  0
LINE
  8
0
  6
CONTINUOUS
 10
55.921436
 20
20.463379
 11
55.921436
 21
15.581139
  0
LINE
  8
0
  6
CONTINUOUS
 10
53.921436
 20
21.302059
 11
53.921436
 21
15.581139
  0
LINE
  8
0
  6
CONTINUOUS
 10
56.121456
 20
20.379599
 11
56.121414
 21
15.581139
  0
LINE
  8
0
  6
CONTINUOUS
 10
53.721436
 20
21.386019
 11
53.721436
 21
15.581139
  0
LINE
  8
0
  6
CONTINUOUS
 10
51.421413
 20
38.226280
 11
49.421436
 21
38.226280
  0
LINE
  8
0
  6
CONTINUOUS
 10
49.921474
 20
151.267822
 11
49.421436
 21
151.267822
  0
LINE
  8
0
  6
CONTINUOUS
 10
49.921474
 20
145.267822
 11
49.921474
 21
151.267822
  0
LINE
  8
0
  6
CONTINUOUS
 10
49.921474
 20
151.267822
 11
49.421436
 21
151.267822
  0
LINE
  8
0
  6
CONTINUOUS
 10
49.421436
 20
145.267822
 11
54.421436
 21
145.267822
  0
LINE
  8
0
  6
CONTINUOUS
 10
49.421436
 20
29.767818
 11
53.421436
 21
29.767818
  0
LINE
  8
0
  6
CONTINUOUS
 10
47.908356
 20
154.606323
 11
22.746454
 21
154.386597
  0
ARC
  8
0
  6
CONTINUOUS
 10
18.989756
 20
138.768005
 40
12.000000
 50
82.994843
 51
170.966507
  0
ARC
  8
0
  6
CONTINUOUS
 10
342.921448
 20
87.267822
 40
340.000000
 50
170.966507
 51
188.814499
  0
ARC
  8
0
  6
CONTINUOUS
 10
20.575155
 20
151.671021
 40
1.000000
 50
262.995300
 51
343.455597
  0
ARC
  8
0
  6
CONTINUOUS
 10
22.759455
 20
152.886932
 40
1.500000
 50
90.500267
 51
191.594803
  0
LINE
  8
0
  6
CONTINUOUS
 10
48.917053
 20
29.772219
 11
12.813743
 21
30.087299
  0
ARC
  8
0
  6
CONTINUOUS
 10
12.866097
 20
36.087040
 40
6.000000
 50
188.814499
 51
269.500000
  0
ARC
  8
0
  6
CONTINUOUS
 10
24.620754
 20
31.484320
 40
1.500000
 50
170.162598
 51
269.500000
  0
ARC
  8
0
  6
CONTINUOUS
 10
47.921436
 20
153.106323
 40
1.500000
 50
0.000000
 51
90.500191
  0
ARC
  8
0
  6
CONTINUOUS
 10
48.921436
 20
30.272219
 40
0.500000
 50
-90.500000
 51
0.000000
  0
LINE
  8
0
  6
CONTINUOUS
 10
49.421436
 20
30.272219
 11
49.421436
 21
153.106323
  0
ARC
  8
0
  6
CONTINUOUS
 10
-297.078552
 20
87.267822
 40
325.000000
 50
350.162567
 51
357.442871
  0
ARC
  8
0
  6
CONTINUOUS
 10
-297.078552
 20
87.267822
 40
325.000000
 50
2.557141
 51
11.594100
  0
ARC
  8
0
  6
CONTINUOUS
 10
463.268280
 20
87.267868
 40
67.500000
 50
135.325500
 51
142.061539
  0
ARC
  8
0
  6
CONTINUOUS
 10
463.268280
 20
87.267868
 40
67.500000
 50
-54.799992
 51
44.674610
  0
ARC
  8
0
  6
CONTINUOUS
 10
463.268280
 20
87.267868
 40
67.500000
 50
201.861694
 51
234.800003
  0
LINE
  8
0
  6
CONTINUOUS
 10
62.171452
 20
117.667969
 11
62.171452
 21
116.867950
  0
LINE
  8
0
  6
CONTINUOUS
 10
60.021427
 20
119.017975
 11
60.821445
 21
119.017975
  0
LINE
  8
0
  6
CONTINUOUS
 10
60.021427
 20
115.517975
 11
60.821445
 21
115.517975
  0
LINE
  8
0
  6
CONTINUOUS
 10
58.671452
 20
117.667969
 11
58.671452
 21
116.867950
  0
CIRCLE
  8
0
  6
CONTINUOUS
 10
60.421452
 20
117.267975
 40
2.750000
  0
ARC
  8
0
  6
CONTINUOUS
 10
58.671452
 20
119.017975
 40
1.350000
 50
-90.000000
 51
0.000000
  0
ARC
  8
0
  6
CONTINUOUS
 10
58.671452
 20
115.517975
 40
1.350000
 50
0.000000
 51
90.000000
  0
ARC
  8
0
  6
CONTINUOUS
 10
62.171452
 20
119.017975
 40
1.350000
 50
180.000000
 51
270.000000
  0
ARC
  8
0
  6
CONTINUOUS
 10
62.171452
 20
115.517975
 40
1.350000
 50
90.000000
 51
180.000000
  0
LINE
  8
0
  6
CONTINUOUS
 10
122.171494
 20
117.667969
 11
122.171494
 21
116.867950
  0
LINE
  8
0
  6
CONTINUOUS
 10
120.021469
 20
119.017975
 11
120.821487
 21
119.017975
  0
LINE
  8
0
  6
CONTINUOUS
 10
120.021469
 20
115.517975
 11
120.821487
 21
115.517975
  0
LINE
  8
0
  6
CONTINUOUS
 10
118.671494
 20
117.667969
 11
118.671494
 21
116.867950
  0
CIRCLE
  8
0
  6
CONTINUOUS
 10
120.421494
 20
117.267975
 40
2.750000
  0
ARC
  8
0
  6
CONTINUOUS
 10
118.671494
 20
119.017975
 40
1.350000
 50
-90.000000
 51
0.000000
  0
ARC
  8
0
  6
CONTINUOUS
 10
118.671494
 20
115.517975
 40
1.350000
 50
0.000000
 51
90.000000
  0
ARC
  8
0
  6
CONTINUOUS
 10
122.171494
 20
119.017975
 40
1.350000
 50
180.000000
 51
270.000000
  0
ARC
  8
0
  6
CONTINUOUS
 10
122.171494
 20
115.517975
 40
1.350000
 50
90.000000
 51
180.000000
  0
LINE
  8
0
  6
CONTINUOUS
 10
122.171494
 20
57.667969
 11
122.171494
 21
56.867950
  0
LINE
  8
0
  6
CONTINUOUS
 10
120.021469
 20
59.017975
 11
120.821487
 21
59.017975
  0
LINE
  8
0
  6
CONTINUOUS
 10
120.021469
 20
55.517975
 11
120.821487
 21
55.517975
  0
LINE
  8
0
  6
CONTINUOUS
 10
118.671494
 20
57.667969
 11
118.671494
 21
56.867950
  0
CIRCLE
  8
0
  6
CONTINUOUS
 10
120.421494
 20
57.267975
 40
2.750000
  0
ARC
  8
0
  6
CONTINUOUS
 10
118.671494
 20
59.017975
 40
1.350000
 50
-90.000000
 51
0.000000
  0
ARC
  8
0
  6
CONTINUOUS
 10
118.671494
 20
55.517975
 40
1.350000
 50
0.000000
 51
90.000000
  0
ARC
  8
0
  6
CONTINUOUS
 10
122.171494
 20
59.017975
 40
1.350000
 50
180.000000
 51
270.000000
  0
ARC
  8
0
  6
CONTINUOUS
 10
122.171494
 20
55.517975
 40
1.350000
 50
90.000000
 51
180.000000
  0
LINE
  8
0
  6
CONTINUOUS
 10
62.171452
 20
57.667969
 11
62.171452
 21
56.867950
  0
LINE
  8
0
  6
CONTINUOUS
 10
60.021427
 20
59.017975
 11
60.821445
 21
59.017975
  0
LINE
  8
0
  6
CONTINUOUS
 10
60.021427
 20
55.517975
 11
60.821445
 21
55.517975
  0
LINE
  8
0
  6
CONTINUOUS
 10
58.671452
 20
57.667969
 11
58.671452
 21
56.867950
  0
CIRCLE
  8
0
  6
CONTINUOUS
 10
60.421452
 20
57.267975
 40
2.750000
  0
ARC
  8
0
  6
CONTINUOUS
 10
58.671452
 20
59.017975
 40
1.350000
 50
-90.000000
 51
0.000000
  0
ARC
  8
0
  6
CONTINUOUS
 10
58.671452
 20
55.517975
 40
1.350000
 50
0.000000
 51
90.000000
  0
ARC
  8
0
  6
CONTINUOUS
 10
62.171452
 20
59.017975
 40
1.350000
 50
180.000000
 51
270.000000
  0
ARC
  8
0
  6
CONTINUOUS
 10
62.171452
 20
55.517975
 40
1.350000
 50
90.000000
 51
180.000000
  0
TEXT
  8
0
 10
-6.000000
 20
-25.000000
 40
4.000000
 41
1.000000
  1
H2LB-22R-5~240-T010WA
 50
0.000000
  0
ENDSEC
  0
EOF
