  0
SECTION
  2
HEADER
  9
$CLAYER
  8
1
  9
$LTSCALE
 40
3.0
  0
ENDSEC
  0
SECTION
  2
TABLES
  0
TABLE
  2
LTYPE
 70
     4
  0
LTYPE
  2
CONTINUOUS
  3
solid line
 70
    64
 72
    65
 73
     0
 40
0.0
  0
LTYPE
  2
DASHED
  3
__ __ __ __ __ __ __ __ __ __ __ __ __ __ __
 70
    64
 72
    65
 73
     2
 40
0.75
 49
0.5
 49
-0.25
  0
LTYPE
  2
CENTER
  3
____ _ ____ _ ____ _ ____ _ ____ _ ____ _ ____
 70
    64
 72
    65
 73
     4
 40
2.0
 49
1.25
 49
-0.25
 49
0.25
 49
-0.25
  0
LTYPE
  2
PHANTOM
  3
_____ _ _ _____ _ _ _____ _ _ _____ _ _ ____
 70
    64
 72
    65
 73
     6
 40
2.5
 49
1.25
 49
-0.25
 49
0.25
 49
-0.25
 49
0.25
 49
-0.25
  0
ENDTAB
  0
TABLE
  2
LAYER
 70
     1
  0
LAYER
  2
0
 70
    64
 62
     7
  6
CONTINUOUS
  0
ENDTAB
  0
TABLE
  2
STYLE
 70
     1
  0
STYLE
  2
STANDARD
 70
     0
 40
0.000000
 41
1.000000
 50
0.000000
 71
     0
 42
3.000000
  3
txt
  4
BIGFONT
  0
ENDTAB
  0
ENDSEC
  0
SECTION
  2
BLOCKS
  0
ENDSEC
  0
SECTION
  2
ENTITIES
  0
LINE
  8
0
  6
CENTER
 10
223.623947
 20
166.110367
 11
223.623947
 21
2.610365
  0
LINE
  8
0
  6
CENTER
 10
179.373947
 20
113.860367
 11
262.623932
 21
113.860367
  0
LINE
  8
0
  6
CONTINUOUS
 10
170.623947
 20
8.860365
 11
276.623932
 21
8.860365
  0
LINE
  8
0
  6
CONTINUOUS
 10
205.194519
 20
158.860367
 11
242.053345
 21
158.860367
  0
LINE
  8
0
  6
CONTINUOUS
 10
276.623932
 20
133.250610
 11
276.623932
 21
8.860385
  0
LINE
  8
0
  6
CONTINUOUS
 10
170.623947
 20
33.860367
 11
170.623947
 21
8.860365
  0
LINE
  8
0
  6
CONTINUOUS
 10
158.873947
 20
140.610367
 11
176.496857
 21
140.610367
  0
LINE
  8
0
  6
CONTINUOUS
 10
158.873947
 20
26.110365
 11
165.623962
 21
26.110365
  0
LINE
  8
0
  6
CONTINUOUS
 10
166.873947
 20
37.860367
 11
166.873947
 21
128.860367
  0
LINE
  8
0
  6
CONTINUOUS
 10
274.482941
 20
137.352600
 11
244.912338
 21
157.962341
  0
LINE
  8
0
  6
CONTINUOUS
 10
172.764984
 20
137.352600
 11
202.335541
 21
157.962341
  0
LINE
  8
0
  6
CONTINUOUS
 10
204.562347
 20
20.860365
 11
170.623947
 21
20.860365
  0
LINE
  8
0
  6
CONTINUOUS
 10
210.185547
 20
30.860365
 11
237.062347
 21
30.860365
  0
LINE
  8
0
  6
CONTINUOUS
 10
238.623947
 20
29.422865
 11
238.623947
 21
21.860365
  0
LINE
  8
0
  6
CONTINUOUS
 10
208.623947
 20
29.235365
 11
208.623947
 21
21.860365
  0
LINE
  8
0
  6
CONTINUOUS
 10
206.502747
 20
22.375284
 11
208.245148
 21
29.345446
  0
LINE
  8
0
  6
CONTINUOUS
 10
240.745148
 20
22.375284
 11
239.002747
 21
29.345425
  0
LINE
  8
0
  6
CONTINUOUS
 10
176.623947
 20
19.797865
 11
176.623947
 21
8.860365
  0
LINE
  8
0
  6
CONTINUOUS
 10
270.623932
 20
19.797865
 11
270.623932
 21
8.860365
  0
LINE
  8
0
  6
CENTER
 10
188.623947
 20
24.610365
 11
188.623947
 21
4.610365
  0
LINE
  8
0
  6
CENTER
 10
258.623932
 20
25.610365
 11
258.623932
 21
5.110365
  0
LINE
  8
0
  6
DASHED
 10
183.123947
 20
20.860365
 11
183.123947
 21
8.860365
  0
LINE
  8
0
  6
DASHED
 10
194.123947
 20
20.860365
 11
194.123947
 21
8.860365
  0
LINE
  8
0
  6
DASHED
 10
253.123947
 20
20.860365
 11
253.123947
 21
8.860365
  0
LINE
  8
0
  6
DASHED
 10
264.123932
 20
20.860365
 11
264.123932
 21
8.860365
  0
ARC
  8
0
  6
CONTINUOUS
 10
242.053345
 20
153.860367
 40
5.000000
 50
55.124809
 51
90.000000
  0
ARC
  8
0
  6
CONTINUOUS
 10
205.194519
 20
153.860367
 40
5.000000
 50
90.000000
 51
124.875603
  0
ARC
  8
0
  6
CONTINUOUS
 10
271.623932
 20
133.250610
 40
5.000000
 50
0.000000
 51
55.124851
  0
ARC
  8
0
  6
CONTINUOUS
 10
175.623962
 20
133.250626
 40
5.000000
 50
124.875702
 51
180.000000
  0
LINE
  8
0
  6
CONTINUOUS
 10
158.873947
 20
130.860367
 11
168.623947
 21
130.860367
  0
LINE
  8
0
  6
CONTINUOUS
 10
164.873947
 20
35.860367
 11
158.873947
 21
35.860367
  0
LINE
  8
0
  6
CONTINUOUS
 10
158.873947
 20
115.320366
 11
165.748947
 21
115.320366
  0
LINE
  8
0
  6
CONTINUOUS
 10
158.873947
 20
51.400364
 11
165.873947
 21
51.400364
  0
ARC
  8
0
  6
CONTINUOUS
 10
176.496841
 20
143.610367
 40
3.000000
 50
270.000000
 51
304.875397
  0
ARC
  8
0
  6
CONTINUOUS
 10
164.873962
 20
128.860367
 40
2.000000
 50
0.000000
 51
90.000000
  0
ARC
  8
0
  6
CONTINUOUS
 10
168.623947
 20
132.860367
 40
2.000000
 50
-90.000000
 51
0.000000
  0
LINE
  8
0
  6
CONTINUOUS
 10
170.623962
 20
133.250626
 11
170.623947
 21
132.860367
  0
ARC
  8
0
  6
CONTINUOUS
 10
168.623947
 20
33.860367
 40
2.000000
 50
0.000000
 51
90.000000
  0
LINE
  8
0
  6
CONTINUOUS
 10
164.873947
 20
35.860367
 11
168.623947
 21
35.860367
  0
ARC
  8
0
  6
CONTINUOUS
 10
164.873947
 20
37.860367
 40
2.000000
 50
-90.000000
 51
0.000000
  0
ARC
  8
0
  6
CONTINUOUS
 10
165.623962
 20
21.110346
 40
5.000000
 50
0.000000
 51
90.000000
  0
ARC
  8
0
  6
CONTINUOUS
 10
237.062347
 20
28.860365
 40
2.000000
 50
14.036440
 51
90.000000
  0
ARC
  8
0
  6
CONTINUOUS
 10
210.185547
 20
28.860365
 40
2.000000
 50
90.000000
 51
165.963898
  0
LINE
  8
0
  6
CONTINUOUS
 10
242.685547
 20
20.860365
 11
276.623932
 21
20.860365
  0
ARC
  8
0
  6
CONTINUOUS
 10
204.562347
 20
22.860365
 40
2.000000
 50
270.000000
 51
345.963715
  0
LINE
  8
0
  6
CONTINUOUS
 10
242.685547
 20
20.860365
 11
204.562347
 21
20.860365
  0
ARC
  8
0
  6
CONTINUOUS
 10
242.685547
 20
22.860365
 40
2.000000
 50
194.036194
 51
270.000000
  0
ARC
  8
0
  6
CONTINUOUS
 10
207.623947
 20
21.860365
 40
1.000000
 50
-90.000000
 51
0.000000
  0
ARC
  8
0
  6
CONTINUOUS
 10
239.623947
 20
21.860365
 40
1.000000
 50
180.000000
 51
270.000000
  0
CIRCLE
  8
0
  6
CONTINUOUS
 10
223.623947
 20
113.860367
 40
27.500000
  0
ARC
  8
0
  6
CONTINUOUS
 10
223.623947
 20
113.860367
 40
31.750000
 50
7.552697
 51
172.447403
  0
ARC
  8
0
  6
CONTINUOUS
 10
206.873947
 20
72.360367
 40
20.600000
 50
172.447403
 51
270.000000
  0
ARC
  8
0
  6
CONTINUOUS
 10
240.373947
 20
72.360367
 40
20.600000
 50
-90.000000
 51
7.552700
  0
LINE
  8
0
  6
CONTINUOUS
 10
255.098541
 20
118.033524
 11
260.795135
 21
75.067993
  0
LINE
  8
0
  6
CONTINUOUS
 10
186.452667
 20
75.067955
 11
192.149338
 21
118.033463
  0
LINE
  8
0
  6
CONTINUOUS
 10
206.873947
 20
51.760365
 11
240.373947
 21
51.760365
  0
ARC
  8
0
  6
CONTINUOUS
 10
206.873947
 20
72.360367
 40
19.000000
 50
172.447601
 51
270.000000
  0
ARC
  8
0
  6
CONTINUOUS
 10
240.373947
 20
72.360367
 40
19.000000
 50
-90.000000
 51
7.552700
  0
ARC
  8
0
  6
CONTINUOUS
 10
223.623947
 20
113.860367
 40
30.150000
 50
-187.552597
 51
7.552697
  0
LINE
  8
0
  6
CONTINUOUS
 10
188.038788
 20
74.857651
 11
193.735519
 21
117.823189
  0
LINE
  8
0
  6
CONTINUOUS
 10
253.512344
 20
117.823227
 11
259.209137
 21
74.857689
  0
LINE
  8
0
  6
CONTINUOUS
 10
206.873947
 20
53.360367
 11
240.373947
 21
53.360367
  0
LINE
  8
0
  6
CONTINUOUS
 10
213.327545
 20
60.860367
 11
209.167145
 21
60.860367
  0
LINE
  8
0
  6
CONTINUOUS
 10
215.623947
 20
67.829117
 11
215.623947
 21
60.860367
  0
LINE
  8
0
  6
CONTINUOUS
 10
219.623947
 20
70.360367
 11
219.623947
 21
72.860367
  0
LINE
  8
0
  6
CONTINUOUS
 10
227.623947
 20
70.360367
 11
227.623947
 21
72.860367
  0
LINE
  8
0
  6
CONTINUOUS
 10
222.842743
 20
71.391617
 11
222.842743
 21
62.172867
  0
LINE
  8
0
  6
CONTINUOUS
 10
224.342743
 20
71.391617
 11
224.342743
 21
62.172867
  0
LINE
  8
0
  6
CONTINUOUS
 10
232.217743
 20
71.391617
 11
232.217743
 21
62.110367
  0
LINE
  8
0
  6
CONTINUOUS
 10
233.592743
 20
66.469742
 11
233.592743
 21
62.110367
  0
LINE
  8
0
  6
CONTINUOUS
 10
213.725937
 20
71.266617
 11
209.870941
 21
71.266617
  0
LINE
  8
0
  6
CONTINUOUS
 10
209.870941
 20
71.266617
 11
208.967743
 21
70.146614
  0
LINE
  8
0
  6
CONTINUOUS
 10
209.076340
 20
72.860367
 11
207.623947
 21
71.000603
  0
LINE
  8
0
  6
CONTINUOUS
 10
208.967743
 20
63.233284
 11
209.885345
 21
62.266605
  0
LINE
  8
0
  6
CONTINUOUS
 10
207.623947
 20
62.417526
 11
209.167145
 21
60.860367
  0
LINE
  8
0
  6
CONTINUOUS
 10
207.623947
 20
71.000603
 11
207.623947
 21
62.417526
  0
LINE
  8
0
  6
CONTINUOUS
 10
208.967743
 20
70.146614
 11
208.967743
 21
63.233284
  0
LINE
  8
0
  6
CONTINUOUS
 10
214.467743
 20
70.549507
 11
213.710739
 21
71.266617
  0
LINE
  8
0
  6
CONTINUOUS
 10
214.455719
 20
72.860367
 11
215.623947
 21
71.563873
  0
LINE
  8
0
  6
CONTINUOUS
 10
214.467743
 20
70.360367
 11
215.623947
 21
70.360367
  0
LINE
  8
0
  6
CONTINUOUS
 10
209.076340
 20
72.860367
 11
214.455719
 21
72.860367
  0
LINE
  8
0
  6
CONTINUOUS
 10
212.373947
 20
67.829117
 11
215.623947
 21
67.829117
  0
LINE
  8
0
  6
CONTINUOUS
 10
214.467743
 20
66.516617
 11
212.373947
 21
66.516617
  0
LINE
  8
0
  6
CONTINUOUS
 10
211.967743
 20
62.266605
 11
209.885345
 21
62.266605
  0
LINE
  8
0
  6
CONTINUOUS
 10
214.467743
 20
65.266617
 11
214.467743
 21
66.266617
  0
ARC
  8
0
  6
CONTINUOUS
 10
211.967743
 20
64.766609
 40
2.500000
 50
-89.999786
 51
0.000109
  0
LINE
  8
0
  6
CONTINUOUS
 10
214.467743
 20
61.816925
 11
214.467743
 21
60.860367
  0
LINE
  8
0
  6
CONTINUOUS
 10
215.623947
 20
71.563873
 11
215.623947
 21
70.360367
  0
LINE
  8
0
  6
CONTINUOUS
 10
214.467743
 20
66.516617
 11
214.467743
 21
64.766609
  0
LINE
  8
0
  6
CONTINUOUS
 10
212.373947
 20
67.829117
 11
212.373947
 21
66.516617
  0
LINE
  8
0
  6
CONTINUOUS
 10
214.467743
 20
60.860367
 11
215.623947
 21
60.860367
  0
LINE
  8
0
  6
CONTINUOUS
 10
214.467743
 20
61.816925
 11
213.327545
 21
60.860367
  0
LINE
  8
0
  6
CONTINUOUS
 10
224.342743
 20
62.172867
 11
224.842743
 21
62.172867
  0
LINE
  8
0
  6
CONTINUOUS
 10
222.248947
 20
62.172867
 11
222.248947
 21
60.860367
  0
LINE
  8
0
  6
CONTINUOUS
 10
224.842743
 20
62.172867
 11
224.842743
 21
60.860367
  0
LINE
  8
0
  6
CONTINUOUS
 10
226.789536
 20
70.360367
 11
227.623947
 21
70.360367
  0
LINE
  8
0
  6
CONTINUOUS
 10
219.623947
 20
70.360367
 11
220.511948
 21
70.360367
  0
LINE
  8
0
  6
CONTINUOUS
 10
219.623947
 20
72.860367
 11
227.623947
 21
72.860367
  0
LINE
  8
0
  6
CONTINUOUS
 10
222.248947
 20
60.860367
 11
224.842743
 21
60.860367
  0
LINE
  8
0
  6
CONTINUOUS
 10
222.248947
 20
62.172867
 11
222.842743
 21
62.172867
  0
ARC
  8
0
  6
CONTINUOUS
 10
236.420944
 20
69.657242
 40
3.203126
 50
-73.981873
 51
90.003510
  0
ARC
  8
0
  6
CONTINUOUS
 10
236.420944
 20
69.657242
 40
1.954124
 50
-82.585274
 51
62.411850
  0
LINE
  8
0
  6
CONTINUOUS
 10
231.623947
 20
72.860367
 11
236.420944
 21
72.860367
  0
LINE
  8
0
  6
CONTINUOUS
 10
236.672943
 20
67.719452
 11
233.592743
 21
67.719452
  0
LINE
  8
0
  6
CONTINUOUS
 10
231.623947
 20
72.860367
 11
231.623947
 21
71.391617
  0
LINE
  8
0
  6
CONTINUOUS
 10
233.592743
 20
71.391617
 11
233.592743
 21
67.719452
  0
LINE
  8
0
  6
CONTINUOUS
 10
237.304749
 20
66.578476
 11
239.287140
 21
62.110367
  0
LINE
  8
0
  6
CONTINUOUS
 10
236.153137
 20
66.469742
 11
238.029343
 21
62.110367
  0
LINE
  8
0
  6
CONTINUOUS
 10
231.623947
 20
62.110367
 11
232.217743
 21
62.110367
  0
LINE
  8
0
  6
CONTINUOUS
 10
233.592743
 20
62.110367
 11
234.139542
 21
62.110367
  0
LINE
  8
0
  6
CONTINUOUS
 10
234.139542
 20
60.860367
 11
231.623947
 21
60.860367
  0
LINE
  8
0
  6
CONTINUOUS
 10
237.780136
 20
62.110367
 11
238.029343
 21
62.110367
  0
LINE
  8
0
  6
CONTINUOUS
 10
239.287140
 20
62.110367
 11
239.623947
 21
62.110367
  0
LINE
  8
0
  6
CONTINUOUS
 10
237.780136
 20
60.860367
 11
239.623947
 21
60.860367
  0
LINE
  8
0
  6
CONTINUOUS
 10
239.623947
 20
62.110367
 11
239.623947
 21
60.860367
  0
LINE
  8
0
  6
CONTINUOUS
 10
237.780136
 20
62.110367
 11
237.780136
 21
60.860367
  0
LINE
  8
0
  6
CONTINUOUS
 10
234.139542
 20
62.110367
 11
234.139542
 21
60.860367
  0
LINE
  8
0
  6
CONTINUOUS
 10
231.623947
 20
62.110367
 11
231.623947
 21
60.860367
  0
LINE
  8
0
  6
CONTINUOUS
 10
220.941742
 20
71.391617
 11
220.511948
 21
70.360367
  0
LINE
  8
0
  6
CONTINUOUS
 10
226.427139
 20
71.391617
 11
226.789536
 21
70.360367
  0
LINE
  8
0
  6
CONTINUOUS
 10
224.342743
 20
71.391617
 11
226.427139
 21
71.391617
  0
LINE
  8
0
  6
CONTINUOUS
 10
222.842743
 20
71.391617
 11
220.941742
 21
71.391617
  0
LINE
  8
0
  6
CONTINUOUS
 10
233.592743
 20
66.469742
 11
236.153137
 21
66.469742
  0
LINE
  8
0
  6
CONTINUOUS
 10
231.623947
 20
71.391617
 11
232.217743
 21
71.391617
  0
LINE
  8
0
  6
CONTINUOUS
 10
233.592743
 20
71.391617
 11
237.325745
 21
71.389183
  0
LINE
  8
0
  6
CONTINUOUS
 10
214.467743
 20
70.549507
 11
214.467743
 21
70.360367
  0
LINE
  8
0
  6
CONTINUOUS
 10
231.123947
 20
110.860382
 11
231.123947
 21
116.860382
  0
LINE
  8
0
  6
CONTINUOUS
 10
237.123947
 20
110.860405
 11
237.123947
 21
116.860405
  0
LINE
  8
0
  6
CONTINUOUS
 10
237.123947
 20
110.860405
 11
231.123947
 21
110.860382
  0
LINE
  8
0
  6
CONTINUOUS
 10
237.123947
 20
116.860405
 11
231.123947
 21
116.860382
  0
ARC
  8
0
  6
CONTINUOUS
 10
223.623947
 20
113.860367
 40
11.000000
 50
15.826600
 51
344.173401
  0
LINE
  8
0
  6
CONTINUOUS
 10
158.873947
 20
140.860367
 11
158.873947
 21
25.860365
  0
LINE
  8
0
  6
CENTER
 10
-7.307500
 20
83.360367
 11
180.879761
 21
83.360367
  0
LINE
  8
0
  6
CONTINUOUS
 10
53.873936
 20
141.360321
 11
53.873936
 21
97.860428
  0
LINE
  8
0
  6
CONTINUOUS
 10
53.873936
 20
140.860367
 11
158.873947
 21
140.860367
  0
LINE
  8
0
  6
CONTINUOUS
 10
61.873936
 20
134.646378
 11
61.873936
 21
130.360367
  0
LINE
  8
0
  6
CONTINUOUS
 10
150.873947
 20
134.646378
 11
150.873947
 21
130.360367
  0
LINE
  8
0
  6
CONTINUOUS
 10
128.873947
 20
90.160355
 11
150.873947
 21
90.160355
  0
LINE
  8
0
  6
CONTINUOUS
 10
128.873947
 20
76.560379
 11
150.873947
 21
76.560379
  0
LINE
  8
0
  6
CONTINUOUS
 10
128.873947
 20
92.160355
 11
150.873947
 21
92.160355
  0
LINE
  8
0
  6
CONTINUOUS
 10
128.873947
 20
74.560379
 11
150.873947
 21
74.560379
  0
LINE
  8
0
  6
CONTINUOUS
 10
128.873947
 20
97.960373
 11
150.873947
 21
97.960373
  0
LINE
  8
0
  6
CONTINUOUS
 10
128.873947
 20
99.960373
 11
150.873947
 21
99.960373
  0
LINE
  8
0
  6
CONTINUOUS
 10
128.873947
 20
68.760361
 11
150.873947
 21
68.760361
  0
LINE
  8
0
  6
CONTINUOUS
 10
128.873947
 20
66.760361
 11
150.873947
 21
66.760361
  0
LINE
  8
0
  6
CONTINUOUS
 10
128.873947
 20
105.760368
 11
150.873947
 21
105.760368
  0
LINE
  8
0
  6
CONTINUOUS
 10
128.873947
 20
60.960365
 11
150.873947
 21
60.960365
  0
LINE
  8
0
  6
CONTINUOUS
 10
128.873947
 20
107.760368
 11
150.873947
 21
107.760368
  0
LINE
  8
0
  6
CONTINUOUS
 10
128.873947
 20
58.960365
 11
150.873947
 21
58.960365
  0
LINE
  8
0
  6
CONTINUOUS
 10
61.873936
 20
121.360367
 11
150.873947
 21
121.360367
  0
LINE
  8
0
  6
CONTINUOUS
 10
61.873936
 20
123.360367
 11
150.873947
 21
123.360367
  0
LINE
  8
0
  6
CONTINUOUS
 10
61.873936
 20
128.360367
 11
150.873947
 21
128.360367
  0
LINE
  8
0
  6
CONTINUOUS
 10
61.873936
 20
130.360367
 11
150.873947
 21
130.360367
  0
LINE
  8
0
  6
CONTINUOUS
 10
61.873936
 20
134.646378
 11
150.873947
 21
134.646378
  0
LINE
  8
0
  6
CONTINUOUS
 10
61.873936
 20
33.318790
 11
61.873936
 21
36.360367
  0
LINE
  8
0
  6
CONTINUOUS
 10
61.873936
 20
128.360367
 11
61.873936
 21
123.360367
  0
LINE
  8
0
  6
CONTINUOUS
 10
61.873936
 20
121.360367
 11
61.873936
 21
118.360474
  0
LINE
  8
0
  6
CONTINUOUS
 10
61.873936
 20
48.360477
 11
61.873936
 21
45.360367
  0
LINE
  8
0
  6
CONTINUOUS
 10
61.873936
 20
43.360367
 11
61.873936
 21
38.360367
  0
LINE
  8
0
  6
CONTINUOUS
 10
150.873947
 20
32.074345
 11
150.873947
 21
36.360367
  0
LINE
  8
0
  6
CONTINUOUS
 10
150.873947
 20
38.360367
 11
150.873947
 21
43.360367
  0
LINE
  8
0
  6
CONTINUOUS
 10
150.873947
 20
45.360367
 11
150.873947
 21
50.860367
  0
LINE
  8
0
  6
CONTINUOUS
 10
150.873947
 20
52.860367
 11
150.873947
 21
58.960365
  0
LINE
  8
0
  6
CONTINUOUS
 10
150.873947
 20
60.960365
 11
150.873947
 21
66.760361
  0
LINE
  8
0
  6
CONTINUOUS
 10
150.873947
 20
68.760361
 11
150.873947
 21
74.560379
  0
LINE
  8
0
  6
CONTINUOUS
 10
128.873947
 20
84.360367
 11
150.873947
 21
84.360367
  0
LINE
  8
0
  6
CONTINUOUS
 10
128.873947
 20
82.360367
 11
150.873947
 21
82.360367
  0
LINE
  8
0
  6
CONTINUOUS
 10
150.873947
 20
76.560379
 11
150.873947
 21
82.360367
  0
LINE
  8
0
  6
CONTINUOUS
 10
150.873947
 20
84.360367
 11
150.873947
 21
90.160385
  0
LINE
  8
0
  6
CONTINUOUS
 10
150.873947
 20
92.160355
 11
150.873947
 21
97.960373
  0
LINE
  8
0
  6
CONTINUOUS
 10
150.873947
 20
99.960373
 11
150.873947
 21
105.760368
  0
LINE
  8
0
  6
CONTINUOUS
 10
150.873947
 20
107.760368
 11
150.873947
 21
113.860367
  0
LINE
  8
0
  6
CONTINUOUS
 10
150.873947
 20
115.860367
 11
150.873947
 21
121.360367
  0
LINE
  8
0
  6
CONTINUOUS
 10
150.873947
 20
123.360367
 11
150.873947
 21
128.360367
  0
LINE
  8
0
  6
CONTINUOUS
 10
150.873947
 20
52.860367
 11
124.873993
 21
52.860367
  0
LINE
  8
0
  6
CONTINUOUS
 10
150.873947
 20
50.860367
 11
124.873993
 21
50.860439
  0
LINE
  8
0
  6
CONTINUOUS
 10
150.873947
 20
45.360367
 11
92.123940
 21
45.360367
  0
LINE
  8
0
  6
CONTINUOUS
 10
150.873947
 20
43.360367
 11
92.123940
 21
43.360371
  0
LINE
  8
0
  6
CONTINUOUS
 10
150.873947
 20
38.360367
 11
91.280708
 21
38.360367
  0
LINE
  8
0
  6
CONTINUOUS
 10
150.873947
 20
36.360367
 11
90.412292
 21
36.360367
  0
LINE
  8
0
  6
CONTINUOUS
 10
150.873947
 20
32.074345
 11
87.051804
 21
32.074345
  0
LINE
  8
0
  6
CONTINUOUS
 10
158.873947
 20
25.860365
 11
53.873936
 21
25.860365
  0
LINE
  8
0
  6
CENTER
 10
223.623947
 20
400.802246
 11
223.623947
 21
227.932236
  0
LINE
  8
0
  6
CENTER
 10
-6.603750
 20
328.156189
 11
292.963409
 21
328.156189
  0
LINE
  8
0
  6
CONTINUOUS
 10
172.405914
 20
360.156189
 11
271.151886
 21
360.156189
  0
LINE
  8
0
  6
CONTINUOUS
 10
172.405914
 20
296.156189
 11
271.151886
 21
296.156189
  0
LINE
  8
0
  6
CONTINUOUS
 10
266.562042
 20
386.156189
 11
223.623947
 21
386.156189
  0
LINE
  8
0
  6
CONTINUOUS
 10
180.685837
 20
270.156189
 11
212.623947
 21
270.156189
  0
LINE
  8
0
  6
CONTINUOUS
 10
276.623932
 20
328.156189
 11
276.065369
 21
360.156189
  0
LINE
  8
0
  6
CONTINUOUS
 10
271.456024
 20
382.180450
 11
276.065369
 21
360.156189
  0
ARC
  8
0
  6
CONTINUOUS
 10
266.562042
 20
381.156189
 40
5.000000
 50
11.820596
 51
90.000000
  0
LINE
  8
0
  6
CONTINUOUS
 10
276.623932
 20
328.156189
 11
276.065369
 21
296.156189
  0
LINE
  8
0
  6
CONTINUOUS
 10
271.456024
 20
274.131958
 11
276.065369
 21
296.156189
  0
ARC
  8
0
  6
CONTINUOUS
 10
266.562042
 20
275.156189
 40
5.000000
 50
-90.000000
 51
-11.820596
  0
LINE
  8
0
  6
CONTINUOUS
 10
243.623947
 20
298.156189
 11
243.623947
 21
358.156189
  0
LINE
  8
0
  6
CONTINUOUS
 10
203.623947
 20
298.156189
 11
203.623947
 21
358.156189
  0
ARC
  8
0
  6
CONTINUOUS
 10
271.151886
 20
355.156189
 40
5.000000
 50
1.000000
 51
90.000000
  0
ARC
  8
0
  6
CONTINUOUS
 10
271.151886
 20
301.156189
 40
5.000000
 50
270.000000
 51
359.000000
  0
LINE
  8
0
  6
CONTINUOUS
 10
166.950439
 20
273.827667
 11
167.407639
 21
291.287079
  0
LINE
  8
0
  6
CONTINUOUS
 10
158.873947
 20
385.656189
 11
158.873947
 21
270.656189
  0
LINE
  8
0
  6
CONTINUOUS
 10
177.438934
 20
346.156189
 11
177.438934
 21
310.156189
  0
LINE
  8
0
  6
CONTINUOUS
 10
158.873947
 20
385.406189
 11
163.951477
 21
385.406189
  0
LINE
  8
0
  6
CONTINUOUS
 10
163.951477
 20
270.906189
 11
158.873947
 21
270.906189
  0
ARC
  8
0
  6
CONTINUOUS
 10
172.405914
 20
291.156189
 40
5.000000
 50
90.000000
 51
178.500000
  0
ARC
  8
0
  6
CONTINUOUS
 10
163.951477
 20
273.906189
 40
3.000000
 50
270.000000
 51
358.500000
  0
LINE
  8
0
  6
CONTINUOUS
 10
166.950439
 20
382.484741
 11
167.407639
 21
365.025299
  0
ARC
  8
0
  6
CONTINUOUS
 10
172.405914
 20
365.156189
 40
5.000000
 50
-178.500000
 51
-90.000000
  0
ARC
  8
0
  6
CONTINUOUS
 10
163.951477
 20
382.406189
 40
3.000000
 50
-358.500000
 51
-270.000000
  0
LINE
  8
0
  6
CONTINUOUS
 10
175.791870
 20
382.180450
 11
171.212738
 21
360.300659
  0
ARC
  8
0
  6
CONTINUOUS
 10
180.685837
 20
381.156189
 40
5.000000
 50
90.000000
 51
168.179398
  0
LINE
  8
0
  6
CONTINUOUS
 10
175.791870
 20
274.131958
 11
171.212738
 21
296.011749
  0
ARC
  8
0
  6
CONTINUOUS
 10
180.685837
 20
275.156189
 40
5.000000
 50
-168.179398
 51
-90.000000
  0
LINE
  8
0
  6
CENTER
 10
248.174332
 20
283.156189
 11
269.028503
 21
283.156189
  0
LINE
  8
0
  6
CENTER
 10
258.623932
 20
290.713501
 11
258.623932
 21
273.942657
  0
CIRCLE
  8
0
  6
CONTINUOUS
 10
258.623932
 20
283.156189
 40
5.500000
  0
LINE
  8
0
  6
CENTER
 10
199.073547
 20
283.156189
 11
178.219376
 21
283.156189
  0
LINE
  8
0
  6
CENTER
 10
188.623947
 20
290.713501
 11
188.623947
 21
273.942657
  0
CIRCLE
  8
0
  6
CONTINUOUS
 10
188.623947
 20
283.156189
 40
5.500000
  0
LINE
  8
0
  6
CENTER
 10
248.174332
 20
373.156189
 11
269.028503
 21
373.156189
  0
LINE
  8
0
  6
CENTER
 10
258.623932
 20
365.598907
 11
258.623932
 21
382.369751
  0
CIRCLE
  8
0
  6
CONTINUOUS
 10
258.623932
 20
373.156189
 40
5.500000
  0
LINE
  8
0
  6
CENTER
 10
199.073547
 20
373.156189
 11
178.219376
 21
373.156189
  0
LINE
  8
0
  6
CENTER
 10
188.623947
 20
365.598907
 11
188.623947
 21
382.369751
  0
CIRCLE
  8
0
  6
CONTINUOUS
 10
188.623947
 20
373.156189
 40
5.500000
  0
LINE
  8
0
  6
CONTINUOUS
 10
198.431091
 20
280.156189
 11
248.816788
 21
280.156189
  0
LINE
  8
0
  6
CONTINUOUS
 10
253.780197
 20
290.156189
 11
257.067047
 21
290.156189
  0
ARC
  8
0
  6
CONTINUOUS
 10
248.816788
 20
283.156189
 40
3.000000
 50
270.000000
 51
345.124329
  0
LINE
  8
0
  6
CONTINUOUS
 10
259.966492
 20
292.386017
 11
260.375641
 21
293.926361
  0
ARC
  8
0
  6
CONTINUOUS
 10
257.067047
 20
293.156189
 40
3.000000
 50
270.000000
 51
345.124329
  0
ARC
  8
0
  6
CONTINUOUS
 10
263.275085
 20
293.156189
 40
3.000000
 50
90.000000
 51
165.124313
  0
LINE
  8
0
  6
CONTINUOUS
 10
253.780197
 20
290.156189
 11
251.716248
 21
282.386017
  0
LINE
  8
0
  6
CONTINUOUS
 10
187.281387
 20
292.386017
 11
186.872238
 21
293.926361
  0
ARC
  8
0
  6
CONTINUOUS
 10
190.180847
 20
293.156189
 40
3.000000
 50
-165.124313
 51
-90.000000
  0
ARC
  8
0
  6
CONTINUOUS
 10
183.972778
 20
293.156189
 40
3.000000
 50
14.875682
 51
90.000000
  0
LINE
  8
0
  6
CONTINUOUS
 10
193.467697
 20
290.156189
 11
190.180847
 21
290.156189
  0
ARC
  8
0
  6
CONTINUOUS
 10
198.431091
 20
283.156189
 40
3.000000
 50
-165.124313
 51
-90.000000
  0
LINE
  8
0
  6
CONTINUOUS
 10
193.467697
 20
290.156189
 11
195.531647
 21
282.386017
  0
CIRCLE
  8
0
  6
CONTINUOUS
 10
258.623932
 20
373.156189
 40
5.500000
  0
LINE
  8
0
  6
CONTINUOUS
 10
198.431091
 20
376.156189
 11
248.816788
 21
376.156189
  0
LINE
  8
0
  6
CONTINUOUS
 10
253.780197
 20
366.156189
 11
257.067047
 21
366.156189
  0
ARC
  8
0
  6
CONTINUOUS
 10
248.816788
 20
373.156189
 40
3.000000
 50
-345.124329
 51
-270.000000
  0
LINE
  8
0
  6
CONTINUOUS
 10
259.966492
 20
363.926361
 11
260.375641
 21
362.386017
  0
ARC
  8
0
  6
CONTINUOUS
 10
257.067047
 20
363.156189
 40
3.000000
 50
-345.124329
 51
-270.000000
  0
ARC
  8
0
  6
CONTINUOUS
 10
263.275085
 20
363.156189
 40
3.000000
 50
-165.124313
 51
-90.000000
  0
LINE
  8
0
  6
CONTINUOUS
 10
253.780197
 20
366.156189
 11
251.716248
 21
373.926361
  0
LINE
  8
0
  6
CONTINUOUS
 10
187.281387
 20
363.926361
 11
186.872238
 21
362.386017
  0
ARC
  8
0
  6
CONTINUOUS
 10
190.180847
 20
363.156189
 40
3.000000
 50
90.000000
 51
165.124313
  0
ARC
  8
0
  6
CONTINUOUS
 10
183.972778
 20
363.156189
 40
3.000000
 50
-90.000000
 51
-14.875682
  0
LINE
  8
0
  6
CONTINUOUS
 10
193.467697
 20
366.156189
 11
190.180847
 21
366.156189
  0
ARC
  8
0
  6
CONTINUOUS
 10
198.431091
 20
373.156189
 40
3.000000
 50
90.000000
 51
165.124313
  0
LINE
  8
0
  6
CONTINUOUS
 10
193.467697
 20
366.156189
 11
195.531647
 21
373.926361
  0
LINE
  8
0
  6
CONTINUOUS
 10
212.623947
 20
238.156204
 11
237.123947
 21
238.156204
  0
LINE
  8
0
  6
CONTINUOUS
 10
234.623947
 20
278.156189
 11
234.623947
 21
273.156189
  0
LINE
  8
0
  6
CONTINUOUS
 10
212.623947
 20
278.156189
 11
212.623947
 21
238.156204
  0
LINE
  8
0
  6
CONTINUOUS
 10
236.123947
 20
280.156189
 11
236.123947
 21
278.156189
  0
LINE
  8
0
  6
CONTINUOUS
 10
211.123947
 20
280.156189
 11
211.123947
 21
278.156189
  0
LINE
  8
0
  6
CONTINUOUS
 10
211.123947
 20
278.156189
 11
236.123947
 21
278.156189
  0
LINE
  8
0
  6
CONTINUOUS
 10
237.123947
 20
270.156189
 11
266.562042
 21
270.156189
  0
LINE
  8
0
  6
CONTINUOUS
 10
237.123947
 20
273.156189
 11
237.123947
 21
238.156204
  0
LINE
  8
0
  6
CONTINUOUS
 10
234.206955
 20
238.156204
 11
234.206955
 21
273.156189
  0
LINE
  8
0
  6
CONTINUOUS
 10
234.206955
 20
273.156189
 11
237.123947
 21
273.156189
  0
LINE
  8
0
  6
CONTINUOUS
 10
223.623947
 20
386.156189
 11
180.507675
 21
386.156189
  0
LINE
  8
0
  6
CONTINUOUS
 10
158.873947
 20
375.656189
 11
164.206787
 21
375.656189
  0
ARC
  8
0
  6
CONTINUOUS
 10
164.206787
 20
372.656189
 40
3.000000
 50
1.500000
 51
90.000000
  0
LINE
  8
0
  6
CONTINUOUS
 10
167.164413
 20
360.156189
 11
158.873947
 21
360.156189
  0
LINE
  8
0
  6
CONTINUOUS
 10
167.164413
 20
296.156189
 11
158.873947
 21
296.156189
  0
LINE
  8
0
  6
CONTINUOUS
 10
158.873947
 20
280.656189
 11
164.206787
 21
280.656189
  0
ARC
  8
0
  6
CONTINUOUS
 10
164.206787
 20
283.656189
 40
3.000000
 50
-90.000000
 51
-1.500000
  0
LINE
  8
0
  6
CONTINUOUS
 10
53.874043
 20
385.656189
 11
158.874008
 21
385.656189
  0
LINE
  8
0
  6
CONTINUOUS
 10
53.874043
 20
270.656189
 11
61.874043
 21
270.656189
  0
LINE
  8
0
  6
CONTINUOUS
 10
53.874043
 20
386.156189
 11
53.874043
 21
270.156189
  0
LINE
  8
0
  6
CONTINUOUS
 10
61.874043
 20
385.656189
 11
61.874043
 21
354.156097
  0
LINE
  8
0
  6
CONTINUOUS
 10
61.874043
 20
354.156097
 11
150.874069
 21
354.156097
  0
LINE
  8
0
  6
CONTINUOUS
 10
61.874043
 20
361.926727
 11
150.874069
 21
361.926727
  0
LINE
  8
0
  6
CONTINUOUS
 10
62.874043
 20
365.206177
 11
149.874069
 21
365.206177
  0
LINE
  8
0
  6
CONTINUOUS
 10
61.874043
 20
370.021210
 11
150.874069
 21
370.021210
  0
LINE
  8
0
  6
CONTINUOUS
 10
62.874043
 20
372.009064
 11
149.874069
 21
372.009064
  0
LINE
  8
0
  6
CONTINUOUS
 10
61.874043
 20
376.051788
 11
150.874069
 21
376.051788
  0
LINE
  8
0
  6
CONTINUOUS
 10
61.874043
 20
380.582733
 11
150.874069
 21
380.582733
  0
LINE
  8
0
  6
CONTINUOUS
 10
61.874043
 20
383.459808
 11
150.874069
 21
383.459808
  0
LINE
  8
0
  6
CONTINUOUS
 10
61.874043
 20
385.115143
 11
150.874069
 21
385.115143
  0
LINE
  8
0
  6
CONTINUOUS
 10
150.874069
 20
385.656189
 11
150.874069
 21
354.156097
  0
LINE
  8
0
  6
CONTINUOUS
 10
61.874043
 20
270.656189
 11
61.874043
 21
302.156311
  0
LINE
  8
0
  6
CONTINUOUS
 10
61.874043
 20
302.156311
 11
150.874069
 21
302.156311
  0
LINE
  8
0
  6
CONTINUOUS
 10
61.874043
 20
294.385712
 11
150.874069
 21
294.385712
  0
LINE
  8
0
  6
CONTINUOUS
 10
62.874043
 20
291.106232
 11
149.874069
 21
291.106232
  0
LINE
  8
0
  6
CONTINUOUS
 10
61.874043
 20
286.291199
 11
150.874069
 21
286.291199
  0
LINE
  8
0
  6
CONTINUOUS
 10
62.874043
 20
284.303314
 11
149.874069
 21
284.303314
  0
LINE
  8
0
  6
CONTINUOUS
 10
61.874043
 20
280.260651
 11
150.874069
 21
280.260651
  0
LINE
  8
0
  6
CONTINUOUS
 10
128.874008
 20
275.729706
 11
150.874069
 21
275.729706
  0
LINE
  8
0
  6
CONTINUOUS
 10
128.874008
 20
272.852570
 11
150.874069
 21
272.852570
  0
LINE
  8
0
  6
CONTINUOUS
 10
129.374008
 20
271.197235
 11
150.874069
 21
271.197235
  0
LINE
  8
0
  6
CONTINUOUS
 10
150.874069
 20
270.656189
 11
150.874069
 21
302.156311
  0
LINE
  8
0
  6
CONTINUOUS
 10
62.874043
 20
272.156189
 11
127.874062
 21
272.156189
  0
LINE
  8
0
  6
CONTINUOUS
 10
129.374008
 20
270.656189
 11
158.874008
 21
270.656189
  0
LINE
  8
0
  6
CONTINUOUS
 10
128.874008
 20
271.156250
 11
128.874008
 21
277.354828
  0
ARC
  8
0
  6
CONTINUOUS
 10
129.374008
 20
271.156250
 40
0.500000
 50
-180.000000
 51
-90.000000
  0
ARC
  8
0
  6
CONTINUOUS
 10
129.374008
 20
271.697266
 40
0.500000
 50
-180.000000
 51
-90.000000
  0
LINE
  8
0
  6
CONTINUOUS
 10
61.874043
 20
277.354828
 11
128.874008
 21
277.354828
  0
ARC
  8
0
  6
CONTINUOUS
 10
127.874062
 20
273.156189
 40
1.000000
 50
-90.000000
 51
0.000000
  0
ARC
  8
0
  6
CONTINUOUS
 10
62.874043
 20
273.156189
 40
1.000000
 50
-180.000000
 51
-90.000000
  0
LINE
  8
0
  6
CONTINUOUS
 10
55.936386
 20
257.734375
 11
54.873940
 21
217.656189
  0
LINE
  8
0
  6
CONTINUOUS
 10
123.810989
 20
257.734375
 11
124.873940
 21
217.656189
  0
LINE
  8
0
  6
CONTINUOUS
 10
113.899742
 20
270.656189
 11
65.848038
 21
270.656189
  0
LINE
  8
0
  6
CONTINUOUS
 10
120.825241
 20
260.656189
 11
103.185211
 21
260.656189
  0
ARC
  8
0
  6
CONTINUOUS
 10
58.922043
 20
257.656189
 40
3.000000
 50
90.000000
 51
178.500275
  0
ARC
  8
0
  6
CONTINUOUS
 10
120.825241
 20
257.656189
 40
3.000000
 50
1.499900
 51
90.000000
  0
LINE
  8
0
  6
CONTINUOUS
 10
64.848381
 20
269.682373
 11
64.663033
 21
262.603851
  0
LINE
  8
0
  6
CONTINUOUS
 10
114.899399
 20
269.682373
 11
115.084747
 21
262.603851
  0
ARC
  8
0
  6
CONTINUOUS
 10
113.899742
 20
269.656189
 40
1.000000
 50
1.499300
 51
90.000000
  0
ARC
  8
0
  6
CONTINUOUS
 10
65.848038
 20
269.656189
 40
1.000000
 50
90.000000
 51
178.499405
  0
LINE
  8
0
  6
CONTINUOUS
 10
58.922142
 20
260.656189
 11
76.562668
 21
260.656189
  0
ARC
  8
0
  6
CONTINUOUS
 10
89.873940
 20
328.156189
 40
68.800003
 50
-101.155815
 51
-78.844185
  0
LINE
  8
0
  6
CENTER
 10
89.873940
 20
274.482300
 11
89.873940
 21
200.179993
  0
LINE
  8
0
  6
CONTINUOUS
 10
57.373940
 20
211.656189
 11
122.373940
 21
211.656189
  0
LINE
  8
0
  6
CONTINUOUS
 10
124.873940
 20
214.156189
 11
124.873940
 21
216.656189
  0
LINE
  8
0
  6
CONTINUOUS
 10
54.873940
 20
214.156189
 11
54.873940
 21
216.656189
  0
LINE
  8
0
  6
CONTINUOUS
 10
124.873940
 20
216.656189
 11
54.873940
 21
216.656189
  0
LINE
  8
0
  6
CONTINUOUS
 10
124.873940
 20
217.656189
 11
54.873940
 21
217.656189
  0
LINE
  8
0
  6
CONTINUOUS
 10
124.873940
 20
216.656189
 11
124.873940
 21
217.656189
  0
LINE
  8
0
  6
CONTINUOUS
 10
54.873940
 20
216.656189
 11
54.873940
 21
217.656189
  0
LINE
  8
0
  6
CENTER
 10
59.873940
 20
233.656189
 11
22.954491
 21
233.656189
  0
LINE
  8
0
  6
CONTINUOUS
 10
116.361038
 20
214.656189
 11
123.873940
 21
214.656189
  0
LINE
  8
0
  6
CONTINUOUS
 10
63.386883
 20
214.656189
 11
55.873940
 21
214.656189
  0
LINE
  8
0
  6
CONTINUOUS
 10
115.861244
 20
214.169296
 11
115.820938
 21
212.629990
  0
ARC
  8
0
  6
CONTINUOUS
 10
116.361038
 20
214.156189
 40
0.500000
 50
90.000000
 51
178.500000
  0
ARC
  8
0
  6
CONTINUOUS
 10
114.821243
 20
212.656189
 40
1.000000
 50
-90.000000
 51
-1.499802
  0
ARC
  8
0
  6
CONTINUOUS
 10
123.873940
 20
215.656189
 40
1.000000
 50
-90.000000
 51
0.000000
  0
ARC
  8
0
  6
CONTINUOUS
 10
122.373940
 20
214.156189
 40
2.500000
 50
-90.000000
 51
0.000000
  0
LINE
  8
0
  6
CONTINUOUS
 10
63.886761
 20
214.169296
 11
63.927040
 21
212.629990
  0
ARC
  8
0
  6
CONTINUOUS
 10
64.926674
 20
212.656189
 40
1.000000
 50
-178.499603
 51
-90.000000
  0
ARC
  8
0
  6
CONTINUOUS
 10
63.386883
 20
214.156189
 40
0.500000
 50
1.500198
 51
90.000000
  0
ARC
  8
0
  6
CONTINUOUS
 10
55.873940
 20
215.656189
 40
1.000000
 50
-180.000000
 51
-90.000000
  0
ARC
  8
0
  6
CONTINUOUS
 10
57.373940
 20
214.156189
 40
2.500000
 50
-180.000000
 51
-90.000000
  0
ARC
  8
0
  6
CONTINUOUS
 10
119.873940
 20
214.656189
 40
3.000000
 50
-180.000000
 51
0.000000
  0
LINE
  8
0
  6
CONTINUOUS
 10
122.831940
 20
214.156189
 11
116.915939
 21
214.156189
  0
LINE
  8
0
  6
CONTINUOUS
 10
119.873940
 20
212.156189
 11
119.592842
 21
211.669403
  0
LINE
  8
0
  6
CONTINUOUS
 10
119.873940
 20
212.156189
 11
120.155045
 21
211.669403
  0
ARC
  8
0
  6
CONTINUOUS
 10
59.873940
 20
214.656189
 40
3.000000
 50
-180.000000
 51
0.000000
  0
LINE
  8
0
  6
CONTINUOUS
 10
62.831951
 20
214.156189
 11
56.915932
 21
214.156189
  0
LINE
  8
0
  6
CONTINUOUS
 10
59.873940
 20
212.156189
 11
59.592873
 21
211.669403
  0
LINE
  8
0
  6
CONTINUOUS
 10
59.873940
 20
212.156189
 11
60.155067
 21
211.669403
  0
LINE
  8
0
  6
CONTINUOUS
 10
112.873940
 20
270.656189
 11
112.873940
 21
272.156189
  0
LINE
  8
0
  6
CONTINUOUS
 10
66.873940
 20
270.656189
 11
66.873940
 21
272.156189
  0
LINE
  8
0
  6
CONTINUOUS
 10
26.873991
 20
248.156342
 11
26.873991
 21
219.156250
  0
LINE
  8
0
  6
CONTINUOUS
 10
34.873989
 20
248.156342
 11
34.873989
 21
219.156250
  0
LINE
  8
0
  6
CONTINUOUS
 10
26.873991
 20
248.156342
 11
34.873989
 21
248.156342
  0
LINE
  8
0
  6
CONTINUOUS
 10
26.873991
 20
219.156250
 11
34.873989
 21
219.156250
  0
LINE
  8
0
  6
CONTINUOUS
 10
43.873989
 20
246.656342
 11
43.873989
 21
220.656250
  0
LINE
  8
0
  6
CONTINUOUS
 10
34.873989
 20
246.656342
 11
43.873989
 21
246.656342
  0
LINE
  8
0
  6
CONTINUOUS
 10
34.873989
 20
220.656250
 11
43.873989
 21
220.656250
  0
LINE
  8
0
  6
CONTINUOUS
 10
43.873989
 20
245.156342
 11
48.873989
 21
245.156342
  0
LINE
  8
0
  6
CONTINUOUS
 10
43.873989
 20
222.156250
 11
48.873989
 21
222.156250
  0
LINE
  8
0
  6
CONTINUOUS
 10
48.873989
 20
247.156342
 11
48.873989
 21
220.156250
  0
LINE
  8
0
  6
CONTINUOUS
 10
53.373989
 20
248.156342
 11
53.373989
 21
219.156250
  0
LINE
  8
0
  6
CONTINUOUS
 10
48.873989
 20
247.156342
 11
53.373989
 21
247.156342
  0
LINE
  8
0
  6
CONTINUOUS
 10
48.873989
 20
220.156250
 11
53.373989
 21
220.156250
  0
LINE
  8
0
  6
CONTINUOUS
 10
53.373989
 20
248.156342
 11
55.682480
 21
248.156342
  0
LINE
  8
0
  6
CONTINUOUS
 10
53.373989
 20
219.156250
 11
54.913708
 21
219.156250
  0
LINE
  8
0
  6
CONTINUOUS
 10
26.873991
 20
241.656342
 11
34.873989
 21
241.656342
  0
LINE
  8
0
  6
CONTINUOUS
 10
26.873991
 20
225.656250
 11
34.873989
 21
225.656250
  0
ARC
  8
0
  6
CONTINUOUS
 10
62.663719
 20
262.656189
 40
2.000000
 50
-90.000000
 51
-1.499917
  0
ARC
  8
0
  6
CONTINUOUS
 10
117.084068
 20
262.656189
 40
2.000000
 50
-178.500046
 51
-90.000000
  0
LINE
  8
0
  6
CONTINUOUS
 10
126.873940
 20
110.360474
 11
124.873993
 21
110.360474
  0
LINE
  8
0
  6
CONTINUOUS
 10
126.873940
 20
56.360477
 11
124.873993
 21
56.360477
  0
LINE
  8
0
  6
CONTINUOUS
 10
128.873947
 20
58.360477
 11
128.873947
 21
108.360474
  0
ARC
  8
0
  6
CONTINUOUS
 10
126.873940
 20
108.360474
 40
2.000000
 50
0.000000
 51
90.000000
  0
ARC
  8
0
  6
CONTINUOUS
 10
126.873940
 20
58.360477
 40
2.000000
 50
-90.000000
 51
0.000000
  0
LINE
  8
0
  6
CONTINUOUS
 10
122.373993
 20
48.360477
 11
57.373940
 21
48.360477
  0
LINE
  8
0
  6
CONTINUOUS
 10
54.873940
 20
83.360367
 11
54.873940
 21
115.860474
  0
LINE
  8
0
  6
CONTINUOUS
 10
124.873993
 20
83.360367
 11
124.873993
 21
115.860474
  0
ARC
  8
0
  6
CONTINUOUS
 10
57.373951
 20
50.860477
 40
2.500000
 50
180.000000
 51
270.000000
  0
ARC
  8
0
  6
CONTINUOUS
 10
122.373993
 20
50.860466
 40
2.500000
 50
-90.000000
 51
0.000000
  0
ARC
  8
0
  6
CONTINUOUS
 10
59.873951
 20
113.360474
 40
4.000000
 50
-90.000000
 51
0.000000
  0
ARC
  8
0
  6
CONTINUOUS
 10
119.873993
 20
113.360474
 40
4.000000
 50
180.000000
 51
270.000000
  0
ARC
  8
0
  6
CONTINUOUS
 10
119.873993
 20
53.360477
 40
4.000000
 50
90.000000
 51
180.000000
  0
ARC
  8
0
  6
CONTINUOUS
 10
59.873951
 20
53.360477
 40
4.000000
 50
0.000000
 51
90.000000
  0
LINE
  8
0
  6
CONTINUOUS
 10
119.873993
 20
109.360474
 11
122.373993
 21
109.360474
  0
LINE
  8
0
  6
CONTINUOUS
 10
59.873940
 20
109.360474
 11
57.373940
 21
109.360474
  0
LINE
  8
0
  6
CONTINUOUS
 10
59.873940
 20
57.360477
 11
57.373970
 21
57.360477
  0
LINE
  8
0
  6
CONTINUOUS
 10
119.873993
 20
57.360477
 11
122.373993
 21
57.360477
  0
LINE
  8
0
  6
CONTINUOUS
 10
115.873993
 20
113.360474
 11
115.873993
 21
115.860474
  0
LINE
  8
0
  6
CONTINUOUS
 10
63.873951
 20
113.360474
 11
63.873951
 21
115.860474
  0
LINE
  8
0
  6
CONTINUOUS
 10
63.873951
 20
53.360477
 11
63.873951
 21
50.860466
  0
LINE
  8
0
  6
CONTINUOUS
 10
115.873993
 20
53.360455
 11
115.873993
 21
50.860466
  0
ARC
  8
0
  6
CONTINUOUS
 10
57.373951
 20
106.860474
 40
2.500000
 50
90.000000
 51
180.000000
  0
ARC
  8
0
  6
CONTINUOUS
 10
122.373993
 20
106.860474
 40
2.500000
 50
0.000000
 51
90.000000
  0
ARC
  8
0
  6
CONTINUOUS
 10
57.373951
 20
59.860477
 40
2.500000
 50
180.000000
 51
270.000000
  0
ARC
  8
0
  6
CONTINUOUS
 10
66.373955
 20
50.860477
 40
2.500000
 50
180.000000
 51
270.000000
  0
ARC
  8
0
  6
CONTINUOUS
 10
122.373993
 20
59.860466
 40
2.500000
 50
-90.000000
 51
0.000000
  0
ARC
  8
0
  6
CONTINUOUS
 10
113.373993
 20
50.860466
 40
2.500000
 50
-90.000000
 51
0.000000
  0
LINE
  8
0
  6
CONTINUOUS
 10
124.873993
 20
50.860477
 11
124.873993
 21
83.360367
  0
LINE
  8
0
  6
CONTINUOUS
 10
54.873951
 20
50.860477
 11
54.873951
 21
83.360367
  0
LINE
  8
0
  6
CONTINUOUS
 10
26.873991
 20
68.860329
 11
26.873991
 21
97.860428
  0
LINE
  8
0
  6
CONTINUOUS
 10
34.873989
 20
68.860329
 11
34.873989
 21
97.860428
  0
LINE
  8
0
  6
CONTINUOUS
 10
26.873991
 20
68.860329
 11
34.873989
 21
68.860329
  0
LINE
  8
0
  6
CONTINUOUS
 10
26.873991
 20
97.860428
 11
34.873989
 21
97.860428
  0
LINE
  8
0
  6
CONTINUOUS
 10
43.873989
 20
70.360329
 11
43.873989
 21
96.360428
  0
LINE
  8
0
  6
CONTINUOUS
 10
34.873989
 20
70.360329
 11
43.873989
 21
70.360329
  0
LINE
  8
0
  6
CONTINUOUS
 10
34.873989
 20
96.360428
 11
43.873989
 21
96.360428
  0
LINE
  8
0
  6
CONTINUOUS
 10
43.873989
 20
71.860329
 11
48.873989
 21
71.860329
  0
LINE
  8
0
  6
CONTINUOUS
 10
43.873989
 20
94.860428
 11
48.873989
 21
94.860428
  0
LINE
  8
0
  6
CONTINUOUS
 10
48.873989
 20
69.860329
 11
48.873989
 21
96.860428
  0
LINE
  8
0
  6
CONTINUOUS
 10
53.373989
 20
68.860329
 11
53.373989
 21
97.860428
  0
LINE
  8
0
  6
CONTINUOUS
 10
48.873989
 20
69.860329
 11
53.373989
 21
69.860329
  0
LINE
  8
0
  6
CONTINUOUS
 10
48.873989
 20
96.860428
 11
53.373989
 21
96.860428
  0
LINE
  8
0
  6
CONTINUOUS
 10
53.373989
 20
68.860329
 11
54.913292
 21
68.860329
  0
LINE
  8
0
  6
CONTINUOUS
 10
53.373989
 20
97.860428
 11
54.873940
 21
97.860428
  0
LINE
  8
0
  6
CONTINUOUS
 10
26.873991
 20
75.360329
 11
34.873989
 21
75.360329
  0
LINE
  8
0
  6
CONTINUOUS
 10
26.873991
 20
91.360428
 11
34.873989
 21
91.360428
  0
LINE
  8
0
  6
CENTER
 10
89.873940
 20
38.985477
 11
89.873940
 21
129.837875
  0
LINE
  8
0
  6
CONTINUOUS
 10
57.373951
 20
118.360474
 11
122.373894
 21
118.360474
  0
ARC
  8
0
  6
CONTINUOUS
 10
57.373970
 20
115.860474
 40
2.500000
 50
90.000000
 51
180.000000
  0
ARC
  8
0
  6
CONTINUOUS
 10
66.373970
 20
115.860474
 40
2.500000
 50
90.000000
 51
180.000000
  0
ARC
  8
0
  6
CONTINUOUS
 10
113.373993
 20
115.860474
 40
2.500000
 50
0.000000
 51
90.000000
  0
ARC
  8
0
  6
CONTINUOUS
 10
122.373993
 20
115.860474
 40
2.500000
 50
0.000000
 51
90.000000
  0
LINE
  8
0
  6
CONTINUOUS
 10
150.873947
 20
115.860367
 11
124.873993
 21
115.860474
  0
LINE
  8
0
  6
CONTINUOUS
 10
150.873947
 20
113.860367
 11
124.873993
 21
113.860367
  0
LINE
  8
0
  6
CENTER
 10
462.720795
 20
-9.699635
 11
462.720795
 21
173.437500
  0
LINE
  8
0
  6
CENTER
 10
336.900635
 20
83.360367
 11
544.470764
 21
83.360367
  0
LINE
  8
0
  6
CENTER
 10
360.970795
 20
113.860367
 11
518.158386
 21
113.860367
  0
LINE
  8
0
  6
CONTINUOUS
 10
487.720795
 20
8.860365
 11
520.720764
 21
8.860365
  0
LINE
  8
0
  6
CONTINUOUS
 10
404.720795
 20
19.486765
 11
404.720795
 21
8.860365
  0
LINE
  8
0
  6
CONTINUOUS
 10
520.720764
 20
19.486765
 11
520.720764
 21
8.860365
  0
LINE
  8
0
  6
CONTINUOUS
 10
406.720795
 20
20.860365
 11
427.720795
 21
20.860365
  0
LINE
  8
0
  6
CONTINUOUS
 10
518.720764
 20
20.860365
 11
497.720795
 21
20.860365
  0
LINE
  8
0
  6
CONTINUOUS
 10
430.720795
 20
32.233967
 11
430.720795
 21
156.336288
  0
LINE
  8
0
  6
CONTINUOUS
 10
494.720795
 20
32.233967
 11
494.720795
 21
156.336639
  0
LINE
  8
0
  6
CONTINUOUS
 10
492.755585
 20
158.336349
 11
462.720795
 21
158.860367
  0
LINE
  8
0
  6
CONTINUOUS
 10
432.685791
 20
158.335999
 11
462.720795
 21
158.860367
  0
ARC
  8
0
  6
CONTINUOUS
 10
432.720795
 20
156.336304
 40
2.000000
 50
91.000580
 51
180.000000
  0
ARC
  8
0
  6
CONTINUOUS
 10
492.720795
 20
156.336639
 40
2.000000
 50
0.000000
 51
89.000519
  0
LINE
  8
0
  6
CONTINUOUS
 10
494.720795
 20
23.860365
 11
494.720795
 21
8.860365
  0
ARC
  8
0
  6
CONTINUOUS
 10
497.720795
 20
23.860365
 40
3.000000
 50
180.000000
 51
270.000000
  0
LINE
  8
0
  6
CONTINUOUS
 10
430.720795
 20
23.860365
 11
430.720795
 21
8.860365
  0
ARC
  8
0
  6
CONTINUOUS
 10
427.720795
 20
23.860346
 40
3.000000
 50
-90.000000
 51
0.000000
  0
ARC
  8
0
  6
CONTINUOUS
 10
406.720795
 20
18.860365
 40
2.000000
 50
90.000000
 51
180.000000
  0
ARC
  8
0
  6
CONTINUOUS
 10
518.720764
 20
18.860365
 40
2.000000
 50
0.000000
 51
90.000000
  0
LINE
  8
0
  6
CENTER
 10
417.720795
 20
25.150366
 11
417.720795
 21
4.750365
  0
LINE
  8
0
  6
CENTER
 10
507.720795
 20
26.170364
 11
507.720795
 21
4.240365
  0
LINE
  8
0
  6
CONTINUOUS
 10
429.438782
 20
30.367285
 11
406.002777
 21
21.353464
  0
ARC
  8
0
  6
CONTINUOUS
 10
406.720795
 20
19.486786
 40
2.000000
 50
111.037903
 51
180.000000
  0
LINE
  8
0
  6
CONTINUOUS
 10
430.720795
 20
32.233967
 11
430.720795
 21
23.860365
  0
ARC
  8
0
  6
CONTINUOUS
 10
428.720795
 20
32.233967
 40
2.000000
 50
-68.962189
 51
0.000000
  0
LINE
  8
0
  6
CONTINUOUS
 10
496.002777
 20
30.367266
 11
519.438782
 21
21.353464
  0
ARC
  8
0
  6
CONTINUOUS
 10
518.720764
 20
19.486765
 40
2.000000
 50
0.000000
 51
68.962646
  0
LINE
  8
0
  6
CONTINUOUS
 10
494.720795
 20
32.233967
 11
494.720795
 21
23.860365
  0
ARC
  8
0
  6
CONTINUOUS
 10
496.720795
 20
32.233986
 40
2.000000
 50
180.000000
 51
248.962799
  0
LINE
  8
0
  6
CONTINUOUS
 10
414.720795
 20
88.667511
 11
414.720795
 21
139.053207
  0
LINE
  8
0
  6
CONTINUOUS
 10
510.720795
 20
88.667519
 11
510.720795
 21
139.053207
  0
LINE
  8
0
  6
CONTINUOUS
 10
500.720795
 20
55.665203
 11
500.720795
 21
115.930367
  0
LINE
  8
0
  6
CONTINUOUS
 10
424.720795
 20
55.665203
 11
424.720795
 21
115.930367
  0
LINE
  8
0
  6
CONTINUOUS
 10
508.490967
 20
141.952667
 11
496.950592
 21
145.018066
  0
LINE
  8
0
  6
CONTINUOUS
 10
508.490967
 20
85.768066
 11
502.950592
 21
84.296410
  0
LINE
  8
0
  6
CONTINUOUS
 10
498.493774
 20
52.766506
 11
496.947784
 21
52.354225
  0
LINE
  8
0
  6
CONTINUOUS
 10
426.947784
 20
52.766483
 11
428.493774
 21
52.354225
  0
LINE
  8
0
  6
CONTINUOUS
 10
416.950592
 20
85.768059
 11
422.490967
 21
84.296410
  0
LINE
  8
0
  6
CONTINUOUS
 10
416.950592
 20
141.952667
 11
428.490967
 21
145.018066
  0
ARC
  8
0
  6
CONTINUOUS
 10
417.720795
 20
139.053223
 40
3.000000
 50
104.876099
 51
180.000000
  0
ARC
  8
0
  6
CONTINUOUS
 10
417.720795
 20
88.667534
 40
3.000000
 50
180.000000
 51
255.124603
  0
ARC
  8
0
  6
CONTINUOUS
 10
507.720795
 20
139.053207
 40
3.000000
 50
0.000000
 51
75.124413
  0
ARC
  8
0
  6
CONTINUOUS
 10
507.720795
 20
88.667511
 40
3.000000
 50
-75.124207
 51
0.000000
  0
ARC
  8
0
  6
CONTINUOUS
 10
427.720795
 20
55.665226
 40
3.000000
 50
180.000000
 51
255.069000
  0
ARC
  8
0
  6
CONTINUOUS
 10
497.720795
 20
55.665203
 40
3.000000
 50
-75.068420
 51
0.000000
  0
ARC
  8
0
  6
CONTINUOUS
 10
497.720795
 20
147.917542
 40
3.000000
 50
180.000000
 51
255.124603
  0
ARC
  8
0
  6
CONTINUOUS
 10
503.720795
 20
81.396973
 40
3.000000
 50
104.876099
 51
180.000000
  0
ARC
  8
0
  6
CONTINUOUS
 10
497.720795
 20
49.455544
 40
3.000000
 50
104.931801
 51
180.000000
  0
ARC
  8
0
  6
CONTINUOUS
 10
427.720795
 20
49.455524
 40
3.000000
 50
0.000000
 51
75.068779
  0
ARC
  8
0
  6
CONTINUOUS
 10
421.720795
 20
81.396942
 40
3.000000
 50
0.000000
 51
75.124496
  0
ARC
  8
0
  6
CONTINUOUS
 10
427.720795
 20
147.917511
 40
3.000000
 50
-75.124153
 51
0.000000
  0
LINE
  8
0
  6
DASHED
 10
412.220795
 20
20.860365
 11
412.220795
 21
8.860365
  0
LINE
  8
0
  6
DASHED
 10
423.220795
 20
20.860365
 11
423.220795
 21
8.860365
  0
LINE
  8
0
  6
DASHED
 10
502.220795
 20
20.860365
 11
502.220795
 21
8.860365
  0
LINE
  8
0
  6
DASHED
 10
513.220764
 20
20.860365
 11
513.220764
 21
8.860365
  0
LINE
  8
0
  6
CONTINUOUS
 10
432.950775
 20
135.860367
 11
492.620789
 21
135.860367
  0
LINE
  8
0
  6
CONTINUOUS
 10
415.220795
 20
40.860367
 11
415.220795
 21
49.911705
  0
LINE
  8
0
  6
CONTINUOUS
 10
510.220795
 20
40.860367
 11
510.220795
 21
49.911705
  0
LINE
  8
0
  6
CONTINUOUS
 10
420.220795
 20
35.860367
 11
429.251984
 21
35.860367
  0
LINE
  8
0
  6
CONTINUOUS
 10
505.220795
 20
35.860367
 11
496.169373
 21
35.860367
  0
ARC
  8
0
  6
CONTINUOUS
 10
462.720795
 20
83.360367
 40
57.250000
 50
-32.501888
 51
33.025478
  0
ARC
  8
0
  6
CONTINUOUS
 10
462.720795
 20
83.360367
 40
57.250000
 50
160.085907
 51
212.501907
  0
ARC
  8
0
  6
CONTINUOUS
 10
420.220795
 20
40.860367
 40
5.000000
 50
180.000000
 51
270.000000
  0
ARC
  8
0
  6
CONTINUOUS
 10
505.220795
 20
40.860367
 40
5.000000
 50
-90.000000
 51
0.000000
  0
ARC
  8
0
  6
CONTINUOUS
 10
429.272186
 20
30.860365
 40
5.000000
 50
73.158257
 51
90.230461
  0
ARC
  8
0
  6
CONTINUOUS
 10
496.169373
 20
30.860365
 40
5.000000
 50
90.000000
 51
106.842003
  0
ARC
  8
0
  6
CONTINUOUS
 10
410.220795
 20
49.911705
 40
5.000000
 50
0.000000
 51
32.499691
  0
ARC
  8
0
  6
CONTINUOUS
 10
515.220764
 20
49.911705
 40
5.000000
 50
147.498306
 51
180.000000
  0
LINE
  8
0
  6
CONTINUOUS
 10
438.720795
 20
9.860365
 11
486.720795
 21
9.860365
  0
LINE
  8
0
  6
CONTINUOUS
 10
437.720795
 20
8.860365
 11
404.720795
 21
8.860365
  0
LINE
  8
0
  6
CONTINUOUS
 10
487.720795
 20
8.860365
 11
486.720795
 21
9.860365
  0
LINE
  8
0
  6
CONTINUOUS
 10
437.720795
 20
8.860365
 11
438.720795
 21
9.860365
  0
LINE
  8
0
  6
CONTINUOUS
 10
372.720795
 20
102.860367
 11
372.720795
 21
124.860367
  0
LINE
  8
0
  6
CONTINUOUS
 10
412.720795
 20
124.860367
 11
372.720795
 21
124.860367
  0
LINE
  8
0
  6
CONTINUOUS
 10
412.720795
 20
102.860367
 11
372.720795
 21
102.860367
  0
LINE
  8
0
  6
CONTINUOUS
 10
412.720795
 20
126.360367
 11
412.720795
 21
101.360367
  0
LINE
  8
0
  6
CONTINUOUS
 10
414.720795
 20
126.360367
 11
412.720795
 21
126.360367
  0
LINE
  8
0
  6
CONTINUOUS
 10
414.720795
 20
101.360367
 11
412.720795
 21
101.360367
  0
ARC
  8
0
  6
CONTINUOUS
 10
404.720795
 20
113.860367
 40
3.000000
 50
-90.000000
 51
90.000000
  0
LINE
  8
0
  6
CONTINUOUS
 10
404.720795
 20
116.860367
 11
372.720795
 21
116.860367
  0
LINE
  8
0
  6
CONTINUOUS
 10
404.720795
 20
110.860367
 11
372.720795
 21
110.860367
  0
LINE
  8
0
  6
CONTINUOUS
 10
406.720978
 20
57.326084
 11
406.720795
 21
70.312508
  0
LINE
  8
0
  6
CONTINUOUS
 10
407.685974
 20
56.326706
 11
412.053772
 21
56.174187
  0
ARC
  8
0
  6
CONTINUOUS
 10
407.720795
 20
57.326103
 40
0.999998
 50
180.000000
 51
268.000488
  0
LINE
  8
0
  6
CONTINUOUS
 10
406.720795
 20
102.860367
 11
406.720795
 21
96.408028
  0
ARC
  8
0
  6
CONTINUOUS
 10
462.720795
 20
83.360367
 40
57.499901
 50
303.815613
 51
303.996887
  0
ARC
  8
0
  6
CONTINUOUS
 10
462.720795
 20
83.360367
 40
57.499901
 50
160.176102
 51
213.996796
  0
ARC
  8
0
  6
CONTINUOUS
 10
462.720795
 20
83.360367
 40
57.499901
 50
236.003098
 51
236.184296
  0
ARC
  8
0
  6
CONTINUOUS
 10
462.720795
 20
83.360367
 40
57.499901
 50
-33.996880
 51
33.406670
  0
LINE
  8
0
  6
CONTINUOUS
 10
392.298950
 20
49.422810
 11
352.220795
 21
48.360367
  0
LINE
  8
0
  6
CONTINUOUS
 10
372.720795
 20
117.816666
 11
352.220795
 21
118.360367
  0
LINE
  8
0
  6
CONTINUOUS
 10
405.220795
 20
59.334465
 11
405.220795
 21
71.860367
  0
LINE
  8
0
  6
CONTINUOUS
 10
405.220795
 20
102.860367
 11
405.220795
 21
71.860367
  0
ARC
  8
0
  6
CONTINUOUS
 10
392.220795
 20
52.408466
 40
3.000000
 50
-88.500267
 51
0.000000
  0
LINE
  8
0
  6
CONTINUOUS
 10
400.074982
 20
58.225567
 11
397.168427
 21
58.149460
  0
ARC
  8
0
  6
CONTINUOUS
 10
404.220795
 20
59.334465
 40
1.000000
 50
-88.499397
 51
0.000000
  0
LINE
  8
0
  6
CONTINUOUS
 10
395.220795
 20
52.408566
 11
395.220795
 21
70.049095
  0
LINE
  8
0
  6
CONTINUOUS
 10
404.246979
 20
58.334866
 11
400.074982
 21
58.225567
  0
ARC
  8
0
  6
CONTINUOUS
 10
462.720795
 20
83.360367
 40
68.800003
 50
168.844193
 51
191.155807
  0
LINE
  8
0
  6
CONTINUOUS
 10
346.220795
 20
50.860367
 11
346.220795
 21
115.860367
  0
LINE
  8
0
  6
CONTINUOUS
 10
348.720795
 20
118.360367
 11
351.220795
 21
118.360367
  0
LINE
  8
0
  6
CONTINUOUS
 10
348.720795
 20
48.360367
 11
351.220795
 21
48.360367
  0
LINE
  8
0
  6
CONTINUOUS
 10
351.220795
 20
118.360367
 11
351.220795
 21
48.360367
  0
LINE
  8
0
  6
CONTINUOUS
 10
352.220795
 20
118.360367
 11
352.220795
 21
48.360367
  0
LINE
  8
0
  6
CONTINUOUS
 10
351.220795
 20
118.360367
 11
352.220795
 21
118.360367
  0
LINE
  8
0
  6
CONTINUOUS
 10
351.220795
 20
48.360367
 11
352.220795
 21
48.360367
  0
LINE
  8
0
  6
CENTER
 10
368.220795
 20
125.817368
 11
368.220795
 21
39.021252
  0
LINE
  8
0
  6
CONTINUOUS
 10
349.220795
 20
109.847466
 11
349.220795
 21
117.360367
  0
LINE
  8
0
  6
CONTINUOUS
 10
349.220795
 20
56.873306
 11
349.220795
 21
49.360367
  0
LINE
  8
0
  6
CONTINUOUS
 10
348.733887
 20
109.347664
 11
347.194580
 21
109.307365
  0
ARC
  8
0
  6
CONTINUOUS
 10
348.720795
 20
109.847466
 40
0.500000
 50
-88.500000
 51
0.000000
  0
ARC
  8
0
  6
CONTINUOUS
 10
347.220795
 20
108.307663
 40
1.000000
 50
91.499802
 51
180.000000
  0
ARC
  8
0
  6
CONTINUOUS
 10
350.220795
 20
117.360367
 40
1.000000
 50
90.000000
 51
180.000000
  0
ARC
  8
0
  6
CONTINUOUS
 10
348.720795
 20
115.860367
 40
2.500000
 50
90.000000
 51
180.000000
  0
LINE
  8
0
  6
CONTINUOUS
 10
348.733887
 20
57.373184
 11
347.194580
 21
57.413464
  0
ARC
  8
0
  6
CONTINUOUS
 10
347.220795
 20
58.413094
 40
1.000000
 50
180.000000
 51
268.499603
  0
ARC
  8
0
  6
CONTINUOUS
 10
348.720795
 20
56.873306
 40
0.500000
 50
0.000000
 51
88.499802
  0
ARC
  8
0
  6
CONTINUOUS
 10
350.220795
 20
49.360367
 40
1.000000
 50
180.000000
 51
270.000000
  0
ARC
  8
0
  6
CONTINUOUS
 10
348.720795
 20
50.860367
 40
2.500000
 50
180.000000
 51
270.000000
  0
ARC
  8
0
  6
CONTINUOUS
 10
349.220795
 20
113.360367
 40
3.000000
 50
90.000000
 51
270.000000
  0
LINE
  8
0
  6
CONTINUOUS
 10
348.720795
 20
116.318367
 11
348.720795
 21
110.402367
  0
LINE
  8
0
  6
CONTINUOUS
 10
346.720795
 20
113.360367
 11
346.233978
 21
113.079262
  0
LINE
  8
0
  6
CONTINUOUS
 10
346.720795
 20
113.360367
 11
346.233978
 21
113.641464
  0
ARC
  8
0
  6
CONTINUOUS
 10
349.220795
 20
53.360367
 40
3.000000
 50
90.000000
 51
270.000000
  0
LINE
  8
0
  6
CONTINUOUS
 10
348.720795
 20
56.318375
 11
348.720795
 21
50.402355
  0
LINE
  8
0
  6
CONTINUOUS
 10
346.720795
 20
53.360367
 11
346.233978
 21
53.079296
  0
LINE
  8
0
  6
CONTINUOUS
 10
346.720795
 20
53.360367
 11
346.233978
 21
53.641495
  0
LINE
  8
0
  6
CONTINUOUS
 10
405.220795
 20
60.360367
 11
406.720795
 21
60.360367
  0
LINE
  8
0
  6
CONTINUOUS
 10
406.720795
 20
57.326046
 11
406.720795
 21
70.312485
  0
LINE
  8
0
  6
CONTINUOUS
 10
407.685913
 20
56.326664
 11
412.053650
 21
56.174145
  0
ARC
  8
0
  6
CONTINUOUS
 10
407.720795
 20
57.326065
 40
1.000000
 50
180.000000
 51
268.000488
  0
LINE
  8
0
  6
CONTINUOUS
 10
406.720764
 20
102.860367
 11
406.720734
 21
96.408051
  0
ARC
  8
0
  6
CONTINUOUS
 10
397.220795
 20
56.150143
 40
2.000000
 50
91.499916
 51
180.000000
  0
LINE
  8
0
  6
CONTINUOUS
 10
395.220795
 20
102.860367
 11
395.220795
 21
96.671638
  0
LINE
  8
0
  6
CONTINUOUS
 10
53.873936
 20
68.860329
 11
53.873936
 21
33.318790
  0
ARC
  8
0
  6
CONTINUOUS
 10
342.374054
 20
328.158936
 40
340.000000
 50
170.966705
 51
180.000000
  0
ARC
  8
0
  6
CONTINUOUS
 10
18.442242
 20
379.658752
 40
12.000000
 50
90.000000
 51
170.966904
  0
LINE
  8
0
  6
CONTINUOUS
 10
47.360950
 20
395.643005
 11
28.628456
 21
395.479523
  0
LINE
  8
0
  6
CONTINUOUS
 10
18.442041
 20
391.652344
 11
26.637241
 21
391.652344
  0
LINE
  8
0
  6
CONTINUOUS
 10
48.874043
 20
394.143036
 11
48.874043
 21
328.156189
  0
ARC
  8
0
  6
CONTINUOUS
 10
345.374054
 20
328.155731
 40
325.000000
 50
168.259811
 51
179.999924
  0
LINE
  8
0
  6
CONTINUOUS
 10
48.874043
 20
386.156189
 11
53.874043
 21
386.156189
  0
LINE
  8
0
  6
CONTINUOUS
 10
48.874043
 20
270.156189
 11
53.874043
 21
270.156189
  0
LINE
  8
0
  6
CONTINUOUS
 10
49.374043
 20
321.656189
 11
49.374043
 21
334.656189
  0
LINE
  8
0
  6
CONTINUOUS
 10
48.874043
 20
334.656189
 11
49.374043
 21
334.656189
  0
LINE
  8
0
  6
CONTINUOUS
 10
48.874043
 20
321.656189
 11
49.374043
 21
321.656189
  0
ARC
  8
0
  6
CONTINUOUS
 10
47.374043
 20
394.143036
 40
1.500000
 50
0.000000
 51
90.500000
  0
ARC
  8
0
  6
CONTINUOUS
 10
28.641546
 20
393.979584
 40
1.500000
 50
90.500000
 51
168.259811
  0
ARC
  8
0
  6
CONTINUOUS
 10
342.374054
 20
328.153442
 40
340.000000
 50
-180.000000
 51
-170.966705
  0
ARC
  8
0
  6
CONTINUOUS
 10
18.442242
 20
276.653656
 40
12.000000
 50
-170.966904
 51
-90.000000
  0
LINE
  8
0
  6
CONTINUOUS
 10
47.360950
 20
260.669403
 11
28.628456
 21
260.832886
  0
LINE
  8
0
  6
CONTINUOUS
 10
18.442041
 20
264.660065
 11
26.637241
 21
264.660065
  0
LINE
  8
0
  6
CONTINUOUS
 10
48.874043
 20
262.169342
 11
48.874043
 21
328.156189
  0
ARC
  8
0
  6
CONTINUOUS
 10
345.374054
 20
328.156647
 40
325.000000
 50
-179.999924
 51
-168.259811
  0
ARC
  8
0
  6
CONTINUOUS
 10
47.374043
 20
262.169342
 40
1.500000
 50
-90.500000
 51
0.000000
  0
ARC
  8
0
  6
CONTINUOUS
 10
28.641546
 20
262.332825
 40
1.500000
 50
-168.259811
 51
-90.500000
  0
LINE
  8
0
  6
CONTINUOUS
 10
49.373974
 20
147.360321
 11
48.873936
 21
147.360321
  0
LINE
  8
0
  6
CONTINUOUS
 10
49.373974
 20
141.360321
 11
49.373974
 21
147.360321
  0
LINE
  8
0
  6
CONTINUOUS
 10
49.373974
 20
147.360321
 11
48.873936
 21
147.360321
  0
LINE
  8
0
  6
CONTINUOUS
 10
48.873936
 20
141.360321
 11
53.873936
 21
141.360321
  0
LINE
  8
0
  6
CONTINUOUS
 10
48.873936
 20
25.860319
 11
53.873936
 21
25.860319
  0
LINE
  8
0
  6
CONTINUOUS
 10
47.360855
 20
150.698822
 11
22.198956
 21
150.479095
  0
ARC
  8
0
  6
CONTINUOUS
 10
18.442255
 20
134.860504
 40
12.000000
 50
82.994843
 51
170.966507
  0
ARC
  8
0
  6
CONTINUOUS
 10
342.373962
 20
83.360321
 40
340.000000
 50
170.966507
 51
188.814499
  0
ARC
  8
0
  6
CONTINUOUS
 10
20.027655
 20
147.763519
 40
1.000000
 50
262.995300
 51
343.455597
  0
ARC
  8
0
  6
CONTINUOUS
 10
22.211954
 20
148.979446
 40
1.500000
 50
90.500267
 51
191.594803
  0
LINE
  8
0
  6
CONTINUOUS
 10
48.369556
 20
25.864719
 11
12.266243
 21
26.179798
  0
ARC
  8
0
  6
CONTINUOUS
 10
12.318597
 20
32.179539
 40
6.000000
 50
188.814499
 51
269.500000
  0
ARC
  8
0
  6
CONTINUOUS
 10
24.073256
 20
27.576818
 40
1.500000
 50
170.162598
 51
269.500000
  0
ARC
  8
0
  6
CONTINUOUS
 10
47.373936
 20
149.198822
 40
1.500000
 50
0.000000
 51
90.500191
  0
ARC
  8
0
  6
CONTINUOUS
 10
48.373936
 20
26.364719
 40
0.500000
 50
-90.500000
 51
0.000000
  0
LINE
  8
0
  6
CONTINUOUS
 10
48.873936
 20
26.364719
 11
48.873936
 21
149.198822
  0
ARC
  8
0
  6
CONTINUOUS
 10
-297.626038
 20
83.360321
 40
325.000000
 50
350.162567
 51
357.442871
  0
ARC
  8
0
  6
CONTINUOUS
 10
-297.626038
 20
83.360321
 40
325.000000
 50
2.557141
 51
11.594100
  0
ARC
  8
0
  6
CONTINUOUS
 10
462.720795
 20
83.360367
 40
67.500000
 50
135.325500
 51
142.061539
  0
ARC
  8
0
  6
CONTINUOUS
 10
462.720795
 20
83.360367
 40
67.500000
 50
-54.799992
 51
44.674610
  0
ARC
  8
0
  6
CONTINUOUS
 10
462.720795
 20
83.360367
 40
67.500000
 50
204.340652
 51
227.845551
  0
LINE
  8
0
  6
CONTINUOUS
 10
61.623951
 20
113.760468
 11
61.623951
 21
112.960449
  0
LINE
  8
0
  6
CONTINUOUS
 10
59.473927
 20
115.110474
 11
60.273945
 21
115.110474
  0
LINE
  8
0
  6
CONTINUOUS
 10
59.473927
 20
111.610474
 11
60.273945
 21
111.610474
  0
LINE
  8
0
  6
CONTINUOUS
 10
58.123951
 20
113.760468
 11
58.123951
 21
112.960449
  0
CIRCLE
  8
0
  6
CONTINUOUS
 10
59.873951
 20
113.360474
 40
2.750000
  0
ARC
  8
0
  6
CONTINUOUS
 10
58.123951
 20
115.110474
 40
1.350000
 50
-90.000000
 51
0.000000
  0
ARC
  8
0
  6
CONTINUOUS
 10
58.123951
 20
111.610474
 40
1.350000
 50
0.000000
 51
90.000000
  0
ARC
  8
0
  6
CONTINUOUS
 10
61.623951
 20
115.110474
 40
1.350000
 50
180.000000
 51
270.000000
  0
ARC
  8
0
  6
CONTINUOUS
 10
61.623951
 20
111.610474
 40
1.350000
 50
90.000000
 51
180.000000
  0
LINE
  8
0
  6
CONTINUOUS
 10
121.623993
 20
113.760468
 11
121.623993
 21
112.960449
  0
LINE
  8
0
  6
CONTINUOUS
 10
119.473969
 20
115.110474
 11
120.273987
 21
115.110474
  0
LINE
  8
0
  6
CONTINUOUS
 10
119.473969
 20
111.610474
 11
120.273987
 21
111.610474
  0
LINE
  8
0
  6
CONTINUOUS
 10
118.123993
 20
113.760468
 11
118.123993
 21
112.960449
  0
CIRCLE
  8
0
  6
CONTINUOUS
 10
119.873993
 20
113.360474
 40
2.750000
  0
ARC
  8
0
  6
CONTINUOUS
 10
118.123993
 20
115.110474
 40
1.350000
 50
-90.000000
 51
0.000000
  0
ARC
  8
0
  6
CONTINUOUS
 10
118.123993
 20
111.610474
 40
1.350000
 50
0.000000
 51
90.000000
  0
ARC
  8
0
  6
CONTINUOUS
 10
121.623993
 20
115.110474
 40
1.350000
 50
180.000000
 51
270.000000
  0
ARC
  8
0
  6
CONTINUOUS
 10
121.623993
 20
111.610474
 40
1.350000
 50
90.000000
 51
180.000000
  0
LINE
  8
0
  6
CONTINUOUS
 10
121.623993
 20
53.760471
 11
121.623993
 21
52.960453
  0
LINE
  8
0
  6
CONTINUOUS
 10
119.473969
 20
55.110477
 11
120.273987
 21
55.110477
  0
LINE
  8
0
  6
CONTINUOUS
 10
119.473969
 20
51.610477
 11
120.273987
 21
51.610477
  0
LINE
  8
0
  6
CONTINUOUS
 10
118.123993
 20
53.760471
 11
118.123993
 21
52.960453
  0
CIRCLE
  8
0
  6
CONTINUOUS
 10
119.873993
 20
53.360477
 40
2.750000
  0
ARC
  8
0
  6
CONTINUOUS
 10
118.123993
 20
55.110477
 40
1.350000
 50
-90.000000
 51
0.000000
  0
ARC
  8
0
  6
CONTINUOUS
 10
118.123993
 20
51.610477
 40
1.350000
 50
0.000000
 51
90.000000
  0
ARC
  8
0
  6
CONTINUOUS
 10
121.623993
 20
55.110477
 40
1.350000
 50
180.000000
 51
270.000000
  0
ARC
  8
0
  6
CONTINUOUS
 10
121.623993
 20
51.610477
 40
1.350000
 50
90.000000
 51
180.000000
  0
LINE
  8
0
  6
CONTINUOUS
 10
61.623951
 20
53.760471
 11
61.623951
 21
52.960453
  0
LINE
  8
0
  6
CONTINUOUS
 10
59.473927
 20
55.110477
 11
60.273945
 21
55.110477
  0
LINE
  8
0
  6
CONTINUOUS
 10
59.473927
 20
51.610477
 11
60.273945
 21
51.610477
  0
LINE
  8
0
  6
CONTINUOUS
 10
58.123951
 20
53.760471
 11
58.123951
 21
52.960453
  0
CIRCLE
  8
0
  6
CONTINUOUS
 10
59.873951
 20
53.360477
 40
2.750000
  0
ARC
  8
0
  6
CONTINUOUS
 10
58.123951
 20
55.110477
 40
1.350000
 50
-90.000000
 51
0.000000
  0
ARC
  8
0
  6
CONTINUOUS
 10
58.123951
 20
51.610477
 40
1.350000
 50
0.000000
 51
90.000000
  0
ARC
  8
0
  6
CONTINUOUS
 10
61.623951
 20
55.110477
 40
1.350000
 50
180.000000
 51
270.000000
  0
ARC
  8
0
  6
CONTINUOUS
 10
61.623951
 20
51.610477
 40
1.350000
 50
90.000000
 51
180.000000
  0
LINE
  8
0
  6
CONTINUOUS
 10
401.220795
 20
58.255585
 11
401.220795
 21
49.318790
  0
LINE
  8
0
  6
CONTINUOUS
 10
396.220795
 20
57.882195
 11
396.220795
 21
49.318790
  0
ARC
  8
0
  6
CONTINUOUS
 10
417.220795
 20
49.318790
 40
21.000000
 50
180.000000
 51
270.000000
  0
ARC
  8
0
  6
CONTINUOUS
 10
417.220795
 20
49.318790
 40
16.000000
 50
180.000000
 51
270.711304
  0
LINE
  8
0
  6
CONTINUOUS
 10
417.220795
 20
28.318790
 11
424.112671
 21
28.318790
  0
LINE
  8
0
  6
CONTINUOUS
 10
417.220795
 20
33.318790
 11
430.720795
 21
33.318790
  0
ARC
  8
0
  6
CONTINUOUS
 10
462.720795
 20
83.360367
 40
67.500000
 50
234.629974
 51
234.800003
  0
LINE
  8
0
  6
CONTINUOUS
 10
92.123940
 20
43.360371
 11
92.123940
 21
48.360367
  0
LINE
  8
0
  6
CONTINUOUS
 10
87.123940
 20
43.318790
 11
87.123940
 21
48.360367
  0
ARC
  8
0
  6
CONTINUOUS
 10
77.123940
 20
43.318790
 40
10.000000
 50
-90.000000
 51
0.000000
  0
ARC
  8
0
  6
CONTINUOUS
 10
77.123940
 20
43.318790
 40
15.000000
 50
-90.000000
 51
0.158824
  0
LINE
  8
0
  6
CONTINUOUS
 10
77.123940
 20
33.318790
 11
48.873936
 21
33.318790
  0
LINE
  8
0
  6
CONTINUOUS
 10
77.123940
 20
28.318790
 11
48.873936
 21
28.318790
  0
LINE
  8
0
  6
CONTINUOUS
 10
87.123940
 20
45.360367
 11
61.873936
 21
45.360367
  0
LINE
  8
0
  6
CONTINUOUS
 10
87.123940
 20
43.360367
 11
61.873936
 21
43.360367
  0
LINE
  8
0
  6
CONTINUOUS
 10
85.808067
 20
38.360367
 11
61.873936
 21
38.360367
  0
LINE
  8
0
  6
CONTINUOUS
 10
84.305885
 20
36.360367
 11
61.873936
 21
36.360367
  0
LINE
  8
0
  6
CONTINUOUS
 10
53.873936
 20
28.318790
 11
53.873936
 21
25.860319
  0
TEXT
  8
0
 10
-7.000000
 20
-29.000000
 40
4.000000
 41
1.000000
  1
H2LB-22R-5~240-T010WZ
 50
0.000000
  0
ENDSEC
  0
EOF
