  0
SECTION
  2
HEADER
  9
$ACADVER
  1
AC1014
  9
$ACADMAINTVER
 70
     9
  9
$DWGCODEPAGE
  3
ANSI_932
  9
$INSBASE
 10
0.0
 20
0.0
 30
0.0
  9
$EXTMIN
 10
-22.42499899999999
 20
-32.00000000000002
 30
0.0
  9
$EXTMAX
 10
539.83667
 20
402.5046389999999
 30
0.0
  9
$LIMMIN
 10
0.0
 20
0.0
  9
$LIMMAX
 10
12.0
 20
9.0
  9
$ORTHOMODE
 70
     0
  9
$REGENMODE
 70
     1
  9
$FILLMODE
 70
     1
  9
$QTEXTMODE
 70
     0
  9
$MIRRTEXT
 70
     1
  9
$DRAGMODE
 70
     2
  9
$LTSCALE
 40
3.0
  9
$OSMODE
 70
    45
  9
$ATTMODE
 70
     1
  9
$TEXTSIZE
 40
3.0
  9
$TRACEWID
 40
0.05
  9
$TEXTSTYLE
  7
STANDARD
  9
$CLAYER
  8
1
  9
$CELTYPE
  6
CONTINUOUS
  9
$CECOLOR
 62
   256
  9
$CELTSCALE
 40
1.0
  9
$DELOBJ
 70
     1
  9
$DISPSILH
 70
     0
  9
$DIMSCALE
 40
1.0
  9
$DIMASZ
 40
0.18
  9
$DIMEXO
 40
0.0625
  9
$DIMDLI
 40
0.38
  9
$DIMRND
 40
0.0
  9
$DIMDLE
 40
0.0
  9
$DIMEXE
 40
0.18
  9
$DIMTP
 40
0.0
  9
$DIMTM
 40
0.0
  9
$DIMTXT
 40
0.18
  9
$DIMCEN
 40
0.09
  9
$DIMTSZ
 40
0.0
  9
$DIMTOL
 70
     0
  9
$DIMLIM
 70
     0
  9
$DIMTIH
 70
     1
  9
$DIMTOH
 70
     1
  9
$DIMSE1
 70
     0
  9
$DIMSE2
 70
     0
  9
$DIMTAD
 70
     0
  9
$DIMZIN
 70
     0
  9
$DIMBLK
  1

  9
$DIMASO
 70
     1
  9
$DIMSHO
 70
     1
  9
$DIMPOST
  1

  9
$DIMAPOST
  1

  9
$DIMALT
 70
     0
  9
$DIMALTD
 70
     2
  9
$DIMALTF
 40
25.4
  9
$DIMLFAC
 40
1.0
  9
$DIMTOFL
 70
     0
  9
$DIMTVP
 40
0.0
  9
$DIMTIX
 70
     0
  9
$DIMSOXD
 70
     0
  9
$DIMSAH
 70
     0
  9
$DIMBLK1
  1

  9
$DIMBLK2
  1

  9
$DIMSTYLE
  2
STANDARD
  9
$DIMCLRD
 70
     0
  9
$DIMCLRE
 70
     0
  9
$DIMCLRT
 70
     0
  9
$DIMTFAC
 40
1.0
  9
$DIMGAP
 40
0.09
  9
$DIMJUST
 70
     0
  9
$DIMSD1
 70
     0
  9
$DIMSD2
 70
     0
  9
$DIMTOLJ
 70
     1
  9
$DIMTZIN
 70
     0
  9
$DIMALTZ
 70
     0
  9
$DIMALTTZ
 70
     0
  9
$DIMFIT
 70
     3
  9
$DIMUPT
 70
     0
  9
$DIMUNIT
 70
     2
  9
$DIMDEC
 70
     4
  9
$DIMTDEC
 70
     4
  9
$DIMALTU
 70
     2
  9
$DIMALTTD
 70
     2
  9
$DIMTXSTY
  7
STANDARD
  9
$DIMAUNIT
 70
     0
  9
$LUNITS
 70
     2
  9
$LUPREC
 70
     4
  9
$SKETCHINC
 40
0.1
  9
$FILLETRAD
 40
0.0
  9
$AUNITS
 70
     0
  9
$AUPREC
 70
     0
  9
$MENU
  1
.
  9
$ELEVATION
 40
0.0
  9
$PELEVATION
 40
0.0
  9
$THICKNESS
 40
0.0
  9
$LIMCHECK
 70
     0
  9
$BLIPMODE
 70
     0
  9
$CHAMFERA
 40
0.0
  9
$CHAMFERB
 40
0.0
  9
$CHAMFERC
 40
0.0
  9
$CHAMFERD
 40
0.0
  9
$SKPOLY
 70
     0
  9
$TDCREATE
 40
2453347.707037940
  9
$TDUPDATE
 40
2453354.762108692
  9
$TDINDWG
 40
0.0057118403
  9
$TDUSRTIMER
 40
0.0057118403
  9
$USRTIMER
 70
     1
  9
$ANGBASE
 50
0.0
  9
$ANGDIR
 70
     0
  9
$PDMODE
 70
     0
  9
$PDSIZE
 40
0.0
  9
$PLINEWID
 40
0.0
  9
$COORDS
 70
     1
  9
$SPLFRAME
 70
     0
  9
$SPLINETYPE
 70
     6
  9
$SPLINESEGS
 70
     8
  9
$ATTDIA
 70
     0
  9
$ATTREQ
 70
     1
  9
$HANDLING
 70
 22529
  9
$HANDSEED
  5
3CA
  9
$SURFTAB1
 70
     6
  9
$SURFTAB2
 70
     6
  9
$SURFTYPE
 70
     6
  9
$SURFU
 70
     6
  9
$SURFV
 70
     6
  9
$UCSNAME
  2

  9
$UCSORG
 10
0.0
 20
0.0
 30
0.0
  9
$UCSXDIR
 10
1.0
 20
0.0
 30
0.0
  9
$UCSYDIR
 10
0.0
 20
1.0
 30
0.0
  9
$PUCSNAME
  2

  9
$PUCSORG
 10
0.0
 20
0.0
 30
0.0
  9
$PUCSXDIR
 10
1.0
 20
0.0
 30
0.0
  9
$PUCSYDIR
 10
0.0
 20
1.0
 30
0.0
  9
$USERI1
 70
     0
  9
$USERI2
 70
     0
  9
$USERI3
 70
     0
  9
$USERI4
 70
     0
  9
$USERI5
 70
     0
  9
$USERR1
 40
0.0
  9
$USERR2
 40
0.0
  9
$USERR3
 40
0.0
  9
$USERR4
 40
0.0
  9
$USERR5
 40
0.0
  9
$WORLDVIEW
 70
     1
  9
$SHADEDGE
 70
     3
  9
$SHADEDIF
 70
    70
  9
$TILEMODE
 70
     1
  9
$MAXACTVP
 70
    64
  9
$PINSBASE
 10
0.0
 20
0.0
 30
0.0
  9
$PLIMCHECK
 70
     0
  9
$PEXTMIN
 10
1.000000000000000E+20
 20
1.000000000000000E+20
 30
1.000000000000000E+20
  9
$PEXTMAX
 10
-1.000000000000000E+20
 20
-1.000000000000000E+20
 30
-1.000000000000000E+20
  9
$PLIMMIN
 10
0.0
 20
0.0
  9
$PLIMMAX
 10
12.0
 20
9.0
  9
$UNITMODE
 70
     0
  9
$VISRETAIN
 70
     1
  9
$PLINEGEN
 70
     0
  9
$PSLTSCALE
 70
     1
  9
$TREEDEPTH
 70
  3020
  9
$PICKSTYLE
 70
     1
  9
$CMLSTYLE
  2
STANDARD
  9
$CMLJUST
 70
     0
  9
$CMLSCALE
 40
1.0
  9
$PROXYGRAPHICS
 70
     1
  9
$MEASUREMENT
 70
     0
  0
ENDSEC
  0
SECTION
  2
CLASSES
  0
CLASS
  1
ACDBDICTIONARYWDFLT
  2
AcDbDictionaryWithDefault
  3
AutoCAD 2000
 90
        0
280
     0
281
     0
  0
CLASS
  1
ACDBPLACEHOLDER
  2
AcDbPlaceHolder
  3
AutoCAD 2000
 90
        0
280
     0
281
     0
  0
CLASS
  1
LAYOUT
  2
AcDbLayout
  3
AutoCAD 2000
 90
        0
280
     0
281
     0
  0
CLASS
  1
DICTIONARYVAR
  2
AcDbDictionaryVar
  3
AutoCAD 2000
 90
        0
280
     0
281
     0
  0
CLASS
  1
LONG_TRANSACTION
  2
AcDbLongTransaction
  3
AutoCAD 2000
 90
        0
280
     0
281
     0
  0
CLASS
  1
LWPOLYLINE
  2
AcDbPolyline
  3
AutoCAD 2000
 90
        0
280
     0
281
     1
  0
CLASS
  1
HATCH
  2
AcDbHatch
  3
AutoCAD 2000
 90
        0
280
     0
281
     1
  0
CLASS
  1
XRECORD
  2
AcDbXrecord
  3
AutoCAD 2000
 90
        0
280
     0
281
     0
  0
ENDSEC
  0
SECTION
  2
TABLES
  0
TABLE
  2
VPORT
  5
8
330
0
100
AcDbSymbolTable
 70
     2
  0
VPORT
  5
3A5
330
8
100
AcDbSymbolTableRecord
100
AcDbViewportTableRecord
  2
*ACTIVE
 70
     0
 10
0.0
 20
0.0
 11
1.0
 21
1.0
 12
364.121648666255
 22
204.5001731499
 13
0.0
 23
0.0
 14
1.0
 24
1.0
 15
0.0
 25
0.0
 16
0.0
 26
0.0
 36
1.0
 17
0.0
 27
0.0
 37
0.0
 40
613.3801663166289
 41
1.976793248945147
 42
50.0
 43
0.0
 44
0.0
 50
0.0
 51
0.0
 71
     0
 72
   100
 73
     1
 74
     1
 75
     0
 76
     0
 77
     0
 78
     0
  0
ENDTAB
  0
TABLE
  2
LTYPE
  5
5
330
0
100
AcDbSymbolTable
 70
     3
  0
LTYPE
  5
13
330
5
100
AcDbSymbolTableRecord
100
AcDbLinetypeTableRecord
  2
BYBLOCK
 70
     0
  3

 72
    65
 73
     0
 40
0.0
  0
LTYPE
  5
14
330
5
100
AcDbSymbolTableRecord
100
AcDbLinetypeTableRecord
  2
BYLAYER
 70
     0
  3

 72
    65
 73
     0
 40
0.0
  0
LTYPE
  5
15
330
5
100
AcDbSymbolTableRecord
100
AcDbLinetypeTableRecord
  2
CONTINUOUS
 70
     0
  3
solid line
 72
    65
 73
     0
 40
0.0
  0
LTYPE
  5
23
330
5
100
AcDbSymbolTableRecord
100
AcDbLinetypeTableRecord
  2
DASHED
 70
     0
  3
__ __ __ __ __ __ __ __ __ __ __ __ __ __ __
 72
    65
 73
     2
 40
0.75
 49
0.5
 74
     0
 49
-0.25
 74
     0
  0
LTYPE
  5
24
330
5
100
AcDbSymbolTableRecord
100
AcDbLinetypeTableRecord
  2
CENTER
 70
     0
  3
____ _ ____ _ ____ _ ____ _ ____ _ ____ _ ____
 72
    65
 73
     4
 40
2.0
 49
1.25
 74
     0
 49
-0.25
 74
     0
 49
0.25
 74
     0
 49
-0.25
 74
     0
  0
ENDTAB
  0
TABLE
  2
LAYER
  5
2
330
0
100
AcDbSymbolTable
 70
     3
  0
LAYER
  5
10
330
2
100
AcDbSymbolTableRecord
100
AcDbLayerTableRecord
  2
0
 70
     0
 62
     7
  6
CONTINUOUS
  0
LAYER
  5
22
330
2
100
AcDbSymbolTableRecord
100
AcDbLayerTableRecord
  2
1
 70
     0
 62
     7
  6
CONTINUOUS
  0
LAYER
  5
36F
330
2
100
AcDbSymbolTableRecord
100
AcDbLayerTableRecord
  2
DEFPOINTS
 70
     0
 62
     7
  6
CONTINUOUS
  0
ENDTAB
  0
TABLE
  2
STYLE
  5
3
330
0
100
AcDbSymbolTable
 70
     1
  0
STYLE
  5
11
330
3
100
AcDbSymbolTableRecord
100
AcDbTextStyleTableRecord
  2
STANDARD
 70
     0
 40
0.0
 41
1.0
 50
0.0
 71
     0
 42
3.0
  3
txt
  4
BIGFONT
  0
ENDTAB
  0
TABLE
  2
VIEW
  5
6
330
0
100
AcDbSymbolTable
 70
     0
  0
ENDTAB
  0
TABLE
  2
UCS
  5
7
330
0
100
AcDbSymbolTable
 70
     0
  0
ENDTAB
  0
TABLE
  2
APPID
  5
9
330
0
100
AcDbSymbolTable
 70
     1
  0
APPID
  5
12
330
9
100
AcDbSymbolTableRecord
100
AcDbRegAppTableRecord
  2
ACAD
 70
     0
  0
ENDTAB
  0
TABLE
  2
DIMSTYLE
  5
A
330
0
100
AcDbSymbolTable
 70
     1
  0
DIMSTYLE
105
2BF
330
A
100
AcDbSymbolTableRecord
100
AcDbDimStyleTableRecord
  2
STANDARD
 70
     0
  3

  4

  5

  6

  7

 40
1.0
 41
0.18
 42
0.0625
 43
0.38
 44
0.18
 45
0.0
 46
0.0
 47
0.0
 48
0.0
140
0.18
141
0.09
142
0.0
143
25.4
144
1.0
145
0.0
146
1.0
147
0.09
 71
     0
 72
     0
 73
     1
 74
     1
 75
     0
 76
     0
 77
     0
 78
     0
170
     0
171
     2
172
     0
173
     0
174
     0
175
     0
176
     0
177
     0
178
     0
270
     2
271
     4
272
     4
273
     2
274
     2
340
11
275
     0
280
     0
281
     0
282
     0
283
     1
284
     0
285
     0
286
     0
287
     3
288
     0
  0
ENDTAB
  0
TABLE
  2
BLOCK_RECORD
  5
1
330
0
100
AcDbSymbolTable
 70
     0
  0
BLOCK_RECORD
  5
1E
102
{ACAD_XDICTIONARY
360
3C8
102
}
330
1
100
AcDbSymbolTableRecord
100
AcDbBlockTableRecord
  2
*MODEL_SPACE
  0
BLOCK_RECORD
  5
1A
102
{ACAD_XDICTIONARY
360
3C6
102
}
330
1
100
AcDbSymbolTableRecord
100
AcDbBlockTableRecord
  2
*PAPER_SPACE
  0
ENDTAB
  0
ENDSEC
  0
SECTION
  2
BLOCKS
  0
BLOCK
  5
1F
330
1E
100
AcDbEntity
  8
0
100
AcDbBlockBegin
  2
*MODEL_SPACE
 70
     0
 10
0.0
 20
0.0
 30
0.0
  3
*MODEL_SPACE
  1

  0
ENDBLK
  5
20
330
1E
100
AcDbEntity
  8
0
100
AcDbBlockEnd
  0
BLOCK
  5
1B
330
1A
100
AcDbEntity
 67
     1
  8
0
100
AcDbBlockBegin
  2
*PAPER_SPACE
 70
     0
 10
0.0
 20
0.0
 30
0.0
  3
*PAPER_SPACE
  1

  0
ENDBLK
  5
1C
330
1A
100
AcDbEntity
 67
     1
  8
0
100
AcDbBlockEnd
  0
ENDSEC
  0
SECTION
  2
ENTITIES
  0
LINE
  5
29
330
1E
100
AcDbEntity
  8
0
  6
CENTER
100
AcDbLine
 10
241.043945
 20
160.5753629999999
 30
0.0
 11
241.043945
 21
-2.924634999999999
 31
0.0
  0
LINE
  5
2A
330
1E
100
AcDbEntity
  8
0
  6
CENTER
100
AcDbLine
 10
196.793945
 20
108.3253629999999
 30
0.0
 11
280.043945
 21
108.3253629999999
 31
0.0
  0
LINE
  5
2B
330
1E
100
AcDbEntity
  8
0
  6
CONTINUOUS
100
AcDbLine
 10
188.043945
 20
3.325365
 30
0.0
 11
294.0439449999999
 21
3.325365
 31
0.0
  0
LINE
  5
2C
330
1E
100
AcDbEntity
  8
0
  6
CONTINUOUS
100
AcDbLine
 10
222.614517
 20
153.3253629999999
 30
0.0
 11
259.4733279999999
 21
153.3253629999999
 31
0.0
  0
LINE
  5
2D
330
1E
100
AcDbEntity
  8
0
  6
CONTINUOUS
100
AcDbLine
 10
294.0439449999999
 20
127.7156069999999
 30
0.0
 11
294.0439449999999
 21
3.325384999999999
 31
0.0
  0
LINE
  5
2E
330
1E
100
AcDbEntity
  8
0
  6
CONTINUOUS
100
AcDbLine
 10
188.043945
 20
28.325365
 30
0.0
 11
188.043945
 21
3.325365
 31
0.0
  0
LINE
  5
2F
330
1E
100
AcDbEntity
  8
0
  6
CONTINUOUS
100
AcDbLine
 10
176.293945
 20
135.0753629999999
 30
0.0
 11
193.9168549999999
 21
135.0753629999999
 31
0.0
  0
LINE
  5
30
330
1E
100
AcDbEntity
  8
0
  6
CONTINUOUS
100
AcDbLine
 10
176.293945
 20
20.57536499999999
 30
0.0
 11
183.043961
 21
20.57536499999999
 31
0.0
  0
LINE
  5
31
330
1E
100
AcDbEntity
  8
0
  6
CONTINUOUS
100
AcDbLine
 10
184.293945
 20
32.325363
 30
0.0
 11
184.293945
 21
123.3253629999999
 31
0.0
  0
LINE
  5
32
330
1E
100
AcDbEntity
  8
0
  6
CONTINUOUS
100
AcDbLine
 10
291.902954
 20
131.817612
 30
0.0
 11
262.332336
 21
152.4273379999999
 31
0.0
  0
LINE
  5
33
330
1E
100
AcDbEntity
  8
0
  6
CONTINUOUS
100
AcDbLine
 10
190.184982
 20
131.817612
 30
0.0
 11
219.755539
 21
152.4273379999999
 31
0.0
  0
LINE
  5
34
330
1E
100
AcDbEntity
  8
0
  6
CONTINUOUS
100
AcDbLine
 10
221.982346
 20
15.32536499999999
 30
0.0
 11
188.043945
 21
15.32536499999999
 31
0.0
  0
LINE
  5
35
330
1E
100
AcDbEntity
  8
0
  6
CONTINUOUS
100
AcDbLine
 10
227.605545
 20
25.32536499999999
 30
0.0
 11
254.4823459999999
 21
25.32536499999999
 31
0.0
  0
LINE
  5
36
330
1E
100
AcDbEntity
  8
0
  6
CONTINUOUS
100
AcDbLine
 10
256.043945
 20
23.88786499999999
 30
0.0
 11
256.043945
 21
16.32536499999999
 31
0.0
  0
LINE
  5
37
330
1E
100
AcDbEntity
  8
0
  6
CONTINUOUS
100
AcDbLine
 10
226.043945
 20
23.70036499999999
 30
0.0
 11
226.043945
 21
16.32536499999999
 31
0.0
  0
LINE
  5
38
330
1E
100
AcDbEntity
  8
0
  6
CONTINUOUS
100
AcDbLine
 10
223.922745
 20
16.840284
 30
0.0
 11
225.665146
 21
23.810446
 31
0.0
  0
LINE
  5
39
330
1E
100
AcDbEntity
  8
0
  6
CONTINUOUS
100
AcDbLine
 10
258.165131
 20
16.840284
 30
0.0
 11
256.422729
 21
23.81042499999999
 31
0.0
  0
LINE
  5
3A
330
1E
100
AcDbEntity
  8
0
  6
CONTINUOUS
100
AcDbLine
 10
194.043945
 20
14.26286499999999
 30
0.0
 11
194.043945
 21
3.325365
 31
0.0
  0
LINE
  5
3B
330
1E
100
AcDbEntity
  8
0
  6
CONTINUOUS
100
AcDbLine
 10
288.043945
 20
14.26286499999999
 30
0.0
 11
288.043945
 21
3.325365
 31
0.0
  0
LINE
  5
3C
330
1E
100
AcDbEntity
  8
0
  6
CENTER
100
AcDbLine
 10
206.043945
 20
19.07536499999999
 30
0.0
 11
206.043945
 21
-0.9246349999999999
 31
0.0
  0
LINE
  5
3D
330
1E
100
AcDbEntity
  8
0
  6
CENTER
100
AcDbLine
 10
276.043945
 20
20.075365
 30
0.0
 11
276.043945
 21
-0.4246350000000001
 31
0.0
  0
LINE
  5
3E
330
1E
100
AcDbEntity
  8
0
  6
DASHED
100
AcDbLine
 10
200.5439449999999
 20
15.32536499999999
 30
0.0
 11
200.5439449999999
 21
3.325365
 31
0.0
  0
LINE
  5
3F
330
1E
100
AcDbEntity
  8
0
  6
DASHED
100
AcDbLine
 10
211.543945
 20
15.32536499999999
 30
0.0
 11
211.543945
 21
3.325365
 31
0.0
  0
LINE
  5
40
330
1E
100
AcDbEntity
  8
0
  6
DASHED
100
AcDbLine
 10
270.543945
 20
15.32536499999999
 30
0.0
 11
270.543945
 21
3.325365
 31
0.0
  0
LINE
  5
41
330
1E
100
AcDbEntity
  8
0
  6
DASHED
100
AcDbLine
 10
281.5439449999999
 20
15.32536499999999
 30
0.0
 11
281.5439449999999
 21
3.325365
 31
0.0
  0
ARC
  5
42
330
1E
100
AcDbEntity
  8
0
  6
CONTINUOUS
100
AcDbCircle
 10
259.4733279999999
 20
148.3253629999999
 30
0.0
 40
5.0
100
AcDbArc
 50
55.12480899999999
 51
90.0
  0
ARC
  5
43
330
1E
100
AcDbEntity
  8
0
  6
CONTINUOUS
100
AcDbCircle
 10
222.614517
 20
148.3253629999999
 30
0.0
 40
5.0
100
AcDbArc
 50
90.0
 51
124.875603
  0
ARC
  5
44
330
1E
100
AcDbEntity
  8
0
  6
CONTINUOUS
100
AcDbCircle
 10
289.043945
 20
127.7156069999999
 30
0.0
 40
5.0
100
AcDbArc
 50
0.0
 51
55.12485100000001
  0
ARC
  5
45
330
1E
100
AcDbEntity
  8
0
  6
CONTINUOUS
100
AcDbCircle
 10
193.043961
 20
127.7156219999999
 30
0.0
 40
5.0
100
AcDbArc
 50
124.8757019999999
 51
180.0
  0
LINE
  5
46
330
1E
100
AcDbEntity
  8
0
  6
CONTINUOUS
100
AcDbLine
 10
176.293945
 20
125.3253629999999
 30
0.0
 11
186.043945
 21
125.3253629999999
 31
0.0
  0
LINE
  5
47
330
1E
100
AcDbEntity
  8
0
  6
CONTINUOUS
100
AcDbLine
 10
182.2939449999999
 20
30.325365
 30
0.0
 11
176.293945
 21
30.325365
 31
0.0
  0
LINE
  5
48
330
1E
100
AcDbEntity
  8
0
  6
CONTINUOUS
100
AcDbLine
 10
176.293945
 20
109.785362
 30
0.0
 11
183.168945
 21
109.785362
 31
0.0
  0
LINE
  5
49
330
1E
100
AcDbEntity
  8
0
  6
CONTINUOUS
100
AcDbLine
 10
176.293945
 20
45.86536399999999
 30
0.0
 11
183.2939449999999
 21
45.86536399999999
 31
0.0
  0
ARC
  5
4A
330
1E
100
AcDbEntity
  8
0
  6
CONTINUOUS
100
AcDbCircle
 10
193.9168399999999
 20
138.0753629999999
 30
0.0
 40
3.0
100
AcDbArc
 50
270.0
 51
304.875397
  0
ARC
  5
4B
330
1E
100
AcDbEntity
  8
0
  6
CONTINUOUS
100
AcDbCircle
 10
182.293961
 20
123.3253629999999
 30
0.0
 40
2.0
100
AcDbArc
 50
0.0
 51
90.0
  0
ARC
  5
4C
330
1E
100
AcDbEntity
  8
0
  6
CONTINUOUS
100
AcDbCircle
 10
186.043945
 20
127.3253629999999
 30
0.0
 40
2.0
100
AcDbArc
 50
270.0
 51
0.0
  0
LINE
  5
4D
330
1E
100
AcDbEntity
  8
0
  6
CONTINUOUS
100
AcDbLine
 10
188.043961
 20
127.7156219999999
 30
0.0
 11
188.043945
 21
127.3253629999999
 31
0.0
  0
ARC
  5
4E
330
1E
100
AcDbEntity
  8
0
  6
CONTINUOUS
100
AcDbCircle
 10
186.043945
 20
28.325365
 30
0.0
 40
2.0
100
AcDbArc
 50
0.0
 51
90.0
  0
LINE
  5
4F
330
1E
100
AcDbEntity
  8
0
  6
CONTINUOUS
100
AcDbLine
 10
182.2939449999999
 20
30.325365
 30
0.0
 11
186.043945
 21
30.325365
 31
0.0
  0
ARC
  5
50
330
1E
100
AcDbEntity
  8
0
  6
CONTINUOUS
100
AcDbCircle
 10
182.2939449999999
 20
32.325363
 30
0.0
 40
2.0
100
AcDbArc
 50
270.0
 51
0.0
  0
ARC
  5
51
330
1E
100
AcDbEntity
  8
0
  6
CONTINUOUS
100
AcDbCircle
 10
183.043961
 20
15.575345
 30
0.0
 40
5.0
100
AcDbArc
 50
0.0
 51
90.0
  0
ARC
  5
52
330
1E
100
AcDbEntity
  8
0
  6
CONTINUOUS
100
AcDbCircle
 10
254.4823459999999
 20
23.32536499999999
 30
0.0
 40
2.0
100
AcDbArc
 50
14.03643999999999
 51
90.0
  0
ARC
  5
53
330
1E
100
AcDbEntity
  8
0
  6
CONTINUOUS
100
AcDbCircle
 10
227.605545
 20
23.32536499999999
 30
0.0
 40
2.0
100
AcDbArc
 50
90.0
 51
165.9638979999999
  0
LINE
  5
54
330
1E
100
AcDbEntity
  8
0
  6
CONTINUOUS
100
AcDbLine
 10
260.10553
 20
15.32536499999999
 30
0.0
 11
294.0439449999999
 21
15.32536499999999
 31
0.0
  0
ARC
  5
55
330
1E
100
AcDbEntity
  8
0
  6
CONTINUOUS
100
AcDbCircle
 10
221.982346
 20
17.32536499999999
 30
0.0
 40
2.0
100
AcDbArc
 50
270.0
 51
345.9637149999999
  0
LINE
  5
56
330
1E
100
AcDbEntity
  8
0
  6
CONTINUOUS
100
AcDbLine
 10
260.10553
 20
15.32536499999999
 30
0.0
 11
221.982346
 21
15.32536499999999
 31
0.0
  0
ARC
  5
57
330
1E
100
AcDbEntity
  8
0
  6
CONTINUOUS
100
AcDbCircle
 10
260.10553
 20
17.32536499999999
 30
0.0
 40
2.0
100
AcDbArc
 50
194.036194
 51
270.0
  0
ARC
  5
58
330
1E
100
AcDbEntity
  8
0
  6
CONTINUOUS
100
AcDbCircle
 10
225.043945
 20
16.32536499999999
 30
0.0
 40
1.0
100
AcDbArc
 50
270.0
 51
0.0
  0
ARC
  5
59
330
1E
100
AcDbEntity
  8
0
  6
CONTINUOUS
100
AcDbCircle
 10
257.043945
 20
16.32536499999999
 30
0.0
 40
1.0
100
AcDbArc
 50
180.0
 51
270.0
  0
CIRCLE
  5
5A
330
1E
100
AcDbEntity
  8
0
  6
CONTINUOUS
100
AcDbCircle
 10
241.043945
 20
108.3253629999999
 30
0.0
 40
27.5
  0
ARC
  5
5B
330
1E
100
AcDbEntity
  8
0
  6
CONTINUOUS
100
AcDbCircle
 10
241.043945
 20
108.3253629999999
 30
0.0
 40
31.75
100
AcDbArc
 50
7.552697
 51
172.447403
  0
ARC
  5
5C
330
1E
100
AcDbEntity
  8
0
  6
CONTINUOUS
100
AcDbCircle
 10
224.293945
 20
66.82536299999999
 30
0.0
 40
20.6
100
AcDbArc
 50
172.447403
 51
270.0
  0
ARC
  5
5D
330
1E
100
AcDbEntity
  8
0
  6
CONTINUOUS
100
AcDbCircle
 10
257.793945
 20
66.82536299999999
 30
0.0
 40
20.6
100
AcDbArc
 50
270.0
 51
7.552699999999999
  0
LINE
  5
5E
330
1E
100
AcDbEntity
  8
0
  6
CONTINUOUS
100
AcDbLine
 10
272.5185549999999
 20
112.498528
 30
0.0
 11
278.2151489999999
 21
69.53299
 31
0.0
  0
LINE
  5
5F
330
1E
100
AcDbEntity
  8
0
  6
CONTINUOUS
100
AcDbLine
 10
203.872665
 20
69.532951
 30
0.0
 11
209.569336
 21
112.4984659999999
 31
0.0
  0
LINE
  5
60
330
1E
100
AcDbEntity
  8
0
  6
CONTINUOUS
100
AcDbLine
 10
224.293945
 20
46.225365
 30
0.0
 11
257.793945
 21
46.225365
 31
0.0
  0
ARC
  5
61
330
1E
100
AcDbEntity
  8
0
  6
CONTINUOUS
100
AcDbCircle
 10
224.293945
 20
66.82536299999999
 30
0.0
 40
19.0
100
AcDbArc
 50
172.447601
 51
270.0
  0
ARC
  5
62
330
1E
100
AcDbEntity
  8
0
  6
CONTINUOUS
100
AcDbCircle
 10
257.793945
 20
66.82536299999999
 30
0.0
 40
19.0
100
AcDbArc
 50
270.0
 51
7.552699999999999
  0
ARC
  5
63
330
1E
100
AcDbEntity
  8
0
  6
CONTINUOUS
100
AcDbCircle
 10
241.043945
 20
108.3253629999999
 30
0.0
 40
30.15
100
AcDbArc
 50
172.447403
 51
7.552697
  0
LINE
  5
64
330
1E
100
AcDbEntity
  8
0
  6
CONTINUOUS
100
AcDbLine
 10
205.458786
 20
69.32265500000001
 30
0.0
 11
211.155518
 21
112.288185
 31
0.0
  0
LINE
  5
65
330
1E
100
AcDbEntity
  8
0
  6
CONTINUOUS
100
AcDbLine
 10
270.9323429999999
 20
112.288223
 30
0.0
 11
276.6291499999999
 21
69.322693
 31
0.0
  0
LINE
  5
66
330
1E
100
AcDbEntity
  8
0
  6
CONTINUOUS
100
AcDbLine
 10
224.293945
 20
47.825363
 30
0.0
 11
257.793945
 21
47.825363
 31
0.0
  0
LINE
  5
67
330
1E
100
AcDbEntity
  8
0
  6
CONTINUOUS
100
AcDbLine
 10
230.747543
 20
55.325363
 30
0.0
 11
226.587143
 21
55.325363
 31
0.0
  0
LINE
  5
68
330
1E
100
AcDbEntity
  8
0
  6
CONTINUOUS
100
AcDbLine
 10
233.043945
 20
62.294117
 30
0.0
 11
233.043945
 21
55.325363
 31
0.0
  0
LINE
  5
69
330
1E
100
AcDbEntity
  8
0
  6
CONTINUOUS
100
AcDbLine
 10
237.043945
 20
64.82536299999999
 30
0.0
 11
237.043945
 21
67.32536299999999
 31
0.0
  0
LINE
  5
6A
330
1E
100
AcDbEntity
  8
0
  6
CONTINUOUS
100
AcDbLine
 10
245.043945
 20
64.82536299999999
 30
0.0
 11
245.043945
 21
67.32536299999999
 31
0.0
  0
LINE
  5
6B
330
1E
100
AcDbEntity
  8
0
  6
CONTINUOUS
100
AcDbLine
 10
240.262741
 20
65.85661299999999
 30
0.0
 11
240.262741
 21
56.637863
 31
0.0
  0
LINE
  5
6C
330
1E
100
AcDbEntity
  8
0
  6
CONTINUOUS
100
AcDbLine
 10
241.762741
 20
65.85661299999999
 30
0.0
 11
241.762741
 21
56.637863
 31
0.0
  0
LINE
  5
6D
330
1E
100
AcDbEntity
  8
0
  6
CONTINUOUS
100
AcDbLine
 10
249.637741
 20
65.85661299999999
 30
0.0
 11
249.637741
 21
56.575363
 31
0.0
  0
LINE
  5
6E
330
1E
100
AcDbEntity
  8
0
  6
CONTINUOUS
100
AcDbLine
 10
251.0127409999999
 20
60.934738
 30
0.0
 11
251.0127409999999
 21
56.575363
 31
0.0
  0
LINE
  5
6F
330
1E
100
AcDbEntity
  8
0
  6
CONTINUOUS
100
AcDbLine
 10
231.145935
 20
65.73162099999999
 30
0.0
 11
227.290939
 21
65.73162099999999
 31
0.0
  0
LINE
  5
70
330
1E
100
AcDbEntity
  8
0
  6
CONTINUOUS
100
AcDbLine
 10
227.290939
 20
65.73162099999999
 30
0.0
 11
226.387741
 21
64.61161800000001
 31
0.0
  0
LINE
  5
71
330
1E
100
AcDbEntity
  8
0
  6
CONTINUOUS
100
AcDbLine
 10
226.4963379999999
 20
67.32536299999999
 30
0.0
 11
225.043945
 21
65.46560699999999
 31
0.0
  0
LINE
  5
72
330
1E
100
AcDbEntity
  8
0
  6
CONTINUOUS
100
AcDbLine
 10
226.387741
 20
57.69828399999999
 30
0.0
 11
227.3053439999999
 21
56.731606
 31
0.0
  0
LINE
  5
73
330
1E
100
AcDbEntity
  8
0
  6
CONTINUOUS
100
AcDbLine
 10
225.043945
 20
56.882526
 30
0.0
 11
226.587143
 21
55.325363
 31
0.0
  0
LINE
  5
74
330
1E
100
AcDbEntity
  8
0
  6
CONTINUOUS
100
AcDbLine
 10
225.043945
 20
65.46560699999999
 30
0.0
 11
225.043945
 21
56.882526
 31
0.0
  0
LINE
  5
75
330
1E
100
AcDbEntity
  8
0
  6
CONTINUOUS
100
AcDbLine
 10
226.387741
 20
64.61161800000001
 30
0.0
 11
226.387741
 21
57.69828399999999
 31
0.0
  0
LINE
  5
76
330
1E
100
AcDbEntity
  8
0
  6
CONTINUOUS
100
AcDbLine
 10
231.887741
 20
65.014511
 30
0.0
 11
231.130737
 21
65.73162099999999
 31
0.0
  0
LINE
  5
77
330
1E
100
AcDbEntity
  8
0
  6
CONTINUOUS
100
AcDbLine
 10
231.875717
 20
67.32536299999999
 30
0.0
 11
233.043945
 21
66.02887700000001
 31
0.0
  0
LINE
  5
78
330
1E
100
AcDbEntity
  8
0
  6
CONTINUOUS
100
AcDbLine
 10
231.887741
 20
64.82536299999999
 30
0.0
 11
233.043945
 21
64.82536299999999
 31
0.0
  0
LINE
  5
79
330
1E
100
AcDbEntity
  8
0
  6
CONTINUOUS
100
AcDbLine
 10
226.4963379999999
 20
67.32536299999999
 30
0.0
 11
231.875717
 21
67.32536299999999
 31
0.0
  0
LINE
  5
7A
330
1E
100
AcDbEntity
  8
0
  6
CONTINUOUS
100
AcDbLine
 10
229.793945
 20
62.294117
 30
0.0
 11
233.043945
 21
62.294117
 31
0.0
  0
LINE
  5
7B
330
1E
100
AcDbEntity
  8
0
  6
CONTINUOUS
100
AcDbLine
 10
231.887741
 20
60.98161300000001
 30
0.0
 11
229.793945
 21
60.98161300000001
 31
0.0
  0
LINE
  5
7C
330
1E
100
AcDbEntity
  8
0
  6
CONTINUOUS
100
AcDbLine
 10
229.3877409999999
 20
56.731606
 30
0.0
 11
227.3053439999999
 21
56.731606
 31
0.0
  0
LINE
  5
7D
330
1E
100
AcDbEntity
  8
0
  6
CONTINUOUS
100
AcDbLine
 10
231.887741
 20
59.73161300000001
 30
0.0
 11
231.887741
 21
60.731617
 31
0.0
  0
ARC
  5
7E
330
1E
100
AcDbEntity
  8
0
  6
CONTINUOUS
100
AcDbCircle
 10
229.3877409999999
 20
59.231609
 30
0.0
 40
2.5
100
AcDbArc
 50
270.0002139999999
 51
0.000109
  0
LINE
  5
7F
330
1E
100
AcDbEntity
  8
0
  6
CONTINUOUS
100
AcDbLine
 10
231.887741
 20
56.281925
 30
0.0
 11
231.887741
 21
55.325363
 31
0.0
  0
LINE
  5
80
330
1E
100
AcDbEntity
  8
0
  6
CONTINUOUS
100
AcDbLine
 10
233.043945
 20
66.02887700000001
 30
0.0
 11
233.043945
 21
64.82536299999999
 31
0.0
  0
LINE
  5
81
330
1E
100
AcDbEntity
  8
0
  6
CONTINUOUS
100
AcDbLine
 10
231.887741
 20
60.98161300000001
 30
0.0
 11
231.887741
 21
59.231609
 31
0.0
  0
LINE
  5
82
330
1E
100
AcDbEntity
  8
0
  6
CONTINUOUS
100
AcDbLine
 10
229.793945
 20
62.294117
 30
0.0
 11
229.793945
 21
60.98161300000001
 31
0.0
  0
LINE
  5
83
330
1E
100
AcDbEntity
  8
0
  6
CONTINUOUS
100
AcDbLine
 10
231.887741
 20
55.325363
 30
0.0
 11
233.043945
 21
55.325363
 31
0.0
  0
LINE
  5
84
330
1E
100
AcDbEntity
  8
0
  6
CONTINUOUS
100
AcDbLine
 10
231.887741
 20
56.281925
 30
0.0
 11
230.747543
 21
55.325363
 31
0.0
  0
LINE
  5
85
330
1E
100
AcDbEntity
  8
0
  6
CONTINUOUS
100
AcDbLine
 10
241.762741
 20
56.637863
 30
0.0
 11
242.262741
 21
56.637863
 31
0.0
  0
LINE
  5
86
330
1E
100
AcDbEntity
  8
0
  6
CONTINUOUS
100
AcDbLine
 10
239.668945
 20
56.637863
 30
0.0
 11
239.668945
 21
55.325363
 31
0.0
  0
LINE
  5
87
330
1E
100
AcDbEntity
  8
0
  6
CONTINUOUS
100
AcDbLine
 10
242.262741
 20
56.637863
 30
0.0
 11
242.262741
 21
55.325363
 31
0.0
  0
LINE
  5
88
330
1E
100
AcDbEntity
  8
0
  6
CONTINUOUS
100
AcDbLine
 10
244.2095339999999
 20
64.82536299999999
 30
0.0
 11
245.043945
 21
64.82536299999999
 31
0.0
  0
LINE
  5
89
330
1E
100
AcDbEntity
  8
0
  6
CONTINUOUS
100
AcDbLine
 10
237.043945
 20
64.82536299999999
 30
0.0
 11
237.931946
 21
64.82536299999999
 31
0.0
  0
LINE
  5
8A
330
1E
100
AcDbEntity
  8
0
  6
CONTINUOUS
100
AcDbLine
 10
237.043945
 20
67.32536299999999
 30
0.0
 11
245.043945
 21
67.32536299999999
 31
0.0
  0
LINE
  5
8B
330
1E
100
AcDbEntity
  8
0
  6
CONTINUOUS
100
AcDbLine
 10
239.668945
 20
55.325363
 30
0.0
 11
242.262741
 21
55.325363
 31
0.0
  0
LINE
  5
8C
330
1E
100
AcDbEntity
  8
0
  6
CONTINUOUS
100
AcDbLine
 10
239.668945
 20
56.637863
 30
0.0
 11
240.262741
 21
56.637863
 31
0.0
  0
ARC
  5
8D
330
1E
100
AcDbEntity
  8
0
  6
CONTINUOUS
100
AcDbCircle
 10
253.8409419999999
 20
64.12223799999999
 30
0.0
 40
3.203125999999999
100
AcDbArc
 50
286.0181269999999
 51
90.00351
  0
ARC
  5
8E
330
1E
100
AcDbEntity
  8
0
  6
CONTINUOUS
100
AcDbCircle
 10
253.8409419999999
 20
64.12223799999999
 30
0.0
 40
1.954124
100
AcDbArc
 50
277.414726
 51
62.41185
  0
LINE
  5
8F
330
1E
100
AcDbEntity
  8
0
  6
CONTINUOUS
100
AcDbLine
 10
249.043945
 20
67.32536299999999
 30
0.0
 11
253.8409419999999
 21
67.32536299999999
 31
0.0
  0
LINE
  5
90
330
1E
100
AcDbEntity
  8
0
  6
CONTINUOUS
100
AcDbLine
 10
254.092941
 20
62.184456
 30
0.0
 11
251.0127409999999
 21
62.184456
 31
0.0
  0
LINE
  5
91
330
1E
100
AcDbEntity
  8
0
  6
CONTINUOUS
100
AcDbLine
 10
249.043945
 20
67.32536299999999
 30
0.0
 11
249.043945
 21
65.85661299999999
 31
0.0
  0
LINE
  5
92
330
1E
100
AcDbEntity
  8
0
  6
CONTINUOUS
100
AcDbLine
 10
251.0127409999999
 20
65.85661299999999
 30
0.0
 11
251.0127409999999
 21
62.184456
 31
0.0
  0
LINE
  5
93
330
1E
100
AcDbEntity
  8
0
  6
CONTINUOUS
100
AcDbLine
 10
254.724747
 20
61.043476
 30
0.0
 11
256.707153
 21
56.575363
 31
0.0
  0
LINE
  5
94
330
1E
100
AcDbEntity
  8
0
  6
CONTINUOUS
100
AcDbLine
 10
253.573135
 20
60.934738
 30
0.0
 11
255.449341
 21
56.575363
 31
0.0
  0
LINE
  5
95
330
1E
100
AcDbEntity
  8
0
  6
CONTINUOUS
100
AcDbLine
 10
249.043945
 20
56.575363
 30
0.0
 11
249.637741
 21
56.575363
 31
0.0
  0
LINE
  5
96
330
1E
100
AcDbEntity
  8
0
  6
CONTINUOUS
100
AcDbLine
 10
251.0127409999999
 20
56.575363
 30
0.0
 11
251.55954
 21
56.575363
 31
0.0
  0
LINE
  5
97
330
1E
100
AcDbEntity
  8
0
  6
CONTINUOUS
100
AcDbLine
 10
251.55954
 20
55.325363
 30
0.0
 11
249.043945
 21
55.325363
 31
0.0
  0
LINE
  5
98
330
1E
100
AcDbEntity
  8
0
  6
CONTINUOUS
100
AcDbLine
 10
255.2001339999999
 20
56.575363
 30
0.0
 11
255.449341
 21
56.575363
 31
0.0
  0
LINE
  5
99
330
1E
100
AcDbEntity
  8
0
  6
CONTINUOUS
100
AcDbLine
 10
256.707153
 20
56.575363
 30
0.0
 11
257.043945
 21
56.575363
 31
0.0
  0
LINE
  5
9A
330
1E
100
AcDbEntity
  8
0
  6
CONTINUOUS
100
AcDbLine
 10
255.2001339999999
 20
55.325363
 30
0.0
 11
257.043945
 21
55.325363
 31
0.0
  0
LINE
  5
9B
330
1E
100
AcDbEntity
  8
0
  6
CONTINUOUS
100
AcDbLine
 10
257.043945
 20
56.575363
 30
0.0
 11
257.043945
 21
55.325363
 31
0.0
  0
LINE
  5
9C
330
1E
100
AcDbEntity
  8
0
  6
CONTINUOUS
100
AcDbLine
 10
255.2001339999999
 20
56.575363
 30
0.0
 11
255.2001339999999
 21
55.325363
 31
0.0
  0
LINE
  5
9D
330
1E
100
AcDbEntity
  8
0
  6
CONTINUOUS
100
AcDbLine
 10
251.55954
 20
56.575363
 30
0.0
 11
251.55954
 21
55.325363
 31
0.0
  0
LINE
  5
9E
330
1E
100
AcDbEntity
  8
0
  6
CONTINUOUS
100
AcDbLine
 10
249.043945
 20
56.575363
 30
0.0
 11
249.043945
 21
55.325363
 31
0.0
  0
LINE
  5
9F
330
1E
100
AcDbEntity
  8
0
  6
CONTINUOUS
100
AcDbLine
 10
238.3617399999999
 20
65.85661299999999
 30
0.0
 11
237.931946
 21
64.82536299999999
 31
0.0
  0
LINE
  5
A0
330
1E
100
AcDbEntity
  8
0
  6
CONTINUOUS
100
AcDbLine
 10
243.847137
 20
65.85661299999999
 30
0.0
 11
244.2095339999999
 21
64.82536299999999
 31
0.0
  0
LINE
  5
A1
330
1E
100
AcDbEntity
  8
0
  6
CONTINUOUS
100
AcDbLine
 10
241.762741
 20
65.85661299999999
 30
0.0
 11
243.847137
 21
65.85661299999999
 31
0.0
  0
LINE
  5
A2
330
1E
100
AcDbEntity
  8
0
  6
CONTINUOUS
100
AcDbLine
 10
240.262741
 20
65.85661299999999
 30
0.0
 11
238.3617399999999
 21
65.85661299999999
 31
0.0
  0
LINE
  5
A3
330
1E
100
AcDbEntity
  8
0
  6
CONTINUOUS
100
AcDbLine
 10
251.0127409999999
 20
60.934738
 30
0.0
 11
253.573135
 21
60.934738
 31
0.0
  0
LINE
  5
A4
330
1E
100
AcDbEntity
  8
0
  6
CONTINUOUS
100
AcDbLine
 10
249.043945
 20
65.85661299999999
 30
0.0
 11
249.637741
 21
65.85661299999999
 31
0.0
  0
LINE
  5
A5
330
1E
100
AcDbEntity
  8
0
  6
CONTINUOUS
100
AcDbLine
 10
251.0127409999999
 20
65.85661299999999
 30
0.0
 11
254.745743
 21
65.85418699999999
 31
0.0
  0
LINE
  5
A6
330
1E
100
AcDbEntity
  8
0
  6
CONTINUOUS
100
AcDbLine
 10
231.887741
 20
65.014511
 30
0.0
 11
231.887741
 21
64.82536299999999
 31
0.0
  0
LINE
  5
A7
330
1E
100
AcDbEntity
  8
0
  6
CONTINUOUS
100
AcDbLine
 10
248.543945
 20
105.325386
 30
0.0
 11
248.543945
 21
111.325386
 31
0.0
  0
LINE
  5
A8
330
1E
100
AcDbEntity
  8
0
  6
CONTINUOUS
100
AcDbLine
 10
254.5439449999999
 20
105.325401
 30
0.0
 11
254.5439449999999
 21
111.325401
 31
0.0
  0
LINE
  5
A9
330
1E
100
AcDbEntity
  8
0
  6
CONTINUOUS
100
AcDbLine
 10
254.5439449999999
 20
105.325401
 30
0.0
 11
248.543945
 21
105.325386
 31
0.0
  0
LINE
  5
AA
330
1E
100
AcDbEntity
  8
0
  6
CONTINUOUS
100
AcDbLine
 10
254.5439449999999
 20
111.325401
 30
0.0
 11
248.543945
 21
111.325386
 31
0.0
  0
ARC
  5
AB
330
1E
100
AcDbEntity
  8
0
  6
CONTINUOUS
100
AcDbCircle
 10
241.043945
 20
108.3253629999999
 30
0.0
 40
11.0
100
AcDbArc
 50
15.82659999999999
 51
344.1734009999999
  0
LINE
  5
AC
330
1E
100
AcDbEntity
  8
0
  6
CONTINUOUS
100
AcDbLine
 10
176.293945
 20
135.3253629999999
 30
0.0
 11
176.293945
 21
20.32536499999999
 31
0.0
  0
LINE
  5
AD
330
1E
100
AcDbEntity
  8
0
  6
CENTER
100
AcDbLine
 10
458.0866389999999
 20
-15.234635
 30
0.0
 11
458.0866389999999
 21
168.5
 31
0.0
  0
LINE
  5
AE
330
1E
100
AcDbEntity
  8
0
  6
CENTER
100
AcDbLine
 10
333.4999999999999
 20
77.825363
 30
0.0
 11
539.83667
 21
77.825363
 31
0.0
  0
LINE
  5
AF
330
1E
100
AcDbEntity
  8
0
  6
CENTER
100
AcDbLine
 10
356.336639
 20
108.3253629999999
 30
0.0
 11
513.5242309999999
 21
108.3253629999999
 31
0.0
  0
LINE
  5
B0
330
1E
100
AcDbEntity
  8
0
  6
CONTINUOUS
100
AcDbLine
 10
483.0866389999999
 20
3.325365
 30
0.0
 11
516.08667
 21
3.325365
 31
0.0
  0
LINE
  5
B1
330
1E
100
AcDbEntity
  8
0
  6
CONTINUOUS
100
AcDbLine
 10
400.0866389999999
 20
13.951765
 30
0.0
 11
400.0866389999999
 21
3.325365
 31
0.0
  0
LINE
  5
B2
330
1E
100
AcDbEntity
  8
0
  6
CONTINUOUS
100
AcDbLine
 10
516.08667
 20
13.951765
 30
0.0
 11
516.08667
 21
3.325365
 31
0.0
  0
LINE
  5
B3
330
1E
100
AcDbEntity
  8
0
  6
CONTINUOUS
100
AcDbLine
 10
402.086639
 20
15.32536499999999
 30
0.0
 11
423.086639
 21
15.32536499999999
 31
0.0
  0
LINE
  5
B4
330
1E
100
AcDbEntity
  8
0
  6
CONTINUOUS
100
AcDbLine
 10
514.08667
 20
15.32536499999999
 30
0.0
 11
493.086639
 21
15.32536499999999
 31
0.0
  0
LINE
  5
B5
330
1E
100
AcDbEntity
  8
0
  6
CONTINUOUS
100
AcDbLine
 10
426.086639
 20
26.698965
 30
0.0
 11
426.086639
 21
150.801285
 31
0.0
  0
LINE
  5
B6
330
1E
100
AcDbEntity
  8
0
  6
CONTINUOUS
100
AcDbLine
 10
490.086639
 20
26.698965
 30
0.0
 11
490.086639
 21
150.801651
 31
0.0
  0
LINE
  5
B7
330
1E
100
AcDbEntity
  8
0
  6
CONTINUOUS
100
AcDbLine
 10
488.1214289999999
 20
152.8013459999999
 30
0.0
 11
458.0866389999999
 21
153.3253629999999
 31
0.0
  0
LINE
  5
B8
330
1E
100
AcDbEntity
  8
0
  6
CONTINUOUS
100
AcDbLine
 10
428.051636
 20
152.80101
 30
0.0
 11
458.0866389999999
 21
153.3253629999999
 31
0.0
  0
ARC
  5
B9
330
1E
100
AcDbEntity
  8
0
  6
CONTINUOUS
100
AcDbCircle
 10
428.0866389999999
 20
150.8013
 30
0.0
 40
2.0
100
AcDbArc
 50
91.00058
 51
180.0
  0
ARC
  5
BA
330
1E
100
AcDbEntity
  8
0
  6
CONTINUOUS
100
AcDbCircle
 10
488.086639
 20
150.801651
 30
0.0
 40
2.0
100
AcDbArc
 50
0.0
 51
89.00051899999999
  0
LINE
  5
BB
330
1E
100
AcDbEntity
  8
0
  6
CONTINUOUS
100
AcDbLine
 10
490.086639
 20
18.32536499999999
 30
0.0
 11
490.086639
 21
3.325365
 31
0.0
  0
ARC
  5
BC
330
1E
100
AcDbEntity
  8
0
  6
CONTINUOUS
100
AcDbCircle
 10
493.086639
 20
18.32536499999999
 30
0.0
 40
3.0
100
AcDbArc
 50
180.0
 51
270.0
  0
LINE
  5
BD
330
1E
100
AcDbEntity
  8
0
  6
CONTINUOUS
100
AcDbLine
 10
426.086639
 20
18.32536499999999
 30
0.0
 11
426.086639
 21
3.325365
 31
0.0
  0
ARC
  5
BE
330
1E
100
AcDbEntity
  8
0
  6
CONTINUOUS
100
AcDbCircle
 10
423.086639
 20
18.325344
 30
0.0
 40
3.0
100
AcDbArc
 50
270.0
 51
0.0
  0
ARC
  5
BF
330
1E
100
AcDbEntity
  8
0
  6
CONTINUOUS
100
AcDbCircle
 10
402.086639
 20
13.325365
 30
0.0
 40
2.0
100
AcDbArc
 50
90.0
 51
180.0
  0
ARC
  5
C0
330
1E
100
AcDbEntity
  8
0
  6
CONTINUOUS
100
AcDbCircle
 10
514.08667
 20
13.325365
 30
0.0
 40
2.0
100
AcDbArc
 50
0.0
 51
90.0
  0
LINE
  5
C1
330
1E
100
AcDbEntity
  8
0
  6
CENTER
100
AcDbLine
 10
413.0866389999999
 20
19.615364
 30
0.0
 11
413.0866389999999
 21
-0.7846350000000001
 31
0.0
  0
LINE
  5
C2
330
1E
100
AcDbEntity
  8
0
  6
CENTER
100
AcDbLine
 10
503.0866389999999
 20
20.635365
 30
0.0
 11
503.0866389999999
 21
-1.294634999999999
 31
0.0
  0
LINE
  5
C3
330
1E
100
AcDbEntity
  8
0
  6
CONTINUOUS
100
AcDbLine
 10
424.8046259999999
 20
24.832285
 30
0.0
 11
401.368652
 21
15.818465
 31
0.0
  0
ARC
  5
C4
330
1E
100
AcDbEntity
  8
0
  6
CONTINUOUS
100
AcDbCircle
 10
402.086639
 20
13.951785
 30
0.0
 40
2.0
100
AcDbArc
 50
111.037903
 51
180.0
  0
LINE
  5
C5
330
1E
100
AcDbEntity
  8
0
  6
CONTINUOUS
100
AcDbLine
 10
426.086639
 20
26.698965
 30
0.0
 11
426.086639
 21
18.32536499999999
 31
0.0
  0
ARC
  5
C6
330
1E
100
AcDbEntity
  8
0
  6
CONTINUOUS
100
AcDbCircle
 10
424.0866389999999
 20
26.698965
 30
0.0
 40
2.0
100
AcDbArc
 50
291.0378109999999
 51
0.0
  0
LINE
  5
C7
330
1E
100
AcDbEntity
  8
0
  6
CONTINUOUS
100
AcDbLine
 10
491.3686519999999
 20
24.832266
 30
0.0
 11
514.804626
 21
15.818465
 31
0.0
  0
ARC
  5
C8
330
1E
100
AcDbEntity
  8
0
  6
CONTINUOUS
100
AcDbCircle
 10
514.08667
 20
13.951765
 30
0.0
 40
2.0
100
AcDbArc
 50
0.0
 51
68.96264599999999
  0
LINE
  5
C9
330
1E
100
AcDbEntity
  8
0
  6
CONTINUOUS
100
AcDbLine
 10
490.086639
 20
26.698965
 30
0.0
 11
490.086639
 21
18.32536499999999
 31
0.0
  0
ARC
  5
CA
330
1E
100
AcDbEntity
  8
0
  6
CONTINUOUS
100
AcDbCircle
 10
492.0866389999999
 20
26.698984
 30
0.0
 40
2.0
100
AcDbArc
 50
180.0
 51
248.962799
  0
LINE
  5
CB
330
1E
100
AcDbEntity
  8
0
  6
CONTINUOUS
100
AcDbLine
 10
410.086639
 20
83.13251499999999
 30
0.0
 11
410.086639
 21
133.518204
 31
0.0
  0
LINE
  5
CC
330
1E
100
AcDbEntity
  8
0
  6
CONTINUOUS
100
AcDbLine
 10
506.086639
 20
83.132523
 30
0.0
 11
506.086639
 21
133.518204
 31
0.0
  0
LINE
  5
CD
330
1E
100
AcDbEntity
  8
0
  6
CONTINUOUS
100
AcDbLine
 10
496.0866389999999
 20
50.130203
 30
0.0
 11
496.0866389999999
 21
110.3953629999999
 31
0.0
  0
LINE
  5
CE
330
1E
100
AcDbEntity
  8
0
  6
CONTINUOUS
100
AcDbLine
 10
420.0866389999999
 20
50.130203
 30
0.0
 11
420.0866389999999
 21
110.3953629999999
 31
0.0
  0
LINE
  5
CF
330
1E
100
AcDbEntity
  8
0
  6
CONTINUOUS
100
AcDbLine
 10
503.8568419999999
 20
136.4176639999999
 30
0.0
 11
492.316437
 21
139.4830629999999
 31
0.0
  0
LINE
  5
D0
330
1E
100
AcDbEntity
  8
0
  6
CONTINUOUS
100
AcDbLine
 10
503.8568419999999
 20
80.23306299999999
 30
0.0
 11
498.3164369999999
 21
78.761414
 31
0.0
  0
LINE
  5
D1
330
1E
100
AcDbEntity
  8
0
  6
CONTINUOUS
100
AcDbLine
 10
493.85965
 20
47.231506
 30
0.0
 11
492.313629
 21
46.819225
 31
0.0
  0
LINE
  5
D2
330
1E
100
AcDbEntity
  8
0
  6
CONTINUOUS
100
AcDbLine
 10
422.313629
 20
47.231483
 30
0.0
 11
423.8596499999999
 21
46.819225
 31
0.0
  0
LINE
  5
D3
330
1E
100
AcDbEntity
  8
0
  6
CONTINUOUS
100
AcDbLine
 10
412.316437
 20
80.23306299999999
 30
0.0
 11
417.8568419999999
 21
78.761414
 31
0.0
  0
LINE
  5
D4
330
1E
100
AcDbEntity
  8
0
  6
CONTINUOUS
100
AcDbLine
 10
412.316437
 20
136.4176639999999
 30
0.0
 11
423.856842
 21
139.4830629999999
 31
0.0
  0
ARC
  5
D5
330
1E
100
AcDbEntity
  8
0
  6
CONTINUOUS
100
AcDbCircle
 10
413.0866389999999
 20
133.5182189999999
 30
0.0
 40
3.0
100
AcDbArc
 50
104.8760989999999
 51
180.0
  0
ARC
  5
D6
330
1E
100
AcDbEntity
  8
0
  6
CONTINUOUS
100
AcDbCircle
 10
413.0866389999999
 20
83.132538
 30
0.0
 40
3.0
100
AcDbArc
 50
180.0
 51
255.1246029999999
  0
ARC
  5
D7
330
1E
100
AcDbEntity
  8
0
  6
CONTINUOUS
100
AcDbCircle
 10
503.0866389999999
 20
133.518204
 30
0.0
 40
3.0
100
AcDbArc
 50
0.0
 51
75.124413
  0
ARC
  5
D8
330
1E
100
AcDbEntity
  8
0
  6
CONTINUOUS
100
AcDbCircle
 10
503.0866389999999
 20
83.13251499999999
 30
0.0
 40
3.0
100
AcDbArc
 50
284.875793
 51
0.0
  0
ARC
  5
D9
330
1E
100
AcDbEntity
  8
0
  6
CONTINUOUS
100
AcDbCircle
 10
423.086639
 20
50.130226
 30
0.0
 40
3.0
100
AcDbArc
 50
180.0
 51
255.0689999999999
  0
ARC
  5
DA
330
1E
100
AcDbEntity
  8
0
  6
CONTINUOUS
100
AcDbCircle
 10
493.086639
 20
50.130203
 30
0.0
 40
3.0
100
AcDbArc
 50
284.9315799999999
 51
0.0
  0
ARC
  5
DB
330
1E
100
AcDbEntity
  8
0
  6
CONTINUOUS
100
AcDbCircle
 10
493.086639
 20
142.3825379999999
 30
0.0
 40
3.0
100
AcDbArc
 50
180.0
 51
255.1246029999999
  0
ARC
  5
DC
330
1E
100
AcDbEntity
  8
0
  6
CONTINUOUS
100
AcDbCircle
 10
499.0866389999999
 20
75.86197699999999
 30
0.0
 40
3.0
100
AcDbArc
 50
104.8760989999999
 51
180.0
  0
ARC
  5
DD
330
1E
100
AcDbEntity
  8
0
  6
CONTINUOUS
100
AcDbCircle
 10
493.086639
 20
43.920544
 30
0.0
 40
3.0
100
AcDbArc
 50
104.9318009999999
 51
180.0
  0
ARC
  5
DE
330
1E
100
AcDbEntity
  8
0
  6
CONTINUOUS
100
AcDbCircle
 10
423.086639
 20
43.920525
 30
0.0
 40
3.0
100
AcDbArc
 50
0.0
 51
75.068779
  0
ARC
  5
DF
330
1E
100
AcDbEntity
  8
0
  6
CONTINUOUS
100
AcDbCircle
 10
417.0866389999999
 20
75.861946
 30
0.0
 40
3.0
100
AcDbArc
 50
0.0
 51
75.124496
  0
ARC
  5
E0
330
1E
100
AcDbEntity
  8
0
  6
CONTINUOUS
100
AcDbCircle
 10
423.086639
 20
142.382507
 30
0.0
 40
3.0
100
AcDbArc
 50
284.8758469999999
 51
0.0
  0
LINE
  5
E1
330
1E
100
AcDbEntity
  8
0
  6
DASHED
100
AcDbLine
 10
407.5866389999999
 20
15.32536499999999
 30
0.0
 11
407.5866389999999
 21
3.325365
 31
0.0
  0
LINE
  5
E2
330
1E
100
AcDbEntity
  8
0
  6
DASHED
100
AcDbLine
 10
418.586639
 20
15.32536499999999
 30
0.0
 11
418.586639
 21
3.325365
 31
0.0
  0
LINE
  5
E3
330
1E
100
AcDbEntity
  8
0
  6
DASHED
100
AcDbLine
 10
497.586639
 20
15.32536499999999
 30
0.0
 11
497.586639
 21
3.325365
 31
0.0
  0
LINE
  5
E4
330
1E
100
AcDbEntity
  8
0
  6
DASHED
100
AcDbLine
 10
508.5866389999999
 20
15.32536499999999
 30
0.0
 11
508.5866389999999
 21
3.325365
 31
0.0
  0
LINE
  5
E5
330
1E
100
AcDbEntity
  8
0
  6
CONTINUOUS
100
AcDbLine
 10
428.31665
 20
130.3253629999999
 30
0.0
 11
487.9866329999999
 21
130.3253629999999
 31
0.0
  0
LINE
  5
E6
330
1E
100
AcDbEntity
  8
0
  6
CONTINUOUS
100
AcDbLine
 10
410.586639
 20
35.325363
 30
0.0
 11
410.586639
 21
44.376705
 31
0.0
  0
LINE
  5
E7
330
1E
100
AcDbEntity
  8
0
  6
CONTINUOUS
100
AcDbLine
 10
505.586639
 20
35.325363
 30
0.0
 11
505.586639
 21
44.376705
 31
0.0
  0
LINE
  5
E8
330
1E
100
AcDbEntity
  8
0
  6
CONTINUOUS
100
AcDbLine
 10
415.5866389999999
 20
30.325365
 30
0.0
 11
424.617828
 21
30.325365
 31
0.0
  0
LINE
  5
E9
330
1E
100
AcDbEntity
  8
0
  6
CONTINUOUS
100
AcDbLine
 10
500.586639
 20
30.325365
 30
0.0
 11
491.535248
 21
30.325365
 31
0.0
  0
ARC
  5
EA
330
1E
100
AcDbEntity
  8
0
  6
CONTINUOUS
100
AcDbCircle
 10
458.0866389999999
 20
77.825363
 30
0.0
 40
57.25
100
AcDbArc
 50
327.498112
 51
33.025478
  0
ARC
  5
EB
330
1E
100
AcDbEntity
  8
0
  6
CONTINUOUS
100
AcDbCircle
 10
458.0866389999999
 20
77.825363
 30
0.0
 40
57.25
100
AcDbArc
 50
160.085907
 51
212.501907
  0
ARC
  5
EC
330
1E
100
AcDbEntity
  8
0
  6
CONTINUOUS
100
AcDbCircle
 10
415.5866389999999
 20
35.325363
 30
0.0
 40
5.0
100
AcDbArc
 50
180.0
 51
270.0
  0
ARC
  5
ED
330
1E
100
AcDbEntity
  8
0
  6
CONTINUOUS
100
AcDbCircle
 10
500.586639
 20
35.325363
 30
0.0
 40
5.0
100
AcDbArc
 50
270.0
 51
0.0
  0
ARC
  5
EE
330
1E
100
AcDbEntity
  8
0
  6
CONTINUOUS
100
AcDbCircle
 10
424.6380309999999
 20
25.32536499999999
 30
0.0
 40
5.0
100
AcDbArc
 50
73.15825699999999
 51
90.230461
  0
ARC
  5
EF
330
1E
100
AcDbEntity
  8
0
  6
CONTINUOUS
100
AcDbCircle
 10
491.535248
 20
25.32536499999999
 30
0.0
 40
5.0
100
AcDbArc
 50
90.0
 51
106.842003
  0
ARC
  5
F0
330
1E
100
AcDbEntity
  8
0
  6
CONTINUOUS
100
AcDbCircle
 10
405.586639
 20
44.376705
 30
0.0
 40
5.0
100
AcDbArc
 50
0.0
 51
32.49969099999999
  0
ARC
  5
F1
330
1E
100
AcDbEntity
  8
0
  6
CONTINUOUS
100
AcDbCircle
 10
510.586639
 20
44.376705
 30
0.0
 40
5.0
100
AcDbArc
 50
147.498306
 51
180.0
  0
LINE
  5
F2
330
1E
100
AcDbEntity
  8
0
  6
CONTINUOUS
100
AcDbLine
 10
434.086639
 20
4.325365
 30
0.0
 11
482.0866389999999
 21
4.325365
 31
0.0
  0
LINE
  5
F3
330
1E
100
AcDbEntity
  8
0
  6
CONTINUOUS
100
AcDbLine
 10
433.0866389999999
 20
3.325365
 30
0.0
 11
400.0866389999999
 21
3.325365
 31
0.0
  0
LINE
  5
F4
330
1E
100
AcDbEntity
  8
0
  6
CONTINUOUS
100
AcDbLine
 10
483.0866389999999
 20
3.325365
 30
0.0
 11
482.0866389999999
 21
4.325365
 31
0.0
  0
LINE
  5
F5
330
1E
100
AcDbEntity
  8
0
  6
CONTINUOUS
100
AcDbLine
 10
433.0866389999999
 20
3.325365
 30
0.0
 11
434.086639
 21
4.325365
 31
0.0
  0
LINE
  5
F6
330
1E
100
AcDbEntity
  8
0
  6
CONTINUOUS
100
AcDbLine
 10
368.0866389999999
 20
97.32536299999999
 30
0.0
 11
368.0866389999999
 21
119.325363
 31
0.0
  0
LINE
  5
F7
330
1E
100
AcDbEntity
  8
0
  6
CONTINUOUS
100
AcDbLine
 10
408.0866389999999
 20
119.325363
 30
0.0
 11
368.0866389999999
 21
119.325363
 31
0.0
  0
LINE
  5
F8
330
1E
100
AcDbEntity
  8
0
  6
CONTINUOUS
100
AcDbLine
 10
408.0866389999999
 20
97.32536299999999
 30
0.0
 11
368.0866389999999
 21
97.32536299999999
 31
0.0
  0
LINE
  5
F9
330
1E
100
AcDbEntity
  8
0
  6
CONTINUOUS
100
AcDbLine
 10
408.0866389999999
 20
120.8253629999999
 30
0.0
 11
408.0866389999999
 21
95.82536299999999
 31
0.0
  0
LINE
  5
FA
330
1E
100
AcDbEntity
  8
0
  6
CONTINUOUS
100
AcDbLine
 10
410.086639
 20
120.8253629999999
 30
0.0
 11
408.0866389999999
 21
120.8253629999999
 31
0.0
  0
LINE
  5
FB
330
1E
100
AcDbEntity
  8
0
  6
CONTINUOUS
100
AcDbLine
 10
410.086639
 20
95.82536299999999
 30
0.0
 11
408.0866389999999
 21
95.82536299999999
 31
0.0
  0
ARC
  5
FC
330
1E
100
AcDbEntity
  8
0
  6
CONTINUOUS
100
AcDbCircle
 10
400.0866389999999
 20
108.3253629999999
 30
0.0
 40
3.0
100
AcDbArc
 50
270.0
 51
90.0
  0
LINE
  5
FD
330
1E
100
AcDbEntity
  8
0
  6
CONTINUOUS
100
AcDbLine
 10
400.0866389999999
 20
111.3253629999999
 30
0.0
 11
368.0866389999999
 21
111.3253629999999
 31
0.0
  0
LINE
  5
FE
330
1E
100
AcDbEntity
  8
0
  6
CONTINUOUS
100
AcDbLine
 10
400.0866389999999
 20
105.3253629999999
 30
0.0
 11
368.0866389999999
 21
105.3253629999999
 31
0.0
  0
LINE
  5
FF
330
1E
100
AcDbEntity
  8
0
  6
CENTER
100
AcDbLine
 10
-16.81875
 20
77.825363
 30
0.0
 11
198.299759
 21
77.825363
 31
0.0
  0
LINE
  5
100
330
1E
100
AcDbEntity
  8
0
  6
CONTINUOUS
100
AcDbLine
 10
402.086639
 20
97.32536299999999
 30
0.0
 11
402.086639
 21
90.873024
 31
0.0
  0
ARC
  5
101
330
1E
100
AcDbEntity
  8
0
  6
CONTINUOUS
100
AcDbCircle
 10
458.0866389999999
 20
77.825363
 30
0.0
 40
57.499901
100
AcDbArc
 50
303.815613
 51
303.996887
  0
ARC
  5
102
330
1E
100
AcDbEntity
  8
0
  6
CONTINUOUS
100
AcDbCircle
 10
458.0866389999999
 20
77.825363
 30
0.0
 40
57.499901
100
AcDbArc
 50
160.176102
 51
213.9967959999999
  0
ARC
  5
103
330
1E
100
AcDbEntity
  8
0
  6
CONTINUOUS
100
AcDbCircle
 10
458.0866389999999
 20
77.825363
 30
0.0
 40
57.499901
100
AcDbArc
 50
236.003098
 51
236.184296
  0
ARC
  5
104
330
1E
100
AcDbEntity
  8
0
  6
CONTINUOUS
100
AcDbCircle
 10
458.0866389999999
 20
77.825363
 30
0.0
 40
57.499901
100
AcDbArc
 50
326.00312
 51
33.40666999999999
  0
LINE
  5
105
330
1E
100
AcDbEntity
  8
0
  6
CENTER
100
AcDbLine
 10
241.043945
 20
402.5046389999999
 30
0.0
 11
241.043945
 21
229.6346439999999
 31
0.0
  0
LINE
  5
106
330
1E
100
AcDbEntity
  8
0
  6
CENTER
100
AcDbLine
 10
-22.42499899999999
 20
329.8586119999999
 30
0.0
 11
310.383392
 21
329.8586119999999
 31
0.0
  0
LINE
  5
107
330
1E
100
AcDbEntity
  8
0
  6
CONTINUOUS
100
AcDbLine
 10
189.825912
 20
361.8586119999999
 30
0.0
 11
288.571899
 21
361.8586119999999
 31
0.0
  0
LINE
  5
108
330
1E
100
AcDbEntity
  8
0
  6
CONTINUOUS
100
AcDbLine
 10
189.825912
 20
297.858612
 30
0.0
 11
288.571899
 21
297.858612
 31
0.0
  0
LINE
  5
109
330
1E
100
AcDbEntity
  8
0
  6
CONTINUOUS
100
AcDbLine
 10
283.982056
 20
387.8586119999999
 30
0.0
 11
241.043945
 21
387.8586119999999
 31
0.0
  0
LINE
  5
10A
330
1E
100
AcDbEntity
  8
0
  6
CONTINUOUS
100
AcDbLine
 10
198.1058349999999
 20
271.8586119999999
 30
0.0
 11
230.043945
 21
271.8586119999999
 31
0.0
  0
LINE
  5
10B
330
1E
100
AcDbEntity
  8
0
  6
CONTINUOUS
100
AcDbLine
 10
294.0439449999999
 20
329.8586119999999
 30
0.0
 11
293.4853819999999
 21
361.8586119999999
 31
0.0
  0
LINE
  5
10C
330
1E
100
AcDbEntity
  8
0
  6
CONTINUOUS
100
AcDbLine
 10
288.8760069999999
 20
383.882843
 30
0.0
 11
293.4853819999999
 21
361.8586119999999
 31
0.0
  0
ARC
  5
10D
330
1E
100
AcDbEntity
  8
0
  6
CONTINUOUS
100
AcDbCircle
 10
283.982056
 20
382.858612
 30
0.0
 40
5.0
100
AcDbArc
 50
11.820596
 51
90.0
  0
LINE
  5
10E
330
1E
100
AcDbEntity
  8
0
  6
CONTINUOUS
100
AcDbLine
 10
294.0439449999999
 20
329.8586119999999
 30
0.0
 11
293.4853819999999
 21
297.858612
 31
0.0
  0
LINE
  5
10F
330
1E
100
AcDbEntity
  8
0
  6
CONTINUOUS
100
AcDbLine
 10
288.8760069999999
 20
275.8343509999999
 30
0.0
 11
293.4853819999999
 21
297.858612
 31
0.0
  0
ARC
  5
110
330
1E
100
AcDbEntity
  8
0
  6
CONTINUOUS
100
AcDbCircle
 10
283.982056
 20
276.858612
 30
0.0
 40
5.0
100
AcDbArc
 50
270.0
 51
348.179404
  0
LINE
  5
111
330
1E
100
AcDbEntity
  8
0
  6
CONTINUOUS
100
AcDbLine
 10
261.043945
 20
299.858612
 30
0.0
 11
261.043945
 21
359.858612
 31
0.0
  0
LINE
  5
112
330
1E
100
AcDbEntity
  8
0
  6
CONTINUOUS
100
AcDbLine
 10
221.0439449999999
 20
299.858612
 30
0.0
 11
221.0439449999999
 21
359.858612
 31
0.0
  0
ARC
  5
113
330
1E
100
AcDbEntity
  8
0
  6
CONTINUOUS
100
AcDbCircle
 10
288.571899
 20
356.8586119999999
 30
0.0
 40
5.0
100
AcDbArc
 50
1.0
 51
90.0
  0
ARC
  5
114
330
1E
100
AcDbEntity
  8
0
  6
CONTINUOUS
100
AcDbCircle
 10
288.571899
 20
302.8586119999999
 30
0.0
 40
5.0
100
AcDbArc
 50
270.0
 51
359.0
  0
LINE
  5
115
330
1E
100
AcDbEntity
  8
0
  6
CONTINUOUS
100
AcDbLine
 10
184.3704379999999
 20
275.5300599999999
 30
0.0
 11
184.827637
 21
292.9894709999999
 31
0.0
  0
LINE
  5
116
330
1E
100
AcDbEntity
  8
0
  6
CONTINUOUS
100
AcDbLine
 10
176.293945
 20
387.358612
 30
0.0
 11
176.293945
 21
272.3586119999999
 31
0.0
  0
LINE
  5
117
330
1E
100
AcDbEntity
  8
0
  6
CONTINUOUS
100
AcDbLine
 10
194.858948
 20
347.858612
 30
0.0
 11
194.858948
 21
311.8586119999999
 31
0.0
  0
LINE
  5
118
330
1E
100
AcDbEntity
  8
0
  6
CONTINUOUS
100
AcDbLine
 10
176.293945
 20
387.108612
 30
0.0
 11
181.371475
 21
387.108612
 31
0.0
  0
LINE
  5
119
330
1E
100
AcDbEntity
  8
0
  6
CONTINUOUS
100
AcDbLine
 10
181.371475
 20
272.608612
 30
0.0
 11
176.293945
 21
272.608612
 31
0.0
  0
ARC
  5
11A
330
1E
100
AcDbEntity
  8
0
  6
CONTINUOUS
100
AcDbCircle
 10
189.825912
 20
292.8586119999999
 30
0.0
 40
5.0
100
AcDbArc
 50
90.0
 51
178.5
  0
ARC
  5
11B
330
1E
100
AcDbEntity
  8
0
  6
CONTINUOUS
100
AcDbCircle
 10
181.371475
 20
275.6086119999999
 30
0.0
 40
3.0
100
AcDbArc
 50
270.0
 51
358.4999999999999
  0
LINE
  5
11C
330
1E
100
AcDbEntity
  8
0
  6
CONTINUOUS
100
AcDbLine
 10
184.3704379999999
 20
384.1871339999999
 30
0.0
 11
184.827637
 21
366.727722
 31
0.0
  0
ARC
  5
11D
330
1E
100
AcDbEntity
  8
0
  6
CONTINUOUS
100
AcDbCircle
 10
189.825912
 20
366.858612
 30
0.0
 40
5.0
100
AcDbArc
 50
181.4999999999999
 51
270.0
  0
ARC
  5
11E
330
1E
100
AcDbEntity
  8
0
  6
CONTINUOUS
100
AcDbCircle
 10
181.371475
 20
384.1086119999999
 30
0.0
 40
3.0
100
AcDbArc
 50
1.500000000000008
 51
90.0
  0
LINE
  5
11F
330
1E
100
AcDbEntity
  8
0
  6
CONTINUOUS
100
AcDbLine
 10
193.2118679999999
 20
383.882843
 30
0.0
 11
188.632736
 21
362.003052
 31
0.0
  0
ARC
  5
120
330
1E
100
AcDbEntity
  8
0
  6
CONTINUOUS
100
AcDbCircle
 10
198.1058349999999
 20
382.858612
 30
0.0
 40
5.0
100
AcDbArc
 50
90.0
 51
168.1793979999999
  0
LINE
  5
121
330
1E
100
AcDbEntity
  8
0
  6
CONTINUOUS
100
AcDbLine
 10
193.2118679999999
 20
275.8343509999999
 30
0.0
 11
188.632736
 21
297.7141419999999
 31
0.0
  0
ARC
  5
122
330
1E
100
AcDbEntity
  8
0
  6
CONTINUOUS
100
AcDbCircle
 10
198.1058349999999
 20
276.858612
 30
0.0
 40
5.0
100
AcDbArc
 50
191.820602
 51
270.0
  0
LINE
  5
123
330
1E
100
AcDbEntity
  8
0
  6
CENTER
100
AcDbLine
 10
265.5943299999999
 20
284.8586119999999
 30
0.0
 11
286.448517
 21
284.8586119999999
 31
0.0
  0
LINE
  5
124
330
1E
100
AcDbEntity
  8
0
  6
CENTER
100
AcDbLine
 10
276.043945
 20
292.4158939999999
 30
0.0
 11
276.043945
 21
275.64505
 31
0.0
  0
CIRCLE
  5
125
330
1E
100
AcDbEntity
  8
0
  6
CONTINUOUS
100
AcDbCircle
 10
276.043945
 20
284.8586119999999
 30
0.0
 40
5.5
  0
LINE
  5
126
330
1E
100
AcDbEntity
  8
0
  6
CENTER
100
AcDbLine
 10
216.493546
 20
284.8586119999999
 30
0.0
 11
195.639374
 21
284.8586119999999
 31
0.0
  0
LINE
  5
127
330
1E
100
AcDbEntity
  8
0
  6
CENTER
100
AcDbLine
 10
206.043945
 20
292.4158939999999
 30
0.0
 11
206.043945
 21
275.64505
 31
0.0
  0
CIRCLE
  5
128
330
1E
100
AcDbEntity
  8
0
  6
CONTINUOUS
100
AcDbCircle
 10
206.043945
 20
284.8586119999999
 30
0.0
 40
5.5
  0
LINE
  5
129
330
1E
100
AcDbEntity
  8
0
  6
CENTER
100
AcDbLine
 10
265.5943299999999
 20
374.858612
 30
0.0
 11
286.448517
 21
374.858612
 31
0.0
  0
LINE
  5
12A
330
1E
100
AcDbEntity
  8
0
  6
CENTER
100
AcDbLine
 10
276.043945
 20
367.3013
 30
0.0
 11
276.043945
 21
384.0721439999999
 31
0.0
  0
CIRCLE
  5
12B
330
1E
100
AcDbEntity
  8
0
  6
CONTINUOUS
100
AcDbCircle
 10
276.043945
 20
374.858612
 30
0.0
 40
5.5
  0
LINE
  5
12C
330
1E
100
AcDbEntity
  8
0
  6
CENTER
100
AcDbLine
 10
216.493546
 20
374.858612
 30
0.0
 11
195.639374
 21
374.858612
 31
0.0
  0
LINE
  5
12D
330
1E
100
AcDbEntity
  8
0
  6
CENTER
100
AcDbLine
 10
206.043945
 20
367.3013
 30
0.0
 11
206.043945
 21
384.0721439999999
 31
0.0
  0
CIRCLE
  5
12E
330
1E
100
AcDbEntity
  8
0
  6
CONTINUOUS
100
AcDbCircle
 10
206.043945
 20
374.858612
 30
0.0
 40
5.5
  0
LINE
  5
12F
330
1E
100
AcDbEntity
  8
0
  6
CONTINUOUS
100
AcDbLine
 10
215.851089
 20
281.8586119999999
 30
0.0
 11
266.2367859999999
 21
281.8586119999999
 31
0.0
  0
LINE
  5
130
330
1E
100
AcDbEntity
  8
0
  6
CONTINUOUS
100
AcDbLine
 10
271.200195
 20
291.858612
 30
0.0
 11
274.48703
 21
291.858612
 31
0.0
  0
ARC
  5
131
330
1E
100
AcDbEntity
  8
0
  6
CONTINUOUS
100
AcDbCircle
 10
266.2367859999999
 20
284.8586119999999
 30
0.0
 40
3.0
100
AcDbArc
 50
270.0
 51
345.1243289999999
  0
LINE
  5
132
330
1E
100
AcDbEntity
  8
0
  6
CONTINUOUS
100
AcDbLine
 10
277.3865049999999
 20
294.0884399999999
 30
0.0
 11
277.795654
 21
295.6287839999999
 31
0.0
  0
ARC
  5
133
330
1E
100
AcDbEntity
  8
0
  6
CONTINUOUS
100
AcDbCircle
 10
274.48703
 20
294.8586119999999
 30
0.0
 40
3.0
100
AcDbArc
 50
270.0
 51
345.1243289999999
  0
ARC
  5
134
330
1E
100
AcDbEntity
  8
0
  6
CONTINUOUS
100
AcDbCircle
 10
280.695099
 20
294.8586119999999
 30
0.0
 40
3.0
100
AcDbArc
 50
90.0
 51
165.124313
  0
LINE
  5
135
330
1E
100
AcDbEntity
  8
0
  6
CONTINUOUS
100
AcDbLine
 10
271.200195
 20
291.858612
 30
0.0
 11
269.1362299999999
 21
284.0884399999999
 31
0.0
  0
LINE
  5
136
330
1E
100
AcDbEntity
  8
0
  6
CONTINUOUS
100
AcDbLine
 10
204.701385
 20
294.0884399999999
 30
0.0
 11
204.2922359999999
 21
295.6287839999999
 31
0.0
  0
ARC
  5
137
330
1E
100
AcDbEntity
  8
0
  6
CONTINUOUS
100
AcDbCircle
 10
207.6008449999999
 20
294.8586119999999
 30
0.0
 40
3.0
100
AcDbArc
 50
194.8756869999999
 51
270.0
  0
ARC
  5
138
330
1E
100
AcDbEntity
  8
0
  6
CONTINUOUS
100
AcDbCircle
 10
201.3927919999999
 20
294.8586119999999
 30
0.0
 40
3.0
100
AcDbArc
 50
14.875682
 51
90.0
  0
LINE
  5
139
330
1E
100
AcDbEntity
  8
0
  6
CONTINUOUS
100
AcDbLine
 10
210.8876949999999
 20
291.858612
 30
0.0
 11
207.6008449999999
 21
291.858612
 31
0.0
  0
ARC
  5
13A
330
1E
100
AcDbEntity
  8
0
  6
CONTINUOUS
100
AcDbCircle
 10
215.851089
 20
284.8586119999999
 30
0.0
 40
3.0
100
AcDbArc
 50
194.8756869999999
 51
270.0
  0
LINE
  5
13B
330
1E
100
AcDbEntity
  8
0
  6
CONTINUOUS
100
AcDbLine
 10
210.8876949999999
 20
291.858612
 30
0.0
 11
212.951645
 21
284.0884399999999
 31
0.0
  0
CIRCLE
  5
13C
330
1E
100
AcDbEntity
  8
0
  6
CONTINUOUS
100
AcDbCircle
 10
276.043945
 20
374.858612
 30
0.0
 40
5.5
  0
LINE
  5
13D
330
1E
100
AcDbEntity
  8
0
  6
CONTINUOUS
100
AcDbLine
 10
215.851089
 20
377.8586119999999
 30
0.0
 11
266.2367859999999
 21
377.8586119999999
 31
0.0
  0
LINE
  5
13E
330
1E
100
AcDbEntity
  8
0
  6
CONTINUOUS
100
AcDbLine
 10
271.200195
 20
367.8586119999999
 30
0.0
 11
274.48703
 21
367.8586119999999
 31
0.0
  0
ARC
  5
13F
330
1E
100
AcDbEntity
  8
0
  6
CONTINUOUS
100
AcDbCircle
 10
266.2367859999999
 20
374.858612
 30
0.0
 40
3.0
100
AcDbArc
 50
14.87567099999999
 51
90.0
  0
LINE
  5
140
330
1E
100
AcDbEntity
  8
0
  6
CONTINUOUS
100
AcDbLine
 10
277.3865049999999
 20
365.628754
 30
0.0
 11
277.795654
 21
364.08844
 31
0.0
  0
ARC
  5
141
330
1E
100
AcDbEntity
  8
0
  6
CONTINUOUS
100
AcDbCircle
 10
274.48703
 20
364.858612
 30
0.0
 40
3.0
100
AcDbArc
 50
14.87567099999999
 51
90.0
  0
ARC
  5
142
330
1E
100
AcDbEntity
  8
0
  6
CONTINUOUS
100
AcDbCircle
 10
280.695099
 20
364.858612
 30
0.0
 40
3.0
100
AcDbArc
 50
194.8756869999999
 51
270.0
  0
LINE
  5
143
330
1E
100
AcDbEntity
  8
0
  6
CONTINUOUS
100
AcDbLine
 10
271.200195
 20
367.8586119999999
 30
0.0
 11
269.1362299999999
 21
375.628784
 31
0.0
  0
LINE
  5
144
330
1E
100
AcDbEntity
  8
0
  6
CONTINUOUS
100
AcDbLine
 10
204.701385
 20
365.628784
 30
0.0
 11
204.2922359999999
 21
364.08844
 31
0.0
  0
ARC
  5
145
330
1E
100
AcDbEntity
  8
0
  6
CONTINUOUS
100
AcDbCircle
 10
207.6008449999999
 20
364.858612
 30
0.0
 40
3.0
100
AcDbArc
 50
90.0
 51
165.124313
  0
ARC
  5
146
330
1E
100
AcDbEntity
  8
0
  6
CONTINUOUS
100
AcDbCircle
 10
201.3927919999999
 20
364.858612
 30
0.0
 40
3.0
100
AcDbArc
 50
270.0
 51
345.1243179999999
  0
LINE
  5
147
330
1E
100
AcDbEntity
  8
0
  6
CONTINUOUS
100
AcDbLine
 10
210.8876949999999
 20
367.8586119999999
 30
0.0
 11
207.6008449999999
 21
367.8586119999999
 31
0.0
  0
ARC
  5
148
330
1E
100
AcDbEntity
  8
0
  6
CONTINUOUS
100
AcDbCircle
 10
215.851089
 20
374.858612
 30
0.0
 40
3.0
100
AcDbArc
 50
90.0
 51
165.124313
  0
LINE
  5
149
330
1E
100
AcDbEntity
  8
0
  6
CONTINUOUS
100
AcDbLine
 10
210.8876949999999
 20
367.8586119999999
 30
0.0
 11
212.951645
 21
375.628784
 31
0.0
  0
LINE
  5
14A
330
1E
100
AcDbEntity
  8
0
  6
CONTINUOUS
100
AcDbLine
 10
230.043945
 20
239.858597
 30
0.0
 11
254.5439449999999
 21
239.858597
 31
0.0
  0
LINE
  5
14B
330
1E
100
AcDbEntity
  8
0
  6
CONTINUOUS
100
AcDbLine
 10
252.043945
 20
279.8586119999999
 30
0.0
 11
252.043945
 21
274.858612
 31
0.0
  0
LINE
  5
14C
330
1E
100
AcDbEntity
  8
0
  6
CONTINUOUS
100
AcDbLine
 10
230.043945
 20
279.8586119999999
 30
0.0
 11
230.043945
 21
239.858597
 31
0.0
  0
LINE
  5
14D
330
1E
100
AcDbEntity
  8
0
  6
CONTINUOUS
100
AcDbLine
 10
253.543945
 20
281.8586119999999
 30
0.0
 11
253.543945
 21
279.8586119999999
 31
0.0
  0
LINE
  5
14E
330
1E
100
AcDbEntity
  8
0
  6
CONTINUOUS
100
AcDbLine
 10
228.543945
 20
281.8586119999999
 30
0.0
 11
228.543945
 21
279.8586119999999
 31
0.0
  0
LINE
  5
14F
330
1E
100
AcDbEntity
  8
0
  6
CONTINUOUS
100
AcDbLine
 10
228.543945
 20
279.8586119999999
 30
0.0
 11
253.543945
 21
279.8586119999999
 31
0.0
  0
LINE
  5
150
330
1E
100
AcDbEntity
  8
0
  6
CONTINUOUS
100
AcDbLine
 10
254.5439449999999
 20
271.8586119999999
 30
0.0
 11
283.982056
 21
271.8586119999999
 31
0.0
  0
LINE
  5
151
330
1E
100
AcDbEntity
  8
0
  6
CONTINUOUS
100
AcDbLine
 10
254.5439449999999
 20
274.858612
 30
0.0
 11
254.5439449999999
 21
239.858597
 31
0.0
  0
LINE
  5
152
330
1E
100
AcDbEntity
  8
0
  6
CONTINUOUS
100
AcDbLine
 10
251.6269529999999
 20
239.858597
 30
0.0
 11
251.6269529999999
 21
274.858612
 31
0.0
  0
LINE
  5
153
330
1E
100
AcDbEntity
  8
0
  6
CONTINUOUS
100
AcDbLine
 10
251.6269529999999
 20
274.858612
 30
0.0
 11
254.5439449999999
 21
274.858612
 31
0.0
  0
LINE
  5
154
330
1E
100
AcDbEntity
  8
0
  6
CONTINUOUS
100
AcDbLine
 10
241.043945
 20
387.8586119999999
 30
0.0
 11
197.927673
 21
387.8586119999999
 31
0.0
  0
LINE
  5
155
330
1E
100
AcDbEntity
  8
0
  6
CONTINUOUS
100
AcDbLine
 10
176.293945
 20
377.358612
 30
0.0
 11
181.626785
 21
377.358612
 31
0.0
  0
ARC
  5
156
330
1E
100
AcDbEntity
  8
0
  6
CONTINUOUS
100
AcDbCircle
 10
181.626785
 20
374.3586119999999
 30
0.0
 40
3.0
100
AcDbArc
 50
1.5
 51
90.0
  0
LINE
  5
157
330
1E
100
AcDbEntity
  8
0
  6
CONTINUOUS
100
AcDbLine
 10
184.584412
 20
361.8586119999999
 30
0.0
 11
176.293945
 21
361.8586119999999
 31
0.0
  0
LINE
  5
158
330
1E
100
AcDbEntity
  8
0
  6
CONTINUOUS
100
AcDbLine
 10
184.584412
 20
297.858612
 30
0.0
 11
176.293945
 21
297.858612
 31
0.0
  0
LINE
  5
159
330
1E
100
AcDbEntity
  8
0
  6
CONTINUOUS
100
AcDbLine
 10
176.293945
 20
282.3586119999999
 30
0.0
 11
181.626785
 21
282.3586119999999
 31
0.0
  0
ARC
  5
15A
330
1E
100
AcDbEntity
  8
0
  6
CONTINUOUS
100
AcDbCircle
 10
181.626785
 20
285.358612
 30
0.0
 40
3.0
100
AcDbArc
 50
270.0
 51
358.4999999999999
  0
LINE
  5
15B
330
1E
100
AcDbEntity
  8
0
  6
CONTINUOUS
100
AcDbLine
 10
52.29376199850889
 20
387.358612
 30
0.0
 11
176.293945
 21
387.358612
 31
0.0
  0
LINE
  5
15C
330
1E
100
AcDbEntity
  8
0
  6
CONTINUOUS
100
AcDbLine
 10
176.293945
 20
272.3586119999999
 30
0.0
 11
131.768311
 21
272.3586119999999
 31
0.0
  0
LINE
  5
15D
330
1E
100
AcDbEntity
  8
0
  6
CONTINUOUS
100
AcDbLine
 10
64.29393799999999
 20
355.858093
 30
0.0
 11
168.2677459999999
 21
355.858093
 31
0.0
  0
LINE
  5
15E
330
1E
100
AcDbEntity
  8
0
  6
CONTINUOUS
100
AcDbLine
 10
64.29393799999999
 20
363.628601
 30
0.0
 11
168.2677459999999
 21
363.628601
 31
0.0
  0
LINE
  5
15F
330
1E
100
AcDbEntity
  8
0
  6
CONTINUOUS
100
AcDbLine
 10
65.293938
 20
366.9079899999999
 30
0.0
 11
167.267761
 21
366.9079899999999
 31
0.0
  0
LINE
  5
160
330
1E
100
AcDbEntity
  8
0
  6
CONTINUOUS
100
AcDbLine
 10
64.29393799999999
 20
371.7229609999999
 30
0.0
 11
168.2677459999999
 21
371.7229609999999
 31
0.0
  0
LINE
  5
161
330
1E
100
AcDbEntity
  8
0
  6
CONTINUOUS
100
AcDbLine
 10
65.293938
 20
373.710785
 30
0.0
 11
167.267761
 21
373.710785
 31
0.0
  0
LINE
  5
162
330
1E
100
AcDbEntity
  8
0
  6
CONTINUOUS
100
AcDbLine
 10
64.29393799999999
 20
377.7534479999999
 30
0.0
 11
168.2677459999999
 21
377.7534479999999
 31
0.0
  0
LINE
  5
163
330
1E
100
AcDbEntity
  8
0
  6
CONTINUOUS
100
AcDbLine
 10
64.29393799999999
 20
382.2842709999999
 30
0.0
 11
168.2677459999999
 21
382.2842709999999
 31
0.0
  0
LINE
  5
164
330
1E
100
AcDbEntity
  8
0
  6
CONTINUOUS
100
AcDbLine
 10
64.29393799999999
 20
385.1613459999999
 30
0.0
 11
168.2677459999999
 21
385.1613459999999
 31
0.0
  0
LINE
  5
165
330
1E
100
AcDbEntity
  8
0
  6
CONTINUOUS
100
AcDbLine
 10
64.29393799999999
 20
386.816681
 30
0.0
 11
168.2677459999999
 21
386.816681
 31
0.0
  0
LINE
  5
166
330
1E
100
AcDbEntity
  8
0
  6
CONTINUOUS
100
AcDbLine
 10
168.2677459999999
 20
387.358612
 30
0.0
 11
168.2677459999999
 21
355.858093
 31
0.0
  0
LINE
  5
167
330
1E
100
AcDbEntity
  8
0
  6
CONTINUOUS
100
AcDbLine
 10
64.29393799999999
 20
303.8591
 30
0.0
 11
168.2677459999999
 21
303.8591
 31
0.0
  0
LINE
  5
168
330
1E
100
AcDbEntity
  8
0
  6
CONTINUOUS
100
AcDbLine
 10
64.29393799999999
 20
296.0885929999999
 30
0.0
 11
168.2677459999999
 21
296.0885929999999
 31
0.0
  0
LINE
  5
169
330
1E
100
AcDbEntity
  8
0
  6
CONTINUOUS
100
AcDbLine
 10
64.29393799999999
 20
287.9942319999999
 30
0.0
 11
168.2677459999999
 21
287.9942319999999
 31
0.0
  0
LINE
  5
16A
330
1E
100
AcDbEntity
  8
0
  6
CONTINUOUS
100
AcDbLine
 10
131.268311
 20
277.4328919999999
 30
0.0
 11
168.2677459999999
 21
277.4328919999999
 31
0.0
  0
LINE
  5
16B
330
1E
100
AcDbEntity
  8
0
  6
CONTINUOUS
100
AcDbLine
 10
131.268311
 20
274.555847
 30
0.0
 11
168.2677459999999
 21
274.555847
 31
0.0
  0
LINE
  5
16C
330
1E
100
AcDbEntity
  8
0
  6
CONTINUOUS
100
AcDbLine
 10
131.768311
 20
272.900513
 30
0.0
 11
168.2677459999999
 21
272.900513
 31
0.0
  0
LINE
  5
16D
330
1E
100
AcDbEntity
  8
0
  6
CONTINUOUS
100
AcDbLine
 10
168.2677459999999
 20
272.3586119999999
 30
0.0
 11
168.2677459999999
 21
303.8591
 31
0.0
  0
LINE
  5
16E
330
1E
100
AcDbEntity
  8
0
  6
CONTINUOUS
100
AcDbLine
 10
131.268311
 20
272.858612
 30
0.0
 11
131.268311
 21
279.0580439999999
 31
0.0
  0
ARC
  5
16F
330
1E
100
AcDbEntity
  8
0
  6
CONTINUOUS
100
AcDbCircle
 10
131.768311
 20
273.4005129999999
 30
0.0
 40
0.499992
100
AcDbArc
 50
180.0
 51
270.0
  0
ARC
  5
170
330
1E
100
AcDbEntity
  8
0
  6
CONTINUOUS
100
AcDbCircle
 10
130.268326
 20
274.859467
 30
0.0
 40
0.9999839999999998
100
AcDbArc
 50
270.0
 51
0.0
  0
LINE
  5
171
330
1E
100
AcDbEntity
  8
0
  6
CONTINUOUS
100
AcDbLine
 10
65.293938
 20
292.809204
 30
0.0
 11
167.267761
 21
292.809204
 31
0.0
  0
LINE
  5
172
330
1E
100
AcDbEntity
  8
0
  6
CONTINUOUS
100
AcDbLine
 10
65.293938
 20
286.0064089999999
 30
0.0
 11
167.267761
 21
286.0064089999999
 31
0.0
  0
LINE
  5
173
330
1E
100
AcDbEntity
  8
0
  6
CONTINUOUS
100
AcDbLine
 10
64.29393799999999
 20
281.9637759999999
 30
0.0
 11
168.2677459999999
 21
281.9637759999999
 31
0.0
  0
LINE
  5
174
330
1E
100
AcDbEntity
  8
0
  6
CONTINUOUS
100
AcDbLine
 10
64.29393799999999
 20
279.0580439999999
 30
0.0
 11
131.268311
 21
279.0580439999999
 31
0.0
  0
LINE
  5
175
330
1E
100
AcDbEntity
  8
0
  6
CONTINUOUS
100
AcDbLine
 10
65.293938
 20
273.859497
 30
0.0
 11
110.8163149999999
 21
273.859497
 31
0.0
  0
LINE
  5
176
330
1E
100
AcDbEntity
  8
0
  6
CONTINUOUS
100
AcDbLine
 10
130.268326
 20
273.859497
 30
0.0
 11
110.8163149999999
 21
273.859406
 31
0.0
  0
ARC
  5
177
330
1E
100
AcDbEntity
  8
0
  6
CONTINUOUS
100
AcDbCircle
 10
131.768311
 20
272.858612
 30
0.0
 40
0.5
100
AcDbArc
 50
180.0
 51
270.0
  0
LINE
  5
17A
330
1E
100
AcDbEntity
  8
0
  6
CONTINUOUS
100
AcDbLine
 10
58.35634200000001
 20
259.436798
 30
0.0
 11
57.293941
 21
219.358597
 31
0.0
  0
LINE
  5
17B
330
1E
100
AcDbEntity
  8
0
  6
CONTINUOUS
100
AcDbLine
 10
126.230942
 20
259.436798
 30
0.0
 11
127.2939379999999
 21
219.358597
 31
0.0
  0
LINE
  5
17C
330
1E
100
AcDbEntity
  8
0
  6
CONTINUOUS
100
AcDbLine
 10
68.26814300000001
 20
272.3586119999999
 30
0.0
 11
80.793938
 21
272.3586119999999
 31
0.0
  0
LINE
  5
17D
330
1E
100
AcDbEntity
  8
0
  6
CONTINUOUS
100
AcDbLine
 10
116.31974
 20
272.3586119999999
 30
0.0
 11
80.793938
 21
272.3586119999999
 31
0.0
  0
LINE
  5
17E
330
1E
100
AcDbEntity
  8
0
  6
CONTINUOUS
100
AcDbLine
 10
123.2451399999999
 20
262.358612
 30
0.0
 11
105.6051409999999
 21
262.358612
 31
0.0
  0
ARC
  5
17F
330
1E
100
AcDbEntity
  8
0
  6
CONTINUOUS
100
AcDbCircle
 10
61.341942
 20
259.3586119999999
 30
0.0
 40
3.0
100
AcDbArc
 50
90.0
 51
178.5002749999999
  0
ARC
  5
180
330
1E
100
AcDbEntity
  8
0
  6
CONTINUOUS
100
AcDbCircle
 10
123.2451399999999
 20
259.3586119999999
 30
0.0
 40
3.0
100
AcDbArc
 50
1.4999
 51
90.0
  0
LINE
  5
181
330
1E
100
AcDbEntity
  8
0
  6
CONTINUOUS
100
AcDbLine
 10
67.26837900000001
 20
271.3847959999999
 30
0.0
 11
67.083038
 21
264.306244
 31
0.0
  0
LINE
  5
182
330
1E
100
AcDbEntity
  8
0
  6
CONTINUOUS
100
AcDbLine
 10
117.319046
 20
271.384766
 30
0.0
 11
117.504829
 21
264.306122
 31
0.0
  0
ARC
  5
183
330
1E
100
AcDbEntity
  8
0
  6
CONTINUOUS
100
AcDbCircle
 10
116.31974
 20
271.3586119999999
 30
0.0
 40
1.0
100
AcDbArc
 50
1.4993
 51
90.0
  0
ARC
  5
184
330
1E
100
AcDbEntity
  8
0
  6
CONTINUOUS
100
AcDbCircle
 10
68.26814300000001
 20
271.3586119999999
 30
0.0
 40
1.0
100
AcDbArc
 50
90.0
 51
178.4994049999999
  0
LINE
  5
185
330
1E
100
AcDbEntity
  8
0
  6
CONTINUOUS
100
AcDbLine
 10
61.34214
 20
262.358612
 30
0.0
 11
78.982742
 21
262.358612
 31
0.0
  0
ARC
  5
186
330
1E
100
AcDbEntity
  8
0
  6
CONTINUOUS
100
AcDbCircle
 10
92.293938
 20
329.8586119999999
 30
0.0
 40
68.800003
100
AcDbArc
 50
258.8442
 51
281.1558
  0
LINE
  5
187
330
1E
100
AcDbEntity
  8
0
  6
CENTER
100
AcDbLine
 10
92.293938
 20
276.184814
 30
0.0
 11
92.293938
 21
201.2649989999999
 31
0.0
  0
LINE
  5
188
330
1E
100
AcDbEntity
  8
0
  6
CONTINUOUS
100
AcDbLine
 10
59.793941
 20
213.358597
 30
0.0
 11
124.7939379999999
 21
213.358597
 31
0.0
  0
LINE
  5
189
330
1E
100
AcDbEntity
  8
0
  6
CONTINUOUS
100
AcDbLine
 10
127.2939379999999
 20
215.858597
 30
0.0
 11
127.2939379999999
 21
218.358597
 31
0.0
  0
LINE
  5
18A
330
1E
100
AcDbEntity
  8
0
  6
CONTINUOUS
100
AcDbLine
 10
57.293941
 20
215.858597
 30
0.0
 11
57.293941
 21
218.358597
 31
0.0
  0
LINE
  5
18B
330
1E
100
AcDbEntity
  8
0
  6
CONTINUOUS
100
AcDbLine
 10
127.2939379999999
 20
218.358597
 30
0.0
 11
57.293941
 21
218.358597
 31
0.0
  0
LINE
  5
18C
330
1E
100
AcDbEntity
  8
0
  6
CONTINUOUS
100
AcDbLine
 10
127.2939379999999
 20
219.358597
 30
0.0
 11
57.293941
 21
219.358597
 31
0.0
  0
LINE
  5
18D
330
1E
100
AcDbEntity
  8
0
  6
CONTINUOUS
100
AcDbLine
 10
127.2939379999999
 20
218.358597
 30
0.0
 11
127.2939379999999
 21
219.358597
 31
0.0
  0
LINE
  5
18E
330
1E
100
AcDbEntity
  8
0
  6
CONTINUOUS
100
AcDbLine
 10
57.293941
 20
218.358597
 30
0.0
 11
57.293941
 21
219.358597
 31
0.0
  0
LINE
  5
18F
330
1E
100
AcDbEntity
  8
0
  6
CENTER
100
AcDbLine
 10
62.293941
 20
235.358597
 30
0.0
 11
22.60694099999999
 21
235.358597
 31
0.0
  0
LINE
  5
190
330
1E
100
AcDbEntity
  8
0
  6
CONTINUOUS
100
AcDbLine
 10
118.781143
 20
216.358597
 30
0.0
 11
126.2939379999999
 21
216.358597
 31
0.0
  0
LINE
  5
191
330
1E
100
AcDbEntity
  8
0
  6
CONTINUOUS
100
AcDbLine
 10
65.806938
 20
216.358597
 30
0.0
 11
58.293941
 21
216.358597
 31
0.0
  0
LINE
  5
192
330
1E
100
AcDbEntity
  8
0
  6
CONTINUOUS
100
AcDbLine
 10
118.281143
 20
215.871796
 30
0.0
 11
118.240944
 21
214.332397
 31
0.0
  0
ARC
  5
193
330
1E
100
AcDbEntity
  8
0
  6
CONTINUOUS
100
AcDbCircle
 10
118.781143
 20
215.858597
 30
0.0
 40
0.5
100
AcDbArc
 50
90.0
 51
178.5
  0
ARC
  5
194
330
1E
100
AcDbEntity
  8
0
  6
CONTINUOUS
100
AcDbCircle
 10
117.2413409999999
 20
214.358597
 30
0.0
 40
1.0
100
AcDbArc
 50
270.0
 51
358.5002
  0
ARC
  5
195
330
1E
100
AcDbEntity
  8
0
  6
CONTINUOUS
100
AcDbCircle
 10
126.2939379999999
 20
217.358597
 30
0.0
 40
1.0
100
AcDbArc
 50
270.0
 51
0.0
  0
ARC
  5
196
330
1E
100
AcDbEntity
  8
0
  6
CONTINUOUS
100
AcDbCircle
 10
124.7939379999999
 20
215.858597
 30
0.0
 40
2.5
100
AcDbArc
 50
270.0
 51
0.0
  0
LINE
  5
197
330
1E
100
AcDbEntity
  8
0
  6
CONTINUOUS
100
AcDbLine
 10
66.30674
 20
215.871796
 30
0.0
 11
66.34693900000001
 21
214.332397
 31
0.0
  0
ARC
  5
198
330
1E
100
AcDbEntity
  8
0
  6
CONTINUOUS
100
AcDbCircle
 10
67.34674100000001
 20
214.358597
 30
0.0
 40
1.0
100
AcDbArc
 50
181.500397
 51
270.0
  0
ARC
  5
199
330
1E
100
AcDbEntity
  8
0
  6
CONTINUOUS
100
AcDbCircle
 10
65.806938
 20
215.858597
 30
0.0
 40
0.5
100
AcDbArc
 50
1.500199999999999
 51
90.0
  0
ARC
  5
19A
330
1E
100
AcDbEntity
  8
0
  6
CONTINUOUS
100
AcDbCircle
 10
58.293941
 20
217.358597
 30
0.0
 40
1.0
100
AcDbArc
 50
180.0
 51
270.0
  0
ARC
  5
19B
330
1E
100
AcDbEntity
  8
0
  6
CONTINUOUS
100
AcDbCircle
 10
59.793941
 20
215.858597
 30
0.0
 40
2.5
100
AcDbArc
 50
180.0
 51
270.0
  0
ARC
  5
19C
330
1E
100
AcDbEntity
  8
0
  6
CONTINUOUS
100
AcDbCircle
 10
122.2939379999999
 20
216.358597
 30
0.0
 40
3.0
100
AcDbArc
 50
180.0
 51
0.0
  0
LINE
  5
19D
330
1E
100
AcDbEntity
  8
0
  6
CONTINUOUS
100
AcDbLine
 10
125.251938
 20
215.858597
 30
0.0
 11
119.3359379999999
 21
215.858597
 31
0.0
  0
LINE
  5
19E
330
1E
100
AcDbEntity
  8
0
  6
CONTINUOUS
100
AcDbLine
 10
122.2939379999999
 20
213.858597
 30
0.0
 11
122.0129389999999
 21
213.3717959999999
 31
0.0
  0
LINE
  5
19F
330
1E
100
AcDbEntity
  8
0
  6
CONTINUOUS
100
AcDbLine
 10
122.2939379999999
 20
213.858597
 30
0.0
 11
122.5751419999999
 21
213.3717959999999
 31
0.0
  0
ARC
  5
1A0
330
1E
100
AcDbEntity
  8
0
  6
CONTINUOUS
100
AcDbCircle
 10
62.293941
 20
216.358597
 30
0.0
 40
3.0
100
AcDbArc
 50
180.0
 51
0.0
  0
LINE
  5
1A1
330
1E
100
AcDbEntity
  8
0
  6
CONTINUOUS
100
AcDbLine
 10
65.251938
 20
215.858597
 30
0.0
 11
59.335941
 21
215.858597
 31
0.0
  0
LINE
  5
1A2
330
1E
100
AcDbEntity
  8
0
  6
CONTINUOUS
100
AcDbLine
 10
62.293941
 20
213.858597
 30
0.0
 11
62.012939
 21
213.3717959999999
 31
0.0
  0
LINE
  5
1A3
330
1E
100
AcDbEntity
  8
0
  6
CONTINUOUS
100
AcDbLine
 10
62.293941
 20
213.858597
 30
0.0
 11
62.57514200000001
 21
213.3717959999999
 31
0.0
  0
LINE
  5
1A4
330
1E
100
AcDbEntity
  8
0
  6
CONTINUOUS
100
AcDbLine
 10
115.2939379999999
 20
272.3586119999999
 30
0.0
 11
115.2939379999999
 21
273.8586119999999
 31
0.0
  0
LINE
  5
1A5
330
1E
100
AcDbEntity
  8
0
  6
CONTINUOUS
100
AcDbLine
 10
69.29393799999999
 20
272.3586119999999
 30
0.0
 11
69.29393799999999
 21
273.8586119999999
 31
0.0
  0
LINE
  5
1A6
330
1E
100
AcDbEntity
  8
0
  6
CONTINUOUS
100
AcDbLine
 10
29.29394099999999
 20
249.858795
 30
0.0
 11
29.29394099999999
 21
220.858597
 31
0.0
  0
LINE
  5
1A7
330
1E
100
AcDbEntity
  8
0
  6
CONTINUOUS
100
AcDbLine
 10
37.29394099999999
 20
249.858795
 30
0.0
 11
37.29394099999999
 21
220.858597
 31
0.0
  0
LINE
  5
1A8
330
1E
100
AcDbEntity
  8
0
  6
CONTINUOUS
100
AcDbLine
 10
29.29394099999999
 20
249.858795
 30
0.0
 11
37.29394099999999
 21
249.858795
 31
0.0
  0
LINE
  5
1A9
330
1E
100
AcDbEntity
  8
0
  6
CONTINUOUS
100
AcDbLine
 10
29.29394099999999
 20
220.858597
 30
0.0
 11
37.29394099999999
 21
220.858597
 31
0.0
  0
LINE
  5
1AA
330
1E
100
AcDbEntity
  8
0
  6
CONTINUOUS
100
AcDbLine
 10
46.29394099999999
 20
248.3587949999999
 30
0.0
 11
46.29394099999999
 21
222.358597
 31
0.0
  0
LINE
  5
1AB
330
1E
100
AcDbEntity
  8
0
  6
CONTINUOUS
100
AcDbLine
 10
37.29394099999999
 20
248.3587949999999
 30
0.0
 11
46.29394099999999
 21
248.3587949999999
 31
0.0
  0
LINE
  5
1AC
330
1E
100
AcDbEntity
  8
0
  6
CONTINUOUS
100
AcDbLine
 10
37.29394099999999
 20
222.358597
 30
0.0
 11
46.29394099999999
 21
222.358597
 31
0.0
  0
LINE
  5
1AD
330
1E
100
AcDbEntity
  8
0
  6
CONTINUOUS
100
AcDbLine
 10
46.29394099999999
 20
246.858795
 30
0.0
 11
51.29394099999999
 21
246.858795
 31
0.0
  0
LINE
  5
1AE
330
1E
100
AcDbEntity
  8
0
  6
CONTINUOUS
100
AcDbLine
 10
46.29394099999999
 20
223.858597
 30
0.0
 11
51.29394099999999
 21
223.858597
 31
0.0
  0
LINE
  5
1AF
330
1E
100
AcDbEntity
  8
0
  6
CONTINUOUS
100
AcDbLine
 10
51.29394099999999
 20
248.858795
 30
0.0
 11
51.29394099999999
 21
221.858597
 31
0.0
  0
LINE
  5
1B0
330
1E
100
AcDbEntity
  8
0
  6
CONTINUOUS
100
AcDbLine
 10
55.793941
 20
249.858795
 30
0.0
 11
55.793941
 21
220.858597
 31
0.0
  0
LINE
  5
1B1
330
1E
100
AcDbEntity
  8
0
  6
CONTINUOUS
100
AcDbLine
 10
51.29394099999999
 20
248.858795
 30
0.0
 11
55.793941
 21
248.858795
 31
0.0
  0
LINE
  5
1B2
330
1E
100
AcDbEntity
  8
0
  6
CONTINUOUS
100
AcDbLine
 10
51.29394099999999
 20
221.858597
 30
0.0
 11
55.793941
 21
221.858597
 31
0.0
  0
LINE
  5
1B3
330
1E
100
AcDbEntity
  8
0
  6
CONTINUOUS
100
AcDbLine
 10
55.793941
 20
249.858795
 30
0.0
 11
58.102543
 21
249.858795
 31
0.0
  0
LINE
  5
1B4
330
1E
100
AcDbEntity
  8
0
  6
CONTINUOUS
100
AcDbLine
 10
55.793941
 20
220.858597
 30
0.0
 11
57.33374
 21
220.858597
 31
0.0
  0
LINE
  5
1B5
330
1E
100
AcDbEntity
  8
0
  6
CONTINUOUS
100
AcDbLine
 10
29.29394099999999
 20
243.358795
 30
0.0
 11
37.29394099999999
 21
243.358795
 31
0.0
  0
LINE
  5
1B6
330
1E
100
AcDbEntity
  8
0
  6
CONTINUOUS
100
AcDbLine
 10
29.29394099999999
 20
227.358597
 30
0.0
 11
37.29394099999999
 21
227.358597
 31
0.0
  0
LINE
  5
1B7
330
1E
100
AcDbEntity
  8
0
  6
CONTINUOUS
100
AcDbLine
 10
46.29394099999999
 20
245.358795
 30
0.0
 11
51.29394099999999
 21
245.358795
 31
0.0
  0
LINE
  5
1B8
330
1E
100
AcDbEntity
  8
0
  6
CONTINUOUS
100
AcDbLine
 10
46.29394099999999
 20
225.358597
 30
0.0
 11
51.29394099999999
 21
225.358597
 31
0.0
  0
ARC
  5
1B9
330
1E
100
AcDbEntity
  8
0
  6
CONTINUOUS
100
AcDbCircle
 10
65.08371700000001
 20
264.358612
 30
0.0
 40
2.0
100
AcDbArc
 50
270.0
 51
358.500092
  0
ARC
  5
1BA
330
1E
100
AcDbEntity
  8
0
  6
CONTINUOUS
100
AcDbCircle
 10
119.504135
 20
264.358612
 30
0.0
 40
2.0
100
AcDbArc
 50
181.5033719999999
 51
270.0
  0
LINE
  5
1BB
330
1E
100
AcDbEntity
  8
0
  6
CONTINUOUS
100
AcDbLine
 10
52.2939749985963
 20
135.325485
 30
0.0
 11
176.293945
 21
135.325485
 31
0.0
  0
LINE
  5
1BC
330
1E
100
AcDbEntity
  8
0
  6
CONTINUOUS
100
AcDbLine
 10
168.293945
 20
129.111481
 30
0.0
 11
168.293945
 21
124.825478
 31
0.0
  0
LINE
  5
1BD
330
1E
100
AcDbEntity
  8
0
  6
CONTINUOUS
100
AcDbLine
 10
129.293945
 20
104.825478
 30
0.0
 11
127.2939379999999
 21
104.825478
 31
0.0
  0
LINE
  5
1BE
330
1E
100
AcDbEntity
  8
0
  6
CONTINUOUS
100
AcDbLine
 10
129.293945
 20
50.825478
 30
0.0
 11
127.2939379999999
 21
50.825478
 31
0.0
  0
LINE
  5
1BF
330
1E
100
AcDbEntity
  8
0
  6
CONTINUOUS
100
AcDbLine
 10
131.293945
 20
52.825478
 30
0.0
 11
131.293945
 21
102.825478
 31
0.0
  0
LINE
  5
1C0
330
1E
100
AcDbEntity
  8
0
  6
CONTINUOUS
100
AcDbLine
 10
64.29393799999999
 20
115.825478
 30
0.0
 11
168.293945
 21
115.825478
 31
0.0
  0
LINE
  5
1C1
330
1E
100
AcDbEntity
  8
0
  6
CONTINUOUS
100
AcDbLine
 10
64.29393799999999
 20
117.825478
 30
0.0
 11
168.293945
 21
117.825478
 31
0.0
  0
LINE
  5
1C2
330
1E
100
AcDbEntity
  8
0
  6
CONTINUOUS
100
AcDbLine
 10
64.29393799999999
 20
122.825478
 30
0.0
 11
168.293945
 21
122.825478
 31
0.0
  0
LINE
  5
1C3
330
1E
100
AcDbEntity
  8
0
  6
CONTINUOUS
100
AcDbLine
 10
64.29393799999999
 20
124.825478
 30
0.0
 11
168.293945
 21
124.825478
 31
0.0
  0
LINE
  5
1C4
330
1E
100
AcDbEntity
  8
0
  6
CONTINUOUS
100
AcDbLine
 10
64.29393799999999
 20
129.111481
 30
0.0
 11
168.293945
 21
129.111481
 31
0.0
  0
LINE
  5
1C5
330
1E
100
AcDbEntity
  8
0
  6
CONTINUOUS
100
AcDbLine
 10
168.293945
 20
26.539478
 30
0.0
 11
168.293945
 21
30.825478
 31
0.0
  0
LINE
  5
1C6
330
1E
100
AcDbEntity
  8
0
  6
CONTINUOUS
100
AcDbLine
 10
168.293945
 20
32.825478
 30
0.0
 11
168.293945
 21
37.825478
 31
0.0
  0
LINE
  5
1C7
330
1E
100
AcDbEntity
  8
0
  6
CONTINUOUS
100
AcDbLine
 10
168.293945
 20
39.825478
 30
0.0
 11
168.293945
 21
45.325478
 31
0.0
  0
LINE
  5
1C8
330
1E
100
AcDbEntity
  8
0
  6
CONTINUOUS
100
AcDbLine
 10
168.293945
 20
47.325478
 30
0.0
 11
168.293945
 21
53.42548
 31
0.0
  0
LINE
  5
1C9
330
1E
100
AcDbEntity
  8
0
  6
CONTINUOUS
100
AcDbLine
 10
168.293945
 20
55.42548
 30
0.0
 11
168.293945
 21
61.22546800000001
 31
0.0
  0
LINE
  5
1CA
330
1E
100
AcDbEntity
  8
0
  6
CONTINUOUS
100
AcDbLine
 10
168.293945
 20
63.225471
 30
0.0
 11
168.293945
 21
69.025482
 31
0.0
  0
LINE
  5
1CB
330
1E
100
AcDbEntity
  8
0
  6
CONTINUOUS
100
AcDbLine
 10
168.293945
 20
71.025482
 30
0.0
 11
168.293945
 21
76.825478
 31
0.0
  0
LINE
  5
1CC
330
1E
100
AcDbEntity
  8
0
  6
CONTINUOUS
100
AcDbLine
 10
168.293945
 20
78.82547800000001
 30
0.0
 11
168.293945
 21
84.62548100000001
 31
0.0
  0
LINE
  5
1CD
330
1E
100
AcDbEntity
  8
0
  6
CONTINUOUS
100
AcDbLine
 10
168.293945
 20
86.625481
 30
0.0
 11
168.293945
 21
92.425484
 31
0.0
  0
LINE
  5
1CE
330
1E
100
AcDbEntity
  8
0
  6
CONTINUOUS
100
AcDbLine
 10
168.293945
 20
94.42547600000001
 30
0.0
 11
168.293945
 21
100.225479
 31
0.0
  0
LINE
  5
1CF
330
1E
100
AcDbEntity
  8
0
  6
CONTINUOUS
100
AcDbLine
 10
168.293945
 20
102.225479
 30
0.0
 11
168.293945
 21
108.325478
 31
0.0
  0
LINE
  5
1D0
330
1E
100
AcDbEntity
  8
0
  6
CONTINUOUS
100
AcDbLine
 10
168.293945
 20
110.325478
 30
0.0
 11
168.293945
 21
115.825478
 31
0.0
  0
LINE
  5
1D1
330
1E
100
AcDbEntity
  8
0
  6
CONTINUOUS
100
AcDbLine
 10
168.293945
 20
117.825478
 30
0.0
 11
168.293945
 21
122.825478
 31
0.0
  0
ARC
  5
1D2
330
1E
100
AcDbEntity
  8
0
  6
CONTINUOUS
100
AcDbCircle
 10
129.293945
 20
102.825478
 30
0.0
 40
2.0
100
AcDbArc
 50
0.0
 51
90.0
  0
ARC
  5
1D3
330
1E
100
AcDbEntity
  8
0
  6
CONTINUOUS
100
AcDbCircle
 10
129.293945
 20
52.825478
 30
0.0
 40
2.0
100
AcDbArc
 50
270.0
 51
0.0
  0
LINE
  5
1D4
330
1E
100
AcDbEntity
  8
0
  6
CONTINUOUS
100
AcDbLine
 10
168.293945
 20
47.325478
 30
0.0
 11
127.2939379999999
 21
47.325478
 31
0.0
  0
LINE
  5
1D5
330
1E
100
AcDbEntity
  8
0
  6
CONTINUOUS
100
AcDbLine
 10
168.293945
 20
45.325478
 30
0.0
 11
127.2939379999999
 21
45.325527
 31
0.0
  0
LINE
  5
1D6
330
1E
100
AcDbEntity
  8
0
  6
CONTINUOUS
100
AcDbLine
 10
168.293945
 20
39.825478
 30
0.0
 11
78.793991
 21
39.825478
 31
0.0
  0
LINE
  5
1D7
330
1E
100
AcDbEntity
  8
0
  6
CONTINUOUS
100
AcDbLine
 10
168.293945
 20
37.825478
 30
0.0
 11
105.7940899999999
 21
37.825478
 31
0.0
  0
LINE
  5
1D8
330
1E
100
AcDbEntity
  8
0
  6
CONTINUOUS
100
AcDbLine
 10
168.293945
 20
32.825478
 30
0.0
 11
80.79399100000001
 21
32.825478
 31
0.0
  0
LINE
  5
1D9
330
1E
100
AcDbEntity
  8
0
  6
CONTINUOUS
100
AcDbLine
 10
168.293945
 20
30.825478
 30
0.0
 11
105.29409
 21
30.825478
 31
0.0
  0
LINE
  5
1DA
330
1E
100
AcDbEntity
  8
0
  6
CONTINUOUS
100
AcDbLine
 10
168.293945
 20
26.539478
 30
0.0
 11
79.29399100000001
 21
26.539478
 31
0.0
  0
LINE
  5
1DB
330
1E
100
AcDbEntity
  8
0
  6
CONTINUOUS
100
AcDbLine
 10
176.293945
 20
20.325478
 30
0.0
 11
106.7940899999999
 21
20.325478
 31
0.0
  0
LINE
  5
1DC
330
1E
100
AcDbEntity
  8
0
  6
CONTINUOUS
100
AcDbLine
 10
127.2939379999999
 20
110.3254699999999
 30
0.0
 11
127.2939379999999
 21
45.325527
 31
0.0
  0
LINE
  5
1DD
330
1E
100
AcDbEntity
  8
0
  6
CONTINUOUS
100
AcDbLine
 10
57.293941
 20
45.325428
 30
0.0
 11
57.293941
 21
110.325478
 31
0.0
  0
LINE
  5
1DE
330
1E
100
AcDbEntity
  8
0
  6
CONTINUOUS
100
AcDbLine
 10
59.793941
 20
112.825478
 30
0.0
 11
124.7939379999999
 21
112.825478
 31
0.0
  0
LINE
  5
1DF
330
1E
100
AcDbEntity
  8
0
  6
CONTINUOUS
100
AcDbLine
 10
59.79393
 20
42.825428
 30
0.0
 11
124.7939379999999
 21
42.825428
 31
0.0
  0
ARC
  5
1E0
330
1E
100
AcDbEntity
  8
0
  6
CONTINUOUS
100
AcDbCircle
 10
124.7939379999999
 20
45.325428
 30
0.0
 40
2.5
100
AcDbArc
 50
270.0
 51
0.0
  0
ARC
  5
1E1
330
1E
100
AcDbEntity
  8
0
  6
CONTINUOUS
100
AcDbCircle
 10
124.7939379999999
 20
110.3254469999999
 30
0.0
 40
2.5
100
AcDbArc
 50
0.0
 51
90.0
  0
ARC
  5
1E2
330
1E
100
AcDbEntity
  8
0
  6
CONTINUOUS
100
AcDbCircle
 10
59.793941
 20
110.3254699999999
 30
0.0
 40
2.5
100
AcDbArc
 50
90.0
 51
180.0
  0
ARC
  5
1E3
330
1E
100
AcDbEntity
  8
0
  6
CONTINUOUS
100
AcDbCircle
 10
59.79393
 20
45.325428
 30
0.0
 40
2.5
100
AcDbArc
 50
180.0
 51
270.0
  0
ARC
  5
1E4
330
1E
100
AcDbEntity
  8
0
  6
CONTINUOUS
100
AcDbCircle
 10
122.2939379999999
 20
107.82547
 30
0.0
 40
4.0
100
AcDbArc
 50
180.0
 51
270.0
  0
ARC
  5
1E5
330
1E
100
AcDbEntity
  8
0
  6
CONTINUOUS
100
AcDbCircle
 10
122.2939379999999
 20
47.825428
 30
0.0
 40
4.0
100
AcDbArc
 50
90.0
 51
180.0
  0
ARC
  5
1E6
330
1E
100
AcDbEntity
  8
0
  6
CONTINUOUS
100
AcDbCircle
 10
62.293941
 20
47.825428
 30
0.0
 40
4.0
100
AcDbArc
 50
0.0
 51
90.0
  0
ARC
  5
1E7
330
1E
100
AcDbEntity
  8
0
  6
CONTINUOUS
100
AcDbCircle
 10
62.293941
 20
107.82547
 30
0.0
 40
4.0
100
AcDbArc
 50
270.0
 51
0.0
  0
LINE
  5
1E8
330
1E
100
AcDbEntity
  8
0
  6
CONTINUOUS
100
AcDbLine
 10
118.2939379999999
 20
47.825428
 30
0.0
 11
118.2939379999999
 21
45.325428
 31
0.0
  0
LINE
  5
1E9
330
1E
100
AcDbEntity
  8
0
  6
CONTINUOUS
100
AcDbLine
 10
118.2939379999999
 20
107.8254779999999
 30
0.0
 11
118.2939379999999
 21
110.325478
 31
0.0
  0
LINE
  5
1EA
330
1E
100
AcDbEntity
  8
0
  6
CONTINUOUS
100
AcDbLine
 10
66.29393799999999
 20
107.8254779999999
 30
0.0
 11
66.29393799999999
 21
110.3254469999999
 31
0.0
  0
LINE
  5
1EB
330
1E
100
AcDbEntity
  8
0
  6
CONTINUOUS
100
AcDbLine
 10
66.29393799999999
 20
47.825428
 30
0.0
 11
66.29393799999999
 21
45.325428
 31
0.0
  0
LINE
  5
1EC
330
1E
100
AcDbEntity
  8
0
  6
CONTINUOUS
100
AcDbLine
 10
122.2939379999999
 20
51.825428
 30
0.0
 11
124.7939379999999
 21
51.825428
 31
0.0
  0
LINE
  5
1ED
330
1E
100
AcDbEntity
  8
0
  6
CONTINUOUS
100
AcDbLine
 10
122.2939379999999
 20
103.8254699999999
 30
0.0
 11
124.7939379999999
 21
103.8254699999999
 31
0.0
  0
LINE
  5
1EE
330
1E
100
AcDbEntity
  8
0
  6
CONTINUOUS
100
AcDbLine
 10
62.293941
 20
103.8254699999999
 30
0.0
 11
59.79393
 21
103.8254699999999
 31
0.0
  0
LINE
  5
1EF
330
1E
100
AcDbEntity
  8
0
  6
CONTINUOUS
100
AcDbLine
 10
62.29392199999999
 20
51.825428
 30
0.0
 11
59.79393
 21
51.825428
 31
0.0
  0
ARC
  5
1F0
330
1E
100
AcDbEntity
  8
0
  6
CONTINUOUS
100
AcDbCircle
 10
115.7939379999999
 20
110.3254699999999
 30
0.0
 40
2.5
100
AcDbArc
 50
0.0
 51
90.0
  0
ARC
  5
1F1
330
1E
100
AcDbEntity
  8
0
  6
CONTINUOUS
100
AcDbCircle
 10
124.7939379999999
 20
101.3254469999999
 30
0.0
 40
2.5
100
AcDbArc
 50
0.0
 51
90.0
  0
ARC
  5
1F2
330
1E
100
AcDbEntity
  8
0
  6
CONTINUOUS
100
AcDbCircle
 10
124.7939379999999
 20
54.325428
 30
0.0
 40
2.5
100
AcDbArc
 50
270.0
 51
0.0
  0
ARC
  5
1F3
330
1E
100
AcDbEntity
  8
0
  6
CONTINUOUS
100
AcDbCircle
 10
115.7939379999999
 20
45.325428
 30
0.0
 40
2.5
100
AcDbArc
 50
270.0
 51
0.0
  0
ARC
  5
1F4
330
1E
100
AcDbEntity
  8
0
  6
CONTINUOUS
100
AcDbCircle
 10
68.79393799999999
 20
110.3254699999999
 30
0.0
 40
2.5
100
AcDbArc
 50
90.0
 51
180.0
  0
ARC
  5
1F5
330
1E
100
AcDbEntity
  8
0
  6
CONTINUOUS
100
AcDbCircle
 10
59.793941
 20
101.32547
 30
0.0
 40
2.5
100
AcDbArc
 50
90.0
 51
180.0
  0
ARC
  5
1F6
330
1E
100
AcDbEntity
  8
0
  6
CONTINUOUS
100
AcDbCircle
 10
68.79393
 20
45.325428
 30
0.0
 40
2.5
100
AcDbArc
 50
180.0
 51
270.0
  0
ARC
  5
1F7
330
1E
100
AcDbEntity
  8
0
  6
CONTINUOUS
100
AcDbCircle
 10
59.79393
 20
54.325428
 30
0.0
 40
2.5
100
AcDbArc
 50
180.0
 51
270.0
  0
LINE
  5
1F8
330
1E
100
AcDbEntity
  8
0
  6
CONTINUOUS
100
AcDbLine
 10
29.29399099999999
 20
63.325329
 30
0.0
 11
29.29399099999999
 21
92.32542399999999
 31
0.0
  0
LINE
  5
1F9
330
1E
100
AcDbEntity
  8
0
  6
CONTINUOUS
100
AcDbLine
 10
37.293991
 20
63.325329
 30
0.0
 11
37.293991
 21
92.32542399999999
 31
0.0
  0
LINE
  5
1FA
330
1E
100
AcDbEntity
  8
0
  6
CONTINUOUS
100
AcDbLine
 10
29.29399099999999
 20
63.325329
 30
0.0
 11
37.293991
 21
63.325329
 31
0.0
  0
LINE
  5
1FB
330
1E
100
AcDbEntity
  8
0
  6
CONTINUOUS
100
AcDbLine
 10
29.29399099999999
 20
92.32542399999999
 30
0.0
 11
37.293991
 21
92.32542399999999
 31
0.0
  0
LINE
  5
1FC
330
1E
100
AcDbEntity
  8
0
  6
CONTINUOUS
100
AcDbLine
 10
46.29399099999999
 20
64.82532500000001
 30
0.0
 11
46.29399099999999
 21
90.82542399999999
 31
0.0
  0
LINE
  5
1FD
330
1E
100
AcDbEntity
  8
0
  6
CONTINUOUS
100
AcDbLine
 10
37.293991
 20
64.82532500000001
 30
0.0
 11
46.29399099999999
 21
64.82532500000001
 31
0.0
  0
LINE
  5
1FE
330
1E
100
AcDbEntity
  8
0
  6
CONTINUOUS
100
AcDbLine
 10
37.293991
 20
90.82542399999999
 30
0.0
 11
46.29399099999999
 21
90.82542399999999
 31
0.0
  0
LINE
  5
1FF
330
1E
100
AcDbEntity
  8
0
  6
CONTINUOUS
100
AcDbLine
 10
46.29399099999999
 20
66.325325
 30
0.0
 11
51.293991
 21
66.325325
 31
0.0
  0
LINE
  5
200
330
1E
100
AcDbEntity
  8
0
  6
CONTINUOUS
100
AcDbLine
 10
46.29399099999999
 20
89.325424
 30
0.0
 11
51.293991
 21
89.325424
 31
0.0
  0
LINE
  5
201
330
1E
100
AcDbEntity
  8
0
  6
CONTINUOUS
100
AcDbLine
 10
51.293991
 20
64.325325
 30
0.0
 11
51.293991
 21
91.325424
 31
0.0
  0
LINE
  5
202
330
1E
100
AcDbEntity
  8
0
  6
CONTINUOUS
100
AcDbLine
 10
55.793991
 20
63.325329
 30
0.0
 11
55.793991
 21
92.32542399999999
 31
0.0
  0
LINE
  5
203
330
1E
100
AcDbEntity
  8
0
  6
CONTINUOUS
100
AcDbLine
 10
51.293991
 20
64.325325
 30
0.0
 11
55.793991
 21
64.325325
 31
0.0
  0
LINE
  5
204
330
1E
100
AcDbEntity
  8
0
  6
CONTINUOUS
100
AcDbLine
 10
51.293991
 20
91.325424
 30
0.0
 11
55.793991
 21
91.325424
 31
0.0
  0
LINE
  5
205
330
1E
100
AcDbEntity
  8
0
  6
CONTINUOUS
100
AcDbLine
 10
55.793991
 20
63.325329
 30
0.0
 11
57.33329000000001
 21
63.325329
 31
0.0
  0
LINE
  5
206
330
1E
100
AcDbEntity
  8
0
  6
CONTINUOUS
100
AcDbLine
 10
55.793991
 20
92.32542399999999
 30
0.0
 11
57.293941
 21
92.32542399999999
 31
0.0
  0
LINE
  5
207
330
1E
100
AcDbEntity
  8
0
  6
CONTINUOUS
100
AcDbLine
 10
29.29399099999999
 20
69.82532500000001
 30
0.0
 11
37.293991
 21
69.82532500000001
 31
0.0
  0
LINE
  5
208
330
1E
100
AcDbEntity
  8
0
  6
CONTINUOUS
100
AcDbLine
 10
29.29399099999999
 20
85.82542399999999
 30
0.0
 11
37.293991
 21
85.82542399999999
 31
0.0
  0
LINE
  5
209
330
1E
100
AcDbEntity
  8
0
  6
CONTINUOUS
100
AcDbLine
 10
127.2939379999999
 20
110.3254699999999
 30
0.0
 11
168.293945
 21
110.325478
 31
0.0
  0
LINE
  5
20A
330
1E
100
AcDbEntity
  8
0
  6
CONTINUOUS
100
AcDbLine
 10
127.2939379999999
 20
108.325478
 30
0.0
 11
168.293945
 21
108.325478
 31
0.0
  0
LINE
  5
20B
330
1E
100
AcDbEntity
  8
0
  6
CONTINUOUS
100
AcDbLine
 10
131.293945
 20
102.225479
 30
0.0
 11
168.293945
 21
102.225479
 31
0.0
  0
LINE
  5
20C
330
1E
100
AcDbEntity
  8
0
  6
CONTINUOUS
100
AcDbLine
 10
131.293945
 20
100.225479
 30
0.0
 11
168.293945
 21
100.225479
 31
0.0
  0
LINE
  5
20D
330
1E
100
AcDbEntity
  8
0
  6
CONTINUOUS
100
AcDbLine
 10
131.293945
 20
94.42547600000001
 30
0.0
 11
168.293945
 21
94.42547600000001
 31
0.0
  0
LINE
  5
20E
330
1E
100
AcDbEntity
  8
0
  6
CONTINUOUS
100
AcDbLine
 10
131.293945
 20
92.42547599999999
 30
0.0
 11
168.293945
 21
92.42547599999999
 31
0.0
  0
LINE
  5
20F
330
1E
100
AcDbEntity
  8
0
  6
CONTINUOUS
100
AcDbLine
 10
131.293945
 20
86.625481
 30
0.0
 11
168.293945
 21
86.625481
 31
0.0
  0
LINE
  5
210
330
1E
100
AcDbEntity
  8
0
  6
CONTINUOUS
100
AcDbLine
 10
131.293945
 20
84.62548100000001
 30
0.0
 11
168.293945
 21
84.62548100000001
 31
0.0
  0
LINE
  5
211
330
1E
100
AcDbEntity
  8
0
  6
CONTINUOUS
100
AcDbLine
 10
131.293945
 20
78.82547800000001
 30
0.0
 11
168.293945
 21
78.82547800000001
 31
0.0
  0
LINE
  5
212
330
1E
100
AcDbEntity
  8
0
  6
CONTINUOUS
100
AcDbLine
 10
131.293945
 20
76.825478
 30
0.0
 11
168.293945
 21
76.825478
 31
0.0
  0
LINE
  5
213
330
1E
100
AcDbEntity
  8
0
  6
CONTINUOUS
100
AcDbLine
 10
131.293945
 20
71.025475
 30
0.0
 11
168.293945
 21
71.025475
 31
0.0
  0
LINE
  5
214
330
1E
100
AcDbEntity
  8
0
  6
CONTINUOUS
100
AcDbLine
 10
131.293945
 20
69.025475
 30
0.0
 11
168.293945
 21
69.025475
 31
0.0
  0
LINE
  5
215
330
1E
100
AcDbEntity
  8
0
  6
CONTINUOUS
100
AcDbLine
 10
131.293945
 20
63.225479
 30
0.0
 11
168.293945
 21
63.225479
 31
0.0
  0
LINE
  5
216
330
1E
100
AcDbEntity
  8
0
  6
CONTINUOUS
100
AcDbLine
 10
131.293945
 20
61.225479
 30
0.0
 11
168.293945
 21
61.225479
 31
0.0
  0
LINE
  5
217
330
1E
100
AcDbEntity
  8
0
  6
CONTINUOUS
100
AcDbLine
 10
131.293945
 20
55.42548
 30
0.0
 11
168.293945
 21
55.42548
 31
0.0
  0
LINE
  5
218
330
1E
100
AcDbEntity
  8
0
  6
CONTINUOUS
100
AcDbLine
 10
131.293945
 20
53.42548
 30
0.0
 11
168.293945
 21
53.42548
 31
0.0
  0
LINE
  5
219
330
1E
100
AcDbEntity
  8
0
  6
CONTINUOUS
100
AcDbLine
 10
78.793991
 20
39.825478
 30
0.0
 11
64.29393799999999
 21
39.825478
 31
0.0
  0
LINE
  5
21A
330
1E
100
AcDbEntity
  8
0
  6
CONTINUOUS
100
AcDbLine
 10
105.7940899999999
 20
37.825478
 30
0.0
 11
64.29393799999999
 21
37.825478
 31
0.0
  0
LINE
  5
21B
330
1E
100
AcDbEntity
  8
0
  6
CONTINUOUS
100
AcDbLine
 10
105.29409
 20
30.825478
 30
0.0
 11
64.29393799999999
 21
30.825478
 31
0.0
  0
LINE
  5
21C
330
1E
100
AcDbEntity
  8
0
  6
CONTINUOUS
100
AcDbLine
 10
80.79399100000001
 20
32.825478
 30
0.0
 11
64.29393799999999
 21
32.825478
 31
0.0
  0
LINE
  5
21D
330
1E
100
AcDbEntity
  8
0
  6
CONTINUOUS
100
AcDbLine
 10
79.29399100000001
 20
26.539478
 30
0.0
 11
67.85045600000001
 21
26.539478
 31
0.0
  0
LINE
  5
21E
330
1E
100
AcDbEntity
  8
0
  6
CONTINUOUS
100
AcDbLine
 10
106.7940899999999
 20
20.325478
 30
0.0
 11
70.294083
 21
20.325478
 31
0.0
  0
LINE
  5
21F
330
1E
100
AcDbEntity
  8
0
  6
CENTER
100
AcDbLine
 10
92.293938
 20
115.700478
 30
0.0
 11
92.293938
 21
34.075478
 31
0.0
  0
ARC
  5
220
330
1E
100
AcDbEntity
  8
0
  6
CONTINUOUS
100
AcDbCircle
 10
403.0867309999999
 20
51.791103
 30
0.0
 40
0.9999979999999998
100
AcDbArc
 50
180.0
 51
268.0004879999999
  0
LINE
  5
221
330
1E
100
AcDbEntity
  8
0
  6
CONTINUOUS
100
AcDbLine
 10
387.664795
 20
43.88780999999999
 30
0.0
 11
347.586639
 21
42.825363
 31
0.0
  0
LINE
  5
222
330
1E
100
AcDbEntity
  8
0
  6
CONTINUOUS
100
AcDbLine
 10
368.0866389999999
 20
112.281662
 30
0.0
 11
347.586639
 21
112.8253629999999
 31
0.0
  0
LINE
  5
223
330
1E
100
AcDbEntity
  8
0
  6
CONTINUOUS
100
AcDbLine
 10
400.5866389999999
 20
97.32536299999999
 30
0.0
 11
400.5866389999999
 21
53.799465
 31
0.0
  0
ARC
  5
224
330
1E
100
AcDbEntity
  8
0
  6
CONTINUOUS
100
AcDbCircle
 10
387.586639
 20
46.873466
 30
0.0
 40
3.0
100
AcDbArc
 50
271.499733
 51
0.0
  0
LINE
  5
225
330
1E
100
AcDbEntity
  8
0
  6
CONTINUOUS
100
AcDbLine
 10
395.440857
 20
52.69056299999999
 30
0.0
 11
392.534302
 21
52.61446
 31
0.0
  0
ARC
  5
226
330
1E
100
AcDbEntity
  8
0
  6
CONTINUOUS
100
AcDbCircle
 10
399.586639
 20
53.799465
 30
0.0
 40
1.0
100
AcDbArc
 50
271.5006029999999
 51
0.0
  0
LINE
  5
227
330
1E
100
AcDbEntity
  8
0
  6
CONTINUOUS
100
AcDbLine
 10
390.5866389999999
 20
46.873566
 30
0.0
 11
390.5866389999999
 21
64.51409100000001
 31
0.0
  0
LINE
  5
228
330
1E
100
AcDbEntity
  8
0
  6
CONTINUOUS
100
AcDbLine
 10
399.612854
 20
52.799866
 30
0.0
 11
395.440857
 21
52.69056299999999
 31
0.0
  0
ARC
  5
229
330
1E
100
AcDbEntity
  8
0
  6
CONTINUOUS
100
AcDbCircle
 10
458.0866389999999
 20
77.825363
 30
0.0
 40
68.800003
100
AcDbArc
 50
168.8441929999999
 51
191.155807
  0
LINE
  5
22A
330
1E
100
AcDbEntity
  8
0
  6
CONTINUOUS
100
AcDbLine
 10
341.586639
 20
45.325363
 30
0.0
 11
341.586639
 21
110.3253629999999
 31
0.0
  0
LINE
  5
22B
330
1E
100
AcDbEntity
  8
0
  6
CONTINUOUS
100
AcDbLine
 10
344.086639
 20
112.8253629999999
 30
0.0
 11
346.5866389999999
 21
112.8253629999999
 31
0.0
  0
LINE
  5
22C
330
1E
100
AcDbEntity
  8
0
  6
CONTINUOUS
100
AcDbLine
 10
344.086639
 20
42.825363
 30
0.0
 11
346.5866389999999
 21
42.825363
 31
0.0
  0
LINE
  5
22D
330
1E
100
AcDbEntity
  8
0
  6
CONTINUOUS
100
AcDbLine
 10
346.5866389999999
 20
112.8253629999999
 30
0.0
 11
346.5866389999999
 21
42.825363
 31
0.0
  0
LINE
  5
22E
330
1E
100
AcDbEntity
  8
0
  6
CONTINUOUS
100
AcDbLine
 10
347.586639
 20
112.8253629999999
 30
0.0
 11
347.586639
 21
42.825363
 31
0.0
  0
LINE
  5
22F
330
1E
100
AcDbEntity
  8
0
  6
CONTINUOUS
100
AcDbLine
 10
346.5866389999999
 20
112.8253629999999
 30
0.0
 11
347.586639
 21
112.8253629999999
 31
0.0
  0
LINE
  5
230
330
1E
100
AcDbEntity
  8
0
  6
CONTINUOUS
100
AcDbLine
 10
346.5866389999999
 20
42.825363
 30
0.0
 11
347.586639
 21
42.825363
 31
0.0
  0
LINE
  5
231
330
1E
100
AcDbEntity
  8
0
  6
CONTINUOUS
100
AcDbLine
 10
344.5866389999999
 20
104.3124619999999
 30
0.0
 11
344.5866389999999
 21
111.8253629999999
 31
0.0
  0
LINE
  5
232
330
1E
100
AcDbEntity
  8
0
  6
CONTINUOUS
100
AcDbLine
 10
344.5866389999999
 20
51.338306
 30
0.0
 11
344.5866389999999
 21
43.825363
 31
0.0
  0
LINE
  5
233
330
1E
100
AcDbEntity
  8
0
  6
CONTINUOUS
100
AcDbLine
 10
344.099731
 20
103.8126679999999
 30
0.0
 11
342.560455
 21
103.7723619999999
 31
0.0
  0
ARC
  5
234
330
1E
100
AcDbEntity
  8
0
  6
CONTINUOUS
100
AcDbCircle
 10
344.086639
 20
104.3124619999999
 30
0.0
 40
0.5
100
AcDbArc
 50
271.4999999999999
 51
0.0
  0
ARC
  5
235
330
1E
100
AcDbEntity
  8
0
  6
CONTINUOUS
100
AcDbCircle
 10
342.5866389999999
 20
102.772667
 30
0.0
 40
1.0
100
AcDbArc
 50
91.49980199999999
 51
180.0
  0
ARC
  5
236
330
1E
100
AcDbEntity
  8
0
  6
CONTINUOUS
100
AcDbCircle
 10
345.586639
 20
111.8253629999999
 30
0.0
 40
1.0
100
AcDbArc
 50
90.0
 51
180.0
  0
ARC
  5
237
330
1E
100
AcDbEntity
  8
0
  6
CONTINUOUS
100
AcDbCircle
 10
344.086639
 20
110.3253629999999
 30
0.0
 40
2.5
100
AcDbArc
 50
90.0
 51
180.0
  0
LINE
  5
238
330
1E
100
AcDbEntity
  8
0
  6
CONTINUOUS
100
AcDbLine
 10
344.099731
 20
51.838184
 30
0.0
 11
342.560455
 21
51.878464
 31
0.0
  0
ARC
  5
239
330
1E
100
AcDbEntity
  8
0
  6
CONTINUOUS
100
AcDbCircle
 10
342.5866389999999
 20
52.878094
 30
0.0
 40
1.0
100
AcDbArc
 50
180.0
 51
268.4996029999999
  0
ARC
  5
23A
330
1E
100
AcDbEntity
  8
0
  6
CONTINUOUS
100
AcDbCircle
 10
344.086639
 20
51.338306
 30
0.0
 40
0.5
100
AcDbArc
 50
0.0
 51
88.49980200000002
  0
ARC
  5
23B
330
1E
100
AcDbEntity
  8
0
  6
CONTINUOUS
100
AcDbCircle
 10
345.586639
 20
43.825363
 30
0.0
 40
1.0
100
AcDbArc
 50
180.0
 51
270.0
  0
ARC
  5
23C
330
1E
100
AcDbEntity
  8
0
  6
CONTINUOUS
100
AcDbCircle
 10
344.086639
 20
45.325363
 30
0.0
 40
2.5
100
AcDbArc
 50
180.0
 51
270.0
  0
ARC
  5
23D
330
1E
100
AcDbEntity
  8
0
  6
CONTINUOUS
100
AcDbCircle
 10
344.5866389999999
 20
107.825363
 30
0.0
 40
3.0
100
AcDbArc
 50
90.0
 51
270.0
  0
LINE
  5
23E
330
1E
100
AcDbEntity
  8
0
  6
CONTINUOUS
100
AcDbLine
 10
344.086639
 20
110.783363
 30
0.0
 11
344.086639
 21
104.8673629999999
 31
0.0
  0
LINE
  5
23F
330
1E
100
AcDbEntity
  8
0
  6
CONTINUOUS
100
AcDbLine
 10
342.086639
 20
107.825363
 30
0.0
 11
341.5998539999999
 21
107.5442659999999
 31
0.0
  0
LINE
  5
240
330
1E
100
AcDbEntity
  8
0
  6
CONTINUOUS
100
AcDbLine
 10
342.086639
 20
107.825363
 30
0.0
 11
341.5998539999999
 21
108.1064679999999
 31
0.0
  0
ARC
  5
241
330
1E
100
AcDbEntity
  8
0
  6
CONTINUOUS
100
AcDbCircle
 10
344.5866389999999
 20
47.825363
 30
0.0
 40
3.0
100
AcDbArc
 50
90.0
 51
270.0
  0
LINE
  5
242
330
1E
100
AcDbEntity
  8
0
  6
CONTINUOUS
100
AcDbLine
 10
344.086639
 20
50.78337499999999
 30
0.0
 11
344.086639
 21
44.86735499999999
 31
0.0
  0
LINE
  5
243
330
1E
100
AcDbEntity
  8
0
  6
CONTINUOUS
100
AcDbLine
 10
342.086639
 20
47.825363
 30
0.0
 11
341.5998539999999
 21
47.544296
 31
0.0
  0
LINE
  5
244
330
1E
100
AcDbEntity
  8
0
  6
CONTINUOUS
100
AcDbLine
 10
342.086639
 20
47.825363
 30
0.0
 11
341.5998539999999
 21
48.106495
 31
0.0
  0
LINE
  5
245
330
1E
100
AcDbEntity
  8
0
  6
CONTINUOUS
100
AcDbLine
 10
400.5866389999999
 20
54.825363
 30
0.0
 11
402.086639
 21
54.825363
 31
0.0
  0
LINE
  5
246
330
1E
100
AcDbEntity
  8
0
  6
CONTINUOUS
100
AcDbLine
 10
402.08667
 20
51.791046
 30
0.0
 11
402.086639
 21
64.777489
 31
0.0
  0
LINE
  5
247
330
1E
100
AcDbEntity
  8
0
  6
CONTINUOUS
100
AcDbLine
 10
402.086609
 20
97.32536299999999
 30
0.0
 11
402.0865779999999
 21
90.87305500000001
 31
0.0
  0
ARC
  5
248
330
1E
100
AcDbEntity
  8
0
  6
CONTINUOUS
100
AcDbCircle
 10
392.5866389999999
 20
50.61514299999999
 30
0.0
 40
2.0
100
AcDbArc
 50
91.49991599999999
 51
180.0
  0
LINE
  5
249
330
1E
100
AcDbEntity
  8
0
  6
CENTER
100
AcDbLine
 10
363.5866389999999
 20
120.2823639999999
 30
0.0
 11
363.5866389999999
 21
34.174999
 31
0.0
  0
LINE
  5
24A
330
1E
100
AcDbEntity
  8
0
  6
CONTINUOUS
100
AcDbLine
 10
403.051849
 20
50.791706
 30
0.0
 11
407.4195859999999
 21
50.639187
 31
0.0
  0
LINE
  5
24C
330
1E
100
AcDbEntity
  8
0
  6
CONTINUOUS
100
AcDbLine
 10
390.5866389999999
 20
97.32536299999999
 30
0.0
 11
390.5866389999999
 21
91.13663499999999
 31
0.0
  0
LINE
  5
252
330
1E
100
AcDbEntity
  8
0
  6
CONTINUOUS
100
AcDbLine
 10
64.29393799999999
 20
387.358612
 30
0.0
 11
64.29393799999999
 21
355.85849
 31
0.0
  0
LINE
  5
253
330
1E
100
AcDbEntity
  8
0
  6
CONTINUOUS
100
AcDbLine
 10
64.29393799999999
 20
272.3586119999999
 30
0.0
 11
52.29376199850889
 21
272.3586119999999
 31
0.0
  0
LINE
  5
254
330
1E
100
AcDbEntity
  8
0
  6
CONTINUOUS
100
AcDbLine
 10
64.29393799999999
 20
272.3586119999999
 30
0.0
 11
64.29393799999999
 21
303.8587039999999
 31
0.0
  0
ARC
  5
25E
330
1E
100
AcDbEntity
  8
0
  6
CONTINUOUS
100
AcDbCircle
 10
65.293938
 20
274.859497
 30
0.0
 40
1.0
100
AcDbArc
 50
180.0
 51
270.0
  0
ARC
  5
26A
330
1E
100
AcDbEntity
  8
0
  6
CONTINUOUS
100
AcDbCircle
 10
62.29404099999999
 20
20.78393699999999
 30
0.0
 40
8.0
100
AcDbArc
 50
0.0
 51
90.0
  0
ARC
  5
26B
330
1E
100
AcDbEntity
  8
0
  6
CONTINUOUS
100
AcDbCircle
 10
62.29404099999999
 20
20.78393699999999
 30
0.0
 40
5.0
100
AcDbArc
 50
0.0
 51
90.0
  0
ARC
  5
26C
330
1E
100
AcDbEntity
  8
0
  6
CONTINUOUS
100
AcDbCircle
 10
62.29404099999999
 20
20.78393699999999
 30
0.0
 40
2.0
100
AcDbArc
 50
0.0
 51
90.0
  0
LINE
  5
26D
330
1E
100
AcDbEntity
  8
0
  6
CONTINUOUS
100
AcDbLine
 10
62.29404099999999
 20
22.783916
 30
0.0
 11
52.29397499859629
 21
22.783916
 31
0.0
  0
LINE
  5
26E
330
1E
100
AcDbEntity
  8
0
  6
CONTINUOUS
100
AcDbLine
 10
64.294044
 20
20.78393699999999
 30
0.0
 11
64.294044
 21
12.069497
 31
0.0
  0
LINE
  5
26F
330
1E
100
AcDbEntity
  8
0
  6
CONTINUOUS
100
AcDbLine
 10
67.29404399999999
 20
20.78393699999999
 30
0.0
 11
67.29404399999999
 21
10.811477
 31
0.0
  0
LINE
  5
270
330
1E
100
AcDbEntity
  8
0
  6
CONTINUOUS
100
AcDbLine
 10
70.294083
 20
20.78393699999999
 30
0.0
 11
70.294083
 21
13.656797
 31
0.0
  0
LINE
  5
271
330
1E
100
AcDbEntity
  8
0
  6
CONTINUOUS
100
AcDbLine
 10
62.29404099999999
 20
25.78393699999999
 30
0.0
 11
52.29397499859629
 21
25.783937
 31
0.0
  0
LINE
  5
272
330
1E
100
AcDbEntity
  8
0
  6
CONTINUOUS
100
AcDbLine
 10
64.294044
 20
12.069497
 30
0.0
 11
67.29404399999999
 21
10.811477
 31
0.0
  0
LINE
  5
273
330
1E
100
AcDbEntity
  8
0
  6
CONTINUOUS
100
AcDbLine
 10
67.29404399999999
 20
12.523697
 30
0.0
 11
70.294083
 21
13.656797
 31
0.0
  0
LINE
  5
274
330
1E
100
AcDbEntity
  8
0
  6
CONTINUOUS
100
AcDbLine
 10
65.794044
 20
11.44037699999999
 30
0.0
 11
65.794044
 21
6.138797
 31
0.0
  0
LINE
  5
275
330
1E
100
AcDbEntity
  8
0
  6
CONTINUOUS
100
AcDbLine
 10
68.794044
 20
13.090157
 30
0.0
 11
68.794044
 21
7.909496999999999
 31
0.0
  0
LINE
  5
276
330
1E
100
AcDbEntity
  8
0
  6
CONTINUOUS
100
AcDbLine
 10
68.99401899999999
 20
13.165717
 30
0.0
 11
68.99401899999999
 21
7.909496999999999
 31
0.0
  0
LINE
  5
277
330
1E
100
AcDbEntity
  8
0
  6
CONTINUOUS
100
AcDbLine
 10
68.59404000000001
 20
13.014597
 30
0.0
 11
68.59404000000001
 21
7.909496999999999
 31
0.0
  0
LINE
  5
278
330
1E
100
AcDbEntity
  8
0
  6
CONTINUOUS
100
AcDbLine
 10
69.194061
 20
13.241277
 30
0.0
 11
69.194061
 21
7.909496999999999
 31
0.0
  0
LINE
  5
279
330
1E
100
AcDbEntity
  8
0
  6
CONTINUOUS
100
AcDbLine
 10
68.394058
 20
12.93903699999999
 30
0.0
 11
68.394058
 21
7.909496999999999
 31
0.0
  0
LINE
  5
27A
330
1E
100
AcDbEntity
  8
0
  6
CONTINUOUS
100
AcDbLine
 10
69.394058
 20
13.316837
 30
0.0
 11
69.394058
 21
7.909496999999999
 31
0.0
  0
LINE
  5
27B
330
1E
100
AcDbEntity
  8
0
  6
CONTINUOUS
100
AcDbLine
 10
68.19406100000001
 20
12.863477
 30
0.0
 11
68.19406100000001
 21
7.909496999999999
 31
0.0
  0
LINE
  5
27C
330
1E
100
AcDbEntity
  8
0
  6
CONTINUOUS
100
AcDbLine
 10
69.59404000000001
 20
13.39237699999999
 30
0.0
 11
69.59404000000001
 21
7.909496999999999
 31
0.0
  0
LINE
  5
27D
330
1E
100
AcDbEntity
  8
0
  6
CONTINUOUS
100
AcDbLine
 10
67.99401899999999
 20
12.787917
 30
0.0
 11
67.99401899999999
 21
7.909496999999999
 31
0.0
  0
LINE
  5
27E
330
1E
100
AcDbEntity
  8
0
  6
CONTINUOUS
100
AcDbLine
 10
69.79404399999999
 20
13.467897
 30
0.0
 11
69.79404399999999
 21
7.909496999999999
 31
0.0
  0
LINE
  5
27F
330
1E
100
AcDbEntity
  8
0
  6
CONTINUOUS
100
AcDbLine
 10
67.794083
 20
12.712357
 30
0.0
 11
67.794083
 21
7.909496999999999
 31
0.0
  0
LINE
  5
280
330
1E
100
AcDbEntity
  8
0
  6
CONTINUOUS
100
AcDbLine
 10
69.99408000000001
 20
13.543497
 30
0.0
 11
69.99401899999999
 21
7.909496999999999
 31
0.0
  0
LINE
  5
281
330
1E
100
AcDbEntity
  8
0
  6
CONTINUOUS
100
AcDbLine
 10
67.59404
 20
12.636817
 30
0.0
 11
67.59404
 21
7.909496999999999
 31
0.0
  0
LINE
  5
282
330
1E
100
AcDbEntity
  8
0
  6
CONTINUOUS
100
AcDbLine
 10
65.99406399999999
 20
11.356597
 30
0.0
 11
65.99406399999999
 21
6.138797
 31
0.0
  0
LINE
  5
283
330
1E
100
AcDbEntity
  8
0
  6
CONTINUOUS
100
AcDbLine
 10
65.59404
 20
11.524397
 30
0.0
 11
65.59404
 21
6.138797
 31
0.0
  0
LINE
  5
284
330
1E
100
AcDbEntity
  8
0
  6
CONTINUOUS
100
AcDbLine
 10
66.194038
 20
11.27259699999999
 30
0.0
 11
66.194038
 21
6.138797
 31
0.0
  0
LINE
  5
285
330
1E
100
AcDbEntity
  8
0
  6
CONTINUOUS
100
AcDbLine
 10
65.39404300000001
 20
11.608157
 30
0.0
 11
65.39404300000001
 21
6.138797
 31
0.0
  0
LINE
  5
286
330
1E
100
AcDbEntity
  8
0
  6
CONTINUOUS
100
AcDbLine
 10
66.394058
 20
11.18881699999999
 30
0.0
 11
66.394058
 21
6.138797
 31
0.0
  0
LINE
  5
287
330
1E
100
AcDbEntity
  8
0
  6
CONTINUOUS
100
AcDbLine
 10
65.19406100000001
 20
11.69193699999999
 30
0.0
 11
65.19406100000001
 21
6.138797
 31
0.0
  0
LINE
  5
288
330
1E
100
AcDbEntity
  8
0
  6
CONTINUOUS
100
AcDbLine
 10
66.59404000000001
 20
11.105057
 30
0.0
 11
66.59404000000001
 21
6.138797
 31
0.0
  0
LINE
  5
289
330
1E
100
AcDbEntity
  8
0
  6
CONTINUOUS
100
AcDbLine
 10
64.99401899999999
 20
11.775917
 30
0.0
 11
64.99401899999999
 21
6.138797
 31
0.0
  0
LINE
  5
28A
330
1E
100
AcDbEntity
  8
0
  6
CONTINUOUS
100
AcDbLine
 10
66.794044
 20
11.021057
 30
0.0
 11
66.794044
 21
6.138797
 31
0.0
  0
LINE
  5
28B
330
1E
100
AcDbEntity
  8
0
  6
CONTINUOUS
100
AcDbLine
 10
64.79404399999999
 20
11.859697
 30
0.0
 11
64.79404399999999
 21
6.138797
 31
0.0
  0
LINE
  5
28C
330
1E
100
AcDbEntity
  8
0
  6
CONTINUOUS
100
AcDbLine
 10
66.99408000000001
 20
10.937257
 30
0.0
 11
66.99401899999999
 21
6.138797
 31
0.0
  0
LINE
  5
28D
330
1E
100
AcDbEntity
  8
0
  6
CONTINUOUS
100
AcDbLine
 10
64.59404000000001
 20
11.943677
 30
0.0
 11
64.59404000000001
 21
6.138797
 31
0.0
  0
LINE
  5
28E
330
1E
100
AcDbEntity
  8
0
  6
CONTINUOUS
100
AcDbLine
 10
62.29404099999999
 20
28.783937
 30
0.0
 11
52.29397499859629
 21
28.783937
 31
0.0
  0
LINE
  5
28F
330
1E
100
AcDbEntity
  8
0
  6
CONTINUOUS
100
AcDbLine
 10
52.29397499859629
 20
20.325478
 30
0.0
 11
64.294044
 21
20.325478
 31
0.0
  0
LINE
  5
290
330
1E
100
AcDbEntity
  8
0
  6
CONTINUOUS
100
AcDbLine
 10
64.29389999999999
 20
129.1114959999999
 30
0.0
 11
64.29389999999999
 21
124.825478
 31
0.0
  0
LINE
  5
291
330
1E
100
AcDbEntity
  8
0
  6
CONTINUOUS
100
AcDbLine
 10
64.29389999999999
 20
28.529917
 30
0.0
 11
64.29389999999999
 21
30.825478
 31
0.0
  0
LINE
  5
292
330
1E
100
AcDbEntity
  8
0
  6
CONTINUOUS
100
AcDbLine
 10
64.29389999999999
 20
122.825478
 30
0.0
 11
64.29389999999999
 21
117.825478
 31
0.0
  0
LINE
  5
293
330
1E
100
AcDbEntity
  8
0
  6
CONTINUOUS
100
AcDbLine
 10
64.29389999999999
 20
115.825478
 30
0.0
 11
64.29389999999999
 21
112.825478
 31
0.0
  0
LINE
  5
294
330
1E
100
AcDbEntity
  8
0
  6
CONTINUOUS
100
AcDbLine
 10
64.29389999999999
 20
42.825428
 30
0.0
 11
64.29389999999999
 21
39.825478
 31
0.0
  0
LINE
  5
295
330
1E
100
AcDbEntity
  8
0
  6
CONTINUOUS
100
AcDbLine
 10
64.29389999999999
 20
37.825478
 30
0.0
 11
64.29389999999999
 21
32.825478
 31
0.0
  0
LINE
  5
29A
330
1E
100
AcDbEntity
  8
0
  6
CONTINUOUS
100
AcDbLine
 10
64.043938
 20
108.2254639999999
 30
0.0
 11
64.043938
 21
107.4254459999999
 31
0.0
  0
LINE
  5
29B
330
1E
100
AcDbEntity
  8
0
  6
CONTINUOUS
100
AcDbLine
 10
61.893917
 20
109.57547
 30
0.0
 11
62.69393499999999
 21
109.57547
 31
0.0
  0
LINE
  5
29C
330
1E
100
AcDbEntity
  8
0
  6
CONTINUOUS
100
AcDbLine
 10
61.893917
 20
106.0754699999999
 30
0.0
 11
62.69393499999999
 21
106.0754699999999
 31
0.0
  0
LINE
  5
29D
330
1E
100
AcDbEntity
  8
0
  6
CONTINUOUS
100
AcDbLine
 10
60.543941
 20
108.2254639999999
 30
0.0
 11
60.543941
 21
107.4254459999999
 31
0.0
  0
CIRCLE
  5
29E
330
1E
100
AcDbEntity
  8
0
  6
CONTINUOUS
100
AcDbCircle
 10
62.293941
 20
107.82547
 30
0.0
 40
2.75
  0
ARC
  5
29F
330
1E
100
AcDbEntity
  8
0
  6
CONTINUOUS
100
AcDbCircle
 10
60.543941
 20
109.57547
 30
0.0
 40
1.35
100
AcDbArc
 50
270.0
 51
0.0
  0
ARC
  5
2A0
330
1E
100
AcDbEntity
  8
0
  6
CONTINUOUS
100
AcDbCircle
 10
60.543941
 20
106.0754699999999
 30
0.0
 40
1.35
100
AcDbArc
 50
0.0
 51
90.0
  0
ARC
  5
2A1
330
1E
100
AcDbEntity
  8
0
  6
CONTINUOUS
100
AcDbCircle
 10
64.043938
 20
109.57547
 30
0.0
 40
1.35
100
AcDbArc
 50
180.0
 51
270.0
  0
ARC
  5
2A2
330
1E
100
AcDbEntity
  8
0
  6
CONTINUOUS
100
AcDbCircle
 10
64.043938
 20
106.0754699999999
 30
0.0
 40
1.35
100
AcDbArc
 50
90.0
 51
180.0
  0
LINE
  5
2A3
330
1E
100
AcDbEntity
  8
0
  6
CONTINUOUS
100
AcDbLine
 10
124.0439379999999
 20
108.2254639999999
 30
0.0
 11
124.0439379999999
 21
107.4254459999999
 31
0.0
  0
LINE
  5
2A4
330
1E
100
AcDbEntity
  8
0
  6
CONTINUOUS
100
AcDbLine
 10
121.8939129999999
 20
109.57547
 30
0.0
 11
122.693932
 21
109.57547
 31
0.0
  0
LINE
  5
2A5
330
1E
100
AcDbEntity
  8
0
  6
CONTINUOUS
100
AcDbLine
 10
121.8939129999999
 20
106.0754699999999
 30
0.0
 11
122.693932
 21
106.0754699999999
 31
0.0
  0
LINE
  5
2A6
330
1E
100
AcDbEntity
  8
0
  6
CONTINUOUS
100
AcDbLine
 10
120.5439379999999
 20
108.2254639999999
 30
0.0
 11
120.5439379999999
 21
107.4254459999999
 31
0.0
  0
CIRCLE
  5
2A7
330
1E
100
AcDbEntity
  8
0
  6
CONTINUOUS
100
AcDbCircle
 10
122.2939379999999
 20
107.82547
 30
0.0
 40
2.75
  0
ARC
  5
2A8
330
1E
100
AcDbEntity
  8
0
  6
CONTINUOUS
100
AcDbCircle
 10
120.5439379999999
 20
109.57547
 30
0.0
 40
1.35
100
AcDbArc
 50
270.0
 51
0.0
  0
ARC
  5
2A9
330
1E
100
AcDbEntity
  8
0
  6
CONTINUOUS
100
AcDbCircle
 10
120.5439379999999
 20
106.0754699999999
 30
0.0
 40
1.35
100
AcDbArc
 50
0.0
 51
90.0
  0
ARC
  5
2AA
330
1E
100
AcDbEntity
  8
0
  6
CONTINUOUS
100
AcDbCircle
 10
124.0439379999999
 20
109.57547
 30
0.0
 40
1.35
100
AcDbArc
 50
180.0
 51
270.0
  0
ARC
  5
2AB
330
1E
100
AcDbEntity
  8
0
  6
CONTINUOUS
100
AcDbCircle
 10
124.0439379999999
 20
106.0754699999999
 30
0.0
 40
1.35
100
AcDbArc
 50
90.0
 51
180.0
  0
LINE
  5
2AC
330
1E
100
AcDbEntity
  8
0
  6
CONTINUOUS
100
AcDbLine
 10
64.043938
 20
48.225422
 30
0.0
 11
64.043938
 21
47.425404
 31
0.0
  0
LINE
  5
2AD
330
1E
100
AcDbEntity
  8
0
  6
CONTINUOUS
100
AcDbLine
 10
61.893917
 20
49.575428
 30
0.0
 11
62.69393499999999
 21
49.575428
 31
0.0
  0
LINE
  5
2AE
330
1E
100
AcDbEntity
  8
0
  6
CONTINUOUS
100
AcDbLine
 10
61.893917
 20
46.075428
 30
0.0
 11
62.69393499999999
 21
46.075428
 31
0.0
  0
LINE
  5
2AF
330
1E
100
AcDbEntity
  8
0
  6
CONTINUOUS
100
AcDbLine
 10
60.543941
 20
48.225422
 30
0.0
 11
60.543941
 21
47.425404
 31
0.0
  0
CIRCLE
  5
2B0
330
1E
100
AcDbEntity
  8
0
  6
CONTINUOUS
100
AcDbCircle
 10
62.293941
 20
47.825428
 30
0.0
 40
2.75
  0
ARC
  5
2B1
330
1E
100
AcDbEntity
  8
0
  6
CONTINUOUS
100
AcDbCircle
 10
60.543941
 20
49.575428
 30
0.0
 40
1.35
100
AcDbArc
 50
270.0
 51
0.0
  0
ARC
  5
2B2
330
1E
100
AcDbEntity
  8
0
  6
CONTINUOUS
100
AcDbCircle
 10
60.543941
 20
46.075428
 30
0.0
 40
1.35
100
AcDbArc
 50
0.0
 51
90.0
  0
ARC
  5
2B3
330
1E
100
AcDbEntity
  8
0
  6
CONTINUOUS
100
AcDbCircle
 10
64.043938
 20
49.575428
 30
0.0
 40
1.35
100
AcDbArc
 50
180.0
 51
270.0
  0
ARC
  5
2B4
330
1E
100
AcDbEntity
  8
0
  6
CONTINUOUS
100
AcDbCircle
 10
64.043938
 20
46.075428
 30
0.0
 40
1.35
100
AcDbArc
 50
90.0
 51
180.0
  0
LINE
  5
2B5
330
1E
100
AcDbEntity
  8
0
  6
CONTINUOUS
100
AcDbLine
 10
124.0439379999999
 20
48.225422
 30
0.0
 11
124.0439379999999
 21
47.425404
 31
0.0
  0
LINE
  5
2B6
330
1E
100
AcDbEntity
  8
0
  6
CONTINUOUS
100
AcDbLine
 10
121.8939129999999
 20
49.575428
 30
0.0
 11
122.693932
 21
49.575428
 31
0.0
  0
LINE
  5
2B7
330
1E
100
AcDbEntity
  8
0
  6
CONTINUOUS
100
AcDbLine
 10
121.8939129999999
 20
46.075428
 30
0.0
 11
122.693932
 21
46.075428
 31
0.0
  0
LINE
  5
2B8
330
1E
100
AcDbEntity
  8
0
  6
CONTINUOUS
100
AcDbLine
 10
120.5439379999999
 20
48.225422
 30
0.0
 11
120.5439379999999
 21
47.425404
 31
0.0
  0
CIRCLE
  5
2B9
330
1E
100
AcDbEntity
  8
0
  6
CONTINUOUS
100
AcDbCircle
 10
122.2939379999999
 20
47.825428
 30
0.0
 40
2.75
  0
ARC
  5
2BA
330
1E
100
AcDbEntity
  8
0
  6
CONTINUOUS
100
AcDbCircle
 10
120.5439379999999
 20
49.575428
 30
0.0
 40
1.35
100
AcDbArc
 50
270.0
 51
0.0
  0
ARC
  5
2BB
330
1E
100
AcDbEntity
  8
0
  6
CONTINUOUS
100
AcDbCircle
 10
120.5439379999999
 20
46.075428
 30
0.0
 40
1.35
100
AcDbArc
 50
0.0
 51
90.0
  0
ARC
  5
2BC
330
1E
100
AcDbEntity
  8
0
  6
CONTINUOUS
100
AcDbCircle
 10
124.0439379999999
 20
49.575428
 30
0.0
 40
1.35
100
AcDbArc
 50
180.0
 51
270.0
  0
ARC
  5
2BD
330
1E
100
AcDbEntity
  8
0
  6
CONTINUOUS
100
AcDbCircle
 10
124.0439379999999
 20
46.075428
 30
0.0
 40
1.35
100
AcDbArc
 50
90.0
 51
180.0
  0
TEXT
  5
2BE
330
1E
100
AcDbEntity
  8
0
100
AcDbText
 10
-22.0
 20
-32.0
 30
0.0
 40
4.0
  1
H2LB-22R-5~60-T020WA
100
AcDbText
  0
LINE
  5
31C
330
1E
100
AcDbEntity
  8
1
  6
CONTINUOUS
 62
     7
100
AcDbLine
 10
52.29376199850889
 20
396.3558799999999
 30
0.0
 11
52.29376199850889
 21
263.355865
 31
0.0
  0
ARC
  5
31D
330
1E
100
AcDbEntity
  8
1
  6
CONTINUOUS
 62
     7
100
AcDbCircle
 10
336.7937319985087
 20
329.856872
 30
0.0
 40
340.0
100
AcDbArc
 50
170.966506999995
 51
189.0334930000049
  0
ARC
  5
31E
330
1E
100
AcDbEntity
  8
1
  6
CONTINUOUS
 62
     7
100
AcDbCircle
 10
339.7737729985087
 20
329.8558649999999
 30
0.0
 40
325.0
100
AcDbArc
 50
168.2279455165586
 51
191.7720517696801
  0
LINE
  5
320
330
1E
100
AcDbEntity
  8
1
  6
CONTINUOUS
 62
     7
100
AcDbLine
 10
52.29397499859629
 20
17.83539599999994
 30
0.0
 11
52.29397499859629
 21
64.325325
 31
0.0
  0
ARC
  5
321
330
1E
100
AcDbEntity
  8
1
  6
CONTINUOUS
 62
     7
100
AcDbCircle
 10
336.7939449985962
 20
77.82562999999981
 30
0.0
 40
340.0
100
AcDbArc
 50
170.966506999995
 51
189.6212784361565
  0
ARC
  5
322
330
1E
100
AcDbEntity
  8
1
  6
CONTINUOUS
 62
     7
100
AcDbCircle
 10
-303.2060210014059
 20
77.82660699999974
 30
0.0
 40
325.0000000000022
100
AcDbArc
 50
349.395881620111
 51
11.66235952465123
  0
ARC
  5
323
330
1E
100
AcDbEntity
  8
1
  6
CONTINUOUS
 62
     7
100
AcDbCircle
 10
458.0866389999999
 20
77.82536299999998
 30
0.0
 40
67.5
100
AcDbArc
 50
305.1999014271036
 51
44.6746095643835
  0
LINE
  5
32C
330
1E
100
AcDbEntity
  8
1
  6
CONTINUOUS
100
AcDbLine
 10
51.28524846309784
 20
16.83543407693582
 30
0.0
 11
6.506043372610577
 21
16.83543407693582
 31
0.0
  0
ARC
  5
32D
330
1E
100
AcDbEntity
  8
1
  6
CONTINUOUS
100
AcDbCircle
 10
6.506043372610463
 20
21.83543407693582
 30
0.0
 40
5.0
100
AcDbArc
 50
189.6212784361565
 51
270.0
  0
ARC
  5
32E
330
1E
100
AcDbEntity
  8
1
  6
CONTINUOUS
100
AcDbCircle
 10
17.22659152627733
 20
17.83543407693559
 30
0.0
 40
1.0
100
AcDbArc
 50
169.395881620111
 51
270.0
  0
ARC
  5
32F
330
1E
100
AcDbEntity
  8
1
  6
CONTINUOUS
 62
     7
100
AcDbCircle
 10
51.29397499859618
 20
17.83539599999994
 30
0.0
 40
1.0
100
AcDbArc
 50
269.5000000000019
 51
0.0
  0
ARC
  5
33F
330
1E
100
AcDbEntity
  8
1
  6
CONTINUOUS
 62
     7
100
AcDbCircle
 10
12.8622739985962
 20
129.3256299999998
 30
0.0
 40
12.0
100
AcDbArc
 50
90.0
 51
170.966506999995
  0
LINE
  5
340
330
1E
100
AcDbEntity
  8
1
  6
CONTINUOUS
100
AcDbLine
 10
51.2939749985963
 20
145.3266069999999
 30
0.0
 11
16.55365437996766
 21
145.3266069999999
 31
0.0
  0
ARC
  5
341
330
1E
100
AcDbEntity
  8
1
  6
CONTINUOUS
100
AcDbCircle
 10
16.55365437996755
 20
143.8266069999999
 30
0.0
 40
1.5
100
AcDbArc
 50
90.0
 51
191.6623595246512
  0
ARC
  5
342
330
1E
100
AcDbEntity
  8
1
  6
CONTINUOUS
 62
     7
100
AcDbCircle
 10
14.3091419985962
 20
142.3256299999998
 30
0.0
 40
1.0
100
AcDbArc
 50
270.0
 51
11.48264199999979
  0
LINE
  5
343
330
1E
100
AcDbEntity
  8
1
  6
CONTINUOUS
 62
     7
100
AcDbLine
 10
12.86227399859632
 20
141.3256299999998
 30
0.0
 11
14.30914199859631
 21
141.3256299999998
 31
0.0
  0
ARC
  5
344
330
1E
100
AcDbEntity
  8
1
  6
CONTINUOUS
 62
     7
100
AcDbCircle
 10
51.29397499859618
 20
144.3266069999999
 30
0.0
 40
1.0
100
AcDbArc
 50
0.0
 51
90.0
  0
ARC
  5
346
330
1E
100
AcDbEntity
  8
1
  6
CONTINUOUS
 62
     7
100
AcDbCircle
 10
12.86206099850869
 20
278.356872
 30
0.0
 40
12.0
100
AcDbArc
 50
189.0334930000049
 51
270.0
  0
LINE
  5
347
330
1E
100
AcDbEntity
  8
1
  6
CONTINUOUS
100
AcDbLine
 10
51.2937619985089
 20
262.355865
 30
0.0
 11
23.07794100825367
 21
262.355865
 31
0.0
  0
ARC
  5
348
330
1E
100
AcDbEntity
  8
1
  6
CONTINUOUS
100
AcDbCircle
 10
23.07794100825355
 20
263.8558650000001
 30
0.0
 40
1.5
100
AcDbArc
 50
191.7720517696935
 51
270.0
  0
LINE
  5
349
330
1E
100
AcDbEntity
  8
1
  6
CONTINUOUS
 62
     7
100
AcDbLine
 10
12.86206099850892
 20
266.3568719999998
 30
0.0
 11
20.21801799850868
 21
266.3568719999998
 31
0.0
  0
ARC
  5
34A
330
1E
100
AcDbEntity
  8
1
  6
CONTINUOUS
 62
     7
100
AcDbCircle
 10
20.21801799850857
 20
265.3568719999999
 30
0.0
 40
1.0
100
AcDbArc
 50
11.41125500000288
 51
90.0
  0
ARC
  5
34B
330
1E
100
AcDbEntity
  8
1
  6
CONTINUOUS
 62
     7
100
AcDbCircle
 10
51.2937619985089
 20
263.3558650000001
 30
0.0
 40
1.0
100
AcDbArc
 50
270.0
 51
0.0
  0
ARC
  5
34C
330
1E
100
AcDbEntity
  8
1
  6
CONTINUOUS
 62
     7
100
AcDbCircle
 10
12.86206099850881
 20
381.3549039999999
 30
0.0
 40
12.0
100
AcDbArc
 50
90.0
 51
170.966506999995
  0
LINE
  5
34D
330
1E
100
AcDbEntity
  8
1
  6
CONTINUOUS
100
AcDbLine
 10
51.2937619985089
 20
397.3558799999999
 30
0.0
 11
23.07794413428177
 21
397.3558799999996
 31
0.0
  0
LINE
  5
34E
330
1E
100
AcDbEntity
  8
1
  6
CONTINUOUS
 62
     7
100
AcDbLine
 10
12.86206099850892
 20
393.3549039999998
 30
0.0
 11
20.21801799850868
 21
393.3549039999998
 31
0.0
  0
ARC
  5
34F
330
1E
100
AcDbEntity
  8
1
  6
CONTINUOUS
 62
     7
100
AcDbCircle
 10
20.21801799850868
 20
394.3549039999999
 30
0.0
 40
1.0
100
AcDbArc
 50
270.0
 51
348.5887449999971
  0
ARC
  5
350
330
1E
100
AcDbEntity
  8
1
  6
CONTINUOUS
100
AcDbCircle
 10
23.07794413428166
 20
395.85588
 30
0.0
 40
1.5
100
AcDbArc
 50
90.0
 51
168.2279455165586
  0
ARC
  5
351
330
1E
100
AcDbEntity
  8
1
  6
CONTINUOUS
 62
     7
100
AcDbCircle
 10
51.29376199850878
 20
396.35588
 30
0.0
 40
1.0
100
AcDbArc
 50
0.0
 51
90.0
  0
ARC
  5
38D
330
1E
100
AcDbEntity
  8
1
  6
CONTINUOUS
 62
     7
100
AcDbCircle
 10
458.0866389999999
 20
77.82536299999998
 30
0.0
 40
67.5
100
AcDbArc
 50
135.3253904356164
 51
142.0615343630725
  0
ARC
  5
38E
330
1E
100
AcDbEntity
  8
1
  6
CONTINUOUS
 62
     7
100
AcDbCircle
 10
458.0866389999999
 20
77.82536299999998
 30
0.0
 40
67.5
100
AcDbArc
 50
201.8616953020291
 51
234.8000848139025
  0
LINE
  5
38F
330
1E
100
AcDbEntity
  8
1
  6
CONTINUOUS
 62
     7
100
AcDbLine
 10
52.29397499859629
 20
91.325424
 30
0.0
 11
52.29397499859629
 21
144.3266069999999
 31
0.0
  0
LINE
  5
390
330
1E
100
AcDbEntity
  8
0
  6
CONTINUOUS
100
AcDbLine
 10
56.293945
 20
387.358612
 30
0.0
 11
56.293945
 21
272.3586119999999
 31
0.0
  0
LINE
  5
391
330
1E
100
AcDbEntity
  8
0
  6
CONTINUOUS
100
AcDbLine
 10
56.293945
 20
135.3253629999999
 30
0.0
 11
56.293945
 21
92.32542400000001
 31
0.0
  0
LINE
  5
392
330
1E
100
AcDbEntity
  8
0
  6
CONTINUOUS
100
AcDbLine
 10
56.293945
 20
63.325329
 30
0.0
 11
56.293945
 21
28.783937
 31
0.0
  0
LINE
  5
398
330
1E
100
AcDbEntity
  8
0
  6
CONTINUOUS
100
AcDbLine
 10
56.293945
 20
22.783916
 30
0.0
 11
56.293945
 21
20.32536499999999
 31
0.0
  0
ENDSEC
  0
SECTION
  2
OBJECTS
  0
DICTIONARY
  5
C
330
0
100
AcDbDictionary
  3
ACAD_GROUP
350
D
  3
ACAD_LAYOUT
350
19
  3
ACAD_MLINESTYLE
350
16
  3
ACAD_PLOTSETTINGS
350
18
  3
ACAD_PLOTSTYLENAME
350
E
  3
ACDBHEADERROUNDTRIPXREC
350
3A6
  3
ACDBVARIABLEDICTIONARY
350
3A3
  0
DICTIONARY
  5
3C8
330
1E
100
AcDbDictionary
280
     1
  3
ACAD_LAYOUTSELFREF
360
3C9
  0
DICTIONARY
  5
3C6
330
1A
100
AcDbDictionary
280
     1
  3
ACAD_LAYOUTSELFREF
360
3C7
  0
DICTIONARY
  5
D
102
{ACAD_REACTORS
330
C
102
}
330
C
100
AcDbDictionary
  0
DICTIONARY
  5
19
102
{ACAD_REACTORS
330
C
102
}
330
C
100
AcDbDictionary
  0
DICTIONARY
  5
16
102
{ACAD_REACTORS
330
C
102
}
330
C
100
AcDbDictionary
  3
STANDARD
350
17
  0
DICTIONARY
  5
18
102
{ACAD_REACTORS
330
C
102
}
330
C
100
AcDbDictionary
  0
ACDBDICTIONARYWDFLT
  5
E
102
{ACAD_REACTORS
330
C
102
}
330
C
100
AcDbDictionary
281
     1
  3
Normal
350
F
100
AcDbDictionaryWithDefault
340
F
  0
DICTIONARY
  5
3A6
102
{ACAD_REACTORS
330
C
102
}
330
C
100
AcDbDictionary
  3
CEPSNTYPE
350
3B0
  3
FINGERPRINTGUID
350
3B1
  3
HYPERLINKBASE
350
3A9
  3
INSUNITS
350
3AF
  3
LAYOUTDICT
350
3AB
  3
LWETCUNION
350
3AE
  3
PLOTSETDICT
350
3AC
  3
PLOTSTYLNAMDICT
350
3AD
  3
PSVPSCALE
350
3B3
  3
PUCSBASE
350
3B6
  3
PUCSORGBACK
350
3BC
  3
PUCSORGBOTTOM
350
3B8
  3
PUCSORGFRONT
350
3BB
  3
PUCSORGLEFT
350
3B9
  3
PUCSORGRIGHT
350
3BA
  3
PUCSORGTOP
350
3B7
  3
PUCSORTHOREF
350
3B4
  3
PUCSORTHOVIEW
350
3B5
  3
STYLESHEET
350
3AA
  3
TSTACKALIGN
350
3A7
  3
TSTACKSIZE
350
3A8
  3
UCSBASE
350
3BF
  3
UCSORGBACK
350
3C5
  3
UCSORGBOTTOM
350
3C1
  3
UCSORGFRONT
350
3C4
  3
UCSORGLEFT
350
3C2
  3
UCSORGRIGHT
350
3C3
  3
UCSORGTOP
350
3C0
  3
UCSORTHOREF
350
3BD
  3
UCSORTHOVIEW
350
3BE
  3
VERSIONGUID
350
3B2
  0
DICTIONARY
  5
3A3
102
{ACAD_REACTORS
330
C
102
}
330
C
100
AcDbDictionary
  3
DIMASSOC
350
3A4
  0
XRECORD
  5
3C9
102
{ACAD_REACTORS
330
3C8
102
}
330
3C8
100
AcDbXrecord
340
1E
  0
XRECORD
  5
3C7
102
{ACAD_REACTORS
330
3C6
102
}
330
3C6
100
AcDbXrecord
340
1A
  0
MLINESTYLE
  5
17
102
{ACAD_REACTORS
330
16
102
}
330
16
100
AcDbMlineStyle
  2
STANDARD
 70
     0
  3

 62
   256
 51
90.0
 52
90.0
 71
     2
 49
0.5
 62
   256
  6
BYLAYER
 49
-0.5
 62
   256
  6
BYLAYER
  0
ACDBPLACEHOLDER
  5
F
102
{ACAD_REACTORS
330
E
102
}
330
E
100
AcDbPlaceHolder
280
     0
  0
XRECORD
  5
3B0
102
{ACAD_REACTORS
330
3A6
102
}
330
3A6
100
AcDbXrecord
 90
        0
  0
XRECORD
  5
3B1
102
{ACAD_REACTORS
330
3A6
102
}
330
3A6
100
AcDbXrecord
  1
{EFF458BB-D42A-439B-9555-05D9E05BFC2E}
  0
XRECORD
  5
3A9
102
{ACAD_REACTORS
330
3A6
102
}
330
3A6
100
AcDbXrecord
  1

  0
XRECORD
  5
3AF
102
{ACAD_REACTORS
330
3A6
102
}
330
3A6
100
AcDbXrecord
 90
        0
  0
XRECORD
  5
3AB
102
{ACAD_REACTORS
330
3A6
102
}
330
3A6
100
AcDbXrecord
340
19
  0
XRECORD
  5
3AE
102
{ACAD_REACTORS
330
3A6
102
}
330
3A6
100
AcDbXrecord
 90
    10781
  0
XRECORD
  5
3AC
102
{ACAD_REACTORS
330
3A6
102
}
330
3A6
100
AcDbXrecord
340
18
  0
XRECORD
  5
3AD
102
{ACAD_REACTORS
330
3A6
102
}
330
3A6
100
AcDbXrecord
340
E
  0
XRECORD
  5
3B3
102
{ACAD_REACTORS
330
3A6
102
}
330
3A6
100
AcDbXrecord
 40
0.0
  0
XRECORD
  5
3B6
102
{ACAD_REACTORS
330
3A6
102
}
330
3A6
100
AcDbXrecord
340
0
  0
XRECORD
  5
3BC
102
{ACAD_REACTORS
330
3A6
102
}
330
3A6
100
AcDbXrecord
 10
0.0
 20
0.0
 30
0.0
  0
XRECORD
  5
3B8
102
{ACAD_REACTORS
330
3A6
102
}
330
3A6
100
AcDbXrecord
 10
0.0
 20
0.0
 30
0.0
  0
XRECORD
  5
3BB
102
{ACAD_REACTORS
330
3A6
102
}
330
3A6
100
AcDbXrecord
 10
0.0
 20
0.0
 30
0.0
  0
XRECORD
  5
3B9
102
{ACAD_REACTORS
330
3A6
102
}
330
3A6
100
AcDbXrecord
 10
0.0
 20
0.0
 30
0.0
  0
XRECORD
  5
3BA
102
{ACAD_REACTORS
330
3A6
102
}
330
3A6
100
AcDbXrecord
 10
0.0
 20
0.0
 30
0.0
  0
XRECORD
  5
3B7
102
{ACAD_REACTORS
330
3A6
102
}
330
3A6
100
AcDbXrecord
 10
0.0
 20
0.0
 30
0.0
  0
XRECORD
  5
3B4
102
{ACAD_REACTORS
330
3A6
102
}
330
3A6
100
AcDbXrecord
340
0
  0
XRECORD
  5
3B5
102
{ACAD_REACTORS
330
3A6
102
}
330
3A6
100
AcDbXrecord
 70
     0
  0
XRECORD
  5
3AA
102
{ACAD_REACTORS
330
3A6
102
}
330
3A6
100
AcDbXrecord
  1

  0
XRECORD
  5
3A7
102
{ACAD_REACTORS
330
3A6
102
}
330
3A6
100
AcDbXrecord
 90
        1
  0
XRECORD
  5
3A8
102
{ACAD_REACTORS
330
3A6
102
}
330
3A6
100
AcDbXrecord
 90
       70
  0
XRECORD
  5
3BF
102
{ACAD_REACTORS
330
3A6
102
}
330
3A6
100
AcDbXrecord
340
0
  0
XRECORD
  5
3C5
102
{ACAD_REACTORS
330
3A6
102
}
330
3A6
100
AcDbXrecord
 10
0.0
 20
0.0
 30
0.0
  0
XRECORD
  5
3C1
102
{ACAD_REACTORS
330
3A6
102
}
330
3A6
100
AcDbXrecord
 10
0.0
 20
0.0
 30
0.0
  0
XRECORD
  5
3C4
102
{ACAD_REACTORS
330
3A6
102
}
330
3A6
100
AcDbXrecord
 10
0.0
 20
0.0
 30
0.0
  0
XRECORD
  5
3C2
102
{ACAD_REACTORS
330
3A6
102
}
330
3A6
100
AcDbXrecord
 10
0.0
 20
0.0
 30
0.0
  0
XRECORD
  5
3C3
102
{ACAD_REACTORS
330
3A6
102
}
330
3A6
100
AcDbXrecord
 10
0.0
 20
0.0
 30
0.0
  0
XRECORD
  5
3C0
102
{ACAD_REACTORS
330
3A6
102
}
330
3A6
100
AcDbXrecord
 10
0.0
 20
0.0
 30
0.0
  0
XRECORD
  5
3BD
102
{ACAD_REACTORS
330
3A6
102
}
330
3A6
100
AcDbXrecord
340
0
  0
XRECORD
  5
3BE
102
{ACAD_REACTORS
330
3A6
102
}
330
3A6
100
AcDbXrecord
 70
     0
  0
XRECORD
  5
3B2
102
{ACAD_REACTORS
330
3A6
102
}
330
3A6
100
AcDbXrecord
  1
{C3677C2D-BD6A-4D65-8539-D3D45C0C5DA8}
  0
DICTIONARYVAR
  5
3A4
102
{ACAD_REACTORS
330
3A3
102
}
330
3A3
100
DictionaryVariables
280
     0
  1
1
  0
ENDSEC
  0
EOF
