  0
SECTION
  2
HEADER
  9
$ACADVER
  1
AC1014
  9
$ACADMAINTVER
 70
     9
  9
$DWGCODEPAGE
  3
ANSI_932
  9
$INSBASE
 10
0.0
 20
0.0
 30
0.0
  9
$EXTMIN
 10
-18.985001
 20
-36.0
 30
0.0
  9
$EXTMAX
 10
543.276611
 20
398.48465
 30
0.0
  9
$LIMMIN
 10
0.0
 20
0.0
  9
$LIMMAX
 10
12.0
 20
9.0
  9
$ORTHOMODE
 70
     0
  9
$REGENMODE
 70
     1
  9
$FILLMODE
 70
     1
  9
$QTEXTMODE
 70
     0
  9
$MIRRTEXT
 70
     1
  9
$DRAGMODE
 70
     2
  9
$LTSCALE
 40
3.0
  9
$OSMODE
 70
    45
  9
$ATTMODE
 70
     1
  9
$TEXTSIZE
 40
3.0
  9
$TRACEWID
 40
0.05
  9
$TEXTSTYLE
  7
STANDARD
  9
$CLAYER
  8
1
  9
$CELTYPE
  6
CONTINUOUS
  9
$CECOLOR
 62
   256
  9
$CELTSCALE
 40
1.0
  9
$DELOBJ
 70
     1
  9
$DISPSILH
 70
     0
  9
$DIMSCALE
 40
1.0
  9
$DIMASZ
 40
0.18
  9
$DIMEXO
 40
0.0625
  9
$DIMDLI
 40
0.38
  9
$DIMRND
 40
0.0
  9
$DIMDLE
 40
0.0
  9
$DIMEXE
 40
0.18
  9
$DIMTP
 40
0.0
  9
$DIMTM
 40
0.0
  9
$DIMTXT
 40
0.18
  9
$DIMCEN
 40
0.09
  9
$DIMTSZ
 40
0.0
  9
$DIMTOL
 70
     0
  9
$DIMLIM
 70
     0
  9
$DIMTIH
 70
     1
  9
$DIMTOH
 70
     1
  9
$DIMSE1
 70
     0
  9
$DIMSE2
 70
     0
  9
$DIMTAD
 70
     0
  9
$DIMZIN
 70
     0
  9
$DIMBLK
  1

  9
$DIMASO
 70
     1
  9
$DIMSHO
 70
     1
  9
$DIMPOST
  1

  9
$DIMAPOST
  1

  9
$DIMALT
 70
     0
  9
$DIMALTD
 70
     2
  9
$DIMALTF
 40
25.4
  9
$DIMLFAC
 40
1.0
  9
$DIMTOFL
 70
     0
  9
$DIMTVP
 40
0.0
  9
$DIMTIX
 70
     0
  9
$DIMSOXD
 70
     0
  9
$DIMSAH
 70
     0
  9
$DIMBLK1
  1

  9
$DIMBLK2
  1

  9
$DIMSTYLE
  2
STANDARD
  9
$DIMCLRD
 70
     0
  9
$DIMCLRE
 70
     0
  9
$DIMCLRT
 70
     0
  9
$DIMTFAC
 40
1.0
  9
$DIMGAP
 40
0.09
  9
$DIMJUST
 70
     0
  9
$DIMSD1
 70
     0
  9
$DIMSD2
 70
     0
  9
$DIMTOLJ
 70
     1
  9
$DIMTZIN
 70
     0
  9
$DIMALTZ
 70
     0
  9
$DIMALTTZ
 70
     0
  9
$DIMFIT
 70
     3
  9
$DIMUPT
 70
     0
  9
$DIMUNIT
 70
     2
  9
$DIMDEC
 70
     4
  9
$DIMTDEC
 70
     4
  9
$DIMALTU
 70
     2
  9
$DIMALTTD
 70
     2
  9
$DIMTXSTY
  7
STANDARD
  9
$DIMAUNIT
 70
     0
  9
$LUNITS
 70
     2
  9
$LUPREC
 70
     4
  9
$SKETCHINC
 40
0.1
  9
$FILLETRAD
 40
0.0
  9
$AUNITS
 70
     0
  9
$AUPREC
 70
     0
  9
$MENU
  1
.
  9
$ELEVATION
 40
0.0
  9
$PELEVATION
 40
0.0
  9
$THICKNESS
 40
0.0
  9
$LIMCHECK
 70
     0
  9
$BLIPMODE
 70
     0
  9
$CHAMFERA
 40
0.0
  9
$CHAMFERB
 40
0.0
  9
$CHAMFERC
 40
0.0
  9
$CHAMFERD
 40
0.0
  9
$SKPOLY
 70
     0
  9
$TDCREATE
 40
2453347.709375532
  9
$TDUPDATE
 40
2453354.762160035
  9
$TDINDWG
 40
0.0048536921
  9
$TDUSRTIMER
 40
0.0048536921
  9
$USRTIMER
 70
     1
  9
$ANGBASE
 50
0.0
  9
$ANGDIR
 70
     0
  9
$PDMODE
 70
     0
  9
$PDSIZE
 40
0.0
  9
$PLINEWID
 40
0.0
  9
$COORDS
 70
     1
  9
$SPLFRAME
 70
     0
  9
$SPLINETYPE
 70
     6
  9
$SPLINESEGS
 70
     8
  9
$ATTDIA
 70
     0
  9
$ATTREQ
 70
     1
  9
$HANDLING
 70
 22529
  9
$HANDSEED
  5
392
  9
$SURFTAB1
 70
     6
  9
$SURFTAB2
 70
     6
  9
$SURFTYPE
 70
     6
  9
$SURFU
 70
     6
  9
$SURFV
 70
     6
  9
$UCSNAME
  2

  9
$UCSORG
 10
0.0
 20
0.0
 30
0.0
  9
$UCSXDIR
 10
1.0
 20
0.0
 30
0.0
  9
$UCSYDIR
 10
0.0
 20
1.0
 30
0.0
  9
$PUCSNAME
  2

  9
$PUCSORG
 10
0.0
 20
0.0
 30
0.0
  9
$PUCSXDIR
 10
1.0
 20
0.0
 30
0.0
  9
$PUCSYDIR
 10
0.0
 20
1.0
 30
0.0
  9
$USERI1
 70
     0
  9
$USERI2
 70
     0
  9
$USERI3
 70
     0
  9
$USERI4
 70
     0
  9
$USERI5
 70
     0
  9
$USERR1
 40
0.0
  9
$USERR2
 40
0.0
  9
$USERR3
 40
0.0
  9
$USERR4
 40
0.0
  9
$USERR5
 40
0.0
  9
$WORLDVIEW
 70
     1
  9
$SHADEDGE
 70
     3
  9
$SHADEDIF
 70
    70
  9
$TILEMODE
 70
     1
  9
$MAXACTVP
 70
    64
  9
$PINSBASE
 10
0.0
 20
0.0
 30
0.0
  9
$PLIMCHECK
 70
     0
  9
$PEXTMIN
 10
1.000000000000000E+20
 20
1.000000000000000E+20
 30
1.000000000000000E+20
  9
$PEXTMAX
 10
-1.000000000000000E+20
 20
-1.000000000000000E+20
 30
-1.000000000000000E+20
  9
$PLIMMIN
 10
0.0
 20
0.0
  9
$PLIMMAX
 10
12.0
 20
9.0
  9
$UNITMODE
 70
     0
  9
$VISRETAIN
 70
     1
  9
$PLINEGEN
 70
     0
  9
$PSLTSCALE
 70
     1
  9
$TREEDEPTH
 70
  3020
  9
$PICKSTYLE
 70
     1
  9
$CMLSTYLE
  2
STANDARD
  9
$CMLJUST
 70
     0
  9
$CMLSCALE
 40
1.0
  9
$PROXYGRAPHICS
 70
     1
  9
$MEASUREMENT
 70
     0
  0
ENDSEC
  0
SECTION
  2
CLASSES
  0
CLASS
  1
ACDBDICTIONARYWDFLT
  2
AcDbDictionaryWithDefault
  3
AutoCAD 2000
 90
        0
280
     0
281
     0
  0
CLASS
  1
ACDBPLACEHOLDER
  2
AcDbPlaceHolder
  3
AutoCAD 2000
 90
        0
280
     0
281
     0
  0
CLASS
  1
LAYOUT
  2
AcDbLayout
  3
AutoCAD 2000
 90
        0
280
     0
281
     0
  0
CLASS
  1
DICTIONARYVAR
  2
AcDbDictionaryVar
  3
AutoCAD 2000
 90
        0
280
     0
281
     0
  0
CLASS
  1
LONG_TRANSACTION
  2
AcDbLongTransaction
  3
AutoCAD 2000
 90
        0
280
     0
281
     0
  0
CLASS
  1
LWPOLYLINE
  2
AcDbPolyline
  3
AutoCAD 2000
 90
        0
280
     0
281
     1
  0
CLASS
  1
HATCH
  2
AcDbHatch
  3
AutoCAD 2000
 90
        0
280
     0
281
     1
  0
CLASS
  1
XRECORD
  2
AcDbXrecord
  3
AutoCAD 2000
 90
        0
280
     0
281
     0
  0
ENDSEC
  0
SECTION
  2
TABLES
  0
TABLE
  2
VPORT
  5
8
330
0
100
AcDbSymbolTable
 70
     2
  0
VPORT
  5
36D
330
8
100
AcDbSymbolTableRecord
100
AcDbViewportTableRecord
  2
*ACTIVE
 70
     0
 10
0.0
 20
0.0
 11
1.0
 21
1.0
 12
369.0314885415148
 22
192.4032887393144
 13
0.0
 23
0.0
 14
1.0
 24
1.0
 15
0.0
 25
0.0
 16
0.0
 26
0.0
 36
1.0
 17
0.0
 27
0.0
 37
0.0
 40
613.3235731814656
 41
1.976793248945147
 42
50.0
 43
0.0
 44
0.0
 50
0.0
 51
0.0
 71
     0
 72
   100
 73
     1
 74
     1
 75
     0
 76
     0
 77
     0
 78
     0
  0
ENDTAB
  0
TABLE
  2
LTYPE
  5
5
330
0
100
AcDbSymbolTable
 70
     3
  0
LTYPE
  5
13
330
5
100
AcDbSymbolTableRecord
100
AcDbLinetypeTableRecord
  2
BYBLOCK
 70
     0
  3

 72
    65
 73
     0
 40
0.0
  0
LTYPE
  5
14
330
5
100
AcDbSymbolTableRecord
100
AcDbLinetypeTableRecord
  2
BYLAYER
 70
     0
  3

 72
    65
 73
     0
 40
0.0
  0
LTYPE
  5
15
330
5
100
AcDbSymbolTableRecord
100
AcDbLinetypeTableRecord
  2
CONTINUOUS
 70
     0
  3
solid line
 72
    65
 73
     0
 40
0.0
  0
LTYPE
  5
23
330
5
100
AcDbSymbolTableRecord
100
AcDbLinetypeTableRecord
  2
DASHED
 70
     0
  3
__ __ __ __ __ __ __ __ __ __ __ __ __ __ __
 72
    65
 73
     2
 40
0.75
 49
0.5
 74
     0
 49
-0.25
 74
     0
  0
LTYPE
  5
24
330
5
100
AcDbSymbolTableRecord
100
AcDbLinetypeTableRecord
  2
CENTER
 70
     0
  3
____ _ ____ _ ____ _ ____ _ ____ _ ____ _ ____
 72
    65
 73
     4
 40
2.0
 49
1.25
 74
     0
 49
-0.25
 74
     0
 49
0.25
 74
     0
 49
-0.25
 74
     0
  0
ENDTAB
  0
TABLE
  2
LAYER
  5
2
330
0
100
AcDbSymbolTable
 70
     2
  0
LAYER
  5
10
330
2
100
AcDbSymbolTableRecord
100
AcDbLayerTableRecord
  2
0
 70
     0
 62
     7
  6
CONTINUOUS
  0
LAYER
  5
22
330
2
100
AcDbSymbolTableRecord
100
AcDbLayerTableRecord
  2
1
 70
     0
 62
     7
  6
CONTINUOUS
  0
ENDTAB
  0
TABLE
  2
STYLE
  5
3
330
0
100
AcDbSymbolTable
 70
     1
  0
STYLE
  5
11
330
3
100
AcDbSymbolTableRecord
100
AcDbTextStyleTableRecord
  2
STANDARD
 70
     0
 40
0.0
 41
1.0
 50
0.0
 71
     0
 42
3.0
  3
txt
  4
BIGFONT
  0
ENDTAB
  0
TABLE
  2
VIEW
  5
6
330
0
100
AcDbSymbolTable
 70
     0
  0
ENDTAB
  0
TABLE
  2
UCS
  5
7
330
0
100
AcDbSymbolTable
 70
     0
  0
ENDTAB
  0
TABLE
  2
APPID
  5
9
330
0
100
AcDbSymbolTable
 70
     1
  0
APPID
  5
12
330
9
100
AcDbSymbolTableRecord
100
AcDbRegAppTableRecord
  2
ACAD
 70
     0
  0
ENDTAB
  0
TABLE
  2
DIMSTYLE
  5
A
330
0
100
AcDbSymbolTable
 70
     1
  0
DIMSTYLE
105
2AA
330
A
100
AcDbSymbolTableRecord
100
AcDbDimStyleTableRecord
  2
STANDARD
 70
     0
  3

  4

  5

  6

  7

 40
1.0
 41
0.18
 42
0.0625
 43
0.38
 44
0.18
 45
0.0
 46
0.0
 47
0.0
 48
0.0
140
0.18
141
0.09
142
0.0
143
25.4
144
1.0
145
0.0
146
1.0
147
0.09
 71
     0
 72
     0
 73
     1
 74
     1
 75
     0
 76
     0
 77
     0
 78
     0
170
     0
171
     2
172
     0
173
     0
174
     0
175
     0
176
     0
177
     0
178
     0
270
     2
271
     4
272
     4
273
     2
274
     2
340
11
275
     0
280
     0
281
     0
282
     0
283
     1
284
     0
285
     0
286
     0
287
     3
288
     0
  0
ENDTAB
  0
TABLE
  2
BLOCK_RECORD
  5
1
330
0
100
AcDbSymbolTable
 70
     0
  0
BLOCK_RECORD
  5
1E
102
{ACAD_XDICTIONARY
360
390
102
}
330
1
100
AcDbSymbolTableRecord
100
AcDbBlockTableRecord
  2
*MODEL_SPACE
  0
BLOCK_RECORD
  5
1A
102
{ACAD_XDICTIONARY
360
38E
102
}
330
1
100
AcDbSymbolTableRecord
100
AcDbBlockTableRecord
  2
*PAPER_SPACE
  0
ENDTAB
  0
ENDSEC
  0
SECTION
  2
BLOCKS
  0
BLOCK
  5
1F
330
1E
100
AcDbEntity
  8
0
100
AcDbBlockBegin
  2
*MODEL_SPACE
 70
     0
 10
0.0
 20
0.0
 30
0.0
  3
*MODEL_SPACE
  1

  0
ENDBLK
  5
20
330
1E
100
AcDbEntity
  8
0
100
AcDbBlockEnd
  0
BLOCK
  5
1B
330
1A
100
AcDbEntity
 67
     1
  8
0
100
AcDbBlockBegin
  2
*PAPER_SPACE
 70
     0
 10
0.0
 20
0.0
 30
0.0
  3
*PAPER_SPACE
  1

  0
ENDBLK
  5
1C
330
1A
100
AcDbEntity
 67
     1
  8
0
100
AcDbBlockEnd
  0
ENDSEC
  0
SECTION
  2
ENTITIES
  0
LINE
  5
29
330
1E
100
AcDbEntity
  8
0
  6
CENTER
100
AcDbLine
 10
244.483948
 20
156.555359
 30
0.0
 11
244.483948
 21
-6.944635
 31
0.0
  0
LINE
  5
2A
330
1E
100
AcDbEntity
  8
0
  6
CENTER
100
AcDbLine
 10
200.2339479999999
 20
104.305367
 30
0.0
 11
283.4839479999999
 21
104.305367
 31
0.0
  0
LINE
  5
2B
330
1E
100
AcDbEntity
  8
0
  6
CONTINUOUS
100
AcDbLine
 10
191.4839479999999
 20
-0.694635
 30
0.0
 11
297.4839479999999
 21
-0.694635
 31
0.0
  0
LINE
  5
2C
330
1E
100
AcDbEntity
  8
0
  6
CONTINUOUS
100
AcDbLine
 10
226.05452
 20
149.305359
 30
0.0
 11
262.9133299999999
 21
149.305359
 31
0.0
  0
LINE
  5
2D
330
1E
100
AcDbEntity
  8
0
  6
CONTINUOUS
100
AcDbLine
 10
297.4839479999999
 20
123.695602
 30
0.0
 11
297.4839479999999
 21
-0.694615
 31
0.0
  0
LINE
  5
2E
330
1E
100
AcDbEntity
  8
0
  6
CONTINUOUS
100
AcDbLine
 10
191.4839479999999
 20
24.305365
 30
0.0
 11
191.4839479999999
 21
-0.694635
 31
0.0
  0
LINE
  5
2F
330
1E
100
AcDbEntity
  8
0
  6
CONTINUOUS
100
AcDbLine
 10
179.7339479999999
 20
131.055359
 30
0.0
 11
197.356857
 21
131.055359
 31
0.0
  0
LINE
  5
30
330
1E
100
AcDbEntity
  8
0
  6
CONTINUOUS
100
AcDbLine
 10
179.7339479999999
 20
16.555365
 30
0.0
 11
186.4839629999999
 21
16.555365
 31
0.0
  0
LINE
  5
31
330
1E
100
AcDbEntity
  8
0
  6
CONTINUOUS
100
AcDbLine
 10
187.733948
 20
28.305365
 30
0.0
 11
187.733948
 21
119.3053669999999
 31
0.0
  0
LINE
  5
32
330
1E
100
AcDbEntity
  8
0
  6
CONTINUOUS
100
AcDbLine
 10
295.3429259999999
 20
127.797607
 30
0.0
 11
265.772339
 21
148.407349
 31
0.0
  0
LINE
  5
33
330
1E
100
AcDbEntity
  8
0
  6
CONTINUOUS
100
AcDbLine
 10
193.624985
 20
127.797607
 30
0.0
 11
223.195541
 21
148.407349
 31
0.0
  0
LINE
  5
34
330
1E
100
AcDbEntity
  8
0
  6
CONTINUOUS
100
AcDbLine
 10
225.4223479999999
 20
11.305365
 30
0.0
 11
191.4839479999999
 21
11.305365
 31
0.0
  0
LINE
  5
35
330
1E
100
AcDbEntity
  8
0
  6
CONTINUOUS
100
AcDbLine
 10
231.045547
 20
21.30536499999999
 30
0.0
 11
257.922333
 21
21.30536499999999
 31
0.0
  0
LINE
  5
36
330
1E
100
AcDbEntity
  8
0
  6
CONTINUOUS
100
AcDbLine
 10
259.483948
 20
19.867865
 30
0.0
 11
259.483948
 21
12.305365
 31
0.0
  0
LINE
  5
37
330
1E
100
AcDbEntity
  8
0
  6
CONTINUOUS
100
AcDbLine
 10
229.4839479999999
 20
19.680365
 30
0.0
 11
229.4839479999999
 21
12.305365
 31
0.0
  0
LINE
  5
38
330
1E
100
AcDbEntity
  8
0
  6
CONTINUOUS
100
AcDbLine
 10
227.362747
 20
12.820285
 30
0.0
 11
229.1051479999999
 21
19.790445
 31
0.0
  0
LINE
  5
39
330
1E
100
AcDbEntity
  8
0
  6
CONTINUOUS
100
AcDbLine
 10
261.605133
 20
12.820285
 30
0.0
 11
259.8627319999999
 21
19.79042399999999
 31
0.0
  0
LINE
  5
3A
330
1E
100
AcDbEntity
  8
0
  6
CONTINUOUS
100
AcDbLine
 10
197.4839479999999
 20
10.242865
 30
0.0
 11
197.4839479999999
 21
-0.694635
 31
0.0
  0
LINE
  5
3B
330
1E
100
AcDbEntity
  8
0
  6
CONTINUOUS
100
AcDbLine
 10
291.4839479999999
 20
10.242865
 30
0.0
 11
291.4839479999999
 21
-0.694635
 31
0.0
  0
LINE
  5
3C
330
1E
100
AcDbEntity
  8
0
  6
CENTER
100
AcDbLine
 10
209.483948
 20
15.055365
 30
0.0
 11
209.483948
 21
-4.944634999999999
 31
0.0
  0
LINE
  5
3D
330
1E
100
AcDbEntity
  8
0
  6
CENTER
100
AcDbLine
 10
279.4839479999999
 20
16.05536499999999
 30
0.0
 11
279.4839479999999
 21
-4.444634999999999
 31
0.0
  0
LINE
  5
3E
330
1E
100
AcDbEntity
  8
0
  6
DASHED
100
AcDbLine
 10
203.9839479999999
 20
11.305365
 30
0.0
 11
203.9839479999999
 21
-0.694635
 31
0.0
  0
LINE
  5
3F
330
1E
100
AcDbEntity
  8
0
  6
DASHED
100
AcDbLine
 10
214.983948
 20
11.305365
 30
0.0
 11
214.983948
 21
-0.694635
 31
0.0
  0
LINE
  5
40
330
1E
100
AcDbEntity
  8
0
  6
DASHED
100
AcDbLine
 10
273.983948
 20
11.305365
 30
0.0
 11
273.983948
 21
-0.694635
 31
0.0
  0
LINE
  5
41
330
1E
100
AcDbEntity
  8
0
  6
DASHED
100
AcDbLine
 10
284.9839479999999
 20
11.305365
 30
0.0
 11
284.9839479999999
 21
-0.694635
 31
0.0
  0
ARC
  5
42
330
1E
100
AcDbEntity
  8
0
  6
CONTINUOUS
100
AcDbCircle
 10
262.9133299999999
 20
144.305359
 30
0.0
 40
5.0
100
AcDbArc
 50
55.12480899999999
 51
90.0
  0
ARC
  5
43
330
1E
100
AcDbEntity
  8
0
  6
CONTINUOUS
100
AcDbCircle
 10
226.05452
 20
144.305359
 30
0.0
 40
5.0
100
AcDbArc
 50
90.0
 51
124.875603
  0
ARC
  5
44
330
1E
100
AcDbEntity
  8
0
  6
CONTINUOUS
100
AcDbCircle
 10
292.483948
 20
123.695602
 30
0.0
 40
5.0
100
AcDbArc
 50
0.0
 51
55.12485100000001
  0
ARC
  5
45
330
1E
100
AcDbEntity
  8
0
  6
CONTINUOUS
100
AcDbCircle
 10
196.4839629999999
 20
123.695625
 30
0.0
 40
5.0
100
AcDbArc
 50
124.8757019999999
 51
180.0
  0
LINE
  5
46
330
1E
100
AcDbEntity
  8
0
  6
CONTINUOUS
100
AcDbLine
 10
179.7339479999999
 20
121.3053669999999
 30
0.0
 11
189.4839479999999
 21
121.3053669999999
 31
0.0
  0
LINE
  5
47
330
1E
100
AcDbEntity
  8
0
  6
CONTINUOUS
100
AcDbLine
 10
185.733948
 20
26.305365
 30
0.0
 11
179.7339479999999
 21
26.305365
 31
0.0
  0
LINE
  5
48
330
1E
100
AcDbEntity
  8
0
  6
CONTINUOUS
100
AcDbLine
 10
179.7339479999999
 20
105.7653659999999
 30
0.0
 11
186.608948
 21
105.7653659999999
 31
0.0
  0
LINE
  5
49
330
1E
100
AcDbEntity
  8
0
  6
CONTINUOUS
100
AcDbLine
 10
179.7339479999999
 20
41.845364
 30
0.0
 11
186.733948
 21
41.845364
 31
0.0
  0
ARC
  5
4A
330
1E
100
AcDbEntity
  8
0
  6
CONTINUOUS
100
AcDbCircle
 10
197.356842
 20
134.055359
 30
0.0
 40
3.0
100
AcDbArc
 50
270.0
 51
304.875397
  0
ARC
  5
4B
330
1E
100
AcDbEntity
  8
0
  6
CONTINUOUS
100
AcDbCircle
 10
185.733963
 20
119.3053669999999
 30
0.0
 40
2.0
100
AcDbArc
 50
0.0
 51
90.0
  0
ARC
  5
4C
330
1E
100
AcDbEntity
  8
0
  6
CONTINUOUS
100
AcDbCircle
 10
189.4839479999999
 20
123.3053669999999
 30
0.0
 40
2.0
100
AcDbArc
 50
270.0
 51
0.0
  0
LINE
  5
4D
330
1E
100
AcDbEntity
  8
0
  6
CONTINUOUS
100
AcDbLine
 10
191.4839629999999
 20
123.695625
 30
0.0
 11
191.4839479999999
 21
123.3053669999999
 31
0.0
  0
ARC
  5
4E
330
1E
100
AcDbEntity
  8
0
  6
CONTINUOUS
100
AcDbCircle
 10
189.4839479999999
 20
24.305365
 30
0.0
 40
2.0
100
AcDbArc
 50
0.0
 51
90.0
  0
LINE
  5
4F
330
1E
100
AcDbEntity
  8
0
  6
CONTINUOUS
100
AcDbLine
 10
185.733948
 20
26.305365
 30
0.0
 11
189.4839479999999
 21
26.305365
 31
0.0
  0
ARC
  5
50
330
1E
100
AcDbEntity
  8
0
  6
CONTINUOUS
100
AcDbCircle
 10
185.733948
 20
28.305365
 30
0.0
 40
2.0
100
AcDbArc
 50
270.0
 51
0.0
  0
ARC
  5
51
330
1E
100
AcDbEntity
  8
0
  6
CONTINUOUS
100
AcDbCircle
 10
186.4839629999999
 20
11.55534499999999
 30
0.0
 40
5.0
100
AcDbArc
 50
0.0
 51
90.0
  0
ARC
  5
52
330
1E
100
AcDbEntity
  8
0
  6
CONTINUOUS
100
AcDbCircle
 10
257.922333
 20
19.30536499999999
 30
0.0
 40
2.0
100
AcDbArc
 50
14.03643999999999
 51
90.0
  0
ARC
  5
53
330
1E
100
AcDbEntity
  8
0
  6
CONTINUOUS
100
AcDbCircle
 10
231.045547
 20
19.30536499999999
 30
0.0
 40
2.0
100
AcDbArc
 50
90.0
 51
165.9638979999999
  0
LINE
  5
54
330
1E
100
AcDbEntity
  8
0
  6
CONTINUOUS
100
AcDbLine
 10
263.5455319999999
 20
11.305365
 30
0.0
 11
297.4839479999999
 21
11.305365
 31
0.0
  0
ARC
  5
55
330
1E
100
AcDbEntity
  8
0
  6
CONTINUOUS
100
AcDbCircle
 10
225.4223479999999
 20
13.305365
 30
0.0
 40
2.0
100
AcDbArc
 50
270.0
 51
345.9637149999999
  0
LINE
  5
56
330
1E
100
AcDbEntity
  8
0
  6
CONTINUOUS
100
AcDbLine
 10
263.5455319999999
 20
11.305365
 30
0.0
 11
225.4223479999999
 21
11.305365
 31
0.0
  0
ARC
  5
57
330
1E
100
AcDbEntity
  8
0
  6
CONTINUOUS
100
AcDbCircle
 10
263.5455319999999
 20
13.305365
 30
0.0
 40
2.0
100
AcDbArc
 50
194.036194
 51
270.0
  0
ARC
  5
58
330
1E
100
AcDbEntity
  8
0
  6
CONTINUOUS
100
AcDbCircle
 10
228.483948
 20
12.305365
 30
0.0
 40
1.0
100
AcDbArc
 50
270.0
 51
0.0
  0
ARC
  5
59
330
1E
100
AcDbEntity
  8
0
  6
CONTINUOUS
100
AcDbCircle
 10
260.4839479999999
 20
12.305365
 30
0.0
 40
1.0
100
AcDbArc
 50
180.0
 51
270.0
  0
CIRCLE
  5
5A
330
1E
100
AcDbEntity
  8
0
  6
CONTINUOUS
100
AcDbCircle
 10
244.483948
 20
104.305367
 30
0.0
 40
27.5
  0
ARC
  5
5B
330
1E
100
AcDbEntity
  8
0
  6
CONTINUOUS
100
AcDbCircle
 10
244.483948
 20
104.305367
 30
0.0
 40
31.75
100
AcDbArc
 50
7.552697
 51
172.447403
  0
ARC
  5
5C
330
1E
100
AcDbEntity
  8
0
  6
CONTINUOUS
100
AcDbCircle
 10
227.733948
 20
62.805367
 30
0.0
 40
20.6
100
AcDbArc
 50
172.447403
 51
270.0
  0
ARC
  5
5D
330
1E
100
AcDbEntity
  8
0
  6
CONTINUOUS
100
AcDbCircle
 10
261.233948
 20
62.805367
 30
0.0
 40
20.6
100
AcDbArc
 50
270.0
 51
7.552699999999999
  0
LINE
  5
5E
330
1E
100
AcDbEntity
  8
0
  6
CONTINUOUS
100
AcDbLine
 10
275.958527
 20
108.478523
 30
0.0
 11
281.655151
 21
65.51299300000001
 31
0.0
  0
LINE
  5
5F
330
1E
100
AcDbEntity
  8
0
  6
CONTINUOUS
100
AcDbLine
 10
207.312668
 20
65.51295500000001
 30
0.0
 11
213.0093379999999
 21
108.478462
 31
0.0
  0
LINE
  5
60
330
1E
100
AcDbEntity
  8
0
  6
CONTINUOUS
100
AcDbLine
 10
227.733948
 20
42.205364
 30
0.0
 11
261.233948
 21
42.205364
 31
0.0
  0
ARC
  5
61
330
1E
100
AcDbEntity
  8
0
  6
CONTINUOUS
100
AcDbCircle
 10
227.733948
 20
62.805367
 30
0.0
 40
19.0
100
AcDbArc
 50
172.447601
 51
270.0
  0
ARC
  5
62
330
1E
100
AcDbEntity
  8
0
  6
CONTINUOUS
100
AcDbCircle
 10
261.233948
 20
62.805367
 30
0.0
 40
19.0
100
AcDbArc
 50
270.0
 51
7.552699999999999
  0
ARC
  5
63
330
1E
100
AcDbEntity
  8
0
  6
CONTINUOUS
100
AcDbCircle
 10
244.483948
 20
104.305367
 30
0.0
 40
30.15
100
AcDbArc
 50
172.447403
 51
7.552697
  0
LINE
  5
64
330
1E
100
AcDbEntity
  8
0
  6
CONTINUOUS
100
AcDbLine
 10
208.8987879999999
 20
65.30264999999999
 30
0.0
 11
214.59552
 21
108.2681879999999
 31
0.0
  0
LINE
  5
65
330
1E
100
AcDbEntity
  8
0
  6
CONTINUOUS
100
AcDbLine
 10
274.372345
 20
108.268227
 30
0.0
 11
280.0691529999999
 21
65.302689
 31
0.0
  0
LINE
  5
66
330
1E
100
AcDbEntity
  8
0
  6
CONTINUOUS
100
AcDbLine
 10
227.733948
 20
43.80536699999999
 30
0.0
 11
261.233948
 21
43.80536699999999
 31
0.0
  0
LINE
  5
67
330
1E
100
AcDbEntity
  8
0
  6
CONTINUOUS
100
AcDbLine
 10
234.187546
 20
51.305367
 30
0.0
 11
230.027145
 21
51.305367
 31
0.0
  0
LINE
  5
68
330
1E
100
AcDbEntity
  8
0
  6
CONTINUOUS
100
AcDbLine
 10
236.483948
 20
58.274117
 30
0.0
 11
236.483948
 21
51.305367
 31
0.0
  0
LINE
  5
69
330
1E
100
AcDbEntity
  8
0
  6
CONTINUOUS
100
AcDbLine
 10
240.483948
 20
60.805367
 30
0.0
 11
240.483948
 21
63.305367
 31
0.0
  0
LINE
  5
6A
330
1E
100
AcDbEntity
  8
0
  6
CONTINUOUS
100
AcDbLine
 10
248.483948
 20
60.805367
 30
0.0
 11
248.483948
 21
63.305367
 31
0.0
  0
LINE
  5
6B
330
1E
100
AcDbEntity
  8
0
  6
CONTINUOUS
100
AcDbLine
 10
243.702744
 20
61.836617
 30
0.0
 11
243.702744
 21
52.617867
 31
0.0
  0
LINE
  5
6C
330
1E
100
AcDbEntity
  8
0
  6
CONTINUOUS
100
AcDbLine
 10
245.202744
 20
61.836617
 30
0.0
 11
245.202744
 21
52.617867
 31
0.0
  0
LINE
  5
6D
330
1E
100
AcDbEntity
  8
0
  6
CONTINUOUS
100
AcDbLine
 10
253.077744
 20
61.836617
 30
0.0
 11
253.077744
 21
52.555367
 31
0.0
  0
LINE
  5
6E
330
1E
100
AcDbEntity
  8
0
  6
CONTINUOUS
100
AcDbLine
 10
254.4527439999999
 20
56.914738
 30
0.0
 11
254.4527439999999
 21
52.555367
 31
0.0
  0
LINE
  5
6F
330
1E
100
AcDbEntity
  8
0
  6
CONTINUOUS
100
AcDbLine
 10
234.5859379999999
 20
61.711617
 30
0.0
 11
230.730942
 21
61.711617
 31
0.0
  0
LINE
  5
70
330
1E
100
AcDbEntity
  8
0
  6
CONTINUOUS
100
AcDbLine
 10
230.730942
 20
61.711617
 30
0.0
 11
229.827744
 21
60.591614
 31
0.0
  0
LINE
  5
71
330
1E
100
AcDbEntity
  8
0
  6
CONTINUOUS
100
AcDbLine
 10
229.93634
 20
63.305367
 30
0.0
 11
228.483948
 21
61.44560600000001
 31
0.0
  0
LINE
  5
72
330
1E
100
AcDbEntity
  8
0
  6
CONTINUOUS
100
AcDbLine
 10
229.827744
 20
53.678284
 30
0.0
 11
230.745346
 21
52.711605
 31
0.0
  0
LINE
  5
73
330
1E
100
AcDbEntity
  8
0
  6
CONTINUOUS
100
AcDbLine
 10
228.483948
 20
52.862526
 30
0.0
 11
230.027145
 21
51.305367
 31
0.0
  0
LINE
  5
74
330
1E
100
AcDbEntity
  8
0
  6
CONTINUOUS
100
AcDbLine
 10
228.483948
 20
61.44560600000001
 30
0.0
 11
228.483948
 21
52.862526
 31
0.0
  0
LINE
  5
75
330
1E
100
AcDbEntity
  8
0
  6
CONTINUOUS
100
AcDbLine
 10
229.827744
 20
60.591614
 30
0.0
 11
229.827744
 21
53.678284
 31
0.0
  0
LINE
  5
76
330
1E
100
AcDbEntity
  8
0
  6
CONTINUOUS
100
AcDbLine
 10
235.3277439999999
 20
60.99451099999999
 30
0.0
 11
234.57074
 21
61.711617
 31
0.0
  0
LINE
  5
77
330
1E
100
AcDbEntity
  8
0
  6
CONTINUOUS
100
AcDbLine
 10
235.31572
 20
63.305367
 30
0.0
 11
236.483948
 21
62.008877
 31
0.0
  0
LINE
  5
78
330
1E
100
AcDbEntity
  8
0
  6
CONTINUOUS
100
AcDbLine
 10
235.3277439999999
 20
60.805367
 30
0.0
 11
236.483948
 21
60.805367
 31
0.0
  0
LINE
  5
79
330
1E
100
AcDbEntity
  8
0
  6
CONTINUOUS
100
AcDbLine
 10
229.93634
 20
63.305367
 30
0.0
 11
235.31572
 21
63.305367
 31
0.0
  0
LINE
  5
7A
330
1E
100
AcDbEntity
  8
0
  6
CONTINUOUS
100
AcDbLine
 10
233.2339479999999
 20
58.274117
 30
0.0
 11
236.483948
 21
58.274117
 31
0.0
  0
LINE
  5
7B
330
1E
100
AcDbEntity
  8
0
  6
CONTINUOUS
100
AcDbLine
 10
235.3277439999999
 20
56.96161700000001
 30
0.0
 11
233.2339479999999
 21
56.96161700000001
 31
0.0
  0
LINE
  5
7C
330
1E
100
AcDbEntity
  8
0
  6
CONTINUOUS
100
AcDbLine
 10
232.8277439999999
 20
52.711605
 30
0.0
 11
230.745346
 21
52.711605
 31
0.0
  0
LINE
  5
7D
330
1E
100
AcDbEntity
  8
0
  6
CONTINUOUS
100
AcDbLine
 10
235.3277439999999
 20
55.71161700000001
 30
0.0
 11
235.3277439999999
 21
56.711617
 31
0.0
  0
ARC
  5
7E
330
1E
100
AcDbEntity
  8
0
  6
CONTINUOUS
100
AcDbCircle
 10
232.8277439999999
 20
55.21160899999999
 30
0.0
 40
2.5
100
AcDbArc
 50
270.0002139999999
 51
0.000109
  0
LINE
  5
7F
330
1E
100
AcDbEntity
  8
0
  6
CONTINUOUS
100
AcDbLine
 10
235.3277439999999
 20
52.26192499999999
 30
0.0
 11
235.3277439999999
 21
51.305367
 31
0.0
  0
LINE
  5
80
330
1E
100
AcDbEntity
  8
0
  6
CONTINUOUS
100
AcDbLine
 10
236.483948
 20
62.008877
 30
0.0
 11
236.483948
 21
60.805367
 31
0.0
  0
LINE
  5
81
330
1E
100
AcDbEntity
  8
0
  6
CONTINUOUS
100
AcDbLine
 10
235.3277439999999
 20
56.96161700000001
 30
0.0
 11
235.3277439999999
 21
55.211613
 31
0.0
  0
LINE
  5
82
330
1E
100
AcDbEntity
  8
0
  6
CONTINUOUS
100
AcDbLine
 10
233.2339479999999
 20
58.274117
 30
0.0
 11
233.2339479999999
 21
56.96161700000001
 31
0.0
  0
LINE
  5
83
330
1E
100
AcDbEntity
  8
0
  6
CONTINUOUS
100
AcDbLine
 10
235.3277439999999
 20
51.305367
 30
0.0
 11
236.483948
 21
51.305367
 31
0.0
  0
LINE
  5
84
330
1E
100
AcDbEntity
  8
0
  6
CONTINUOUS
100
AcDbLine
 10
235.3277439999999
 20
52.26192499999999
 30
0.0
 11
234.187546
 21
51.305367
 31
0.0
  0
LINE
  5
85
330
1E
100
AcDbEntity
  8
0
  6
CONTINUOUS
100
AcDbLine
 10
245.202744
 20
52.617867
 30
0.0
 11
245.702744
 21
52.617867
 31
0.0
  0
LINE
  5
86
330
1E
100
AcDbEntity
  8
0
  6
CONTINUOUS
100
AcDbLine
 10
243.108948
 20
52.617867
 30
0.0
 11
243.108948
 21
51.305367
 31
0.0
  0
LINE
  5
87
330
1E
100
AcDbEntity
  8
0
  6
CONTINUOUS
100
AcDbLine
 10
245.702744
 20
52.617867
 30
0.0
 11
245.702744
 21
51.305367
 31
0.0
  0
LINE
  5
88
330
1E
100
AcDbEntity
  8
0
  6
CONTINUOUS
100
AcDbLine
 10
247.6495359999999
 20
60.805367
 30
0.0
 11
248.483948
 21
60.805367
 31
0.0
  0
LINE
  5
89
330
1E
100
AcDbEntity
  8
0
  6
CONTINUOUS
100
AcDbLine
 10
240.483948
 20
60.805367
 30
0.0
 11
241.371948
 21
60.805367
 31
0.0
  0
LINE
  5
8A
330
1E
100
AcDbEntity
  8
0
  6
CONTINUOUS
100
AcDbLine
 10
240.483948
 20
63.305367
 30
0.0
 11
248.483948
 21
63.305367
 31
0.0
  0
LINE
  5
8B
330
1E
100
AcDbEntity
  8
0
  6
CONTINUOUS
100
AcDbLine
 10
243.108948
 20
51.305367
 30
0.0
 11
245.702744
 21
51.305367
 31
0.0
  0
LINE
  5
8C
330
1E
100
AcDbEntity
  8
0
  6
CONTINUOUS
100
AcDbLine
 10
243.108948
 20
52.617867
 30
0.0
 11
243.702744
 21
52.617867
 31
0.0
  0
ARC
  5
8D
330
1E
100
AcDbEntity
  8
0
  6
CONTINUOUS
100
AcDbCircle
 10
257.280945
 20
60.102242
 30
0.0
 40
3.203125999999999
100
AcDbArc
 50
286.0181269999999
 51
90.00351
  0
ARC
  5
8E
330
1E
100
AcDbEntity
  8
0
  6
CONTINUOUS
100
AcDbCircle
 10
257.280945
 20
60.102242
 30
0.0
 40
1.954124
100
AcDbArc
 50
277.414726
 51
62.41185
  0
LINE
  5
8F
330
1E
100
AcDbEntity
  8
0
  6
CONTINUOUS
100
AcDbLine
 10
252.483948
 20
63.305367
 30
0.0
 11
257.280945
 21
63.305367
 31
0.0
  0
LINE
  5
90
330
1E
100
AcDbEntity
  8
0
  6
CONTINUOUS
100
AcDbLine
 10
257.5329279999999
 20
58.164455
 30
0.0
 11
254.4527439999999
 21
58.164455
 31
0.0
  0
LINE
  5
91
330
1E
100
AcDbEntity
  8
0
  6
CONTINUOUS
100
AcDbLine
 10
252.483948
 20
63.305367
 30
0.0
 11
252.483948
 21
61.836617
 31
0.0
  0
LINE
  5
92
330
1E
100
AcDbEntity
  8
0
  6
CONTINUOUS
100
AcDbLine
 10
254.4527439999999
 20
61.836617
 30
0.0
 11
254.4527439999999
 21
58.164455
 31
0.0
  0
LINE
  5
93
330
1E
100
AcDbEntity
  8
0
  6
CONTINUOUS
100
AcDbLine
 10
258.1647339999999
 20
57.023476
 30
0.0
 11
260.1471559999999
 21
52.555367
 31
0.0
  0
LINE
  5
94
330
1E
100
AcDbEntity
  8
0
  6
CONTINUOUS
100
AcDbLine
 10
257.0131529999999
 20
56.914738
 30
0.0
 11
258.889343
 21
52.555367
 31
0.0
  0
LINE
  5
95
330
1E
100
AcDbEntity
  8
0
  6
CONTINUOUS
100
AcDbLine
 10
252.483948
 20
52.555367
 30
0.0
 11
253.077744
 21
52.555367
 31
0.0
  0
LINE
  5
96
330
1E
100
AcDbEntity
  8
0
  6
CONTINUOUS
100
AcDbLine
 10
254.4527439999999
 20
52.555367
 30
0.0
 11
254.999542
 21
52.555367
 31
0.0
  0
LINE
  5
97
330
1E
100
AcDbEntity
  8
0
  6
CONTINUOUS
100
AcDbLine
 10
254.999542
 20
51.305367
 30
0.0
 11
252.483948
 21
51.305367
 31
0.0
  0
LINE
  5
98
330
1E
100
AcDbEntity
  8
0
  6
CONTINUOUS
100
AcDbLine
 10
258.640137
 20
52.555367
 30
0.0
 11
258.889343
 21
52.555367
 31
0.0
  0
LINE
  5
99
330
1E
100
AcDbEntity
  8
0
  6
CONTINUOUS
100
AcDbLine
 10
260.1471559999999
 20
52.555367
 30
0.0
 11
260.4839479999999
 21
52.555367
 31
0.0
  0
LINE
  5
9A
330
1E
100
AcDbEntity
  8
0
  6
CONTINUOUS
100
AcDbLine
 10
258.640137
 20
51.305367
 30
0.0
 11
260.4839479999999
 21
51.305367
 31
0.0
  0
LINE
  5
9B
330
1E
100
AcDbEntity
  8
0
  6
CONTINUOUS
100
AcDbLine
 10
260.4839479999999
 20
52.555367
 30
0.0
 11
260.4839479999999
 21
51.305367
 31
0.0
  0
LINE
  5
9C
330
1E
100
AcDbEntity
  8
0
  6
CONTINUOUS
100
AcDbLine
 10
258.640137
 20
52.555367
 30
0.0
 11
258.640137
 21
51.305367
 31
0.0
  0
LINE
  5
9D
330
1E
100
AcDbEntity
  8
0
  6
CONTINUOUS
100
AcDbLine
 10
254.999542
 20
52.555367
 30
0.0
 11
254.999542
 21
51.305367
 31
0.0
  0
LINE
  5
9E
330
1E
100
AcDbEntity
  8
0
  6
CONTINUOUS
100
AcDbLine
 10
252.483948
 20
52.555367
 30
0.0
 11
252.483948
 21
51.305367
 31
0.0
  0
LINE
  5
9F
330
1E
100
AcDbEntity
  8
0
  6
CONTINUOUS
100
AcDbLine
 10
241.801743
 20
61.836617
 30
0.0
 11
241.371948
 21
60.805367
 31
0.0
  0
LINE
  5
A0
330
1E
100
AcDbEntity
  8
0
  6
CONTINUOUS
100
AcDbLine
 10
247.2871399999999
 20
61.836617
 30
0.0
 11
247.6495359999999
 21
60.805367
 31
0.0
  0
LINE
  5
A1
330
1E
100
AcDbEntity
  8
0
  6
CONTINUOUS
100
AcDbLine
 10
245.202744
 20
61.836617
 30
0.0
 11
247.2871399999999
 21
61.836617
 31
0.0
  0
LINE
  5
A2
330
1E
100
AcDbEntity
  8
0
  6
CONTINUOUS
100
AcDbLine
 10
243.702744
 20
61.836617
 30
0.0
 11
241.801743
 21
61.836617
 31
0.0
  0
LINE
  5
A3
330
1E
100
AcDbEntity
  8
0
  6
CONTINUOUS
100
AcDbLine
 10
254.4527439999999
 20
56.914738
 30
0.0
 11
257.0131529999999
 21
56.914738
 31
0.0
  0
LINE
  5
A4
330
1E
100
AcDbEntity
  8
0
  6
CONTINUOUS
100
AcDbLine
 10
252.483948
 20
61.836617
 30
0.0
 11
253.077744
 21
61.836617
 31
0.0
  0
LINE
  5
A5
330
1E
100
AcDbEntity
  8
0
  6
CONTINUOUS
100
AcDbLine
 10
254.4527439999999
 20
61.836617
 30
0.0
 11
258.1857299999999
 21
61.834187
 31
0.0
  0
LINE
  5
A6
330
1E
100
AcDbEntity
  8
0
  6
CONTINUOUS
100
AcDbLine
 10
235.3277439999999
 20
60.99451099999999
 30
0.0
 11
235.3277439999999
 21
60.805367
 31
0.0
  0
LINE
  5
A7
330
1E
100
AcDbEntity
  8
0
  6
CONTINUOUS
100
AcDbLine
 10
251.9839479999999
 20
101.3053819999999
 30
0.0
 11
251.9839479999999
 21
107.305382
 31
0.0
  0
LINE
  5
A8
330
1E
100
AcDbEntity
  8
0
  6
CONTINUOUS
100
AcDbLine
 10
257.9839479999999
 20
101.305405
 30
0.0
 11
257.9839479999999
 21
107.305405
 31
0.0
  0
LINE
  5
A9
330
1E
100
AcDbEntity
  8
0
  6
CONTINUOUS
100
AcDbLine
 10
257.9839479999999
 20
101.305405
 30
0.0
 11
251.9839479999999
 21
101.3053819999999
 31
0.0
  0
LINE
  5
AA
330
1E
100
AcDbEntity
  8
0
  6
CONTINUOUS
100
AcDbLine
 10
257.9839479999999
 20
107.305405
 30
0.0
 11
251.9839479999999
 21
107.305382
 31
0.0
  0
ARC
  5
AB
330
1E
100
AcDbEntity
  8
0
  6
CONTINUOUS
100
AcDbCircle
 10
244.483948
 20
104.305367
 30
0.0
 40
11.0
100
AcDbArc
 50
15.82659999999999
 51
344.1734009999999
  0
LINE
  5
AC
330
1E
100
AcDbEntity
  8
0
  6
CONTINUOUS
100
AcDbLine
 10
179.7339479999999
 20
131.305359
 30
0.0
 11
179.7339479999999
 21
16.30536499999999
 31
0.0
  0
LINE
  5
AD
330
1E
100
AcDbEntity
  8
0
  6
CENTER
100
AcDbLine
 10
461.526642
 20
-19.254635
 30
0.0
 11
461.526642
 21
164.479996
 31
0.0
  0
LINE
  5
AE
330
1E
100
AcDbEntity
  8
0
  6
CENTER
100
AcDbLine
 10
336.940002
 20
73.805367
 30
0.0
 11
543.276611
 21
73.805367
 31
0.0
  0
LINE
  5
AF
330
1E
100
AcDbEntity
  8
0
  6
CENTER
100
AcDbLine
 10
359.7766419999999
 20
104.305367
 30
0.0
 11
516.964233
 21
104.305367
 31
0.0
  0
LINE
  5
B0
330
1E
100
AcDbEntity
  8
0
  6
CONTINUOUS
100
AcDbLine
 10
486.526642
 20
-0.694635
 30
0.0
 11
519.526611
 21
-0.694635
 31
0.0
  0
LINE
  5
B1
330
1E
100
AcDbEntity
  8
0
  6
CONTINUOUS
100
AcDbLine
 10
403.526642
 20
9.931764999999998
 30
0.0
 11
403.526642
 21
-0.694635
 31
0.0
  0
LINE
  5
B2
330
1E
100
AcDbEntity
  8
0
  6
CONTINUOUS
100
AcDbLine
 10
519.526611
 20
9.931764999999998
 30
0.0
 11
519.526611
 21
-0.694635
 31
0.0
  0
LINE
  5
B3
330
1E
100
AcDbEntity
  8
0
  6
CONTINUOUS
100
AcDbLine
 10
405.5266419999999
 20
11.305365
 30
0.0
 11
426.5266419999999
 21
11.305365
 31
0.0
  0
LINE
  5
B4
330
1E
100
AcDbEntity
  8
0
  6
CONTINUOUS
100
AcDbLine
 10
517.5266109999999
 20
11.305365
 30
0.0
 11
496.5266419999999
 21
11.305365
 31
0.0
  0
LINE
  5
B5
330
1E
100
AcDbEntity
  8
0
  6
CONTINUOUS
100
AcDbLine
 10
429.5266419999999
 20
22.67896499999999
 30
0.0
 11
429.5266419999999
 21
146.781281
 31
0.0
  0
LINE
  5
B6
330
1E
100
AcDbEntity
  8
0
  6
CONTINUOUS
100
AcDbLine
 10
493.5266419999999
 20
22.67896499999999
 30
0.0
 11
493.5266419999999
 21
146.7816469999999
 31
0.0
  0
LINE
  5
B7
330
1E
100
AcDbEntity
  8
0
  6
CONTINUOUS
100
AcDbLine
 10
491.561432
 20
148.7813419999999
 30
0.0
 11
461.526642
 21
149.305359
 31
0.0
  0
LINE
  5
B8
330
1E
100
AcDbEntity
  8
0
  6
CONTINUOUS
100
AcDbLine
 10
431.4916379999999
 20
148.781006
 30
0.0
 11
461.526642
 21
149.305359
 31
0.0
  0
ARC
  5
B9
330
1E
100
AcDbEntity
  8
0
  6
CONTINUOUS
100
AcDbCircle
 10
431.5266419999999
 20
146.781311
 30
0.0
 40
2.0
100
AcDbArc
 50
91.00058
 51
180.0
  0
ARC
  5
BA
330
1E
100
AcDbEntity
  8
0
  6
CONTINUOUS
100
AcDbCircle
 10
491.526642
 20
146.7816469999999
 30
0.0
 40
2.0
100
AcDbArc
 50
0.0
 51
89.00051899999999
  0
LINE
  5
BB
330
1E
100
AcDbEntity
  8
0
  6
CONTINUOUS
100
AcDbLine
 10
493.5266419999999
 20
14.305365
 30
0.0
 11
493.5266419999999
 21
-0.694635
 31
0.0
  0
ARC
  5
BC
330
1E
100
AcDbEntity
  8
0
  6
CONTINUOUS
100
AcDbCircle
 10
496.5266419999999
 20
14.305365
 30
0.0
 40
3.0
100
AcDbArc
 50
180.0
 51
270.0
  0
LINE
  5
BD
330
1E
100
AcDbEntity
  8
0
  6
CONTINUOUS
100
AcDbLine
 10
429.5266419999999
 20
14.305365
 30
0.0
 11
429.5266419999999
 21
-0.694635
 31
0.0
  0
ARC
  5
BE
330
1E
100
AcDbEntity
  8
0
  6
CONTINUOUS
100
AcDbCircle
 10
426.5266419999999
 20
14.305345
 30
0.0
 40
3.0
100
AcDbArc
 50
270.0
 51
0.0
  0
ARC
  5
BF
330
1E
100
AcDbEntity
  8
0
  6
CONTINUOUS
100
AcDbCircle
 10
405.5266419999999
 20
9.305365
 30
0.0
 40
2.0
100
AcDbArc
 50
90.0
 51
180.0
  0
ARC
  5
C0
330
1E
100
AcDbEntity
  8
0
  6
CONTINUOUS
100
AcDbCircle
 10
517.5266109999999
 20
9.305365
 30
0.0
 40
2.0
100
AcDbArc
 50
0.0
 51
90.0
  0
LINE
  5
C1
330
1E
100
AcDbEntity
  8
0
  6
CENTER
100
AcDbLine
 10
416.526642
 20
15.595365
 30
0.0
 11
416.526642
 21
-4.804635
 31
0.0
  0
LINE
  5
C2
330
1E
100
AcDbEntity
  8
0
  6
CENTER
100
AcDbLine
 10
506.5266419999999
 20
16.615364
 30
0.0
 11
506.5266419999999
 21
-5.314634999999999
 31
0.0
  0
LINE
  5
C3
330
1E
100
AcDbEntity
  8
0
  6
CONTINUOUS
100
AcDbLine
 10
428.244629
 20
20.812284
 30
0.0
 11
404.8086549999999
 21
11.798465
 31
0.0
  0
ARC
  5
C4
330
1E
100
AcDbEntity
  8
0
  6
CONTINUOUS
100
AcDbCircle
 10
405.5266419999999
 20
9.931785000000001
 30
0.0
 40
2.0
100
AcDbArc
 50
111.037903
 51
180.0
  0
LINE
  5
C5
330
1E
100
AcDbEntity
  8
0
  6
CONTINUOUS
100
AcDbLine
 10
429.5266419999999
 20
22.67896499999999
 30
0.0
 11
429.5266419999999
 21
14.305365
 31
0.0
  0
ARC
  5
C6
330
1E
100
AcDbEntity
  8
0
  6
CONTINUOUS
100
AcDbCircle
 10
427.526642
 20
22.67896499999999
 30
0.0
 40
2.0
100
AcDbArc
 50
291.0378109999999
 51
0.0
  0
LINE
  5
C7
330
1E
100
AcDbEntity
  8
0
  6
CONTINUOUS
100
AcDbLine
 10
494.808655
 20
20.812265
 30
0.0
 11
518.244629
 21
11.798465
 31
0.0
  0
ARC
  5
C8
330
1E
100
AcDbEntity
  8
0
  6
CONTINUOUS
100
AcDbCircle
 10
517.5266109999999
 20
9.931764999999998
 30
0.0
 40
2.0
100
AcDbArc
 50
0.0
 51
68.96264599999999
  0
LINE
  5
C9
330
1E
100
AcDbEntity
  8
0
  6
CONTINUOUS
100
AcDbLine
 10
493.5266419999999
 20
22.67896499999999
 30
0.0
 11
493.5266419999999
 21
14.305365
 31
0.0
  0
ARC
  5
CA
330
1E
100
AcDbEntity
  8
0
  6
CONTINUOUS
100
AcDbCircle
 10
495.526642
 20
22.678986
 30
0.0
 40
2.0
100
AcDbArc
 50
180.0
 51
248.962799
  0
LINE
  5
CB
330
1E
100
AcDbEntity
  8
0
  6
CONTINUOUS
100
AcDbLine
 10
413.5266419999999
 20
79.112511
 30
0.0
 11
413.5266419999999
 21
129.4981989999999
 31
0.0
  0
LINE
  5
CC
330
1E
100
AcDbEntity
  8
0
  6
CONTINUOUS
100
AcDbLine
 10
509.5266419999999
 20
79.11251800000001
 30
0.0
 11
509.5266419999999
 21
129.4981989999999
 31
0.0
  0
LINE
  5
CD
330
1E
100
AcDbEntity
  8
0
  6
CONTINUOUS
100
AcDbLine
 10
499.526642
 20
46.110207
 30
0.0
 11
499.526642
 21
106.3753659999999
 31
0.0
  0
LINE
  5
CE
330
1E
100
AcDbEntity
  8
0
  6
CONTINUOUS
100
AcDbLine
 10
423.526642
 20
46.110207
 30
0.0
 11
423.526642
 21
106.3753659999999
 31
0.0
  0
LINE
  5
CF
330
1E
100
AcDbEntity
  8
0
  6
CONTINUOUS
100
AcDbLine
 10
507.296844
 20
132.397659
 30
0.0
 11
495.7564389999999
 21
135.463058
 31
0.0
  0
LINE
  5
D0
330
1E
100
AcDbEntity
  8
0
  6
CONTINUOUS
100
AcDbLine
 10
507.296844
 20
76.213066
 30
0.0
 11
501.7564389999999
 21
74.74140899999999
 31
0.0
  0
LINE
  5
D1
330
1E
100
AcDbEntity
  8
0
  6
CONTINUOUS
100
AcDbLine
 10
497.2996519999999
 20
43.211506
 30
0.0
 11
495.753632
 21
42.799225
 31
0.0
  0
LINE
  5
D2
330
1E
100
AcDbEntity
  8
0
  6
CONTINUOUS
100
AcDbLine
 10
425.753632
 20
43.211487
 30
0.0
 11
427.2996519999999
 21
42.799225
 31
0.0
  0
LINE
  5
D3
330
1E
100
AcDbEntity
  8
0
  6
CONTINUOUS
100
AcDbLine
 10
415.756439
 20
76.21305799999999
 30
0.0
 11
421.296844
 21
74.74140899999999
 31
0.0
  0
LINE
  5
D4
330
1E
100
AcDbEntity
  8
0
  6
CONTINUOUS
100
AcDbLine
 10
415.756439
 20
132.397659
 30
0.0
 11
427.296844
 21
135.463058
 31
0.0
  0
ARC
  5
D5
330
1E
100
AcDbEntity
  8
0
  6
CONTINUOUS
100
AcDbCircle
 10
416.526642
 20
129.49823
 30
0.0
 40
3.0
100
AcDbArc
 50
104.8760989999999
 51
180.0
  0
ARC
  5
D6
330
1E
100
AcDbEntity
  8
0
  6
CONTINUOUS
100
AcDbCircle
 10
416.526642
 20
79.11253399999999
 30
0.0
 40
3.0
100
AcDbArc
 50
180.0
 51
255.1246029999999
  0
ARC
  5
D7
330
1E
100
AcDbEntity
  8
0
  6
CONTINUOUS
100
AcDbCircle
 10
506.5266419999999
 20
129.4981989999999
 30
0.0
 40
3.0
100
AcDbArc
 50
0.0
 51
75.124413
  0
ARC
  5
D8
330
1E
100
AcDbEntity
  8
0
  6
CONTINUOUS
100
AcDbCircle
 10
506.5266419999999
 20
79.112511
 30
0.0
 40
3.0
100
AcDbArc
 50
284.875793
 51
0.0
  0
ARC
  5
D9
330
1E
100
AcDbEntity
  8
0
  6
CONTINUOUS
100
AcDbCircle
 10
426.5266419999999
 20
46.110226
 30
0.0
 40
3.0
100
AcDbArc
 50
180.0
 51
255.0689999999999
  0
ARC
  5
DA
330
1E
100
AcDbEntity
  8
0
  6
CONTINUOUS
100
AcDbCircle
 10
496.5266419999999
 20
46.110207
 30
0.0
 40
3.0
100
AcDbArc
 50
284.9315799999999
 51
0.0
  0
ARC
  5
DB
330
1E
100
AcDbEntity
  8
0
  6
CONTINUOUS
100
AcDbCircle
 10
496.5266419999999
 20
138.362549
 30
0.0
 40
3.0
100
AcDbArc
 50
180.0
 51
255.1246029999999
  0
ARC
  5
DC
330
1E
100
AcDbEntity
  8
0
  6
CONTINUOUS
100
AcDbCircle
 10
502.526642
 20
71.84197199999999
 30
0.0
 40
3.0
100
AcDbArc
 50
104.8760989999999
 51
180.0
  0
ARC
  5
DD
330
1E
100
AcDbEntity
  8
0
  6
CONTINUOUS
100
AcDbCircle
 10
496.5266419999999
 20
39.900543
 30
0.0
 40
3.0
100
AcDbArc
 50
104.9318009999999
 51
180.0
  0
ARC
  5
DE
330
1E
100
AcDbEntity
  8
0
  6
CONTINUOUS
100
AcDbCircle
 10
426.5266419999999
 20
39.90052399999999
 30
0.0
 40
3.0
100
AcDbArc
 50
0.0
 51
75.068779
  0
ARC
  5
DF
330
1E
100
AcDbEntity
  8
0
  6
CONTINUOUS
100
AcDbCircle
 10
420.526642
 20
71.841942
 30
0.0
 40
3.0
100
AcDbArc
 50
0.0
 51
75.124496
  0
ARC
  5
E0
330
1E
100
AcDbEntity
  8
0
  6
CONTINUOUS
100
AcDbCircle
 10
426.5266419999999
 20
138.362503
 30
0.0
 40
3.0
100
AcDbArc
 50
284.8758469999999
 51
0.0
  0
LINE
  5
E1
330
1E
100
AcDbEntity
  8
0
  6
DASHED
100
AcDbLine
 10
411.026642
 20
11.305365
 30
0.0
 11
411.026642
 21
-0.694635
 31
0.0
  0
LINE
  5
E2
330
1E
100
AcDbEntity
  8
0
  6
DASHED
100
AcDbLine
 10
422.0266419999999
 20
11.305365
 30
0.0
 11
422.0266419999999
 21
-0.694635
 31
0.0
  0
LINE
  5
E3
330
1E
100
AcDbEntity
  8
0
  6
DASHED
100
AcDbLine
 10
501.0266419999999
 20
11.305365
 30
0.0
 11
501.0266419999999
 21
-0.694635
 31
0.0
  0
LINE
  5
E4
330
1E
100
AcDbEntity
  8
0
  6
DASHED
100
AcDbLine
 10
512.026611
 20
11.305365
 30
0.0
 11
512.026611
 21
-0.694635
 31
0.0
  0
LINE
  5
E5
330
1E
100
AcDbEntity
  8
0
  6
CONTINUOUS
100
AcDbLine
 10
431.756653
 20
126.3053669999999
 30
0.0
 11
491.426636
 21
126.3053669999999
 31
0.0
  0
LINE
  5
E6
330
1E
100
AcDbEntity
  8
0
  6
CONTINUOUS
100
AcDbLine
 10
414.0266419999999
 20
31.305365
 30
0.0
 11
414.0266419999999
 21
40.356705
 31
0.0
  0
LINE
  5
E7
330
1E
100
AcDbEntity
  8
0
  6
CONTINUOUS
100
AcDbLine
 10
509.0266419999999
 20
31.305365
 30
0.0
 11
509.0266419999999
 21
40.356705
 31
0.0
  0
LINE
  5
E8
330
1E
100
AcDbEntity
  8
0
  6
CONTINUOUS
100
AcDbLine
 10
419.0266419999999
 20
26.305365
 30
0.0
 11
428.057831
 21
26.305365
 31
0.0
  0
LINE
  5
E9
330
1E
100
AcDbEntity
  8
0
  6
CONTINUOUS
100
AcDbLine
 10
504.026642
 20
26.305365
 30
0.0
 11
494.97525
 21
26.305365
 31
0.0
  0
ARC
  5
EA
330
1E
100
AcDbEntity
  8
0
  6
CONTINUOUS
100
AcDbCircle
 10
461.526642
 20
73.805367
 30
0.0
 40
57.25
100
AcDbArc
 50
327.498112
 51
33.025478
  0
ARC
  5
EB
330
1E
100
AcDbEntity
  8
0
  6
CONTINUOUS
100
AcDbCircle
 10
461.526642
 20
73.805367
 30
0.0
 40
57.25
100
AcDbArc
 50
160.085907
 51
212.501907
  0
ARC
  5
EC
330
1E
100
AcDbEntity
  8
0
  6
CONTINUOUS
100
AcDbCircle
 10
419.0266419999999
 20
31.305365
 30
0.0
 40
5.0
100
AcDbArc
 50
180.0
 51
270.0
  0
ARC
  5
ED
330
1E
100
AcDbEntity
  8
0
  6
CONTINUOUS
100
AcDbCircle
 10
504.026642
 20
31.305365
 30
0.0
 40
5.0
100
AcDbArc
 50
270.0
 51
0.0
  0
ARC
  5
EE
330
1E
100
AcDbEntity
  8
0
  6
CONTINUOUS
100
AcDbCircle
 10
428.0780329999999
 20
21.30536499999999
 30
0.0
 40
5.0
100
AcDbArc
 50
73.15825699999999
 51
90.230461
  0
ARC
  5
EF
330
1E
100
AcDbEntity
  8
0
  6
CONTINUOUS
100
AcDbCircle
 10
494.97525
 20
21.30536499999999
 30
0.0
 40
5.0
100
AcDbArc
 50
90.0
 51
106.842003
  0
ARC
  5
F0
330
1E
100
AcDbEntity
  8
0
  6
CONTINUOUS
100
AcDbCircle
 10
409.0266419999999
 20
40.356705
 30
0.0
 40
5.0
100
AcDbArc
 50
0.0
 51
32.49969099999999
  0
ARC
  5
F1
330
1E
100
AcDbEntity
  8
0
  6
CONTINUOUS
100
AcDbCircle
 10
514.0266109999999
 20
40.356705
 30
0.0
 40
5.0
100
AcDbArc
 50
147.498306
 51
180.0
  0
LINE
  5
F2
330
1E
100
AcDbEntity
  8
0
  6
CONTINUOUS
100
AcDbLine
 10
437.5266419999999
 20
0.305365
 30
0.0
 11
485.5266419999999
 21
0.305365
 31
0.0
  0
LINE
  5
F3
330
1E
100
AcDbEntity
  8
0
  6
CONTINUOUS
100
AcDbLine
 10
436.526642
 20
-0.694635
 30
0.0
 11
403.526642
 21
-0.694635
 31
0.0
  0
LINE
  5
F4
330
1E
100
AcDbEntity
  8
0
  6
CONTINUOUS
100
AcDbLine
 10
486.526642
 20
-0.694635
 30
0.0
 11
485.5266419999999
 21
0.305365
 31
0.0
  0
LINE
  5
F5
330
1E
100
AcDbEntity
  8
0
  6
CONTINUOUS
100
AcDbLine
 10
436.526642
 20
-0.694635
 30
0.0
 11
437.5266419999999
 21
0.305365
 31
0.0
  0
LINE
  5
F6
330
1E
100
AcDbEntity
  8
0
  6
CONTINUOUS
100
AcDbLine
 10
371.5266419999999
 20
93.30536700000001
 30
0.0
 11
371.5266419999999
 21
115.305367
 31
0.0
  0
LINE
  5
F7
330
1E
100
AcDbEntity
  8
0
  6
CONTINUOUS
100
AcDbLine
 10
411.526642
 20
115.305367
 30
0.0
 11
371.5266419999999
 21
115.305367
 31
0.0
  0
LINE
  5
F8
330
1E
100
AcDbEntity
  8
0
  6
CONTINUOUS
100
AcDbLine
 10
411.526642
 20
93.30536700000001
 30
0.0
 11
371.5266419999999
 21
93.30536700000001
 31
0.0
  0
LINE
  5
F9
330
1E
100
AcDbEntity
  8
0
  6
CONTINUOUS
100
AcDbLine
 10
411.526642
 20
116.8053669999999
 30
0.0
 11
411.526642
 21
91.80536700000001
 31
0.0
  0
LINE
  5
FA
330
1E
100
AcDbEntity
  8
0
  6
CONTINUOUS
100
AcDbLine
 10
413.5266419999999
 20
116.8053669999999
 30
0.0
 11
411.526642
 21
116.8053669999999
 31
0.0
  0
LINE
  5
FB
330
1E
100
AcDbEntity
  8
0
  6
CONTINUOUS
100
AcDbLine
 10
413.5266419999999
 20
91.80536700000001
 30
0.0
 11
411.526642
 21
91.80536700000001
 31
0.0
  0
ARC
  5
FC
330
1E
100
AcDbEntity
  8
0
  6
CONTINUOUS
100
AcDbCircle
 10
403.526642
 20
104.305367
 30
0.0
 40
3.0
100
AcDbArc
 50
270.0
 51
90.0
  0
LINE
  5
FD
330
1E
100
AcDbEntity
  8
0
  6
CONTINUOUS
100
AcDbLine
 10
403.526642
 20
107.3053669999999
 30
0.0
 11
371.5266419999999
 21
107.3053669999999
 31
0.0
  0
LINE
  5
FE
330
1E
100
AcDbEntity
  8
0
  6
CONTINUOUS
100
AcDbLine
 10
403.526642
 20
101.305367
 30
0.0
 11
371.5266419999999
 21
101.305367
 31
0.0
  0
LINE
  5
FF
330
1E
100
AcDbEntity
  8
0
  6
CENTER
100
AcDbLine
 10
-13.37875
 20
73.805367
 30
0.0
 11
201.739761
 21
73.805367
 31
0.0
  0
LINE
  5
100
330
1E
100
AcDbEntity
  8
0
  6
CONTINUOUS
100
AcDbLine
 10
405.5266419999999
 20
93.30536700000001
 30
0.0
 11
405.5266419999999
 21
86.85302699999999
 31
0.0
  0
ARC
  5
101
330
1E
100
AcDbEntity
  8
0
  6
CONTINUOUS
100
AcDbCircle
 10
461.526642
 20
73.805367
 30
0.0
 40
57.499901
100
AcDbArc
 50
303.815613
 51
303.996887
  0
ARC
  5
102
330
1E
100
AcDbEntity
  8
0
  6
CONTINUOUS
100
AcDbCircle
 10
461.526642
 20
73.805367
 30
0.0
 40
57.499901
100
AcDbArc
 50
160.176102
 51
213.9967959999999
  0
ARC
  5
103
330
1E
100
AcDbEntity
  8
0
  6
CONTINUOUS
100
AcDbCircle
 10
461.526642
 20
73.805367
 30
0.0
 40
57.499901
100
AcDbArc
 50
236.003098
 51
236.184296
  0
ARC
  5
104
330
1E
100
AcDbEntity
  8
0
  6
CONTINUOUS
100
AcDbCircle
 10
461.526642
 20
73.805367
 30
0.0
 40
57.499901
100
AcDbArc
 50
326.00312
 51
33.40666999999999
  0
LINE
  5
105
330
1E
100
AcDbEntity
  8
0
  6
CENTER
100
AcDbLine
 10
244.483948
 20
398.48465
 30
0.0
 11
244.483948
 21
225.614639
 31
0.0
  0
LINE
  5
106
330
1E
100
AcDbEntity
  8
0
  6
CENTER
100
AcDbLine
 10
-18.985001
 20
325.838593
 30
0.0
 11
313.823395
 21
325.838593
 31
0.0
  0
LINE
  5
107
330
1E
100
AcDbEntity
  8
0
  6
CONTINUOUS
100
AcDbLine
 10
193.2659149999999
 20
357.838593
 30
0.0
 11
292.011902
 21
357.838593
 31
0.0
  0
LINE
  5
108
330
1E
100
AcDbEntity
  8
0
  6
CONTINUOUS
100
AcDbLine
 10
193.2659149999999
 20
293.8385929999999
 30
0.0
 11
292.011902
 21
293.8385929999999
 31
0.0
  0
LINE
  5
109
330
1E
100
AcDbEntity
  8
0
  6
CONTINUOUS
100
AcDbLine
 10
287.4220579999999
 20
383.838593
 30
0.0
 11
244.483948
 21
383.838593
 31
0.0
  0
LINE
  5
10A
330
1E
100
AcDbEntity
  8
0
  6
CONTINUOUS
100
AcDbLine
 10
201.545837
 20
267.838593
 30
0.0
 11
233.4839479999999
 21
267.838593
 31
0.0
  0
LINE
  5
10B
330
1E
100
AcDbEntity
  8
0
  6
CONTINUOUS
100
AcDbLine
 10
297.4839479999999
 20
325.838593
 30
0.0
 11
296.925385
 21
357.838593
 31
0.0
  0
LINE
  5
10C
330
1E
100
AcDbEntity
  8
0
  6
CONTINUOUS
100
AcDbLine
 10
292.31601
 20
379.862854
 30
0.0
 11
296.925385
 21
357.838593
 31
0.0
  0
ARC
  5
10D
330
1E
100
AcDbEntity
  8
0
  6
CONTINUOUS
100
AcDbCircle
 10
287.4220579999999
 20
378.838593
 30
0.0
 40
5.0
100
AcDbArc
 50
11.820596
 51
90.0
  0
LINE
  5
10E
330
1E
100
AcDbEntity
  8
0
  6
CONTINUOUS
100
AcDbLine
 10
297.4839479999999
 20
325.838593
 30
0.0
 11
296.925385
 21
293.8385929999999
 31
0.0
  0
LINE
  5
10F
330
1E
100
AcDbEntity
  8
0
  6
CONTINUOUS
100
AcDbLine
 10
292.31601
 20
271.814362
 30
0.0
 11
296.925385
 21
293.8385929999999
 31
0.0
  0
ARC
  5
110
330
1E
100
AcDbEntity
  8
0
  6
CONTINUOUS
100
AcDbCircle
 10
287.4220579999999
 20
272.8385929999999
 30
0.0
 40
5.0
100
AcDbArc
 50
270.0
 51
348.179404
  0
LINE
  5
111
330
1E
100
AcDbEntity
  8
0
  6
CONTINUOUS
100
AcDbLine
 10
264.4839479999999
 20
295.838593
 30
0.0
 11
264.4839479999999
 21
355.838593
 31
0.0
  0
LINE
  5
112
330
1E
100
AcDbEntity
  8
0
  6
CONTINUOUS
100
AcDbLine
 10
224.4839479999999
 20
295.838593
 30
0.0
 11
224.4839479999999
 21
355.838593
 31
0.0
  0
ARC
  5
113
330
1E
100
AcDbEntity
  8
0
  6
CONTINUOUS
100
AcDbCircle
 10
292.011902
 20
352.838593
 30
0.0
 40
5.0
100
AcDbArc
 50
1.0
 51
90.0
  0
ARC
  5
114
330
1E
100
AcDbEntity
  8
0
  6
CONTINUOUS
100
AcDbCircle
 10
292.011902
 20
298.838593
 30
0.0
 40
5.0
100
AcDbArc
 50
270.0
 51
359.0
  0
LINE
  5
115
330
1E
100
AcDbEntity
  8
0
  6
CONTINUOUS
100
AcDbLine
 10
187.8104399999999
 20
271.5100709999999
 30
0.0
 11
188.267639
 21
288.9694819999999
 31
0.0
  0
LINE
  5
116
330
1E
100
AcDbEntity
  8
0
  6
CONTINUOUS
100
AcDbLine
 10
179.7339479999999
 20
383.338593
 30
0.0
 11
179.7339479999999
 21
268.338593
 31
0.0
  0
LINE
  5
117
330
1E
100
AcDbEntity
  8
0
  6
CONTINUOUS
100
AcDbLine
 10
198.298935
 20
343.8385929999999
 30
0.0
 11
198.298935
 21
307.838593
 31
0.0
  0
LINE
  5
118
330
1E
100
AcDbEntity
  8
0
  6
CONTINUOUS
100
AcDbLine
 10
179.7339479999999
 20
383.0885929999999
 30
0.0
 11
184.811462
 21
383.0885929999999
 31
0.0
  0
LINE
  5
119
330
1E
100
AcDbEntity
  8
0
  6
CONTINUOUS
100
AcDbLine
 10
184.811462
 20
268.5885929999999
 30
0.0
 11
179.7339479999999
 21
268.5885929999999
 31
0.0
  0
ARC
  5
11A
330
1E
100
AcDbEntity
  8
0
  6
CONTINUOUS
100
AcDbCircle
 10
193.2659149999999
 20
288.838593
 30
0.0
 40
5.0
100
AcDbArc
 50
90.0
 51
178.5
  0
ARC
  5
11B
330
1E
100
AcDbEntity
  8
0
  6
CONTINUOUS
100
AcDbCircle
 10
184.811462
 20
271.588593
 30
0.0
 40
3.0
100
AcDbArc
 50
270.0
 51
358.4999999999999
  0
LINE
  5
11C
330
1E
100
AcDbEntity
  8
0
  6
CONTINUOUS
100
AcDbLine
 10
187.8104399999999
 20
380.167145
 30
0.0
 11
188.267639
 21
362.7077029999999
 31
0.0
  0
ARC
  5
11D
330
1E
100
AcDbEntity
  8
0
  6
CONTINUOUS
100
AcDbCircle
 10
193.2659149999999
 20
362.838593
 30
0.0
 40
5.0
100
AcDbArc
 50
181.4999999999999
 51
270.0
  0
ARC
  5
11E
330
1E
100
AcDbEntity
  8
0
  6
CONTINUOUS
100
AcDbCircle
 10
184.811462
 20
380.088593
 30
0.0
 40
3.0
100
AcDbArc
 50
1.500000000000008
 51
90.0
  0
LINE
  5
11F
330
1E
100
AcDbEntity
  8
0
  6
CONTINUOUS
100
AcDbLine
 10
196.651871
 20
379.862854
 30
0.0
 11
192.0727389999999
 21
357.983063
 31
0.0
  0
ARC
  5
120
330
1E
100
AcDbEntity
  8
0
  6
CONTINUOUS
100
AcDbCircle
 10
201.545837
 20
378.838593
 30
0.0
 40
5.0
100
AcDbArc
 50
90.0
 51
168.1793979999999
  0
LINE
  5
121
330
1E
100
AcDbEntity
  8
0
  6
CONTINUOUS
100
AcDbLine
 10
196.651871
 20
271.814362
 30
0.0
 11
192.0727389999999
 21
293.694153
 31
0.0
  0
ARC
  5
122
330
1E
100
AcDbEntity
  8
0
  6
CONTINUOUS
100
AcDbCircle
 10
201.545837
 20
272.8385929999999
 30
0.0
 40
5.0
100
AcDbArc
 50
191.820602
 51
270.0
  0
LINE
  5
123
330
1E
100
AcDbEntity
  8
0
  6
CENTER
100
AcDbLine
 10
269.034332
 20
280.838593
 30
0.0
 11
289.8885189999999
 21
280.838593
 31
0.0
  0
LINE
  5
124
330
1E
100
AcDbEntity
  8
0
  6
CENTER
100
AcDbLine
 10
279.4839479999999
 20
288.3959049999999
 30
0.0
 11
279.4839479999999
 21
271.6250609999999
 31
0.0
  0
CIRCLE
  5
125
330
1E
100
AcDbEntity
  8
0
  6
CONTINUOUS
100
AcDbCircle
 10
279.4839479999999
 20
280.838593
 30
0.0
 40
5.5
  0
LINE
  5
126
330
1E
100
AcDbEntity
  8
0
  6
CENTER
100
AcDbLine
 10
219.933548
 20
280.838593
 30
0.0
 11
199.079376
 21
280.838593
 31
0.0
  0
LINE
  5
127
330
1E
100
AcDbEntity
  8
0
  6
CENTER
100
AcDbLine
 10
209.483948
 20
288.3959049999999
 30
0.0
 11
209.483948
 21
271.6250609999999
 31
0.0
  0
CIRCLE
  5
128
330
1E
100
AcDbEntity
  8
0
  6
CONTINUOUS
100
AcDbCircle
 10
209.483948
 20
280.838593
 30
0.0
 40
5.5
  0
LINE
  5
129
330
1E
100
AcDbEntity
  8
0
  6
CENTER
100
AcDbLine
 10
269.034332
 20
370.8385929999999
 30
0.0
 11
289.8885189999999
 21
370.8385929999999
 31
0.0
  0
LINE
  5
12A
330
1E
100
AcDbEntity
  8
0
  6
CENTER
100
AcDbLine
 10
279.4839479999999
 20
363.2813109999999
 30
0.0
 11
279.4839479999999
 21
380.0521549999999
 31
0.0
  0
CIRCLE
  5
12B
330
1E
100
AcDbEntity
  8
0
  6
CONTINUOUS
100
AcDbCircle
 10
279.4839479999999
 20
370.8385929999999
 30
0.0
 40
5.5
  0
LINE
  5
12C
330
1E
100
AcDbEntity
  8
0
  6
CENTER
100
AcDbLine
 10
219.933548
 20
370.8385929999999
 30
0.0
 11
199.079376
 21
370.8385929999999
 31
0.0
  0
LINE
  5
12D
330
1E
100
AcDbEntity
  8
0
  6
CENTER
100
AcDbLine
 10
209.483948
 20
363.2813109999999
 30
0.0
 11
209.483948
 21
380.0521549999999
 31
0.0
  0
CIRCLE
  5
12E
330
1E
100
AcDbEntity
  8
0
  6
CONTINUOUS
100
AcDbCircle
 10
209.483948
 20
370.8385929999999
 30
0.0
 40
5.5
  0
LINE
  5
12F
330
1E
100
AcDbEntity
  8
0
  6
CONTINUOUS
100
AcDbLine
 10
219.291092
 20
277.838593
 30
0.0
 11
269.6767879999999
 21
277.838593
 31
0.0
  0
LINE
  5
130
330
1E
100
AcDbEntity
  8
0
  6
CONTINUOUS
100
AcDbLine
 10
274.6401979999999
 20
287.8385929999999
 30
0.0
 11
277.927032
 21
287.8385929999999
 31
0.0
  0
ARC
  5
131
330
1E
100
AcDbEntity
  8
0
  6
CONTINUOUS
100
AcDbCircle
 10
269.6767879999999
 20
280.838593
 30
0.0
 40
3.0
100
AcDbArc
 50
270.0
 51
345.1243289999999
  0
LINE
  5
132
330
1E
100
AcDbEntity
  8
0
  6
CONTINUOUS
100
AcDbLine
 10
280.826477
 20
290.06842
 30
0.0
 11
281.2356259999999
 21
291.608765
 31
0.0
  0
ARC
  5
133
330
1E
100
AcDbEntity
  8
0
  6
CONTINUOUS
100
AcDbCircle
 10
277.927032
 20
290.838593
 30
0.0
 40
3.0
100
AcDbArc
 50
270.0
 51
345.1243289999999
  0
ARC
  5
134
330
1E
100
AcDbEntity
  8
0
  6
CONTINUOUS
100
AcDbCircle
 10
284.1351009999999
 20
290.838593
 30
0.0
 40
3.0
100
AcDbArc
 50
90.0
 51
165.124313
  0
LINE
  5
135
330
1E
100
AcDbEntity
  8
0
  6
CONTINUOUS
100
AcDbLine
 10
274.6401979999999
 20
287.8385929999999
 30
0.0
 11
272.576233
 21
280.06842
 31
0.0
  0
LINE
  5
136
330
1E
100
AcDbEntity
  8
0
  6
CONTINUOUS
100
AcDbLine
 10
208.1413879999999
 20
290.06842
 30
0.0
 11
207.7322389999999
 21
291.608765
 31
0.0
  0
ARC
  5
137
330
1E
100
AcDbEntity
  8
0
  6
CONTINUOUS
100
AcDbCircle
 10
211.040848
 20
290.838593
 30
0.0
 40
3.0
100
AcDbArc
 50
194.8756869999999
 51
270.0
  0
ARC
  5
138
330
1E
100
AcDbEntity
  8
0
  6
CONTINUOUS
100
AcDbCircle
 10
204.832779
 20
290.838593
 30
0.0
 40
3.0
100
AcDbArc
 50
14.875682
 51
90.0
  0
LINE
  5
139
330
1E
100
AcDbEntity
  8
0
  6
CONTINUOUS
100
AcDbLine
 10
214.3276979999999
 20
287.8385929999999
 30
0.0
 11
211.040848
 21
287.8385929999999
 31
0.0
  0
ARC
  5
13A
330
1E
100
AcDbEntity
  8
0
  6
CONTINUOUS
100
AcDbCircle
 10
219.291092
 20
280.838593
 30
0.0
 40
3.0
100
AcDbArc
 50
194.8756869999999
 51
270.0
  0
LINE
  5
13B
330
1E
100
AcDbEntity
  8
0
  6
CONTINUOUS
100
AcDbLine
 10
214.3276979999999
 20
287.8385929999999
 30
0.0
 11
216.391647
 21
280.06842
 31
0.0
  0
CIRCLE
  5
13C
330
1E
100
AcDbEntity
  8
0
  6
CONTINUOUS
100
AcDbCircle
 10
279.4839479999999
 20
370.8385929999999
 30
0.0
 40
5.5
  0
LINE
  5
13D
330
1E
100
AcDbEntity
  8
0
  6
CONTINUOUS
100
AcDbLine
 10
219.291092
 20
373.838593
 30
0.0
 11
269.6767879999999
 21
373.838593
 31
0.0
  0
LINE
  5
13E
330
1E
100
AcDbEntity
  8
0
  6
CONTINUOUS
100
AcDbLine
 10
274.6401979999999
 20
363.838593
 30
0.0
 11
277.927032
 21
363.838593
 31
0.0
  0
ARC
  5
13F
330
1E
100
AcDbEntity
  8
0
  6
CONTINUOUS
100
AcDbCircle
 10
269.6767879999999
 20
370.8385929999999
 30
0.0
 40
3.0
100
AcDbArc
 50
14.87567099999999
 51
90.0
  0
LINE
  5
140
330
1E
100
AcDbEntity
  8
0
  6
CONTINUOUS
100
AcDbLine
 10
280.826477
 20
361.608765
 30
0.0
 11
281.2356259999999
 21
360.0684199999999
 31
0.0
  0
ARC
  5
141
330
1E
100
AcDbEntity
  8
0
  6
CONTINUOUS
100
AcDbCircle
 10
277.927032
 20
360.838593
 30
0.0
 40
3.0
100
AcDbArc
 50
14.87567099999999
 51
90.0
  0
ARC
  5
142
330
1E
100
AcDbEntity
  8
0
  6
CONTINUOUS
100
AcDbCircle
 10
284.1351009999999
 20
360.838593
 30
0.0
 40
3.0
100
AcDbArc
 50
194.8756869999999
 51
270.0
  0
LINE
  5
143
330
1E
100
AcDbEntity
  8
0
  6
CONTINUOUS
100
AcDbLine
 10
274.6401979999999
 20
363.838593
 30
0.0
 11
272.576233
 21
371.6087649999999
 31
0.0
  0
LINE
  5
144
330
1E
100
AcDbEntity
  8
0
  6
CONTINUOUS
100
AcDbLine
 10
208.1413879999999
 20
361.608765
 30
0.0
 11
207.7322389999999
 21
360.0684199999999
 31
0.0
  0
ARC
  5
145
330
1E
100
AcDbEntity
  8
0
  6
CONTINUOUS
100
AcDbCircle
 10
211.040848
 20
360.838593
 30
0.0
 40
3.0
100
AcDbArc
 50
90.0
 51
165.124313
  0
ARC
  5
146
330
1E
100
AcDbEntity
  8
0
  6
CONTINUOUS
100
AcDbCircle
 10
204.832779
 20
360.838593
 30
0.0
 40
3.0
100
AcDbArc
 50
270.0
 51
345.1243179999999
  0
LINE
  5
147
330
1E
100
AcDbEntity
  8
0
  6
CONTINUOUS
100
AcDbLine
 10
214.3276979999999
 20
363.838593
 30
0.0
 11
211.040848
 21
363.838593
 31
0.0
  0
ARC
  5
148
330
1E
100
AcDbEntity
  8
0
  6
CONTINUOUS
100
AcDbCircle
 10
219.291092
 20
370.8385929999999
 30
0.0
 40
3.0
100
AcDbArc
 50
90.0
 51
165.124313
  0
LINE
  5
149
330
1E
100
AcDbEntity
  8
0
  6
CONTINUOUS
100
AcDbLine
 10
214.3276979999999
 20
363.838593
 30
0.0
 11
216.391647
 21
371.6087649999999
 31
0.0
  0
LINE
  5
14A
330
1E
100
AcDbEntity
  8
0
  6
CONTINUOUS
100
AcDbLine
 10
233.4839479999999
 20
235.838593
 30
0.0
 11
257.9839479999999
 21
235.838593
 31
0.0
  0
LINE
  5
14B
330
1E
100
AcDbEntity
  8
0
  6
CONTINUOUS
100
AcDbLine
 10
255.483948
 20
275.838593
 30
0.0
 11
255.483948
 21
270.8385929999999
 31
0.0
  0
LINE
  5
14C
330
1E
100
AcDbEntity
  8
0
  6
CONTINUOUS
100
AcDbLine
 10
233.4839479999999
 20
275.838593
 30
0.0
 11
233.4839479999999
 21
235.838593
 31
0.0
  0
LINE
  5
14D
330
1E
100
AcDbEntity
  8
0
  6
CONTINUOUS
100
AcDbLine
 10
256.983948
 20
277.838593
 30
0.0
 11
256.983948
 21
275.838593
 31
0.0
  0
LINE
  5
14E
330
1E
100
AcDbEntity
  8
0
  6
CONTINUOUS
100
AcDbLine
 10
231.983948
 20
277.838593
 30
0.0
 11
231.983948
 21
275.838593
 31
0.0
  0
LINE
  5
14F
330
1E
100
AcDbEntity
  8
0
  6
CONTINUOUS
100
AcDbLine
 10
231.983948
 20
275.838593
 30
0.0
 11
256.983948
 21
275.838593
 31
0.0
  0
LINE
  5
150
330
1E
100
AcDbEntity
  8
0
  6
CONTINUOUS
100
AcDbLine
 10
257.9839479999999
 20
267.838593
 30
0.0
 11
287.4220579999999
 21
267.838593
 31
0.0
  0
LINE
  5
151
330
1E
100
AcDbEntity
  8
0
  6
CONTINUOUS
100
AcDbLine
 10
257.9839479999999
 20
270.8385929999999
 30
0.0
 11
257.9839479999999
 21
235.838593
 31
0.0
  0
LINE
  5
152
330
1E
100
AcDbEntity
  8
0
  6
CONTINUOUS
100
AcDbLine
 10
255.066956
 20
235.838593
 30
0.0
 11
255.066956
 21
270.8385929999999
 31
0.0
  0
LINE
  5
153
330
1E
100
AcDbEntity
  8
0
  6
CONTINUOUS
100
AcDbLine
 10
255.066956
 20
270.8385929999999
 30
0.0
 11
257.9839479999999
 21
270.8385929999999
 31
0.0
  0
LINE
  5
154
330
1E
100
AcDbEntity
  8
0
  6
CONTINUOUS
100
AcDbLine
 10
244.483948
 20
383.838593
 30
0.0
 11
201.367676
 21
383.838593
 31
0.0
  0
LINE
  5
155
330
1E
100
AcDbEntity
  8
0
  6
CONTINUOUS
100
AcDbLine
 10
179.7339479999999
 20
373.338593
 30
0.0
 11
185.0667879999999
 21
373.338593
 31
0.0
  0
ARC
  5
156
330
1E
100
AcDbEntity
  8
0
  6
CONTINUOUS
100
AcDbCircle
 10
185.0667879999999
 20
370.338593
 30
0.0
 40
3.0
100
AcDbArc
 50
1.5
 51
90.0
  0
LINE
  5
157
330
1E
100
AcDbEntity
  8
0
  6
CONTINUOUS
100
AcDbLine
 10
188.0244139999999
 20
357.838593
 30
0.0
 11
179.7339479999999
 21
357.838593
 31
0.0
  0
LINE
  5
158
330
1E
100
AcDbEntity
  8
0
  6
CONTINUOUS
100
AcDbLine
 10
188.0244139999999
 20
293.8385929999999
 30
0.0
 11
179.7339479999999
 21
293.8385929999999
 31
0.0
  0
LINE
  5
159
330
1E
100
AcDbEntity
  8
0
  6
CONTINUOUS
100
AcDbLine
 10
179.7339479999999
 20
278.338593
 30
0.0
 11
185.0667879999999
 21
278.338593
 31
0.0
  0
ARC
  5
15A
330
1E
100
AcDbEntity
  8
0
  6
CONTINUOUS
100
AcDbCircle
 10
185.0667879999999
 20
281.3385929999999
 30
0.0
 40
3.0
100
AcDbArc
 50
270.0
 51
358.4999999999999
  0
LINE
  5
15B
330
1E
100
AcDbEntity
  8
0
  6
CONTINUOUS
100
AcDbLine
 10
55.73376399850889
 20
383.338593
 30
0.0
 11
179.7339479999999
 21
383.338593
 31
0.0
  0
LINE
  5
15C
330
1E
100
AcDbEntity
  8
0
  6
CONTINUOUS
100
AcDbLine
 10
179.7339479999999
 20
268.338593
 30
0.0
 11
135.2083129999999
 21
268.338593
 31
0.0
  0
LINE
  5
15D
330
1E
100
AcDbEntity
  8
0
  6
CONTINUOUS
100
AcDbLine
 10
67.73394
 20
351.8381039999999
 30
0.0
 11
171.707748
 21
351.8381039999999
 31
0.0
  0
LINE
  5
15E
330
1E
100
AcDbEntity
  8
0
  6
CONTINUOUS
100
AcDbLine
 10
67.73394
 20
359.6086119999999
 30
0.0
 11
171.707748
 21
359.6086119999999
 31
0.0
  0
LINE
  5
15F
330
1E
100
AcDbEntity
  8
0
  6
CONTINUOUS
100
AcDbLine
 10
68.73394000000001
 20
362.8879999999999
 30
0.0
 11
170.707764
 21
362.8879999999999
 31
0.0
  0
LINE
  5
160
330
1E
100
AcDbEntity
  8
0
  6
CONTINUOUS
100
AcDbLine
 10
67.73394
 20
367.702972
 30
0.0
 11
171.707748
 21
367.702972
 31
0.0
  0
LINE
  5
161
330
1E
100
AcDbEntity
  8
0
  6
CONTINUOUS
100
AcDbLine
 10
68.73394000000001
 20
369.6907959999999
 30
0.0
 11
170.707764
 21
369.6907959999999
 31
0.0
  0
LINE
  5
162
330
1E
100
AcDbEntity
  8
0
  6
CONTINUOUS
100
AcDbLine
 10
67.73394
 20
373.733429
 30
0.0
 11
171.707748
 21
373.733429
 31
0.0
  0
LINE
  5
163
330
1E
100
AcDbEntity
  8
0
  6
CONTINUOUS
100
AcDbLine
 10
67.73394
 20
378.2642819999999
 30
0.0
 11
171.707748
 21
378.2642819999999
 31
0.0
  0
LINE
  5
164
330
1E
100
AcDbEntity
  8
0
  6
CONTINUOUS
100
AcDbLine
 10
67.73394
 20
381.1413569999999
 30
0.0
 11
171.707748
 21
381.1413569999999
 31
0.0
  0
LINE
  5
165
330
1E
100
AcDbEntity
  8
0
  6
CONTINUOUS
100
AcDbLine
 10
67.73394
 20
382.7966609999999
 30
0.0
 11
171.707748
 21
382.7966609999999
 31
0.0
  0
LINE
  5
166
330
1E
100
AcDbEntity
  8
0
  6
CONTINUOUS
100
AcDbLine
 10
171.707748
 20
383.338593
 30
0.0
 11
171.707748
 21
351.8381039999999
 31
0.0
  0
LINE
  5
167
330
1E
100
AcDbEntity
  8
0
  6
CONTINUOUS
100
AcDbLine
 10
67.73394
 20
299.839081
 30
0.0
 11
171.707748
 21
299.839081
 31
0.0
  0
LINE
  5
168
330
1E
100
AcDbEntity
  8
0
  6
CONTINUOUS
100
AcDbLine
 10
67.73394
 20
292.068573
 30
0.0
 11
171.707748
 21
292.068573
 31
0.0
  0
LINE
  5
169
330
1E
100
AcDbEntity
  8
0
  6
CONTINUOUS
100
AcDbLine
 10
67.73394
 20
283.974243
 30
0.0
 11
171.707748
 21
283.974243
 31
0.0
  0
LINE
  5
16A
330
1E
100
AcDbEntity
  8
0
  6
CONTINUOUS
100
AcDbLine
 10
134.7083129999999
 20
273.4129029999999
 30
0.0
 11
171.707748
 21
273.4129029999999
 31
0.0
  0
LINE
  5
16B
330
1E
100
AcDbEntity
  8
0
  6
CONTINUOUS
100
AcDbLine
 10
134.7083129999999
 20
270.535828
 30
0.0
 11
171.707748
 21
270.535828
 31
0.0
  0
LINE
  5
16C
330
1E
100
AcDbEntity
  8
0
  6
CONTINUOUS
100
AcDbLine
 10
135.2083129999999
 20
268.880524
 30
0.0
 11
171.707748
 21
268.880524
 31
0.0
  0
LINE
  5
16D
330
1E
100
AcDbEntity
  8
0
  6
CONTINUOUS
100
AcDbLine
 10
171.707748
 20
268.338593
 30
0.0
 11
171.707748
 21
299.839081
 31
0.0
  0
LINE
  5
16E
330
1E
100
AcDbEntity
  8
0
  6
CONTINUOUS
100
AcDbLine
 10
134.7083129999999
 20
268.8385929999999
 30
0.0
 11
134.7083129999999
 21
275.038025
 31
0.0
  0
ARC
  5
16F
330
1E
100
AcDbEntity
  8
0
  6
CONTINUOUS
100
AcDbCircle
 10
135.2083129999999
 20
269.380524
 30
0.0
 40
0.499992
100
AcDbArc
 50
180.0
 51
270.0
  0
ARC
  5
170
330
1E
100
AcDbEntity
  8
0
  6
CONTINUOUS
100
AcDbCircle
 10
133.7083279999999
 20
270.8394469999999
 30
0.0
 40
0.9999839999999998
100
AcDbArc
 50
270.0
 51
0.0
  0
LINE
  5
171
330
1E
100
AcDbEntity
  8
0
  6
CONTINUOUS
100
AcDbLine
 10
68.73394000000001
 20
288.789215
 30
0.0
 11
170.707764
 21
288.789215
 31
0.0
  0
LINE
  5
172
330
1E
100
AcDbEntity
  8
0
  6
CONTINUOUS
100
AcDbLine
 10
68.73394000000001
 20
281.986389
 30
0.0
 11
170.707764
 21
281.986389
 31
0.0
  0
LINE
  5
173
330
1E
100
AcDbEntity
  8
0
  6
CONTINUOUS
100
AcDbLine
 10
67.73394
 20
277.943756
 30
0.0
 11
171.707748
 21
277.943756
 31
0.0
  0
LINE
  5
174
330
1E
100
AcDbEntity
  8
0
  6
CONTINUOUS
100
AcDbLine
 10
67.73394
 20
275.038025
 30
0.0
 11
134.7083129999999
 21
275.038025
 31
0.0
  0
LINE
  5
175
330
1E
100
AcDbEntity
  8
0
  6
CONTINUOUS
100
AcDbLine
 10
68.73394000000001
 20
269.839478
 30
0.0
 11
114.256317
 21
269.839478
 31
0.0
  0
LINE
  5
176
330
1E
100
AcDbEntity
  8
0
  6
CONTINUOUS
100
AcDbLine
 10
133.7083279999999
 20
269.839478
 30
0.0
 11
114.256317
 21
269.8394169999999
 31
0.0
  0
ARC
  5
177
330
1E
100
AcDbEntity
  8
0
  6
CONTINUOUS
100
AcDbCircle
 10
135.2083129999999
 20
268.8385929999999
 30
0.0
 40
0.5
100
AcDbArc
 50
180.0
 51
270.0
  0
LINE
  5
17A
330
1E
100
AcDbEntity
  8
0
  6
CONTINUOUS
100
AcDbLine
 10
61.79634100000001
 20
255.4167939999999
 30
0.0
 11
60.73394
 21
215.338593
 31
0.0
  0
LINE
  5
17B
330
1E
100
AcDbEntity
  8
0
  6
CONTINUOUS
100
AcDbLine
 10
129.6709439999999
 20
255.4167939999999
 30
0.0
 11
130.7339479999999
 21
215.338593
 31
0.0
  0
LINE
  5
17C
330
1E
100
AcDbEntity
  8
0
  6
CONTINUOUS
100
AcDbLine
 10
71.70813800000001
 20
268.338593
 30
0.0
 11
84.23394
 21
268.338593
 31
0.0
  0
LINE
  5
17D
330
1E
100
AcDbEntity
  8
0
  6
CONTINUOUS
100
AcDbLine
 10
119.759743
 20
268.338593
 30
0.0
 11
84.23394
 21
268.338593
 31
0.0
  0
LINE
  5
17E
330
1E
100
AcDbEntity
  8
0
  6
CONTINUOUS
100
AcDbLine
 10
126.685143
 20
258.3385929999999
 30
0.0
 11
109.0451429999999
 21
258.3385929999999
 31
0.0
  0
ARC
  5
17F
330
1E
100
AcDbEntity
  8
0
  6
CONTINUOUS
100
AcDbCircle
 10
64.78194399999999
 20
255.338593
 30
0.0
 40
3.0
100
AcDbArc
 50
90.0
 51
178.5002749999999
  0
ARC
  5
180
330
1E
100
AcDbEntity
  8
0
  6
CONTINUOUS
100
AcDbCircle
 10
126.685143
 20
255.338593
 30
0.0
 40
3.0
100
AcDbArc
 50
1.4999
 51
90.0
  0
LINE
  5
181
330
1E
100
AcDbEntity
  8
0
  6
CONTINUOUS
100
AcDbLine
 10
70.708382
 20
267.364777
 30
0.0
 11
70.523033
 21
260.2862549999999
 31
0.0
  0
LINE
  5
182
330
1E
100
AcDbEntity
  8
0
  6
CONTINUOUS
100
AcDbLine
 10
120.7590479999999
 20
267.3647459999999
 30
0.0
 11
120.9448239999999
 21
260.286133
 31
0.0
  0
ARC
  5
183
330
1E
100
AcDbEntity
  8
0
  6
CONTINUOUS
100
AcDbCircle
 10
119.759743
 20
267.338593
 30
0.0
 40
1.0
100
AcDbArc
 50
1.4993
 51
90.0
  0
ARC
  5
184
330
1E
100
AcDbEntity
  8
0
  6
CONTINUOUS
100
AcDbCircle
 10
71.70813800000001
 20
267.338593
 30
0.0
 40
1.0
100
AcDbArc
 50
90.0
 51
178.4994049999999
  0
LINE
  5
185
330
1E
100
AcDbEntity
  8
0
  6
CONTINUOUS
100
AcDbLine
 10
64.78214300000001
 20
258.3385929999999
 30
0.0
 11
82.42274499999998
 21
258.3385929999999
 31
0.0
  0
ARC
  5
186
330
1E
100
AcDbEntity
  8
0
  6
CONTINUOUS
100
AcDbCircle
 10
95.73394
 20
325.838593
 30
0.0
 40
68.800003
100
AcDbArc
 50
258.8442
 51
281.1558
  0
LINE
  5
187
330
1E
100
AcDbEntity
  8
0
  6
CENTER
100
AcDbLine
 10
95.73394
 20
272.164795
 30
0.0
 11
95.73394
 21
197.2449949999999
 31
0.0
  0
LINE
  5
188
330
1E
100
AcDbEntity
  8
0
  6
CONTINUOUS
100
AcDbLine
 10
63.23394
 20
209.338593
 30
0.0
 11
128.233948
 21
209.338593
 31
0.0
  0
LINE
  5
189
330
1E
100
AcDbEntity
  8
0
  6
CONTINUOUS
100
AcDbLine
 10
130.7339479999999
 20
211.838593
 30
0.0
 11
130.7339479999999
 21
214.3385929999999
 31
0.0
  0
LINE
  5
18A
330
1E
100
AcDbEntity
  8
0
  6
CONTINUOUS
100
AcDbLine
 10
60.73394
 20
211.838593
 30
0.0
 11
60.73394
 21
214.3385929999999
 31
0.0
  0
LINE
  5
18B
330
1E
100
AcDbEntity
  8
0
  6
CONTINUOUS
100
AcDbLine
 10
130.7339479999999
 20
214.3385929999999
 30
0.0
 11
60.73394
 21
214.3385929999999
 31
0.0
  0
LINE
  5
18C
330
1E
100
AcDbEntity
  8
0
  6
CONTINUOUS
100
AcDbLine
 10
130.7339479999999
 20
215.338593
 30
0.0
 11
60.73394
 21
215.338593
 31
0.0
  0
LINE
  5
18D
330
1E
100
AcDbEntity
  8
0
  6
CONTINUOUS
100
AcDbLine
 10
130.7339479999999
 20
214.3385929999999
 30
0.0
 11
130.7339479999999
 21
215.338593
 31
0.0
  0
LINE
  5
18E
330
1E
100
AcDbEntity
  8
0
  6
CONTINUOUS
100
AcDbLine
 10
60.73394
 20
214.3385929999999
 30
0.0
 11
60.73394
 21
215.338593
 31
0.0
  0
LINE
  5
18F
330
1E
100
AcDbEntity
  8
0
  6
CENTER
100
AcDbLine
 10
65.73394
 20
231.3385929999999
 30
0.0
 11
26.046942
 21
231.3385929999999
 31
0.0
  0
LINE
  5
190
330
1E
100
AcDbEntity
  8
0
  6
CONTINUOUS
100
AcDbLine
 10
122.2211379999999
 20
212.3385929999999
 30
0.0
 11
129.7339479999999
 21
212.3385929999999
 31
0.0
  0
LINE
  5
191
330
1E
100
AcDbEntity
  8
0
  6
CONTINUOUS
100
AcDbLine
 10
69.246941
 20
212.3385929999999
 30
0.0
 11
61.73394
 21
212.3385929999999
 31
0.0
  0
LINE
  5
192
330
1E
100
AcDbEntity
  8
0
  6
CONTINUOUS
100
AcDbLine
 10
121.7211379999999
 20
211.8518069999999
 30
0.0
 11
121.6809389999999
 21
210.312393
 31
0.0
  0
ARC
  5
193
330
1E
100
AcDbEntity
  8
0
  6
CONTINUOUS
100
AcDbCircle
 10
122.2211379999999
 20
211.838593
 30
0.0
 40
0.5
100
AcDbArc
 50
90.0
 51
178.5
  0
ARC
  5
194
330
1E
100
AcDbEntity
  8
0
  6
CONTINUOUS
100
AcDbCircle
 10
120.6813429999999
 20
210.3385929999999
 30
0.0
 40
1.0
100
AcDbArc
 50
270.0
 51
358.5002
  0
ARC
  5
195
330
1E
100
AcDbEntity
  8
0
  6
CONTINUOUS
100
AcDbCircle
 10
129.7339479999999
 20
213.338593
 30
0.0
 40
1.0
100
AcDbArc
 50
270.0
 51
0.0
  0
ARC
  5
196
330
1E
100
AcDbEntity
  8
0
  6
CONTINUOUS
100
AcDbCircle
 10
128.233948
 20
211.838593
 30
0.0
 40
2.5
100
AcDbArc
 50
270.0
 51
0.0
  0
LINE
  5
197
330
1E
100
AcDbEntity
  8
0
  6
CONTINUOUS
100
AcDbLine
 10
69.74674199999999
 20
211.8518069999999
 30
0.0
 11
69.78694200000001
 21
210.312393
 31
0.0
  0
ARC
  5
198
330
1E
100
AcDbEntity
  8
0
  6
CONTINUOUS
100
AcDbCircle
 10
70.786743
 20
210.3385929999999
 30
0.0
 40
1.0
100
AcDbArc
 50
181.500397
 51
270.0
  0
ARC
  5
199
330
1E
100
AcDbEntity
  8
0
  6
CONTINUOUS
100
AcDbCircle
 10
69.246941
 20
211.838593
 30
0.0
 40
0.5
100
AcDbArc
 50
1.500199999999999
 51
90.0
  0
ARC
  5
19A
330
1E
100
AcDbEntity
  8
0
  6
CONTINUOUS
100
AcDbCircle
 10
61.73394
 20
213.338593
 30
0.0
 40
1.0
100
AcDbArc
 50
180.0
 51
270.0
  0
ARC
  5
19B
330
1E
100
AcDbEntity
  8
0
  6
CONTINUOUS
100
AcDbCircle
 10
63.23394
 20
211.838593
 30
0.0
 40
2.5
100
AcDbArc
 50
180.0
 51
270.0
  0
ARC
  5
19C
330
1E
100
AcDbEntity
  8
0
  6
CONTINUOUS
100
AcDbCircle
 10
125.7339399999999
 20
212.3385929999999
 30
0.0
 40
3.0
100
AcDbArc
 50
180.0
 51
0.0
  0
LINE
  5
19D
330
1E
100
AcDbEntity
  8
0
  6
CONTINUOUS
100
AcDbLine
 10
128.6919399999999
 20
211.838593
 30
0.0
 11
122.7759399999999
 21
211.838593
 31
0.0
  0
LINE
  5
19E
330
1E
100
AcDbEntity
  8
0
  6
CONTINUOUS
100
AcDbLine
 10
125.7339399999999
 20
209.838593
 30
0.0
 11
125.4529419999999
 21
209.351807
 31
0.0
  0
LINE
  5
19F
330
1E
100
AcDbEntity
  8
0
  6
CONTINUOUS
100
AcDbLine
 10
125.7339399999999
 20
209.838593
 30
0.0
 11
126.015144
 21
209.351807
 31
0.0
  0
ARC
  5
1A0
330
1E
100
AcDbEntity
  8
0
  6
CONTINUOUS
100
AcDbCircle
 10
65.73394
 20
212.3385929999999
 30
0.0
 40
3.0
100
AcDbArc
 50
180.0
 51
0.0
  0
LINE
  5
1A1
330
1E
100
AcDbEntity
  8
0
  6
CONTINUOUS
100
AcDbLine
 10
68.69194
 20
211.838593
 30
0.0
 11
62.77594
 21
211.838593
 31
0.0
  0
LINE
  5
1A2
330
1E
100
AcDbEntity
  8
0
  6
CONTINUOUS
100
AcDbLine
 10
65.73394
 20
209.838593
 30
0.0
 11
65.452942
 21
209.351807
 31
0.0
  0
LINE
  5
1A3
330
1E
100
AcDbEntity
  8
0
  6
CONTINUOUS
100
AcDbLine
 10
65.73394
 20
209.838593
 30
0.0
 11
66.01514399999999
 21
209.351807
 31
0.0
  0
LINE
  5
1A4
330
1E
100
AcDbEntity
  8
0
  6
CONTINUOUS
100
AcDbLine
 10
118.7339399999999
 20
268.338593
 30
0.0
 11
118.7339399999999
 21
269.838593
 31
0.0
  0
LINE
  5
1A5
330
1E
100
AcDbEntity
  8
0
  6
CONTINUOUS
100
AcDbLine
 10
72.73394
 20
268.338593
 30
0.0
 11
72.73394
 21
269.838593
 31
0.0
  0
LINE
  5
1A6
330
1E
100
AcDbEntity
  8
0
  6
CONTINUOUS
100
AcDbLine
 10
32.73394
 20
245.838806
 30
0.0
 11
32.73394
 21
216.8385929999999
 31
0.0
  0
LINE
  5
1A7
330
1E
100
AcDbEntity
  8
0
  6
CONTINUOUS
100
AcDbLine
 10
40.73394
 20
245.838806
 30
0.0
 11
40.73394
 21
216.8385929999999
 31
0.0
  0
LINE
  5
1A8
330
1E
100
AcDbEntity
  8
0
  6
CONTINUOUS
100
AcDbLine
 10
32.73394
 20
245.838806
 30
0.0
 11
40.73394
 21
245.838806
 31
0.0
  0
LINE
  5
1A9
330
1E
100
AcDbEntity
  8
0
  6
CONTINUOUS
100
AcDbLine
 10
32.73394
 20
216.8385929999999
 30
0.0
 11
40.73394
 21
216.8385929999999
 31
0.0
  0
LINE
  5
1AA
330
1E
100
AcDbEntity
  8
0
  6
CONTINUOUS
100
AcDbLine
 10
49.73394
 20
244.338806
 30
0.0
 11
49.73394
 21
218.338593
 31
0.0
  0
LINE
  5
1AB
330
1E
100
AcDbEntity
  8
0
  6
CONTINUOUS
100
AcDbLine
 10
40.73394
 20
244.338806
 30
0.0
 11
49.73394
 21
244.338806
 31
0.0
  0
LINE
  5
1AC
330
1E
100
AcDbEntity
  8
0
  6
CONTINUOUS
100
AcDbLine
 10
40.73394
 20
218.338593
 30
0.0
 11
49.73394
 21
218.338593
 31
0.0
  0
LINE
  5
1AD
330
1E
100
AcDbEntity
  8
0
  6
CONTINUOUS
100
AcDbLine
 10
49.73394
 20
242.838806
 30
0.0
 11
54.73394
 21
242.838806
 31
0.0
  0
LINE
  5
1AE
330
1E
100
AcDbEntity
  8
0
  6
CONTINUOUS
100
AcDbLine
 10
49.73394
 20
219.838593
 30
0.0
 11
54.73394
 21
219.838593
 31
0.0
  0
LINE
  5
1AF
330
1E
100
AcDbEntity
  8
0
  6
CONTINUOUS
100
AcDbLine
 10
54.73394
 20
244.838806
 30
0.0
 11
54.73394
 21
217.838593
 31
0.0
  0
LINE
  5
1B0
330
1E
100
AcDbEntity
  8
0
  6
CONTINUOUS
100
AcDbLine
 10
59.23394
 20
245.838806
 30
0.0
 11
59.23394
 21
216.8385929999999
 31
0.0
  0
LINE
  5
1B1
330
1E
100
AcDbEntity
  8
0
  6
CONTINUOUS
100
AcDbLine
 10
54.73394
 20
244.838806
 30
0.0
 11
59.23394
 21
244.838806
 31
0.0
  0
LINE
  5
1B2
330
1E
100
AcDbEntity
  8
0
  6
CONTINUOUS
100
AcDbLine
 10
54.73394
 20
217.838593
 30
0.0
 11
59.23394
 21
217.838593
 31
0.0
  0
LINE
  5
1B3
330
1E
100
AcDbEntity
  8
0
  6
CONTINUOUS
100
AcDbLine
 10
59.23394
 20
245.838806
 30
0.0
 11
61.542542
 21
245.838806
 31
0.0
  0
LINE
  5
1B4
330
1E
100
AcDbEntity
  8
0
  6
CONTINUOUS
100
AcDbLine
 10
59.23394
 20
216.8385929999999
 30
0.0
 11
60.773743
 21
216.8385929999999
 31
0.0
  0
LINE
  5
1B5
330
1E
100
AcDbEntity
  8
0
  6
CONTINUOUS
100
AcDbLine
 10
32.73394
 20
239.3388059999999
 30
0.0
 11
40.73394
 21
239.3388059999999
 31
0.0
  0
LINE
  5
1B6
330
1E
100
AcDbEntity
  8
0
  6
CONTINUOUS
100
AcDbLine
 10
32.73394
 20
223.338593
 30
0.0
 11
40.73394
 21
223.338593
 31
0.0
  0
LINE
  5
1B7
330
1E
100
AcDbEntity
  8
0
  6
CONTINUOUS
100
AcDbLine
 10
49.73394
 20
241.3388059999999
 30
0.0
 11
54.73394
 21
241.3388059999999
 31
0.0
  0
LINE
  5
1B8
330
1E
100
AcDbEntity
  8
0
  6
CONTINUOUS
100
AcDbLine
 10
49.73394
 20
221.338593
 30
0.0
 11
54.73394
 21
221.338593
 31
0.0
  0
ARC
  5
1B9
330
1E
100
AcDbEntity
  8
0
  6
CONTINUOUS
100
AcDbCircle
 10
68.52371999999999
 20
260.3385929999999
 30
0.0
 40
2.0
100
AcDbArc
 50
270.0
 51
358.500092
  0
ARC
  5
1BA
330
1E
100
AcDbEntity
  8
0
  6
CONTINUOUS
100
AcDbCircle
 10
122.9441379999999
 20
260.3385929999999
 30
0.0
 40
2.0
100
AcDbArc
 50
181.5033719999999
 51
270.0
  0
LINE
  5
1BB
330
1E
100
AcDbEntity
  8
0
  6
CONTINUOUS
100
AcDbLine
 10
55.73397800083927
 20
131.305481
 30
0.0
 11
179.7339479999999
 21
131.305481
 31
0.0
  0
LINE
  5
1BC
330
1E
100
AcDbEntity
  8
0
  6
CONTINUOUS
100
AcDbLine
 10
171.7339479999999
 20
125.091476
 30
0.0
 11
171.7339479999999
 21
120.8054809999999
 31
0.0
  0
LINE
  5
1BD
330
1E
100
AcDbEntity
  8
0
  6
CONTINUOUS
100
AcDbLine
 10
132.733948
 20
100.8054809999999
 30
0.0
 11
130.7339479999999
 21
100.8054809999999
 31
0.0
  0
LINE
  5
1BE
330
1E
100
AcDbEntity
  8
0
  6
CONTINUOUS
100
AcDbLine
 10
132.733948
 20
46.805477
 30
0.0
 11
130.7339479999999
 21
46.805477
 31
0.0
  0
LINE
  5
1BF
330
1E
100
AcDbEntity
  8
0
  6
CONTINUOUS
100
AcDbLine
 10
134.733948
 20
48.80547700000001
 30
0.0
 11
134.733948
 21
98.805481
 31
0.0
  0
LINE
  5
1C0
330
1E
100
AcDbEntity
  8
0
  6
CONTINUOUS
100
AcDbLine
 10
67.73394
 20
111.805481
 30
0.0
 11
171.7339479999999
 21
111.805481
 31
0.0
  0
LINE
  5
1C1
330
1E
100
AcDbEntity
  8
0
  6
CONTINUOUS
100
AcDbLine
 10
67.73394
 20
113.805481
 30
0.0
 11
171.7339479999999
 21
113.805481
 31
0.0
  0
LINE
  5
1C2
330
1E
100
AcDbEntity
  8
0
  6
CONTINUOUS
100
AcDbLine
 10
67.73394
 20
118.805481
 30
0.0
 11
171.7339479999999
 21
118.805481
 31
0.0
  0
LINE
  5
1C3
330
1E
100
AcDbEntity
  8
0
  6
CONTINUOUS
100
AcDbLine
 10
67.73394
 20
120.8054809999999
 30
0.0
 11
171.7339479999999
 21
120.8054809999999
 31
0.0
  0
LINE
  5
1C4
330
1E
100
AcDbEntity
  8
0
  6
CONTINUOUS
100
AcDbLine
 10
67.73394
 20
125.091476
 30
0.0
 11
171.7339479999999
 21
125.091476
 31
0.0
  0
LINE
  5
1C5
330
1E
100
AcDbEntity
  8
0
  6
CONTINUOUS
100
AcDbLine
 10
171.7339479999999
 20
22.51947799999999
 30
0.0
 11
171.7339479999999
 21
26.805477
 31
0.0
  0
LINE
  5
1C6
330
1E
100
AcDbEntity
  8
0
  6
CONTINUOUS
100
AcDbLine
 10
171.7339479999999
 20
28.805477
 30
0.0
 11
171.7339479999999
 21
33.805477
 31
0.0
  0
LINE
  5
1C7
330
1E
100
AcDbEntity
  8
0
  6
CONTINUOUS
100
AcDbLine
 10
171.7339479999999
 20
35.805477
 30
0.0
 11
171.7339479999999
 21
41.305477
 31
0.0
  0
LINE
  5
1C8
330
1E
100
AcDbEntity
  8
0
  6
CONTINUOUS
100
AcDbLine
 10
171.7339479999999
 20
43.305477
 30
0.0
 11
171.7339479999999
 21
49.405479
 31
0.0
  0
LINE
  5
1C9
330
1E
100
AcDbEntity
  8
0
  6
CONTINUOUS
100
AcDbLine
 10
171.7339479999999
 20
51.405479
 30
0.0
 11
171.7339479999999
 21
57.205467
 31
0.0
  0
LINE
  5
1CA
330
1E
100
AcDbEntity
  8
0
  6
CONTINUOUS
100
AcDbLine
 10
171.7339479999999
 20
59.205471
 30
0.0
 11
171.7339479999999
 21
65.00548600000001
 31
0.0
  0
LINE
  5
1CB
330
1E
100
AcDbEntity
  8
0
  6
CONTINUOUS
100
AcDbLine
 10
171.7339479999999
 20
67.00548600000001
 30
0.0
 11
171.7339479999999
 21
72.805481
 31
0.0
  0
LINE
  5
1CC
330
1E
100
AcDbEntity
  8
0
  6
CONTINUOUS
100
AcDbLine
 10
171.7339479999999
 20
74.805481
 30
0.0
 11
171.7339479999999
 21
80.605484
 31
0.0
  0
LINE
  5
1CD
330
1E
100
AcDbEntity
  8
0
  6
CONTINUOUS
100
AcDbLine
 10
171.7339479999999
 20
82.605476
 30
0.0
 11
171.7339479999999
 21
88.405479
 31
0.0
  0
LINE
  5
1CE
330
1E
100
AcDbEntity
  8
0
  6
CONTINUOUS
100
AcDbLine
 10
171.7339479999999
 20
90.40547899999999
 30
0.0
 11
171.7339479999999
 21
96.205475
 31
0.0
  0
LINE
  5
1CF
330
1E
100
AcDbEntity
  8
0
  6
CONTINUOUS
100
AcDbLine
 10
171.7339479999999
 20
98.20547500000001
 30
0.0
 11
171.7339479999999
 21
104.305481
 31
0.0
  0
LINE
  5
1D0
330
1E
100
AcDbEntity
  8
0
  6
CONTINUOUS
100
AcDbLine
 10
171.7339479999999
 20
106.305481
 30
0.0
 11
171.7339479999999
 21
111.805481
 31
0.0
  0
LINE
  5
1D1
330
1E
100
AcDbEntity
  8
0
  6
CONTINUOUS
100
AcDbLine
 10
171.7339479999999
 20
113.805481
 30
0.0
 11
171.7339479999999
 21
118.805481
 31
0.0
  0
ARC
  5
1D2
330
1E
100
AcDbEntity
  8
0
  6
CONTINUOUS
100
AcDbCircle
 10
132.733948
 20
98.805481
 30
0.0
 40
2.0
100
AcDbArc
 50
0.0
 51
90.0
  0
ARC
  5
1D3
330
1E
100
AcDbEntity
  8
0
  6
CONTINUOUS
100
AcDbCircle
 10
132.733948
 20
48.80547700000001
 30
0.0
 40
2.0
100
AcDbArc
 50
270.0
 51
0.0
  0
LINE
  5
1D4
330
1E
100
AcDbEntity
  8
0
  6
CONTINUOUS
100
AcDbLine
 10
171.7339479999999
 20
43.305477
 30
0.0
 11
130.7339479999999
 21
43.305477
 31
0.0
  0
LINE
  5
1D5
330
1E
100
AcDbEntity
  8
0
  6
CONTINUOUS
100
AcDbLine
 10
171.7339479999999
 20
41.305477
 30
0.0
 11
130.7339479999999
 21
41.305527
 31
0.0
  0
LINE
  5
1D6
330
1E
100
AcDbEntity
  8
0
  6
CONTINUOUS
100
AcDbLine
 10
171.7339479999999
 20
35.805477
 30
0.0
 11
98.23397800000002
 21
35.805477
 31
0.0
  0
LINE
  5
1D7
330
1E
100
AcDbEntity
  8
0
  6
CONTINUOUS
100
AcDbLine
 10
171.7339479999999
 20
33.805477
 30
0.0
 11
109.2340929999999
 21
33.805477
 31
0.0
  0
LINE
  5
1D8
330
1E
100
AcDbEntity
  8
0
  6
CONTINUOUS
100
AcDbLine
 10
171.7339479999999
 20
28.805477
 30
0.0
 11
97.39019800000001
 21
28.805477
 31
0.0
  0
LINE
  5
1D9
330
1E
100
AcDbEntity
  8
0
  6
CONTINUOUS
100
AcDbLine
 10
171.7339479999999
 20
26.805477
 30
0.0
 11
108.7340929999999
 21
26.805477
 31
0.0
  0
LINE
  5
1DA
330
1E
100
AcDbEntity
  8
0
  6
CONTINUOUS
100
AcDbLine
 10
171.7339479999999
 20
22.51947799999999
 30
0.0
 11
93.16008000000001
 21
22.51947799999999
 31
0.0
  0
LINE
  5
1DB
330
1E
100
AcDbEntity
  8
0
  6
CONTINUOUS
100
AcDbLine
 10
179.7339479999999
 20
16.305477
 30
0.0
 11
110.2340929999999
 21
16.305477
 31
0.0
  0
LINE
  5
1DC
330
1E
100
AcDbEntity
  8
0
  6
CONTINUOUS
100
AcDbLine
 10
130.7339479999999
 20
106.3054659999999
 30
0.0
 11
130.7339479999999
 21
41.305527
 31
0.0
  0
LINE
  5
1DD
330
1E
100
AcDbEntity
  8
0
  6
CONTINUOUS
100
AcDbLine
 10
60.73394
 20
41.305428
 30
0.0
 11
60.73394
 21
106.305481
 31
0.0
  0
LINE
  5
1DE
330
1E
100
AcDbEntity
  8
0
  6
CONTINUOUS
100
AcDbLine
 10
63.23394
 20
108.805481
 30
0.0
 11
128.233948
 21
108.805481
 31
0.0
  0
LINE
  5
1DF
330
1E
100
AcDbEntity
  8
0
  6
CONTINUOUS
100
AcDbLine
 10
63.23393199999999
 20
38.805428
 30
0.0
 11
128.233948
 21
38.805428
 31
0.0
  0
ARC
  5
1E0
330
1E
100
AcDbEntity
  8
0
  6
CONTINUOUS
100
AcDbCircle
 10
128.233948
 20
41.305428
 30
0.0
 40
2.5
100
AcDbArc
 50
270.0
 51
0.0
  0
ARC
  5
1E1
330
1E
100
AcDbEntity
  8
0
  6
CONTINUOUS
100
AcDbCircle
 10
128.233948
 20
106.30545
 30
0.0
 40
2.5
100
AcDbArc
 50
0.0
 51
90.0
  0
ARC
  5
1E2
330
1E
100
AcDbEntity
  8
0
  6
CONTINUOUS
100
AcDbCircle
 10
63.23394
 20
106.3054659999999
 30
0.0
 40
2.5
100
AcDbArc
 50
90.0
 51
180.0
  0
ARC
  5
1E3
330
1E
100
AcDbEntity
  8
0
  6
CONTINUOUS
100
AcDbCircle
 10
63.23393199999999
 20
41.305428
 30
0.0
 40
2.5
100
AcDbArc
 50
180.0
 51
270.0
  0
ARC
  5
1E4
330
1E
100
AcDbEntity
  8
0
  6
CONTINUOUS
100
AcDbCircle
 10
125.7339399999999
 20
103.805466
 30
0.0
 40
4.0
100
AcDbArc
 50
180.0
 51
270.0
  0
ARC
  5
1E5
330
1E
100
AcDbEntity
  8
0
  6
CONTINUOUS
100
AcDbCircle
 10
125.7339399999999
 20
43.805428
 30
0.0
 40
4.0
100
AcDbArc
 50
90.0
 51
180.0
  0
ARC
  5
1E6
330
1E
100
AcDbEntity
  8
0
  6
CONTINUOUS
100
AcDbCircle
 10
65.73394
 20
43.805428
 30
0.0
 40
4.0
100
AcDbArc
 50
0.0
 51
90.0
  0
ARC
  5
1E7
330
1E
100
AcDbEntity
  8
0
  6
CONTINUOUS
100
AcDbCircle
 10
65.73394
 20
103.805466
 30
0.0
 40
4.0
100
AcDbArc
 50
270.0
 51
0.0
  0
LINE
  5
1E8
330
1E
100
AcDbEntity
  8
0
  6
CONTINUOUS
100
AcDbLine
 10
121.7339399999999
 20
43.805428
 30
0.0
 11
121.7339399999999
 21
41.305428
 31
0.0
  0
LINE
  5
1E9
330
1E
100
AcDbEntity
  8
0
  6
CONTINUOUS
100
AcDbLine
 10
121.7339399999999
 20
103.8054809999999
 30
0.0
 11
121.7339399999999
 21
106.305481
 31
0.0
  0
LINE
  5
1EA
330
1E
100
AcDbEntity
  8
0
  6
CONTINUOUS
100
AcDbLine
 10
69.73394
 20
103.8054809999999
 30
0.0
 11
69.73394
 21
106.30545
 31
0.0
  0
LINE
  5
1EB
330
1E
100
AcDbEntity
  8
0
  6
CONTINUOUS
100
AcDbLine
 10
69.73394
 20
43.805428
 30
0.0
 11
69.73394
 21
41.305428
 31
0.0
  0
LINE
  5
1EC
330
1E
100
AcDbEntity
  8
0
  6
CONTINUOUS
100
AcDbLine
 10
125.7339399999999
 20
47.805428
 30
0.0
 11
128.233948
 21
47.805428
 31
0.0
  0
LINE
  5
1ED
330
1E
100
AcDbEntity
  8
0
  6
CONTINUOUS
100
AcDbLine
 10
125.7339399999999
 20
99.80546600000002
 30
0.0
 11
128.233948
 21
99.80546600000002
 31
0.0
  0
LINE
  5
1EE
330
1E
100
AcDbEntity
  8
0
  6
CONTINUOUS
100
AcDbLine
 10
65.73394
 20
99.80546600000002
 30
0.0
 11
63.23393199999999
 21
99.80546600000002
 31
0.0
  0
LINE
  5
1EF
330
1E
100
AcDbEntity
  8
0
  6
CONTINUOUS
100
AcDbLine
 10
65.73391700000001
 20
47.805428
 30
0.0
 11
63.23393199999999
 21
47.805428
 31
0.0
  0
ARC
  5
1F0
330
1E
100
AcDbEntity
  8
0
  6
CONTINUOUS
100
AcDbCircle
 10
119.2339399999999
 20
106.3054659999999
 30
0.0
 40
2.5
100
AcDbArc
 50
0.0
 51
90.0
  0
ARC
  5
1F1
330
1E
100
AcDbEntity
  8
0
  6
CONTINUOUS
100
AcDbCircle
 10
128.233948
 20
97.30544999999999
 30
0.0
 40
2.5
100
AcDbArc
 50
0.0
 51
90.0
  0
ARC
  5
1F2
330
1E
100
AcDbEntity
  8
0
  6
CONTINUOUS
100
AcDbCircle
 10
128.233948
 20
50.305428
 30
0.0
 40
2.5
100
AcDbArc
 50
270.0
 51
0.0
  0
ARC
  5
1F3
330
1E
100
AcDbEntity
  8
0
  6
CONTINUOUS
100
AcDbCircle
 10
119.2339399999999
 20
41.305428
 30
0.0
 40
2.5
100
AcDbArc
 50
270.0
 51
0.0
  0
ARC
  5
1F4
330
1E
100
AcDbEntity
  8
0
  6
CONTINUOUS
100
AcDbCircle
 10
72.23394
 20
106.3054659999999
 30
0.0
 40
2.5
100
AcDbArc
 50
90.0
 51
180.0
  0
ARC
  5
1F5
330
1E
100
AcDbEntity
  8
0
  6
CONTINUOUS
100
AcDbCircle
 10
63.23394
 20
97.30546600000002
 30
0.0
 40
2.5
100
AcDbArc
 50
90.0
 51
180.0
  0
ARC
  5
1F6
330
1E
100
AcDbEntity
  8
0
  6
CONTINUOUS
100
AcDbCircle
 10
72.233932
 20
41.305428
 30
0.0
 40
2.5
100
AcDbArc
 50
180.0
 51
270.0
  0
ARC
  5
1F7
330
1E
100
AcDbEntity
  8
0
  6
CONTINUOUS
100
AcDbCircle
 10
63.23393199999999
 20
50.305428
 30
0.0
 40
2.5
100
AcDbArc
 50
180.0
 51
270.0
  0
LINE
  5
1F8
330
1E
100
AcDbEntity
  8
0
  6
CONTINUOUS
100
AcDbLine
 10
32.73399
 20
59.305328
 30
0.0
 11
32.73399
 21
88.30542800000001
 31
0.0
  0
LINE
  5
1F9
330
1E
100
AcDbEntity
  8
0
  6
CONTINUOUS
100
AcDbLine
 10
40.73399000000001
 20
59.305328
 30
0.0
 11
40.73399000000001
 21
88.30542800000001
 31
0.0
  0
LINE
  5
1FA
330
1E
100
AcDbEntity
  8
0
  6
CONTINUOUS
100
AcDbLine
 10
32.73399
 20
59.305328
 30
0.0
 11
40.73399000000001
 21
59.305328
 31
0.0
  0
LINE
  5
1FB
330
1E
100
AcDbEntity
  8
0
  6
CONTINUOUS
100
AcDbLine
 10
32.73399
 20
88.30542800000001
 30
0.0
 11
40.73399000000001
 21
88.30542800000001
 31
0.0
  0
LINE
  5
1FC
330
1E
100
AcDbEntity
  8
0
  6
CONTINUOUS
100
AcDbLine
 10
49.73399
 20
60.805328
 30
0.0
 11
49.73399
 21
86.80542800000001
 31
0.0
  0
LINE
  5
1FD
330
1E
100
AcDbEntity
  8
0
  6
CONTINUOUS
100
AcDbLine
 10
40.73399000000001
 20
60.805328
 30
0.0
 11
49.73399
 21
60.805328
 31
0.0
  0
LINE
  5
1FE
330
1E
100
AcDbEntity
  8
0
  6
CONTINUOUS
100
AcDbLine
 10
40.73399000000001
 20
86.80542800000001
 30
0.0
 11
49.73399
 21
86.80542800000001
 31
0.0
  0
LINE
  5
1FF
330
1E
100
AcDbEntity
  8
0
  6
CONTINUOUS
100
AcDbLine
 10
49.73399
 20
62.305328
 30
0.0
 11
54.73399
 21
62.305328
 31
0.0
  0
LINE
  5
200
330
1E
100
AcDbEntity
  8
0
  6
CONTINUOUS
100
AcDbLine
 10
49.73399
 20
85.305428
 30
0.0
 11
54.73399
 21
85.305428
 31
0.0
  0
LINE
  5
201
330
1E
100
AcDbEntity
  8
0
  6
CONTINUOUS
100
AcDbLine
 10
54.73399
 20
60.305328
 30
0.0
 11
54.73399
 21
87.305428
 31
0.0
  0
LINE
  5
202
330
1E
100
AcDbEntity
  8
0
  6
CONTINUOUS
100
AcDbLine
 10
59.23399
 20
59.305328
 30
0.0
 11
59.23399
 21
88.30542800000001
 31
0.0
  0
LINE
  5
203
330
1E
100
AcDbEntity
  8
0
  6
CONTINUOUS
100
AcDbLine
 10
54.73399
 20
60.305328
 30
0.0
 11
59.23399
 21
60.305328
 31
0.0
  0
LINE
  5
204
330
1E
100
AcDbEntity
  8
0
  6
CONTINUOUS
100
AcDbLine
 10
54.73399
 20
87.305428
 30
0.0
 11
59.23399
 21
87.305428
 31
0.0
  0
LINE
  5
205
330
1E
100
AcDbEntity
  8
0
  6
CONTINUOUS
100
AcDbLine
 10
59.23399
 20
59.305328
 30
0.0
 11
60.773293
 21
59.305328
 31
0.0
  0
LINE
  5
206
330
1E
100
AcDbEntity
  8
0
  6
CONTINUOUS
100
AcDbLine
 10
59.23399
 20
88.30542800000001
 30
0.0
 11
60.73394
 21
88.30542800000001
 31
0.0
  0
LINE
  5
207
330
1E
100
AcDbEntity
  8
0
  6
CONTINUOUS
100
AcDbLine
 10
32.73399
 20
65.805328
 30
0.0
 11
40.73399000000001
 21
65.805328
 31
0.0
  0
LINE
  5
208
330
1E
100
AcDbEntity
  8
0
  6
CONTINUOUS
100
AcDbLine
 10
32.73399
 20
81.80542800000001
 30
0.0
 11
40.73399000000001
 21
81.80542800000001
 31
0.0
  0
LINE
  5
209
330
1E
100
AcDbEntity
  8
0
  6
CONTINUOUS
100
AcDbLine
 10
130.7339479999999
 20
106.3054659999999
 30
0.0
 11
171.7339479999999
 21
106.305481
 31
0.0
  0
LINE
  5
20A
330
1E
100
AcDbEntity
  8
0
  6
CONTINUOUS
100
AcDbLine
 10
130.7339479999999
 20
104.305481
 30
0.0
 11
171.7339479999999
 21
104.305481
 31
0.0
  0
LINE
  5
20B
330
1E
100
AcDbEntity
  8
0
  6
CONTINUOUS
100
AcDbLine
 10
134.733948
 20
98.20547500000001
 30
0.0
 11
171.7339479999999
 21
98.20547500000001
 31
0.0
  0
LINE
  5
20C
330
1E
100
AcDbEntity
  8
0
  6
CONTINUOUS
100
AcDbLine
 10
134.733948
 20
96.205475
 30
0.0
 11
171.7339479999999
 21
96.205475
 31
0.0
  0
LINE
  5
20D
330
1E
100
AcDbEntity
  8
0
  6
CONTINUOUS
100
AcDbLine
 10
134.733948
 20
90.40547899999999
 30
0.0
 11
171.7339479999999
 21
90.40547899999999
 31
0.0
  0
LINE
  5
20E
330
1E
100
AcDbEntity
  8
0
  6
CONTINUOUS
100
AcDbLine
 10
134.733948
 20
88.405479
 30
0.0
 11
171.7339479999999
 21
88.405479
 31
0.0
  0
LINE
  5
20F
330
1E
100
AcDbEntity
  8
0
  6
CONTINUOUS
100
AcDbLine
 10
134.733948
 20
82.605476
 30
0.0
 11
171.7339479999999
 21
82.605476
 31
0.0
  0
LINE
  5
210
330
1E
100
AcDbEntity
  8
0
  6
CONTINUOUS
100
AcDbLine
 10
134.733948
 20
80.60547599999999
 30
0.0
 11
171.7339479999999
 21
80.60547599999999
 31
0.0
  0
LINE
  5
211
330
1E
100
AcDbEntity
  8
0
  6
CONTINUOUS
100
AcDbLine
 10
134.733948
 20
74.805481
 30
0.0
 11
171.7339479999999
 21
74.805481
 31
0.0
  0
LINE
  5
212
330
1E
100
AcDbEntity
  8
0
  6
CONTINUOUS
100
AcDbLine
 10
134.733948
 20
72.805481
 30
0.0
 11
171.7339479999999
 21
72.805481
 31
0.0
  0
LINE
  5
213
330
1E
100
AcDbEntity
  8
0
  6
CONTINUOUS
100
AcDbLine
 10
134.733948
 20
67.00547799999999
 30
0.0
 11
171.7339479999999
 21
67.00547799999999
 31
0.0
  0
LINE
  5
214
330
1E
100
AcDbEntity
  8
0
  6
CONTINUOUS
100
AcDbLine
 10
134.733948
 20
65.00547799999999
 30
0.0
 11
171.7339479999999
 21
65.00547799999999
 31
0.0
  0
LINE
  5
215
330
1E
100
AcDbEntity
  8
0
  6
CONTINUOUS
100
AcDbLine
 10
134.733948
 20
59.205479
 30
0.0
 11
171.7339479999999
 21
59.205479
 31
0.0
  0
LINE
  5
216
330
1E
100
AcDbEntity
  8
0
  6
CONTINUOUS
100
AcDbLine
 10
134.733948
 20
57.205479
 30
0.0
 11
171.7339479999999
 21
57.205479
 31
0.0
  0
LINE
  5
217
330
1E
100
AcDbEntity
  8
0
  6
CONTINUOUS
100
AcDbLine
 10
134.733948
 20
51.405479
 30
0.0
 11
171.7339479999999
 21
51.405479
 31
0.0
  0
LINE
  5
218
330
1E
100
AcDbEntity
  8
0
  6
CONTINUOUS
100
AcDbLine
 10
134.733948
 20
49.405479
 30
0.0
 11
171.7339479999999
 21
49.405479
 31
0.0
  0
LINE
  5
219
330
1E
100
AcDbEntity
  8
0
  6
CONTINUOUS
100
AcDbLine
 10
82.23399399999999
 20
35.805477
 30
0.0
 11
67.73394
 21
35.805477
 31
0.0
  0
LINE
  5
21A
330
1E
100
AcDbEntity
  8
0
  6
CONTINUOUS
100
AcDbLine
 10
109.2340929999999
 20
33.805477
 30
0.0
 11
98.23397800000002
 21
33.805477
 31
0.0
  0
LINE
  5
21B
330
1E
100
AcDbEntity
  8
0
  6
CONTINUOUS
100
AcDbLine
 10
108.7340929999999
 20
26.805477
 30
0.0
 11
96.52150699999999
 21
26.805477
 31
0.0
  0
LINE
  5
21C
330
1E
100
AcDbEntity
  8
0
  6
CONTINUOUS
100
AcDbLine
 10
84.23399399999999
 20
28.805477
 30
0.0
 11
67.73394
 21
28.805477
 31
0.0
  0
LINE
  5
21D
330
1E
100
AcDbEntity
  8
0
  6
CONTINUOUS
100
AcDbLine
 10
110.2340929999999
 20
16.305477
 30
0.0
 11
67.733902
 21
16.305477
 31
0.0
  0
LINE
  5
21E
330
1E
100
AcDbEntity
  8
0
  6
CENTER
100
AcDbLine
 10
95.73394
 20
111.680481
 30
0.0
 11
95.73394
 21
30.055477
 31
0.0
  0
ARC
  5
21F
330
1E
100
AcDbEntity
  8
0
  6
CONTINUOUS
100
AcDbCircle
 10
406.526733
 20
47.771107
 30
0.0
 40
0.9999979999999998
100
AcDbArc
 50
180.0
 51
268.0004879999999
  0
LINE
  5
220
330
1E
100
AcDbEntity
  8
0
  6
CONTINUOUS
100
AcDbLine
 10
391.104797
 20
39.867809
 30
0.0
 11
351.0266419999999
 21
38.805367
 31
0.0
  0
LINE
  5
221
330
1E
100
AcDbEntity
  8
0
  6
CONTINUOUS
100
AcDbLine
 10
371.5266419999999
 20
108.261665
 30
0.0
 11
351.0266419999999
 21
108.8053669999999
 31
0.0
  0
LINE
  5
222
330
1E
100
AcDbEntity
  8
0
  6
CONTINUOUS
100
AcDbLine
 10
404.026642
 20
93.30536700000001
 30
0.0
 11
404.026642
 21
49.779465
 31
0.0
  0
ARC
  5
223
330
1E
100
AcDbEntity
  8
0
  6
CONTINUOUS
100
AcDbCircle
 10
391.0266419999999
 20
42.85346599999999
 30
0.0
 40
3.0
100
AcDbArc
 50
271.499733
 51
0.0
  0
LINE
  5
224
330
1E
100
AcDbEntity
  8
0
  6
CONTINUOUS
100
AcDbLine
 10
398.880829
 20
48.670567
 30
0.0
 11
395.974304
 21
48.59446
 31
0.0
  0
ARC
  5
225
330
1E
100
AcDbEntity
  8
0
  6
CONTINUOUS
100
AcDbCircle
 10
403.026642
 20
49.779465
 30
0.0
 40
1.0
100
AcDbArc
 50
271.5006029999999
 51
0.0
  0
LINE
  5
226
330
1E
100
AcDbEntity
  8
0
  6
CONTINUOUS
100
AcDbLine
 10
394.026642
 20
42.853565
 30
0.0
 11
394.026642
 21
60.49409499999999
 31
0.0
  0
LINE
  5
227
330
1E
100
AcDbEntity
  8
0
  6
CONTINUOUS
100
AcDbLine
 10
403.0528259999999
 20
48.779865
 30
0.0
 11
398.880829
 21
48.670567
 31
0.0
  0
ARC
  5
228
330
1E
100
AcDbEntity
  8
0
  6
CONTINUOUS
100
AcDbCircle
 10
461.526642
 20
73.805367
 30
0.0
 40
68.800003
100
AcDbArc
 50
168.8441929999999
 51
191.155807
  0
LINE
  5
229
330
1E
100
AcDbEntity
  8
0
  6
CONTINUOUS
100
AcDbLine
 10
345.0266419999999
 20
41.30536699999999
 30
0.0
 11
345.0266419999999
 21
106.3053669999999
 31
0.0
  0
LINE
  5
22A
330
1E
100
AcDbEntity
  8
0
  6
CONTINUOUS
100
AcDbLine
 10
347.526642
 20
108.8053669999999
 30
0.0
 11
350.0266419999999
 21
108.8053669999999
 31
0.0
  0
LINE
  5
22B
330
1E
100
AcDbEntity
  8
0
  6
CONTINUOUS
100
AcDbLine
 10
347.526642
 20
38.805367
 30
0.0
 11
350.0266419999999
 21
38.805367
 31
0.0
  0
LINE
  5
22C
330
1E
100
AcDbEntity
  8
0
  6
CONTINUOUS
100
AcDbLine
 10
350.0266419999999
 20
108.8053669999999
 30
0.0
 11
350.0266419999999
 21
38.805367
 31
0.0
  0
LINE
  5
22D
330
1E
100
AcDbEntity
  8
0
  6
CONTINUOUS
100
AcDbLine
 10
351.0266419999999
 20
108.8053669999999
 30
0.0
 11
351.0266419999999
 21
38.805367
 31
0.0
  0
LINE
  5
22E
330
1E
100
AcDbEntity
  8
0
  6
CONTINUOUS
100
AcDbLine
 10
350.0266419999999
 20
108.8053669999999
 30
0.0
 11
351.0266419999999
 21
108.8053669999999
 31
0.0
  0
LINE
  5
22F
330
1E
100
AcDbEntity
  8
0
  6
CONTINUOUS
100
AcDbLine
 10
350.0266419999999
 20
38.805367
 30
0.0
 11
351.0266419999999
 21
38.805367
 31
0.0
  0
LINE
  5
230
330
1E
100
AcDbEntity
  8
0
  6
CONTINUOUS
100
AcDbLine
 10
348.0266419999999
 20
100.292465
 30
0.0
 11
348.0266419999999
 21
107.8053669999999
 31
0.0
  0
LINE
  5
231
330
1E
100
AcDbEntity
  8
0
  6
CONTINUOUS
100
AcDbLine
 10
348.0266419999999
 20
47.318306
 30
0.0
 11
348.0266419999999
 21
39.805367
 31
0.0
  0
LINE
  5
232
330
1E
100
AcDbEntity
  8
0
  6
CONTINUOUS
100
AcDbLine
 10
347.539734
 20
99.792664
 30
0.0
 11
346.000427
 21
99.75236500000001
 31
0.0
  0
ARC
  5
233
330
1E
100
AcDbEntity
  8
0
  6
CONTINUOUS
100
AcDbCircle
 10
347.526642
 20
100.292465
 30
0.0
 40
0.5
100
AcDbArc
 50
271.4999999999999
 51
0.0
  0
ARC
  5
234
330
1E
100
AcDbEntity
  8
0
  6
CONTINUOUS
100
AcDbCircle
 10
346.0266419999999
 20
98.75266299999999
 30
0.0
 40
1.0
100
AcDbArc
 50
91.49980199999999
 51
180.0
  0
ARC
  5
235
330
1E
100
AcDbEntity
  8
0
  6
CONTINUOUS
100
AcDbCircle
 10
349.0266419999999
 20
107.8053669999999
 30
0.0
 40
1.0
100
AcDbArc
 50
90.0
 51
180.0
  0
ARC
  5
236
330
1E
100
AcDbEntity
  8
0
  6
CONTINUOUS
100
AcDbCircle
 10
347.526642
 20
106.3053669999999
 30
0.0
 40
2.5
100
AcDbArc
 50
90.0
 51
180.0
  0
LINE
  5
237
330
1E
100
AcDbEntity
  8
0
  6
CONTINUOUS
100
AcDbLine
 10
347.539734
 20
47.818184
 30
0.0
 11
346.000427
 21
47.858463
 31
0.0
  0
ARC
  5
238
330
1E
100
AcDbEntity
  8
0
  6
CONTINUOUS
100
AcDbCircle
 10
346.0266419999999
 20
48.858093
 30
0.0
 40
1.0
100
AcDbArc
 50
180.0
 51
268.4996029999999
  0
ARC
  5
239
330
1E
100
AcDbEntity
  8
0
  6
CONTINUOUS
100
AcDbCircle
 10
347.526642
 20
47.318306
 30
0.0
 40
0.5
100
AcDbArc
 50
0.0
 51
88.49980200000002
  0
ARC
  5
23A
330
1E
100
AcDbEntity
  8
0
  6
CONTINUOUS
100
AcDbCircle
 10
349.0266419999999
 20
39.805367
 30
0.0
 40
1.0
100
AcDbArc
 50
180.0
 51
270.0
  0
ARC
  5
23B
330
1E
100
AcDbEntity
  8
0
  6
CONTINUOUS
100
AcDbCircle
 10
347.526642
 20
41.30536699999999
 30
0.0
 40
2.5
100
AcDbArc
 50
180.0
 51
270.0
  0
ARC
  5
23C
330
1E
100
AcDbEntity
  8
0
  6
CONTINUOUS
100
AcDbCircle
 10
348.0266419999999
 20
103.805367
 30
0.0
 40
3.0
100
AcDbArc
 50
90.0
 51
270.0
  0
LINE
  5
23D
330
1E
100
AcDbEntity
  8
0
  6
CONTINUOUS
100
AcDbLine
 10
347.526642
 20
106.7633669999999
 30
0.0
 11
347.526642
 21
100.847366
 31
0.0
  0
LINE
  5
23E
330
1E
100
AcDbEntity
  8
0
  6
CONTINUOUS
100
AcDbLine
 10
345.526642
 20
103.805367
 30
0.0
 11
345.039856
 21
103.524261
 31
0.0
  0
LINE
  5
23F
330
1E
100
AcDbEntity
  8
0
  6
CONTINUOUS
100
AcDbLine
 10
345.526642
 20
103.805367
 30
0.0
 11
345.039856
 21
104.086464
 31
0.0
  0
ARC
  5
240
330
1E
100
AcDbEntity
  8
0
  6
CONTINUOUS
100
AcDbCircle
 10
348.0266419999999
 20
43.80536699999999
 30
0.0
 40
3.0
100
AcDbArc
 50
90.0
 51
270.0
  0
LINE
  5
241
330
1E
100
AcDbEntity
  8
0
  6
CONTINUOUS
100
AcDbLine
 10
347.526642
 20
46.763374
 30
0.0
 11
347.526642
 21
40.84735499999999
 31
0.0
  0
LINE
  5
242
330
1E
100
AcDbEntity
  8
0
  6
CONTINUOUS
100
AcDbLine
 10
345.526642
 20
43.80536699999999
 30
0.0
 11
345.039856
 21
43.52429599999999
 31
0.0
  0
LINE
  5
243
330
1E
100
AcDbEntity
  8
0
  6
CONTINUOUS
100
AcDbLine
 10
345.526642
 20
43.80536699999999
 30
0.0
 11
345.039856
 21
44.086494
 31
0.0
  0
LINE
  5
244
330
1E
100
AcDbEntity
  8
0
  6
CONTINUOUS
100
AcDbLine
 10
404.026642
 20
50.80536699999999
 30
0.0
 11
405.5266419999999
 21
50.80536699999999
 31
0.0
  0
LINE
  5
245
330
1E
100
AcDbEntity
  8
0
  6
CONTINUOUS
100
AcDbLine
 10
405.526672
 20
47.771046
 30
0.0
 11
405.5266419999999
 21
60.757484
 31
0.0
  0
LINE
  5
246
330
1E
100
AcDbEntity
  8
0
  6
CONTINUOUS
100
AcDbLine
 10
405.5266109999999
 20
93.30536700000001
 30
0.0
 11
405.5265809999999
 21
86.85304999999999
 31
0.0
  0
ARC
  5
247
330
1E
100
AcDbEntity
  8
0
  6
CONTINUOUS
100
AcDbCircle
 10
396.0266419999999
 20
46.59514199999999
 30
0.0
 40
2.0
100
AcDbArc
 50
91.49991599999999
 51
180.0
  0
LINE
  5
248
330
1E
100
AcDbEntity
  8
0
  6
CENTER
100
AcDbLine
 10
367.0266419999999
 20
116.262367
 30
0.0
 11
367.0266419999999
 21
30.155001
 31
0.0
  0
LINE
  5
249
330
1E
100
AcDbEntity
  8
0
  6
CONTINUOUS
100
AcDbLine
 10
406.4918519999999
 20
46.771706
 30
0.0
 11
410.859589
 21
46.61918599999999
 31
0.0
  0
LINE
  5
24B
330
1E
100
AcDbEntity
  8
0
  6
CONTINUOUS
100
AcDbLine
 10
394.026642
 20
93.30536700000001
 30
0.0
 11
394.026642
 21
87.116638
 31
0.0
  0
LINE
  5
251
330
1E
100
AcDbEntity
  8
0
  6
CONTINUOUS
100
AcDbLine
 10
67.73394
 20
383.338593
 30
0.0
 11
67.73394
 21
351.8385009999999
 31
0.0
  0
LINE
  5
252
330
1E
100
AcDbEntity
  8
0
  6
CONTINUOUS
100
AcDbLine
 10
67.73394
 20
268.338593
 30
0.0
 11
55.73376399850889
 21
268.338593
 31
0.0
  0
LINE
  5
253
330
1E
100
AcDbEntity
  8
0
  6
CONTINUOUS
100
AcDbLine
 10
67.73394
 20
268.338593
 30
0.0
 11
67.73394
 21
299.8387149999999
 31
0.0
  0
ARC
  5
25D
330
1E
100
AcDbEntity
  8
0
  6
CONTINUOUS
100
AcDbCircle
 10
68.73394000000001
 20
270.8394779999999
 30
0.0
 40
1.0
100
AcDbArc
 50
180.0
 51
270.0
  0
LINE
  5
269
330
1E
100
AcDbEntity
  8
0
  6
CONTINUOUS
100
AcDbLine
 10
55.73397800083927
 20
16.305477
 30
0.0
 11
67.733902
 21
16.305477
 31
0.0
  0
LINE
  5
26A
330
1E
100
AcDbEntity
  8
0
  6
CONTINUOUS
100
AcDbLine
 10
67.733902
 20
125.091499
 30
0.0
 11
67.733902
 21
120.8054729999999
 31
0.0
  0
LINE
  5
26B
330
1E
100
AcDbEntity
  8
0
  6
CONTINUOUS
100
AcDbLine
 10
67.733902
 20
23.765478
 30
0.0
 11
67.733902
 21
26.805477
 31
0.0
  0
LINE
  5
26C
330
1E
100
AcDbEntity
  8
0
  6
CONTINUOUS
100
AcDbLine
 10
67.733902
 20
118.8054729999999
 30
0.0
 11
67.733902
 21
113.8054729999999
 31
0.0
  0
LINE
  5
26D
330
1E
100
AcDbEntity
  8
0
  6
CONTINUOUS
100
AcDbLine
 10
67.733902
 20
111.8054729999999
 30
0.0
 11
67.733902
 21
108.805481
 31
0.0
  0
LINE
  5
26E
330
1E
100
AcDbEntity
  8
0
  6
CONTINUOUS
100
AcDbLine
 10
67.733902
 20
38.805428
 30
0.0
 11
67.733902
 21
35.805477
 31
0.0
  0
LINE
  5
26F
330
1E
100
AcDbEntity
  8
0
  6
CONTINUOUS
100
AcDbLine
 10
67.733902
 20
33.805477
 30
0.0
 11
67.733902
 21
28.805477
 31
0.0
  0
LINE
  5
274
330
1E
100
AcDbEntity
  8
0
  6
CONTINUOUS
100
AcDbLine
 10
67.48394000000001
 20
104.2054599999999
 30
0.0
 11
67.48394000000001
 21
103.4054409999999
 31
0.0
  0
LINE
  5
275
330
1E
100
AcDbEntity
  8
0
  6
CONTINUOUS
100
AcDbLine
 10
65.333916
 20
105.5554659999999
 30
0.0
 11
66.13393399999999
 21
105.5554659999999
 31
0.0
  0
LINE
  5
276
330
1E
100
AcDbEntity
  8
0
  6
CONTINUOUS
100
AcDbLine
 10
65.333916
 20
102.055466
 30
0.0
 11
66.13393399999999
 21
102.055466
 31
0.0
  0
LINE
  5
277
330
1E
100
AcDbEntity
  8
0
  6
CONTINUOUS
100
AcDbLine
 10
63.98394
 20
104.2054599999999
 30
0.0
 11
63.98394
 21
103.4054409999999
 31
0.0
  0
CIRCLE
  5
278
330
1E
100
AcDbEntity
  8
0
  6
CONTINUOUS
100
AcDbCircle
 10
65.73394
 20
103.805466
 30
0.0
 40
2.75
  0
ARC
  5
279
330
1E
100
AcDbEntity
  8
0
  6
CONTINUOUS
100
AcDbCircle
 10
63.98394
 20
105.5554659999999
 30
0.0
 40
1.35
100
AcDbArc
 50
270.0
 51
0.0
  0
ARC
  5
27A
330
1E
100
AcDbEntity
  8
0
  6
CONTINUOUS
100
AcDbCircle
 10
63.98394
 20
102.055466
 30
0.0
 40
1.35
100
AcDbArc
 50
0.0
 51
90.0
  0
ARC
  5
27B
330
1E
100
AcDbEntity
  8
0
  6
CONTINUOUS
100
AcDbCircle
 10
67.48394000000001
 20
105.5554659999999
 30
0.0
 40
1.35
100
AcDbArc
 50
180.0
 51
270.0
  0
ARC
  5
27C
330
1E
100
AcDbEntity
  8
0
  6
CONTINUOUS
100
AcDbCircle
 10
67.48394000000001
 20
102.055466
 30
0.0
 40
1.35
100
AcDbArc
 50
90.0
 51
180.0
  0
LINE
  5
27D
330
1E
100
AcDbEntity
  8
0
  6
CONTINUOUS
100
AcDbLine
 10
127.4839399999999
 20
104.2054599999999
 30
0.0
 11
127.4839399999999
 21
103.4054409999999
 31
0.0
  0
LINE
  5
27E
330
1E
100
AcDbEntity
  8
0
  6
CONTINUOUS
100
AcDbLine
 10
125.3339159999999
 20
105.5554659999999
 30
0.0
 11
126.133934
 21
105.5554659999999
 31
0.0
  0
LINE
  5
27F
330
1E
100
AcDbEntity
  8
0
  6
CONTINUOUS
100
AcDbLine
 10
125.3339159999999
 20
102.055466
 30
0.0
 11
126.133934
 21
102.055466
 31
0.0
  0
LINE
  5
280
330
1E
100
AcDbEntity
  8
0
  6
CONTINUOUS
100
AcDbLine
 10
123.9839399999999
 20
104.2054599999999
 30
0.0
 11
123.9839399999999
 21
103.4054409999999
 31
0.0
  0
CIRCLE
  5
281
330
1E
100
AcDbEntity
  8
0
  6
CONTINUOUS
100
AcDbCircle
 10
125.7339399999999
 20
103.805466
 30
0.0
 40
2.75
  0
ARC
  5
282
330
1E
100
AcDbEntity
  8
0
  6
CONTINUOUS
100
AcDbCircle
 10
123.9839399999999
 20
105.5554659999999
 30
0.0
 40
1.35
100
AcDbArc
 50
270.0
 51
0.0
  0
ARC
  5
283
330
1E
100
AcDbEntity
  8
0
  6
CONTINUOUS
100
AcDbCircle
 10
123.9839399999999
 20
102.055466
 30
0.0
 40
1.35
100
AcDbArc
 50
0.0
 51
90.0
  0
ARC
  5
284
330
1E
100
AcDbEntity
  8
0
  6
CONTINUOUS
100
AcDbCircle
 10
127.4839399999999
 20
105.5554659999999
 30
0.0
 40
1.35
100
AcDbArc
 50
180.0
 51
270.0
  0
ARC
  5
285
330
1E
100
AcDbEntity
  8
0
  6
CONTINUOUS
100
AcDbCircle
 10
127.4839399999999
 20
102.055466
 30
0.0
 40
1.35
100
AcDbArc
 50
90.0
 51
180.0
  0
LINE
  5
286
330
1E
100
AcDbEntity
  8
0
  6
CONTINUOUS
100
AcDbLine
 10
67.48394000000001
 20
44.205421
 30
0.0
 11
67.48394000000001
 21
43.40540299999999
 31
0.0
  0
LINE
  5
287
330
1E
100
AcDbEntity
  8
0
  6
CONTINUOUS
100
AcDbLine
 10
65.333916
 20
45.555428
 30
0.0
 11
66.13393399999999
 21
45.555428
 31
0.0
  0
LINE
  5
288
330
1E
100
AcDbEntity
  8
0
  6
CONTINUOUS
100
AcDbLine
 10
65.333916
 20
42.055428
 30
0.0
 11
66.13393399999999
 21
42.055428
 31
0.0
  0
LINE
  5
289
330
1E
100
AcDbEntity
  8
0
  6
CONTINUOUS
100
AcDbLine
 10
63.98394
 20
44.205421
 30
0.0
 11
63.98394
 21
43.40540299999999
 31
0.0
  0
CIRCLE
  5
28A
330
1E
100
AcDbEntity
  8
0
  6
CONTINUOUS
100
AcDbCircle
 10
65.73394
 20
43.805428
 30
0.0
 40
2.75
  0
ARC
  5
28B
330
1E
100
AcDbEntity
  8
0
  6
CONTINUOUS
100
AcDbCircle
 10
63.98394
 20
45.555428
 30
0.0
 40
1.35
100
AcDbArc
 50
270.0
 51
0.0
  0
ARC
  5
28C
330
1E
100
AcDbEntity
  8
0
  6
CONTINUOUS
100
AcDbCircle
 10
63.98394
 20
42.055428
 30
0.0
 40
1.35
100
AcDbArc
 50
0.0
 51
90.0
  0
ARC
  5
28D
330
1E
100
AcDbEntity
  8
0
  6
CONTINUOUS
100
AcDbCircle
 10
67.48394000000001
 20
45.555428
 30
0.0
 40
1.35
100
AcDbArc
 50
180.0
 51
270.0
  0
ARC
  5
28E
330
1E
100
AcDbEntity
  8
0
  6
CONTINUOUS
100
AcDbCircle
 10
67.48394000000001
 20
42.055428
 30
0.0
 40
1.35
100
AcDbArc
 50
90.0
 51
180.0
  0
LINE
  5
28F
330
1E
100
AcDbEntity
  8
0
  6
CONTINUOUS
100
AcDbLine
 10
127.4839399999999
 20
44.205421
 30
0.0
 11
127.4839399999999
 21
43.40540299999999
 31
0.0
  0
LINE
  5
290
330
1E
100
AcDbEntity
  8
0
  6
CONTINUOUS
100
AcDbLine
 10
125.3339159999999
 20
45.555428
 30
0.0
 11
126.133934
 21
45.555428
 31
0.0
  0
LINE
  5
291
330
1E
100
AcDbEntity
  8
0
  6
CONTINUOUS
100
AcDbLine
 10
125.3339159999999
 20
42.055428
 30
0.0
 11
126.133934
 21
42.055428
 31
0.0
  0
LINE
  5
292
330
1E
100
AcDbEntity
  8
0
  6
CONTINUOUS
100
AcDbLine
 10
123.9839399999999
 20
44.205421
 30
0.0
 11
123.9839399999999
 21
43.40540299999999
 31
0.0
  0
CIRCLE
  5
293
330
1E
100
AcDbEntity
  8
0
  6
CONTINUOUS
100
AcDbCircle
 10
125.7339399999999
 20
43.805428
 30
0.0
 40
2.75
  0
ARC
  5
294
330
1E
100
AcDbEntity
  8
0
  6
CONTINUOUS
100
AcDbCircle
 10
123.9839399999999
 20
45.555428
 30
0.0
 40
1.35
100
AcDbArc
 50
270.0
 51
0.0
  0
ARC
  5
295
330
1E
100
AcDbEntity
  8
0
  6
CONTINUOUS
100
AcDbCircle
 10
123.9839399999999
 20
42.055428
 30
0.0
 40
1.35
100
AcDbArc
 50
0.0
 51
90.0
  0
ARC
  5
296
330
1E
100
AcDbEntity
  8
0
  6
CONTINUOUS
100
AcDbCircle
 10
127.4839399999999
 20
45.555428
 30
0.0
 40
1.35
100
AcDbArc
 50
180.0
 51
270.0
  0
ARC
  5
297
330
1E
100
AcDbEntity
  8
0
  6
CONTINUOUS
100
AcDbCircle
 10
127.4839399999999
 20
42.055428
 30
0.0
 40
1.35
100
AcDbArc
 50
90.0
 51
180.0
  0
LINE
  5
298
330
1E
100
AcDbEntity
  8
0
  6
CONTINUOUS
100
AcDbLine
 10
98.23397800000002
 20
33.80705999999999
 30
0.0
 11
98.23397800000002
 21
38.807053
 31
0.0
  0
LINE
  5
299
330
1E
100
AcDbEntity
  8
0
  6
CONTINUOUS
100
AcDbLine
 10
93.233978
 20
33.76547999999999
 30
0.0
 11
93.233978
 21
38.807053
 31
0.0
  0
ARC
  5
29A
330
1E
100
AcDbEntity
  8
0
  6
CONTINUOUS
100
AcDbCircle
 10
83.233978
 20
33.76547999999999
 30
0.0
 40
10.0
100
AcDbArc
 50
270.0
 51
0.0
  0
ARC
  5
29B
330
1E
100
AcDbEntity
  8
0
  6
CONTINUOUS
100
AcDbCircle
 10
83.233978
 20
33.76547999999999
 30
0.0
 40
15.0
100
AcDbArc
 50
270.0
 51
0.158824
  0
LINE
  5
29C
330
1E
100
AcDbEntity
  8
0
  6
CONTINUOUS
100
AcDbLine
 10
83.233978
 20
23.765478
 30
0.0
 11
55.73397800083927
 21
23.76547799999999
 31
0.0
  0
LINE
  5
29D
330
1E
100
AcDbEntity
  8
0
  6
CONTINUOUS
100
AcDbLine
 10
83.233978
 20
18.765478
 30
0.0
 11
55.73397800083927
 21
18.765478
 31
0.0
  0
LINE
  5
29E
330
1E
100
AcDbEntity
  8
0
  6
CONTINUOUS
100
AcDbLine
 10
93.233978
 20
35.805477
 30
0.0
 11
82.23399399999999
 21
35.805477
 31
0.0
  0
LINE
  5
29F
330
1E
100
AcDbEntity
  8
0
  6
CONTINUOUS
100
AcDbLine
 10
93.233978
 20
33.805477
 30
0.0
 11
67.73394
 21
33.805477
 31
0.0
  0
LINE
  5
2A0
330
1E
100
AcDbEntity
  8
0
  6
CONTINUOUS
100
AcDbLine
 10
91.91720600000001
 20
28.805477
 30
0.0
 11
84.23399399999999
 21
28.805477
 31
0.0
  0
LINE
  5
2A1
330
1E
100
AcDbEntity
  8
0
  6
CONTINUOUS
100
AcDbLine
 10
90.41439799999999
 20
26.805477
 30
0.0
 11
67.73394
 21
26.805477
 31
0.0
  0
LINE
  5
2A2
330
1E
100
AcDbEntity
  8
0
  6
CONTINUOUS
100
AcDbLine
 10
395.0266419999999
 20
48.327194
 30
0.0
 11
395.0266419999999
 21
39.764919
 31
0.0
  0
LINE
  5
2A3
330
1E
100
AcDbEntity
  8
0
  6
CONTINUOUS
100
AcDbLine
 10
400.0266419999999
 20
48.700584
 30
0.0
 11
400.0266419999999
 21
39.764919
 31
0.0
  0
ARC
  5
2A4
330
1E
100
AcDbEntity
  8
0
  6
CONTINUOUS
100
AcDbCircle
 10
416.026642
 20
39.764919
 30
0.0
 40
16.0
100
AcDbArc
 50
180.0
 51
270.706879
  0
ARC
  5
2A5
330
1E
100
AcDbEntity
  8
0
  6
CONTINUOUS
100
AcDbCircle
 10
416.026642
 20
39.764919
 30
0.0
 40
21.0
100
AcDbArc
 50
180.0
 51
270.0
  0
LINE
  5
2A6
330
1E
100
AcDbEntity
  8
0
  6
CONTINUOUS
100
AcDbLine
 10
416.026642
 20
18.76492099999999
 30
0.0
 11
422.921478
 21
18.76492099999999
 31
0.0
  0
LINE
  5
2A7
330
1E
100
AcDbEntity
  8
0
  6
CONTINUOUS
100
AcDbLine
 10
416.026642
 20
23.76492099999999
 30
0.0
 11
429.5266419999999
 21
23.76492099999999
 31
0.0
  0
ARC
  5
2A8
330
1E
100
AcDbEntity
  8
0
  6
CONTINUOUS
100
AcDbCircle
 10
461.526642
 20
73.805367
 30
0.0
 40
67.5
100
AcDbArc
 50
234.628311
 51
234.800079
  0
TEXT
  5
2A9
330
1E
100
AcDbEntity
  8
0
100
AcDbText
 10
-18.0
 20
-36.0
 30
0.0
 40
4.0
  1
H2LB-22R-5~60-T020WZ
100
AcDbText
  0
LINE
  5
307
330
1E
100
AcDbEntity
  8
1
  6
CONTINUOUS
 62
     7
100
AcDbLine
 10
55.73376399850889
 20
392.3413539999998
 30
0.0
 11
55.73376399850889
 21
259.341339
 31
0.0
  0
ARC
  5
308
330
1E
100
AcDbEntity
  8
1
  6
CONTINUOUS
 62
     7
100
AcDbCircle
 10
340.2337339985087
 20
325.842346
 30
0.0
 40
340.0
100
AcDbArc
 50
170.966506999995
 51
189.0334930000049
  0
ARC
  5
309
330
1E
100
AcDbEntity
  8
1
  6
CONTINUOUS
 62
     7
100
AcDbCircle
 10
343.2137749985087
 20
325.8413389999999
 30
0.0
 40
325.0
100
AcDbArc
 50
168.2279455165586
 51
191.7720517696801
  0
LINE
  5
30B
330
1E
100
AcDbEntity
  8
1
  6
CONTINUOUS
 62
     7
100
AcDbLine
 10
55.73397800083927
 20
13.81415600000002
 30
0.0
 11
55.73397800083927
 21
60.30532800000001
 31
0.0
  0
ARC
  5
30C
330
1E
100
AcDbEntity
  8
1
  6
CONTINUOUS
 62
     7
100
AcDbCircle
 10
340.2339480008392
 20
73.8043899999999
 30
0.0
 40
340.0
100
AcDbArc
 50
170.966506999995
 51
189.6212784361565
  0
ARC
  5
30D
330
1E
100
AcDbEntity
  8
1
  6
CONTINUOUS
 62
     7
100
AcDbCircle
 10
-299.766017999163
 20
73.80536699999982
 30
0.0
 40
325.0000000000022
100
AcDbArc
 50
349.395881620111
 51
11.66235952465123
  0
ARC
  5
30E
330
1E
100
AcDbEntity
  8
1
  6
CONTINUOUS
 62
     7
100
AcDbCircle
 10
461.526642
 20
73.80536699999999
 30
0.0
 40
67.5
100
AcDbArc
 50
305.1998968910642
 51
44.67460956438357
  0
LINE
  5
317
330
1E
100
AcDbEntity
  8
1
  6
CONTINUOUS
100
AcDbLine
 10
54.72525146534081
 20
12.8141940769359
 30
0.0
 11
9.946046374853551
 21
12.8141940769359
 31
0.0
  0
ARC
  5
318
330
1E
100
AcDbEntity
  8
1
  6
CONTINUOUS
100
AcDbCircle
 10
9.946046374853438
 20
17.8141940769359
 30
0.0
 40
5.0
100
AcDbArc
 50
189.6212784361565
 51
270.0
  0
ARC
  5
319
330
1E
100
AcDbEntity
  8
1
  6
CONTINUOUS
100
AcDbCircle
 10
20.6665945285203
 20
13.81419407693567
 30
0.0
 40
1.0
100
AcDbArc
 50
169.395881620111
 51
270.0
  0
ARC
  5
31A
330
1E
100
AcDbEntity
  8
1
  6
CONTINUOUS
 62
     7
100
AcDbCircle
 10
54.73397800083915
 20
13.81415600000002
 30
0.0
 40
1.0
100
AcDbArc
 50
269.5000000000019
 51
0.0
  0
ARC
  5
32A
330
1E
100
AcDbEntity
  8
1
  6
CONTINUOUS
 62
     7
100
AcDbCircle
 10
16.30227700083918
 20
125.3043899999999
 30
0.0
 40
12.0
100
AcDbArc
 50
90.0
 51
170.966506999995
  0
LINE
  5
32B
330
1E
100
AcDbEntity
  8
1
  6
CONTINUOUS
100
AcDbLine
 10
54.73397800083927
 20
141.305367
 30
0.0
 11
19.99365738221064
 21
141.305367
 31
0.0
  0
ARC
  5
32C
330
1E
100
AcDbEntity
  8
1
  6
CONTINUOUS
100
AcDbCircle
 10
19.99365738221053
 20
139.805367
 30
0.0
 40
1.5
100
AcDbArc
 50
90.0
 51
191.6623595246512
  0
ARC
  5
32D
330
1E
100
AcDbEntity
  8
1
  6
CONTINUOUS
 62
     7
100
AcDbCircle
 10
17.74914500083917
 20
138.3043899999998
 30
0.0
 40
1.0
100
AcDbArc
 50
270.0
 51
11.48264199999979
  0
LINE
  5
32E
330
1E
100
AcDbEntity
  8
1
  6
CONTINUOUS
 62
     7
100
AcDbLine
 10
16.30227700083929
 20
137.3043899999998
 30
0.0
 11
17.74914500083929
 21
137.3043899999998
 31
0.0
  0
ARC
  5
32F
330
1E
100
AcDbEntity
  8
1
  6
CONTINUOUS
 62
     7
100
AcDbCircle
 10
54.73397800083915
 20
140.305367
 30
0.0
 40
1.0
100
AcDbArc
 50
0.0
 51
90.0
  0
ARC
  5
331
330
1E
100
AcDbEntity
  8
1
  6
CONTINUOUS
 62
     7
100
AcDbCircle
 10
16.30206299850868
 20
274.342346
 30
0.0
 40
12.0
100
AcDbArc
 50
189.0334930000049
 51
270.0
  0
LINE
  5
332
330
1E
100
AcDbEntity
  8
1
  6
CONTINUOUS
100
AcDbLine
 10
54.73376399850889
 20
258.341339
 30
0.0
 11
26.51794300825367
 21
258.341339
 31
0.0
  0
ARC
  5
333
330
1E
100
AcDbEntity
  8
1
  6
CONTINUOUS
100
AcDbCircle
 10
26.51794300825355
 20
259.8413390000001
 30
0.0
 40
1.5
100
AcDbArc
 50
191.7720517696935
 51
270.0
  0
LINE
  5
334
330
1E
100
AcDbEntity
  8
1
  6
CONTINUOUS
 62
     7
100
AcDbLine
 10
16.30206299850891
 20
262.3423459999999
 30
0.0
 11
23.65801999850867
 21
262.3423459999999
 31
0.0
  0
ARC
  5
335
330
1E
100
AcDbEntity
  8
1
  6
CONTINUOUS
 62
     7
100
AcDbCircle
 10
23.65801999850856
 20
261.342346
 30
0.0
 40
1.0
100
AcDbArc
 50
11.41125500000288
 51
90.0
  0
ARC
  5
336
330
1E
100
AcDbEntity
  8
1
  6
CONTINUOUS
 62
     7
100
AcDbCircle
 10
54.73376399850889
 20
259.3413390000001
 30
0.0
 40
1.0
100
AcDbArc
 50
270.0
 51
0.0
  0
ARC
  5
337
330
1E
100
AcDbEntity
  8
1
  6
CONTINUOUS
 62
     7
100
AcDbCircle
 10
16.3020629985088
 20
377.3403779999999
 30
0.0
 40
12.0
100
AcDbArc
 50
90.0
 51
170.966506999995
  0
LINE
  5
338
330
1E
100
AcDbEntity
  8
1
  6
CONTINUOUS
100
AcDbLine
 10
54.73376399850889
 20
393.3413539999999
 30
0.0
 11
26.51794613428177
 21
393.3413539999996
 31
0.0
  0
LINE
  5
339
330
1E
100
AcDbEntity
  8
1
  6
CONTINUOUS
 62
     7
100
AcDbLine
 10
16.30206299850891
 20
389.3403779999998
 30
0.0
 11
23.65801999850867
 21
389.3403779999998
 31
0.0
  0
ARC
  5
33A
330
1E
100
AcDbEntity
  8
1
  6
CONTINUOUS
 62
     7
100
AcDbCircle
 10
23.65801999850867
 20
390.340378
 30
0.0
 40
1.0
100
AcDbArc
 50
270.0
 51
348.5887449999971
  0
ARC
  5
33B
330
1E
100
AcDbEntity
  8
1
  6
CONTINUOUS
100
AcDbCircle
 10
26.51794613428165
 20
391.841354
 30
0.0
 40
1.5
100
AcDbArc
 50
90.0
 51
168.2279455165586
  0
ARC
  5
33C
330
1E
100
AcDbEntity
  8
1
  6
CONTINUOUS
 62
     7
100
AcDbCircle
 10
54.73376399850877
 20
392.341354
 30
0.0
 40
1.0
100
AcDbArc
 50
0.0
 51
90.0
  0
ARC
  5
35B
330
1E
100
AcDbEntity
  8
1
  6
CONTINUOUS
 62
     7
100
AcDbCircle
 10
461.526642
 20
73.80536699999999
 30
0.0
 40
67.5
100
AcDbArc
 50
135.3253904356164
 51
142.0615343630726
  0
ARC
  5
35C
330
1E
100
AcDbEntity
  8
1
  6
CONTINUOUS
 62
     7
100
AcDbCircle
 10
461.526642
 20
73.80536699999999
 30
0.0
 40
67.5
100
AcDbArc
 50
204.3406467286018
 51
227.8456833887013
  0
LINE
  5
35D
330
1E
100
AcDbEntity
  8
1
  6
CONTINUOUS
 62
     7
100
AcDbLine
 10
55.73397800083927
 20
87.305428
 30
0.0
 11
55.73397800083927
 21
140.305367
 31
0.0
  0
LINE
  5
35E
330
1E
100
AcDbEntity
  8
0
  6
CONTINUOUS
100
AcDbLine
 10
59.733948
 20
383.338593
 30
0.0
 11
59.733948
 21
268.338593
 31
0.0
  0
LINE
  5
35F
330
1E
100
AcDbEntity
  8
0
  6
CONTINUOUS
100
AcDbLine
 10
59.73394800000001
 20
131.305359
 30
0.0
 11
59.73394800000001
 21
88.30542800000001
 31
0.0
  0
LINE
  5
360
330
1E
100
AcDbEntity
  8
0
  6
CONTINUOUS
100
AcDbLine
 10
59.73394800000001
 20
59.305328
 30
0.0
 11
59.73394800000001
 21
16.30536499999999
 31
0.0
  0
ENDSEC
  0
SECTION
  2
OBJECTS
  0
DICTIONARY
  5
C
330
0
100
AcDbDictionary
  3
ACAD_GROUP
350
D
  3
ACAD_LAYOUT
350
19
  3
ACAD_MLINESTYLE
350
16
  3
ACAD_PLOTSETTINGS
350
18
  3
ACAD_PLOTSTYLENAME
350
E
  3
ACDBHEADERROUNDTRIPXREC
350
36E
  3
ACDBVARIABLEDICTIONARY
350
36B
  0
DICTIONARY
  5
390
330
1E
100
AcDbDictionary
280
     1
  3
ACAD_LAYOUTSELFREF
360
391
  0
DICTIONARY
  5
38E
330
1A
100
AcDbDictionary
280
     1
  3
ACAD_LAYOUTSELFREF
360
38F
  0
DICTIONARY
  5
D
102
{ACAD_REACTORS
330
C
102
}
330
C
100
AcDbDictionary
  0
DICTIONARY
  5
19
102
{ACAD_REACTORS
330
C
102
}
330
C
100
AcDbDictionary
  0
DICTIONARY
  5
16
102
{ACAD_REACTORS
330
C
102
}
330
C
100
AcDbDictionary
  3
STANDARD
350
17
  0
DICTIONARY
  5
18
102
{ACAD_REACTORS
330
C
102
}
330
C
100
AcDbDictionary
  0
ACDBDICTIONARYWDFLT
  5
E
102
{ACAD_REACTORS
330
C
102
}
330
C
100
AcDbDictionary
281
     1
  3
Normal
350
F
100
AcDbDictionaryWithDefault
340
F
  0
DICTIONARY
  5
36E
102
{ACAD_REACTORS
330
C
102
}
330
C
100
AcDbDictionary
  3
CEPSNTYPE
350
378
  3
FINGERPRINTGUID
350
379
  3
HYPERLINKBASE
350
371
  3
INSUNITS
350
377
  3
LAYOUTDICT
350
373
  3
LWETCUNION
350
376
  3
PLOTSETDICT
350
374
  3
PLOTSTYLNAMDICT
350
375
  3
PSVPSCALE
350
37B
  3
PUCSBASE
350
37E
  3
PUCSORGBACK
350
384
  3
PUCSORGBOTTOM
350
380
  3
PUCSORGFRONT
350
383
  3
PUCSORGLEFT
350
381
  3
PUCSORGRIGHT
350
382
  3
PUCSORGTOP
350
37F
  3
PUCSORTHOREF
350
37C
  3
PUCSORTHOVIEW
350
37D
  3
STYLESHEET
350
372
  3
TSTACKALIGN
350
36F
  3
TSTACKSIZE
350
370
  3
UCSBASE
350
387
  3
UCSORGBACK
350
38D
  3
UCSORGBOTTOM
350
389
  3
UCSORGFRONT
350
38C
  3
UCSORGLEFT
350
38A
  3
UCSORGRIGHT
350
38B
  3
UCSORGTOP
350
388
  3
UCSORTHOREF
350
385
  3
UCSORTHOVIEW
350
386
  3
VERSIONGUID
350
37A
  0
DICTIONARY
  5
36B
102
{ACAD_REACTORS
330
C
102
}
330
C
100
AcDbDictionary
  3
DIMASSOC
350
36C
  0
XRECORD
  5
391
102
{ACAD_REACTORS
330
390
102
}
330
390
100
AcDbXrecord
340
1E
  0
XRECORD
  5
38F
102
{ACAD_REACTORS
330
38E
102
}
330
38E
100
AcDbXrecord
340
1A
  0
MLINESTYLE
  5
17
102
{ACAD_REACTORS
330
16
102
}
330
16
100
AcDbMlineStyle
  2
STANDARD
 70
     0
  3

 62
   256
 51
90.0
 52
90.0
 71
     2
 49
0.5
 62
   256
  6
BYLAYER
 49
-0.5
 62
   256
  6
BYLAYER
  0
ACDBPLACEHOLDER
  5
F
102
{ACAD_REACTORS
330
E
102
}
330
E
100
AcDbPlaceHolder
280
     0
  0
XRECORD
  5
378
102
{ACAD_REACTORS
330
36E
102
}
330
36E
100
AcDbXrecord
 90
        0
  0
XRECORD
  5
379
102
{ACAD_REACTORS
330
36E
102
}
330
36E
100
AcDbXrecord
  1
{BEFA96C4-6B39-4DDC-99EB-CCBC41F8A3AD}
  0
XRECORD
  5
371
102
{ACAD_REACTORS
330
36E
102
}
330
36E
100
AcDbXrecord
  1

  0
XRECORD
  5
377
102
{ACAD_REACTORS
330
36E
102
}
330
36E
100
AcDbXrecord
 90
        0
  0
XRECORD
  5
373
102
{ACAD_REACTORS
330
36E
102
}
330
36E
100
AcDbXrecord
340
19
  0
XRECORD
  5
376
102
{ACAD_REACTORS
330
36E
102
}
330
36E
100
AcDbXrecord
 90
    10781
  0
XRECORD
  5
374
102
{ACAD_REACTORS
330
36E
102
}
330
36E
100
AcDbXrecord
340
18
  0
XRECORD
  5
375
102
{ACAD_REACTORS
330
36E
102
}
330
36E
100
AcDbXrecord
340
E
  0
XRECORD
  5
37B
102
{ACAD_REACTORS
330
36E
102
}
330
36E
100
AcDbXrecord
 40
0.0
  0
XRECORD
  5
37E
102
{ACAD_REACTORS
330
36E
102
}
330
36E
100
AcDbXrecord
340
0
  0
XRECORD
  5
384
102
{ACAD_REACTORS
330
36E
102
}
330
36E
100
AcDbXrecord
 10
0.0
 20
0.0
 30
0.0
  0
XRECORD
  5
380
102
{ACAD_REACTORS
330
36E
102
}
330
36E
100
AcDbXrecord
 10
0.0
 20
0.0
 30
0.0
  0
XRECORD
  5
383
102
{ACAD_REACTORS
330
36E
102
}
330
36E
100
AcDbXrecord
 10
0.0
 20
0.0
 30
0.0
  0
XRECORD
  5
381
102
{ACAD_REACTORS
330
36E
102
}
330
36E
100
AcDbXrecord
 10
0.0
 20
0.0
 30
0.0
  0
XRECORD
  5
382
102
{ACAD_REACTORS
330
36E
102
}
330
36E
100
AcDbXrecord
 10
0.0
 20
0.0
 30
0.0
  0
XRECORD
  5
37F
102
{ACAD_REACTORS
330
36E
102
}
330
36E
100
AcDbXrecord
 10
0.0
 20
0.0
 30
0.0
  0
XRECORD
  5
37C
102
{ACAD_REACTORS
330
36E
102
}
330
36E
100
AcDbXrecord
340
0
  0
XRECORD
  5
37D
102
{ACAD_REACTORS
330
36E
102
}
330
36E
100
AcDbXrecord
 70
     0
  0
XRECORD
  5
372
102
{ACAD_REACTORS
330
36E
102
}
330
36E
100
AcDbXrecord
  1

  0
XRECORD
  5
36F
102
{ACAD_REACTORS
330
36E
102
}
330
36E
100
AcDbXrecord
 90
        1
  0
XRECORD
  5
370
102
{ACAD_REACTORS
330
36E
102
}
330
36E
100
AcDbXrecord
 90
       70
  0
XRECORD
  5
387
102
{ACAD_REACTORS
330
36E
102
}
330
36E
100
AcDbXrecord
340
0
  0
XRECORD
  5
38D
102
{ACAD_REACTORS
330
36E
102
}
330
36E
100
AcDbXrecord
 10
0.0
 20
0.0
 30
0.0
  0
XRECORD
  5
389
102
{ACAD_REACTORS
330
36E
102
}
330
36E
100
AcDbXrecord
 10
0.0
 20
0.0
 30
0.0
  0
XRECORD
  5
38C
102
{ACAD_REACTORS
330
36E
102
}
330
36E
100
AcDbXrecord
 10
0.0
 20
0.0
 30
0.0
  0
XRECORD
  5
38A
102
{ACAD_REACTORS
330
36E
102
}
330
36E
100
AcDbXrecord
 10
0.0
 20
0.0
 30
0.0
  0
XRECORD
  5
38B
102
{ACAD_REACTORS
330
36E
102
}
330
36E
100
AcDbXrecord
 10
0.0
 20
0.0
 30
0.0
  0
XRECORD
  5
388
102
{ACAD_REACTORS
330
36E
102
}
330
36E
100
AcDbXrecord
 10
0.0
 20
0.0
 30
0.0
  0
XRECORD
  5
385
102
{ACAD_REACTORS
330
36E
102
}
330
36E
100
AcDbXrecord
340
0
  0
XRECORD
  5
386
102
{ACAD_REACTORS
330
36E
102
}
330
36E
100
AcDbXrecord
 70
     0
  0
XRECORD
  5
37A
102
{ACAD_REACTORS
330
36E
102
}
330
36E
100
AcDbXrecord
  1
{FECFA5B0-CAE5-4DF2-8E3F-AD38C29CCB3D}
  0
DICTIONARYVAR
  5
36C
102
{ACAD_REACTORS
330
36B
102
}
330
36B
100
DictionaryVariables
280
     0
  1
1
  0
ENDSEC
  0
EOF
