  0
SECTION
  2
HEADER
  9
$CLAYER
  8
1
  9
$LTSCALE
 40
3.0
  0
ENDSEC
  0
SECTION
  2
TABLES
  0
TABLE
  2
LTYPE
 70
     4
  0
LTYPE
  2
CONTINUOUS
  3
solid line
 70
    64
 72
    65
 73
     0
 40
0.0
  0
LTYPE
  2
DASHED
  3
__ __ __ __ __ __ __ __ __ __ __ __ __ __ __
 70
    64
 72
    65
 73
     2
 40
0.75
 49
0.5
 49
-0.25
  0
LTYPE
  2
CENTER
  3
____ _ ____ _ ____ _ ____ _ ____ _ ____ _ ____
 70
    64
 72
    65
 73
     4
 40
2.0
 49
1.25
 49
-0.25
 49
0.25
 49
-0.25
  0
LTYPE
  2
PHANTOM
  3
_____ _ _ _____ _ _ _____ _ _ _____ _ _ ____
 70
    64
 72
    65
 73
     6
 40
2.5
 49
1.25
 49
-0.25
 49
0.25
 49
-0.25
 49
0.25
 49
-0.25
  0
ENDTAB
  0
TABLE
  2
LAYER
 70
     1
  0
LAYER
  2
0
 70
    64
 62
     7
  6
CONTINUOUS
  0
ENDTAB
  0
TABLE
  2
STYLE
 70
     1
  0
STYLE
  2
STANDARD
 70
     0
 40
0.000000
 41
1.000000
 50
0.000000
 71
     0
 42
3.000000
  3
txt
  4
BIGFONT
  0
ENDTAB
  0
ENDSEC
  0
SECTION
  2
BLOCKS
  0
ENDSEC
  0
SECTION
  2
ENTITIES
  0
LINE
  8
0
  6
CONTINUOUS
 10
349.469208
 20
165.498627
 11
349.469208
 21
20.127008
  0
LINE
  8
0
  6
CONTINUOUS
 10
224.469193
 20
20.127008
 11
349.469208
 21
20.127008
  0
LINE
  8
0
  6
CENTER
 10
212.219299
 20
140.127014
 11
342.022491
 21
140.127014
  0
LINE
  8
0
  6
CENTER
 10
286.969208
 20
208.309998
 11
286.969208
 21
11.627009
  0
LINE
  8
0
  6
CONTINUOUS
 10
264.523651
 20
194.626968
 11
309.414825
 21
194.626968
  0
LINE
  8
0
  6
CONTINUOUS
 10
312.249603
 20
193.745667
 11
347.303986
 21
169.617249
  0
LINE
  8
0
  6
CONTINUOUS
 10
227.469193
 20
35.127010
 11
346.469208
 21
35.127010
  0
LINE
  8
0
  6
CONTINUOUS
 10
339.469208
 20
33.589508
 11
339.469208
 21
20.127008
  0
LINE
  8
0
  6
CONTINUOUS
 10
235.469193
 20
33.589508
 11
235.469193
 21
20.127008
  0
LINE
  8
0
  6
CENTER
 10
326.969208
 20
42.377010
 11
326.969208
 21
13.377009
  0
LINE
  8
0
  6
CENTER
 10
246.969193
 20
42.377010
 11
246.969193
 21
14.627009
  0
LINE
  8
0
  6
DASHED
 10
332.469208
 20
35.127010
 11
332.469208
 21
20.127008
  0
LINE
  8
0
  6
DASHED
 10
321.469208
 20
35.127010
 11
321.469208
 21
20.127008
  0
LINE
  8
0
  6
DASHED
 10
252.469193
 20
35.127010
 11
252.469193
 21
20.127008
  0
LINE
  8
0
  6
DASHED
 10
241.469193
 20
35.127010
 11
241.469193
 21
20.127008
  0
ARC
  8
0
  6
CONTINUOUS
 10
266.969208
 20
90.127007
 40
26.500000
 50
170.529099
 51
270.000000
  0
ARC
  8
0
  6
CONTINUOUS
 10
306.969208
 20
90.127007
 40
26.500000
 50
-90.000000
 51
9.470950
  0
LINE
  8
0
  6
CONTINUOUS
 10
240.830399
 20
94.487480
 11
249.487213
 21
146.379852
  0
LINE
  8
0
  6
CONTINUOUS
 10
324.451202
 20
146.379852
 11
333.108002
 21
94.487511
  0
LINE
  8
0
  6
CONTINUOUS
 10
266.969208
 20
63.627010
 11
306.969208
 21
63.627010
  0
ARC
  8
0
  6
CONTINUOUS
 10
344.469208
 20
165.498566
 40
5.000000
 50
0.000000
 51
55.460110
  0
ARC
  8
0
  6
CONTINUOUS
 10
309.414825
 20
189.626968
 40
5.000000
 50
55.460079
 51
90.000000
  0
ARC
  8
0
  6
CONTINUOUS
 10
264.557587
 20
189.626968
 40
5.000000
 50
90.000000
 51
91.038872
  0
LINE
  8
0
  6
CONTINUOUS
 10
224.469193
 20
20.127008
 11
224.469193
 21
52.527027
  0
ARC
  8
0
  6
CONTINUOUS
 10
266.969208
 20
90.127007
 40
24.000000
 50
170.529221
 51
270.000000
  0
ARC
  8
0
  6
CONTINUOUS
 10
306.969208
 20
90.127007
 40
24.000000
 50
-91.534416
 51
9.471022
  0
LINE
  8
0
  6
CONTINUOUS
 10
266.969208
 20
66.127007
 11
306.969208
 21
66.127007
  0
CIRCLE
  8
0
  6
CONTINUOUS
 10
286.969208
 20
140.127014
 40
33.500000
  0
ARC
  8
0
  6
CONTINUOUS
 10
286.969208
 20
140.127014
 40
38.000000
 50
9.470963
 51
170.529007
  0
ARC
  8
0
  6
CONTINUOUS
 10
286.969208
 20
140.127014
 40
35.500000
 50
-189.470795
 51
9.471022
  0
LINE
  8
0
  6
CONTINUOUS
 10
243.296387
 20
94.076073
 11
251.952972
 21
145.968353
  0
LINE
  8
0
  6
CONTINUOUS
 10
321.985199
 20
145.968475
 11
330.641998
 21
94.076172
  0
LINE
  8
0
  6
CENTER
 10
204.469193
 20
104.127007
 11
241.069214
 21
104.127007
  0
LINE
  8
0
  6
CONTINUOUS
 10
222.914841
 20
168.127045
 11
204.469193
 21
168.127045
  0
LINE
  8
0
  6
CONTINUOUS
 10
204.469193
 20
40.127010
 11
219.469193
 21
40.127010
  0
LINE
  8
0
  6
CONTINUOUS
 10
204.469193
 20
104.127007
 11
204.469193
 21
40.127010
  0
LINE
  8
0
  6
CONTINUOUS
 10
204.469193
 20
104.127007
 11
204.469193
 21
168.127045
  0
LINE
  8
0
  6
CONTINUOUS
 10
225.749756
 20
169.008408
 11
261.688751
 21
193.745636
  0
ARC
  8
0
  6
CONTINUOUS
 10
264.523682
 20
189.626968
 40
5.000000
 50
90.000000
 51
124.540298
  0
ARC
  8
0
  6
CONTINUOUS
 10
229.469223
 20
165.498611
 40
5.000000
 50
124.540398
 51
180.000000
  0
ARC
  8
0
  6
CONTINUOUS
 10
219.469208
 20
35.126987
 40
5.000000
 50
0.000000
 51
90.000000
  0
ARC
  8
0
  6
CONTINUOUS
 10
227.469223
 20
32.127029
 40
3.000000
 50
90.000000
 51
180.000000
  0
ARC
  8
0
  6
CONTINUOUS
 10
346.469208
 20
32.127010
 40
3.000000
 50
0.000000
 51
90.000000
  0
LINE
  8
0
  6
CONTINUOUS
 10
276.672791
 20
76.127007
 11
272.512451
 21
76.127007
  0
LINE
  8
0
  6
CONTINUOUS
 10
278.969208
 20
83.095749
 11
278.969208
 21
76.127007
  0
LINE
  8
0
  6
CONTINUOUS
 10
282.969208
 20
85.627007
 11
282.969208
 21
88.127007
  0
LINE
  8
0
  6
CONTINUOUS
 10
290.969208
 20
85.627007
 11
290.969208
 21
88.127007
  0
LINE
  8
0
  6
CONTINUOUS
 10
286.187958
 20
86.658257
 11
286.187958
 21
77.439507
  0
LINE
  8
0
  6
CONTINUOUS
 10
287.687958
 20
86.658257
 11
287.687958
 21
77.439507
  0
LINE
  8
0
  6
CONTINUOUS
 10
295.562958
 20
86.658257
 11
295.562958
 21
77.377007
  0
LINE
  8
0
  6
CONTINUOUS
 10
296.937958
 20
81.736389
 11
296.937958
 21
77.377007
  0
LINE
  8
0
  6
CONTINUOUS
 10
277.071136
 20
86.533257
 11
273.216187
 21
86.533257
  0
LINE
  8
0
  6
CONTINUOUS
 10
273.216187
 20
86.533257
 11
272.312958
 21
85.413261
  0
LINE
  8
0
  6
CONTINUOUS
 10
272.421570
 20
88.127007
 11
270.969208
 21
86.267250
  0
LINE
  8
0
  6
CONTINUOUS
 10
272.312958
 20
78.499931
 11
273.230682
 21
77.533249
  0
LINE
  8
0
  6
CONTINUOUS
 10
270.969208
 20
77.684166
 11
272.512451
 21
76.127007
  0
LINE
  8
0
  6
CONTINUOUS
 10
270.969208
 20
86.267250
 11
270.969208
 21
77.684166
  0
LINE
  8
0
  6
CONTINUOUS
 10
272.312958
 20
85.413261
 11
272.312958
 21
78.499931
  0
LINE
  8
0
  6
CONTINUOUS
 10
277.812958
 20
85.816154
 11
277.056000
 21
86.533257
  0
LINE
  8
0
  6
CONTINUOUS
 10
277.800934
 20
88.127007
 11
278.969208
 21
86.830521
  0
LINE
  8
0
  6
CONTINUOUS
 10
277.812958
 20
85.627007
 11
278.969208
 21
85.627007
  0
LINE
  8
0
  6
CONTINUOUS
 10
272.421570
 20
88.127007
 11
277.800934
 21
88.127007
  0
LINE
  8
0
  6
CONTINUOUS
 10
275.719208
 20
83.095749
 11
278.969208
 21
83.095749
  0
LINE
  8
0
  6
CONTINUOUS
 10
277.812958
 20
81.783249
 11
275.719208
 21
81.783249
  0
LINE
  8
0
  6
CONTINUOUS
 10
275.312958
 20
77.533249
 11
273.230682
 21
77.533249
  0
LINE
  8
0
  6
CONTINUOUS
 10
277.812958
 20
80.533249
 11
277.812958
 21
81.533249
  0
ARC
  8
0
  6
CONTINUOUS
 10
275.312958
 20
80.033249
 40
2.500000
 50
-89.999786
 51
0.000109
  0
LINE
  8
0
  6
CONTINUOUS
 10
277.812958
 20
77.083572
 11
277.812958
 21
76.127007
  0
LINE
  8
0
  6
CONTINUOUS
 10
278.969208
 20
86.830521
 11
278.969208
 21
85.627007
  0
LINE
  8
0
  6
CONTINUOUS
 10
277.812958
 20
81.783249
 11
277.812958
 21
80.033249
  0
LINE
  8
0
  6
CONTINUOUS
 10
275.719208
 20
83.095749
 11
275.719208
 21
81.783249
  0
LINE
  8
0
  6
CONTINUOUS
 10
277.812958
 20
76.127007
 11
278.969208
 21
76.127007
  0
LINE
  8
0
  6
CONTINUOUS
 10
277.812958
 20
77.083572
 11
276.672791
 21
76.127007
  0
LINE
  8
0
  6
CONTINUOUS
 10
287.687958
 20
77.439507
 11
288.187958
 21
77.439507
  0
LINE
  8
0
  6
CONTINUOUS
 10
285.594208
 20
77.439507
 11
285.594208
 21
76.127007
  0
LINE
  8
0
  6
CONTINUOUS
 10
288.187958
 20
77.439507
 11
288.187958
 21
76.127007
  0
LINE
  8
0
  6
CONTINUOUS
 10
290.134735
 20
85.627007
 11
290.969208
 21
85.627007
  0
LINE
  8
0
  6
CONTINUOUS
 10
282.969208
 20
85.627007
 11
283.857208
 21
85.627007
  0
LINE
  8
0
  6
CONTINUOUS
 10
282.969208
 20
88.127007
 11
290.969208
 21
88.127007
  0
LINE
  8
0
  6
CONTINUOUS
 10
285.594208
 20
76.127007
 11
288.187958
 21
76.127007
  0
LINE
  8
0
  6
CONTINUOUS
 10
285.594208
 20
77.439507
 11
286.187958
 21
77.439507
  0
ARC
  8
0
  6
CONTINUOUS
 10
299.766083
 20
84.923882
 40
3.203126
 50
-73.981873
 51
90.003510
  0
ARC
  8
0
  6
CONTINUOUS
 10
299.766083
 20
84.923882
 40
1.954124
 50
-82.585274
 51
62.411850
  0
LINE
  8
0
  6
CONTINUOUS
 10
294.969208
 20
88.127007
 11
299.766083
 21
88.127007
  0
LINE
  8
0
  6
CONTINUOUS
 10
300.018250
 20
82.986092
 11
296.937958
 21
82.986092
  0
LINE
  8
0
  6
CONTINUOUS
 10
294.969208
 20
88.127007
 11
294.969208
 21
86.658257
  0
LINE
  8
0
  6
CONTINUOUS
 10
296.937958
 20
86.658257
 11
296.937958
 21
82.986092
  0
LINE
  8
0
  6
CONTINUOUS
 10
300.649933
 20
81.845131
 11
302.632507
 21
77.377007
  0
LINE
  8
0
  6
CONTINUOUS
 10
299.498474
 20
81.736389
 11
301.374664
 21
77.377007
  0
LINE
  8
0
  6
CONTINUOUS
 10
294.969208
 20
77.377007
 11
295.562958
 21
77.377007
  0
LINE
  8
0
  6
CONTINUOUS
 10
296.937958
 20
77.377007
 11
297.484833
 21
77.377007
  0
LINE
  8
0
  6
CONTINUOUS
 10
297.484833
 20
76.127007
 11
294.969208
 21
76.127007
  0
LINE
  8
0
  6
CONTINUOUS
 10
301.125458
 20
77.377007
 11
301.374664
 21
77.377007
  0
LINE
  8
0
  6
CONTINUOUS
 10
302.632507
 20
77.377007
 11
302.969208
 21
77.377007
  0
LINE
  8
0
  6
CONTINUOUS
 10
301.125458
 20
76.127007
 11
302.969208
 21
76.127007
  0
LINE
  8
0
  6
CONTINUOUS
 10
302.969208
 20
77.377007
 11
302.969208
 21
76.127007
  0
LINE
  8
0
  6
CONTINUOUS
 10
301.125458
 20
77.377007
 11
301.125458
 21
76.127007
  0
LINE
  8
0
  6
CONTINUOUS
 10
297.484833
 20
77.377007
 11
297.484833
 21
76.127007
  0
LINE
  8
0
  6
CONTINUOUS
 10
294.969208
 20
77.377007
 11
294.969208
 21
76.127007
  0
LINE
  8
0
  6
CONTINUOUS
 10
284.286926
 20
86.658257
 11
283.857208
 21
85.627007
  0
LINE
  8
0
  6
CONTINUOUS
 10
289.772400
 20
86.658257
 11
290.134735
 21
85.627007
  0
LINE
  8
0
  6
CONTINUOUS
 10
287.687958
 20
86.658257
 11
289.772400
 21
86.658257
  0
LINE
  8
0
  6
CONTINUOUS
 10
286.187958
 20
86.658257
 11
284.286926
 21
86.658257
  0
LINE
  8
0
  6
CONTINUOUS
 10
296.937958
 20
81.736389
 11
299.498474
 21
81.736389
  0
LINE
  8
0
  6
CONTINUOUS
 10
294.969208
 20
86.658257
 11
295.562958
 21
86.658257
  0
LINE
  8
0
  6
CONTINUOUS
 10
296.937958
 20
86.658257
 11
300.671051
 21
86.655830
  0
LINE
  8
0
  6
CONTINUOUS
 10
277.812958
 20
85.816154
 11
277.812958
 21
85.627007
  0
LINE
  8
0
  6
CONTINUOUS
 10
296.969208
 20
136.127045
 11
296.969177
 21
144.127045
  0
LINE
  8
0
  6
CONTINUOUS
 10
303.969208
 20
136.127075
 11
303.969177
 21
144.127075
  0
LINE
  8
0
  6
CONTINUOUS
 10
303.969208
 20
136.127075
 11
296.969208
 21
136.127045
  0
LINE
  8
0
  6
CONTINUOUS
 10
303.969177
 20
144.127075
 11
296.969177
 21
144.127045
  0
ARC
  8
0
  6
CONTINUOUS
 10
286.969208
 20
140.127014
 40
14.000000
 50
16.601500
 51
343.398499
  0
LINE
  8
0
  6
CENTER
 10
540.544189
 20
12.737263
 11
540.544189
 21
216.046326
  0
LINE
  8
0
  6
CENTER
 10
415.882507
 20
140.127014
 11
603.693726
 21
140.127014
  0
LINE
  8
0
  6
CONTINUOUS
 10
477.544189
 20
20.127008
 11
513.044189
 21
20.127008
  0
LINE
  8
0
  6
CONTINUOUS
 10
505.044189
 20
168.127014
 11
575.794189
 21
168.127014
  0
LINE
  8
0
  6
CONTINUOUS
 10
574.596497
 20
194.032883
 11
540.544189
 21
194.627014
  0
LINE
  8
0
  6
CONTINUOUS
 10
506.491821
 20
194.032486
 11
540.544189
 21
194.627014
  0
LINE
  8
0
  6
CONTINUOUS
 10
577.544189
 20
191.033356
 11
577.544189
 21
20.126989
  0
LINE
  8
0
  6
CONTINUOUS
 10
503.544189
 20
191.032944
 11
503.544189
 21
20.127008
  0
LINE
  8
0
  6
CONTINUOUS
 10
487.544189
 20
110.414742
 11
487.544189
 21
169.839249
  0
LINE
  8
0
  6
CONTINUOUS
 10
593.544189
 20
169.839264
 11
593.544189
 21
110.414749
  0
LINE
  8
0
  6
CONTINUOUS
 10
494.544189
 20
69.927429
 11
494.544189
 21
142.627014
  0
LINE
  8
0
  6
CONTINUOUS
 10
586.544189
 20
69.927429
 11
586.544189
 21
142.627014
  0
LINE
  8
0
  6
CONTINUOUS
 10
603.544189
 20
31.822952
 11
603.544189
 21
20.127008
  0
LINE
  8
0
  6
CONTINUOUS
 10
477.544189
 20
31.822952
 11
477.544189
 21
20.127008
  0
LINE
  8
0
  6
CENTER
 10
490.544189
 20
43.127010
 11
490.544189
 21
8.773609
  0
LINE
  8
0
  6
CENTER
 10
590.544189
 20
43.627010
 11
590.544189
 21
8.773609
  0
LINE
  8
0
  6
DASHED
 10
485.044189
 20
35.127010
 11
485.044189
 21
20.127008
  0
LINE
  8
0
  6
DASHED
 10
496.044189
 20
35.127010
 11
496.044189
 21
20.127008
  0
LINE
  8
0
  6
DASHED
 10
585.044189
 20
35.127010
 11
585.044189
 21
20.127008
  0
LINE
  8
0
  6
DASHED
 10
596.044189
 20
35.127010
 11
596.044189
 21
20.127008
  0
ARC
  8
0
  6
CONTINUOUS
 10
506.544189
 20
191.032974
 40
3.000000
 50
91.000526
 51
180.000000
  0
ARC
  8
0
  6
CONTINUOUS
 10
574.544189
 20
191.033325
 40
3.000000
 50
0.000000
 51
89.000580
  0
LINE
  8
0
  6
CONTINUOUS
 10
568.044189
 20
20.127008
 11
603.544189
 21
20.127008
  0
LINE
  8
0
  6
CONTINUOUS
 10
514.044189
 20
21.127008
 11
567.044189
 21
21.127008
  0
LINE
  8
0
  6
CONTINUOUS
 10
491.190460
 20
174.652527
 11
499.897888
 21
177.101486
  0
LINE
  8
0
  6
CONTINUOUS
 10
491.190460
 20
105.601486
 11
492.356415
 21
105.273560
  0
LINE
  8
0
  6
CONTINUOUS
 10
498.205963
 20
65.109848
 11
499.882416
 21
64.644173
  0
LINE
  8
0
  6
CONTINUOUS
 10
582.882385
 20
65.109848
 11
581.205933
 21
64.644173
  0
LINE
  8
0
  6
CONTINUOUS
 10
589.897888
 20
105.601494
 11
588.731934
 21
105.273567
  0
LINE
  8
0
  6
CONTINUOUS
 10
589.897888
 20
174.652527
 11
581.190491
 21
177.101486
  0
ARC
  8
0
  6
CONTINUOUS
 10
492.544189
 20
169.839294
 40
5.000000
 50
105.709000
 51
180.000000
  0
ARC
  8
0
  6
CONTINUOUS
 10
492.544128
 20
110.414780
 40
5.000000
 50
180.000000
 51
254.291702
  0
ARC
  8
0
  6
CONTINUOUS
 10
499.544159
 20
69.927467
 40
5.000000
 50
180.000000
 51
254.476196
  0
ARC
  8
0
  6
CONTINUOUS
 10
581.544189
 20
69.927429
 40
5.000000
 50
-74.475708
 51
0.000000
  0
ARC
  8
0
  6
CONTINUOUS
 10
588.544189
 20
110.414742
 40
5.000000
 50
-74.291199
 51
0.000000
  0
ARC
  8
0
  6
CONTINUOUS
 10
588.544189
 20
169.839249
 40
5.000000
 50
0.000000
 51
74.291527
  0
ARC
  8
0
  6
CONTINUOUS
 10
589.544189
 20
102.385628
 40
3.000000
 50
105.709000
 51
180.000000
  0
ARC
  8
0
  6
CONTINUOUS
 10
491.544189
 20
102.385597
 40
3.000000
 50
0.000000
 51
74.291397
  0
ARC
  8
0
  6
CONTINUOUS
 10
498.544189
 20
181.914749
 40
5.000000
 50
-74.291199
 51
0.000000
  0
ARC
  8
0
  6
CONTINUOUS
 10
582.544128
 20
181.914764
 40
5.000000
 50
180.000000
 51
254.291702
  0
ARC
  8
0
  6
CONTINUOUS
 10
582.544189
 20
59.826611
 40
5.000000
 50
105.524399
 51
180.000000
  0
ARC
  8
0
  6
CONTINUOUS
 10
498.544189
 20
59.826569
 40
5.000000
 50
0.000000
 51
74.475952
  0
LINE
  8
0
  6
CONTINUOUS
 10
568.044189
 20
20.127008
 11
567.044189
 21
21.127008
  0
LINE
  8
0
  6
CONTINUOUS
 10
513.044189
 20
20.127008
 11
514.044189
 21
21.127008
  0
LINE
  8
0
  6
CENTER
 10
471.506195
 20
104.127007
 11
610.013428
 21
104.127007
  0
LINE
  8
0
  6
CONTINUOUS
 10
440.544189
 20
126.127007
 11
440.544189
 21
154.127014
  0
LINE
  8
0
  6
CONTINUOUS
 10
485.544189
 20
154.127014
 11
440.544189
 21
154.127014
  0
LINE
  8
0
  6
CONTINUOUS
 10
485.544189
 20
126.127007
 11
440.544189
 21
126.127007
  0
LINE
  8
0
  6
CONTINUOUS
 10
485.544189
 20
155.127014
 11
485.544189
 21
125.127007
  0
LINE
  8
0
  6
CONTINUOUS
 10
487.544189
 20
125.127007
 11
485.544189
 21
125.127007
  0
ARC
  8
0
  6
CONTINUOUS
 10
476.544189
 20
140.127014
 40
4.000000
 50
-90.000000
 51
90.000000
  0
LINE
  8
0
  6
CONTINUOUS
 10
476.544189
 20
144.127014
 11
440.544189
 21
144.127014
  0
LINE
  8
0
  6
CONTINUOUS
 10
476.544159
 20
136.127014
 11
440.544189
 21
136.127014
  0
LINE
  8
0
  6
CONTINUOUS
 10
487.544189
 20
155.127014
 11
485.544189
 21
155.127014
  0
LINE
  8
0
  6
CONTINUOUS
 10
162.969177
 20
186.127106
 11
162.969177
 21
134.564606
  0
LINE
  8
0
  6
CONTINUOUS
 10
154.469421
 20
189.127106
 11
154.469177
 21
74.127106
  0
LINE
  8
0
  6
CONTINUOUS
 10
185.340042
 20
68.758713
 11
154.469177
 21
74.127106
  0
LINE
  8
0
  6
CONTINUOUS
 10
193.917084
 20
40.403271
 11
204.469193
 21
40.127010
  0
LINE
  8
0
  6
CONTINUOUS
 10
167.838196
 20
169.086533
 11
204.469193
 21
168.127045
  0
ARC
  8
0
  6
CONTINUOUS
 10
167.969055
 20
174.084808
 40
5.000000
 50
180.000000
 51
268.499786
  0
LINE
  8
0
  6
CENTER
 10
-11.869687
 20
131.627106
 11
220.469299
 21
131.627106
  0
LINE
  8
0
  6
CENTER
 10
181.969299
 20
104.127106
 11
204.469193
 21
104.127106
  0
LINE
  8
0
  6
CONTINUOUS
 10
159.969177
 20
189.127106
 11
154.469421
 21
189.127106
  0
ARC
  8
0
  6
CONTINUOUS
 10
159.969193
 20
186.127090
 40
3.000000
 50
0.000000
 51
90.000000
  0
LINE
  8
0
  6
CONTINUOUS
 10
191.969421
 20
42.402588
 11
191.969421
 21
127.439606
  0
ARC
  8
0
  6
CONTINUOUS
 10
193.969391
 20
42.402611
 40
2.000000
 50
180.000000
 51
268.500610
  0
ARC
  8
0
  6
CONTINUOUS
 10
183.969437
 20
60.876968
 40
8.000000
 50
0.000000
 51
80.135094
  0
ARC
  8
0
  6
CONTINUOUS
 10
540.544189
 20
104.127007
 40
64.000000
 50
-54.681229
 51
34.093391
  0
ARC
  8
0
  6
CONTINUOUS
 10
540.544189
 20
131.627075
 40
57.500000
 50
0.607185
 51
22.818331
  0
ARC
  8
0
  6
CONTINUOUS
 10
540.544189
 20
104.127007
 40
64.000000
 50
159.894485
 51
234.681229
  0
LINE
  8
0
  6
CENTER
 10
616.113098
 20
131.627014
 11
415.000000
 21
131.627014
  0
LINE
  8
0
  6
CONTINUOUS
 10
481.544189
 20
35.127010
 11
499.544189
 21
35.127010
  0
LINE
  8
0
  6
CONTINUOUS
 10
480.788818
 20
35.750973
 11
500.299561
 21
39.503044
  0
ARC
  8
0
  6
CONTINUOUS
 10
499.544189
 20
43.431072
 40
4.000000
 50
-79.114464
 51
0.000000
  0
ARC
  8
0
  6
CONTINUOUS
 10
499.544189
 20
39.127010
 40
4.000000
 50
-90.000000
 51
0.000000
  0
ARC
  8
0
  6
CONTINUOUS
 10
481.544189
 20
31.822952
 40
4.000000
 50
100.885605
 51
180.000000
  0
ARC
  8
0
  6
CONTINUOUS
 10
481.544189
 20
31.127014
 40
4.000000
 50
90.000000
 51
180.000000
  0
LINE
  8
0
  6
CONTINUOUS
 10
599.544189
 20
35.127010
 11
581.544189
 21
35.127010
  0
LINE
  8
0
  6
CONTINUOUS
 10
600.299561
 20
35.750973
 11
580.788818
 21
39.503044
  0
ARC
  8
0
  6
CONTINUOUS
 10
581.544189
 20
43.431072
 40
4.000000
 50
180.000000
 51
259.114471
  0
ARC
  8
0
  6
CONTINUOUS
 10
581.544189
 20
39.127010
 40
4.000000
 50
180.000000
 51
270.000000
  0
ARC
  8
0
  6
CONTINUOUS
 10
599.544189
 20
31.822952
 40
4.000000
 50
0.000000
 51
79.114395
  0
ARC
  8
0
  6
CONTINUOUS
 10
599.544189
 20
31.127014
 40
4.000000
 50
0.000000
 51
90.000000
  0
ARC
  8
0
  6
CONTINUOUS
 10
222.914841
 20
173.127045
 40
5.000000
 50
270.000000
 51
304.540100
  0
LINE
  8
0
  6
CONTINUOUS
 10
165.061600
 20
153.592133
 11
196.328979
 21
153.592133
  0
LINE
  8
0
  6
CONTINUOUS
 10
165.061600
 20
145.137115
 11
196.328979
 21
145.137115
  0
LINE
  8
0
  6
CONTINUOUS
 10
198.469177
 20
146.637115
 11
198.469177
 21
152.537109
  0
LINE
  8
0
  6
CONTINUOUS
 10
226.732574
 20
419.982147
 11
345.875275
 21
419.982147
  0
ARC
  8
0
  6
CONTINUOUS
 10
345.875275
 20
416.982147
 40
3.000000
 50
1.000000
 51
90.000000
  0
LINE
  8
0
  6
CONTINUOUS
 10
331.963470
 20
425.335876
 11
332.853882
 21
422.169922
  0
ARC
  8
0
  6
CONTINUOUS
 10
335.741852
 20
422.982147
 40
3.000000
 50
195.708649
 51
270.000000
  0
ARC
  8
0
  6
CONTINUOUS
 10
218.546799
 20
437.208710
 40
3.000000
 50
1.500200
 51
77.801201
  0
LINE
  8
0
  6
CONTINUOUS
 10
221.545792
 20
437.287292
 11
221.901794
 21
423.692505
  0
ARC
  8
0
  6
CONTINUOUS
 10
219.814590
 20
443.073273
 40
3.000000
 50
-164.999893
 51
-102.198799
  0
LINE
  8
0
  6
CONTINUOUS
 10
237.984070
 20
319.982147
 11
272.969208
 21
319.982147
  0
LINE
  8
0
  6
CONTINUOUS
 10
349.469208
 20
382.982147
 11
348.823364
 21
419.982147
  0
LINE
  8
0
  6
CONTINUOUS
 10
340.659088
 20
442.674835
 11
348.823364
 21
419.982147
  0
ARC
  8
0
  6
CONTINUOUS
 10
335.954315
 20
440.982147
 40
5.000000
 50
19.787489
 51
90.000000
  0
LINE
  8
0
  6
CONTINUOUS
 10
349.469208
 20
382.982147
 11
348.823364
 21
345.982147
  0
LINE
  8
0
  6
CONTINUOUS
 10
340.659088
 20
323.289490
 11
348.823364
 21
345.982147
  0
ARC
  8
0
  6
CONTINUOUS
 10
335.954315
 20
324.982147
 40
5.000000
 50
-90.000000
 51
-19.787489
  0
LINE
  8
0
  6
CONTINUOUS
 10
226.732574
 20
419.982147
 11
345.875275
 21
419.982147
  0
LINE
  8
0
  6
CENTER
 10
286.969208
 20
263.744598
 11
286.969208
 21
463.114990
  0
ARC
  8
0
  6
CONTINUOUS
 10
345.875275
 20
416.982147
 40
3.000000
 50
1.000000
 51
90.000000
  0
ARC
  8
0
  6
CONTINUOUS
 10
345.875275
 20
348.982147
 40
3.000000
 50
-90.000000
 51
-1.000000
  0
LINE
  8
0
  6
CONTINUOUS
 10
226.805801
 20
345.982147
 11
345.875275
 21
345.982147
  0
LINE
  8
0
  6
CONTINUOUS
 10
316.681458
 20
435.982147
 11
257.256927
 21
435.982147
  0
LINE
  8
0
  6
CONTINUOUS
 10
321.494720
 20
432.335876
 11
322.437958
 21
428.982147
  0
ARC
  8
0
  6
CONTINUOUS
 10
316.681458
 20
430.982147
 40
5.000000
 50
15.708638
 51
90.000000
  0
LINE
  8
0
  6
CONTINUOUS
 10
322.437958
 20
428.982147
 11
327.150208
 21
428.982147
  0
ARC
  8
0
  6
CONTINUOUS
 10
327.150208
 20
423.982147
 40
5.000000
 50
15.708638
 51
90.000000
  0
LINE
  8
0
  6
CONTINUOUS
 10
252.443680
 20
432.335876
 11
251.500443
 21
428.982147
  0
ARC
  8
0
  6
CONTINUOUS
 10
257.256927
 20
430.982147
 40
5.000000
 50
90.000000
 51
164.291367
  0
LINE
  8
0
  6
CONTINUOUS
 10
251.500443
 20
428.982147
 11
246.788193
 21
428.982147
  0
LINE
  8
0
  6
CONTINUOUS
 10
241.974930
 20
425.335876
 11
241.084503
 21
422.169922
  0
ARC
  8
0
  6
CONTINUOUS
 10
246.788193
 20
423.982147
 40
5.000000
 50
90.000000
 51
164.291367
  0
ARC
  8
0
  6
CONTINUOUS
 10
238.196548
 20
422.982147
 40
3.000000
 50
-90.000000
 51
-15.708638
  0
LINE
  8
0
  6
CONTINUOUS
 10
316.681458
 20
329.982147
 11
257.256927
 21
329.982147
  0
LINE
  8
0
  6
CONTINUOUS
 10
321.494720
 20
333.628418
 11
322.437958
 21
336.982147
  0
ARC
  8
0
  6
CONTINUOUS
 10
316.681458
 20
334.982147
 40
5.000000
 50
-90.000000
 51
-15.708638
  0
LINE
  8
0
  6
CONTINUOUS
 10
322.437958
 20
336.982147
 11
327.150208
 21
336.982147
  0
LINE
  8
0
  6
CONTINUOUS
 10
331.963470
 20
340.628418
 11
332.853882
 21
343.794403
  0
ARC
  8
0
  6
CONTINUOUS
 10
327.150208
 20
341.982147
 40
5.000000
 50
-90.000000
 51
-15.708638
  0
ARC
  8
0
  6
CONTINUOUS
 10
335.741852
 20
342.982147
 40
3.000000
 50
-270.000000
 51
-195.708633
  0
LINE
  8
0
  6
CONTINUOUS
 10
252.443680
 20
333.628418
 11
251.500443
 21
336.982147
  0
ARC
  8
0
  6
CONTINUOUS
 10
257.256927
 20
334.982147
 40
5.000000
 50
-164.291367
 51
-90.000000
  0
LINE
  8
0
  6
CONTINUOUS
 10
251.500443
 20
336.982147
 11
246.788193
 21
336.982147
  0
LINE
  8
0
  6
CONTINUOUS
 10
241.974930
 20
340.628418
 11
241.084503
 21
343.794403
  0
ARC
  8
0
  6
CONTINUOUS
 10
246.788193
 20
341.982147
 40
5.000000
 50
-164.291367
 51
-90.000000
  0
ARC
  8
0
  6
CONTINUOUS
 10
238.196548
 20
342.982147
 40
3.000000
 50
15.708638
 51
90.000000
  0
LINE
  8
0
  6
CONTINUOUS
 10
233.279297
 20
442.674835
 11
225.201447
 21
420.222351
  0
ARC
  8
0
  6
CONTINUOUS
 10
237.984070
 20
440.982147
 40
5.000000
 50
90.000000
 51
160.212509
  0
LINE
  8
0
  6
CONTINUOUS
 10
233.279297
 20
323.289490
 11
225.217300
 21
345.697906
  0
ARC
  8
0
  6
CONTINUOUS
 10
237.984070
 20
324.982147
 40
5.000000
 50
199.787491
 51
270.000000
  0
LINE
  8
0
  6
CONTINUOUS
 10
237.984070
 20
445.982147
 11
286.969208
 21
445.982147
  0
LINE
  8
0
  6
CENTER
 10
326.969208
 20
444.095428
 11
326.969208
 21
424.654022
  0
LINE
  8
0
  6
CENTER
 10
317.058319
 20
432.982147
 11
335.576874
 21
432.982147
  0
ARC
  8
0
  6
CONTINUOUS
 10
326.969208
 20
432.982147
 40
5.500000
 50
-59.465683
 51
187.598495
  0
ARC
  8
0
  6
CONTINUOUS
 10
246.969193
 20
432.982147
 40
5.500000
 50
-7.598608
 51
239.465683
  0
LINE
  8
0
  6
CENTER
 10
246.969193
 20
444.095428
 11
246.969193
 21
424.654022
  0
LINE
  8
0
  6
CENTER
 10
256.880096
 20
432.982147
 11
238.361526
 21
432.982147
  0
ARC
  8
0
  6
CONTINUOUS
 10
246.969193
 20
332.982147
 40
5.500000
 50
-239.465683
 51
7.598608
  0
LINE
  8
0
  6
CENTER
 10
256.880096
 20
332.982147
 11
238.361526
 21
332.982147
  0
LINE
  8
0
  6
CENTER
 10
246.969193
 20
321.868866
 11
246.969193
 21
341.310272
  0
LINE
  8
0
  6
CENTER
 10
326.969208
 20
321.868866
 11
326.969208
 21
341.310272
  0
LINE
  8
0
  6
CENTER
 10
317.058319
 20
332.982147
 11
335.576874
 21
332.982147
  0
ARC
  8
0
  6
CONTINUOUS
 10
326.969208
 20
332.982147
 40
5.500000
 50
-187.598602
 51
59.465683
  0
LINE
  8
0
  6
CONTINUOUS
 10
310.969208
 20
348.982147
 11
310.969208
 21
416.982147
  0
LINE
  8
0
  6
CONTINUOUS
 10
262.969208
 20
348.982147
 11
262.969208
 21
416.982147
  0
LINE
  8
0
  6
CONTINUOUS
 10
222.049484
 20
342.276245
 11
216.800873
 21
322.688080
  0
LINE
  8
0
  6
CONTINUOUS
 10
221.545792
 20
328.130127
 11
221.901794
 21
341.724915
  0
ARC
  8
0
  6
CONTINUOUS
 10
218.546799
 20
328.208710
 40
3.000000
 50
282.198792
 51
358.499786
  0
ARC
  8
0
  6
CONTINUOUS
 10
219.814590
 20
322.344116
 40
3.000000
 50
102.198799
 51
165.000031
  0
ARC
  8
0
  6
CONTINUOUS
 10
218.546799
 20
437.208710
 40
3.000000
 50
1.500200
 51
77.801201
  0
LINE
  8
0
  6
CONTINUOUS
 10
221.545792
 20
437.287292
 11
221.901794
 21
423.692505
  0
ARC
  8
0
  6
CONTINUOUS
 10
219.814590
 20
443.073273
 40
3.000000
 50
-164.999893
 51
-102.198799
  0
LINE
  8
0
  6
CONTINUOUS
 10
211.897995
 20
446.982147
 11
204.469193
 21
446.982147
  0
LINE
  8
0
  6
CONTINUOUS
 10
216.654358
 20
443.276245
 11
221.976196
 21
423.414673
  0
ARC
  8
0
  6
CONTINUOUS
 10
226.879120
 20
340.982147
 40
5.000000
 50
90.000000
 51
165.000031
  0
ARC
  8
0
  6
CONTINUOUS
 10
226.732574
 20
424.982147
 40
5.000000
 50
194.999847
 51
270.000000
  0
LINE
  8
0
  6
CONTINUOUS
 10
286.969208
 20
445.982147
 11
335.954315
 21
445.982147
  0
LINE
  8
0
  6
CONTINUOUS
 10
303.969208
 20
282.982147
 11
272.969208
 21
282.982147
  0
LINE
  8
0
  6
CONTINUOUS
 10
272.969208
 20
327.982147
 11
272.969208
 21
282.982147
  0
LINE
  8
0
  6
CONTINUOUS
 10
300.969208
 20
327.982147
 11
300.969208
 21
322.982147
  0
LINE
  8
0
  6
CONTINUOUS
 10
271.969208
 20
327.982147
 11
301.969208
 21
327.982147
  0
LINE
  8
0
  6
CONTINUOUS
 10
301.969208
 20
329.982147
 11
301.969208
 21
327.982147
  0
LINE
  8
0
  6
CONTINUOUS
 10
271.969208
 20
329.982147
 11
271.969208
 21
327.982147
  0
LINE
  8
0
  6
CONTINUOUS
 10
300.385620
 20
322.982147
 11
303.969208
 21
322.982147
  0
LINE
  8
0
  6
CONTINUOUS
 10
300.385620
 20
322.982147
 11
300.385620
 21
282.982147
  0
LINE
  8
0
  6
CONTINUOUS
 10
303.969208
 20
282.982147
 11
303.969208
 21
322.982147
  0
LINE
  8
0
  6
CONTINUOUS
 10
303.969208
 20
319.982147
 11
335.954315
 21
319.982147
  0
LINE
  8
0
  6
CONTINUOUS
 10
204.469193
 20
318.982147
 11
204.469193
 21
446.982147
  0
LINE
  8
0
  6
CENTER
 10
-16.866016
 20
382.982147
 11
364.873077
 21
382.982147
  0
LINE
  8
0
  6
CONTINUOUS
 10
204.469193
 20
318.982147
 11
211.971237
 21
318.982147
  0
ARC
  8
0
  6
CONTINUOUS
 10
211.971237
 20
323.982147
 40
5.000000
 50
270.000000
 51
345.000031
  0
ARC
  8
0
  6
CONTINUOUS
 10
211.824722
 20
441.982147
 40
5.000000
 50
14.999846
 51
90.000000
  0
LINE
  8
0
  6
CONTINUOUS
 10
224.469193
 20
382.982147
 11
225.063583
 21
417.034515
  0
LINE
  8
0
  6
CONTINUOUS
 10
224.469193
 20
382.982147
 11
225.063583
 21
348.929810
  0
ARC
  8
0
  6
CONTINUOUS
 10
228.063126
 20
416.982147
 40
3.000000
 50
90.000000
 51
179.000000
  0
ARC
  8
0
  6
CONTINUOUS
 10
228.063126
 20
348.982147
 40
3.000000
 50
181.000000
 51
270.000000
  0
LINE
  8
0
  6
CONTINUOUS
 10
204.469193
 20
446.982117
 11
204.469193
 21
318.982208
  0
LINE
  8
0
  6
CONTINUOUS
 10
162.969131
 20
328.627167
 11
162.969193
 21
437.350189
  0
LINE
  8
0
  6
CONTINUOUS
 10
193.917374
 20
319.258453
 11
204.469193
 21
318.982147
  0
LINE
  8
0
  6
CONTINUOUS
 10
160.047440
 20
325.628204
 11
154.469193
 21
325.482147
  0
ARC
  8
0
  6
CONTINUOUS
 10
159.968948
 20
328.627167
 40
3.000000
 50
-88.499977
 51
0.000000
  0
LINE
  8
0
  6
CONTINUOUS
 10
193.917145
 20
446.705872
 11
204.469193
 21
446.982147
  0
ARC
  8
0
  6
CONTINUOUS
 10
193.969681
 20
321.257324
 40
2.000000
 50
180.000000
 51
268.500092
  0
LINE
  8
0
  6
CONTINUOUS
 10
191.969437
 20
444.399506
 11
191.969437
 21
444.706970
  0
ARC
  8
0
  6
CONTINUOUS
 10
193.969482
 20
444.706970
 40
2.000000
 50
91.499924
 51
180.000000
  0
LINE
  8
0
  6
CONTINUOUS
 10
191.969437
 20
441.464142
 11
191.969437
 21
444.706970
  0
LINE
  8
0
  6
CONTINUOUS
 10
204.469193
 20
446.982147
 11
204.469193
 21
318.982147
  0
ARC
  8
0
  6
CONTINUOUS
 10
159.968948
 20
437.337128
 40
3.000000
 50
0.000000
 51
88.499977
  0
LINE
  8
0
  6
CONTINUOUS
 10
160.047440
 20
440.336090
 11
154.469193
 21
440.482147
  0
LINE
  8
0
  6
CONTINUOUS
 10
154.469193
 20
440.482147
 11
191.969437
 21
441.464142
  0
LINE
  8
0
  6
CONTINUOUS
 10
154.469193
 20
325.482147
 11
191.969437
 21
324.500183
  0
LINE
  8
0
  6
CONTINUOUS
 10
191.969437
 20
324.500183
 11
191.969437
 21
321.257355
  0
LINE
  8
0
  6
CONTINUOUS
 10
165.061615
 20
423.552155
 11
196.329010
 21
423.552155
  0
LINE
  8
0
  6
CONTINUOUS
 10
165.061615
 20
432.452148
 11
196.329010
 21
432.452148
  0
LINE
  8
0
  6
CONTINUOUS
 10
198.469193
 20
430.952148
 11
198.469193
 21
425.052155
  0
LINE
  8
0
  6
CONTINUOUS
 10
165.061615
 20
342.412170
 11
196.329010
 21
342.412170
  0
LINE
  8
0
  6
CONTINUOUS
 10
165.061615
 20
333.512146
 11
196.329010
 21
333.512146
  0
LINE
  8
0
  6
CONTINUOUS
 10
198.469193
 20
335.012146
 11
198.469193
 21
340.912170
  0
LINE
  8
0
  6
CONTINUOUS
 10
154.469193
 20
440.482208
 11
154.469315
 21
325.482147
  0
LINE
  8
0
  6
CONTINUOUS
 10
49.469357
 20
440.482147
 11
154.469315
 21
440.482147
  0
LINE
  8
0
  6
CONTINUOUS
 10
49.469357
 20
325.482147
 11
57.469357
 21
325.482147
  0
LINE
  8
0
  6
CONTINUOUS
 10
49.469357
 20
440.982147
 11
49.469357
 21
324.982147
  0
LINE
  8
0
  6
CONTINUOUS
 10
57.469357
 20
440.482147
 11
57.469357
 21
408.982056
  0
LINE
  8
0
  6
CONTINUOUS
 10
57.469357
 20
408.982056
 11
146.469376
 21
408.982056
  0
LINE
  8
0
  6
CONTINUOUS
 10
57.469357
 20
416.752686
 11
146.469376
 21
416.752686
  0
LINE
  8
0
  6
CONTINUOUS
 10
58.469357
 20
420.032135
 11
145.469376
 21
420.032135
  0
LINE
  8
0
  6
CONTINUOUS
 10
57.469357
 20
424.847168
 11
146.469376
 21
424.847168
  0
LINE
  8
0
  6
CONTINUOUS
 10
58.469357
 20
426.835052
 11
145.469376
 21
426.835052
  0
LINE
  8
0
  6
CONTINUOUS
 10
57.469357
 20
430.877747
 11
146.469376
 21
430.877747
  0
LINE
  8
0
  6
CONTINUOUS
 10
57.469357
 20
435.408691
 11
146.469376
 21
435.408691
  0
LINE
  8
0
  6
CONTINUOUS
 10
57.469357
 20
438.285767
 11
146.469376
 21
438.285767
  0
LINE
  8
0
  6
CONTINUOUS
 10
57.469357
 20
439.941132
 11
146.469376
 21
439.941132
  0
LINE
  8
0
  6
CONTINUOUS
 10
146.469376
 20
440.482147
 11
146.469376
 21
408.982056
  0
LINE
  8
0
  6
CONTINUOUS
 10
57.469357
 20
325.482147
 11
57.469357
 21
356.982269
  0
LINE
  8
0
  6
CONTINUOUS
 10
57.469357
 20
356.982269
 11
146.469376
 21
356.982269
  0
LINE
  8
0
  6
CONTINUOUS
 10
57.469357
 20
349.211670
 11
146.469376
 21
349.211670
  0
LINE
  8
0
  6
CONTINUOUS
 10
58.469357
 20
345.932190
 11
145.469376
 21
345.932190
  0
LINE
  8
0
  6
CONTINUOUS
 10
57.469357
 20
341.117157
 11
146.469376
 21
341.117157
  0
LINE
  8
0
  6
CONTINUOUS
 10
58.469357
 20
339.129272
 11
145.469376
 21
339.129272
  0
LINE
  8
0
  6
CONTINUOUS
 10
57.469357
 20
335.086609
 11
146.469376
 21
335.086609
  0
LINE
  8
0
  6
CONTINUOUS
 10
124.469315
 20
330.555664
 11
146.469376
 21
330.555664
  0
LINE
  8
0
  6
CONTINUOUS
 10
124.469315
 20
327.678528
 11
146.469376
 21
327.678528
  0
LINE
  8
0
  6
CONTINUOUS
 10
124.969315
 20
326.023193
 11
146.469376
 21
326.023193
  0
LINE
  8
0
  6
CONTINUOUS
 10
146.469376
 20
325.482147
 11
146.469376
 21
356.982269
  0
LINE
  8
0
  6
CONTINUOUS
 10
58.469357
 20
326.982147
 11
123.469376
 21
326.982147
  0
LINE
  8
0
  6
CONTINUOUS
 10
124.969315
 20
325.482147
 11
154.469315
 21
325.482147
  0
LINE
  8
0
  6
CONTINUOUS
 10
124.469315
 20
325.982208
 11
124.469315
 21
332.180786
  0
ARC
  8
0
  6
CONTINUOUS
 10
124.969315
 20
325.982208
 40
0.500000
 50
-180.000000
 51
-90.000000
  0
ARC
  8
0
  6
CONTINUOUS
 10
124.969315
 20
326.523224
 40
0.500000
 50
-180.000000
 51
-90.000000
  0
LINE
  8
0
  6
CONTINUOUS
 10
57.469357
 20
332.180786
 11
124.469315
 21
332.180786
  0
ARC
  8
0
  6
CONTINUOUS
 10
123.469376
 20
327.982147
 40
1.000000
 50
-90.000000
 51
0.000000
  0
ARC
  8
0
  6
CONTINUOUS
 10
58.469357
 20
327.982147
 40
1.000000
 50
-180.000000
 51
-90.000000
  0
LINE
  8
0
  6
CONTINUOUS
 10
51.531700
 20
312.560333
 11
50.469257
 21
272.482147
  0
LINE
  8
0
  6
CONTINUOUS
 10
119.406303
 20
312.560333
 11
120.469254
 21
272.482147
  0
LINE
  8
0
  6
CONTINUOUS
 10
109.495056
 20
325.482147
 11
61.443356
 21
325.482147
  0
LINE
  8
0
  6
CONTINUOUS
 10
116.420555
 20
315.482147
 11
98.780525
 21
315.482147
  0
ARC
  8
0
  6
CONTINUOUS
 10
54.517357
 20
312.482147
 40
3.000000
 50
90.000000
 51
178.500275
  0
ARC
  8
0
  6
CONTINUOUS
 10
116.420555
 20
312.482147
 40
3.000000
 50
1.499900
 51
90.000000
  0
LINE
  8
0
  6
CONTINUOUS
 10
60.443695
 20
324.508331
 11
60.258350
 21
317.429810
  0
LINE
  8
0
  6
CONTINUOUS
 10
110.494713
 20
324.508331
 11
110.680061
 21
317.429810
  0
ARC
  8
0
  6
CONTINUOUS
 10
109.495056
 20
324.482147
 40
1.000000
 50
1.499300
 51
90.000000
  0
ARC
  8
0
  6
CONTINUOUS
 10
61.443356
 20
324.482147
 40
1.000000
 50
90.000000
 51
178.499405
  0
LINE
  8
0
  6
CONTINUOUS
 10
54.517456
 20
315.482147
 11
72.157982
 21
315.482147
  0
ARC
  8
0
  6
CONTINUOUS
 10
85.469254
 20
382.982147
 40
68.800003
 50
-101.155815
 51
-78.844185
  0
LINE
  8
0
  6
CENTER
 10
85.469254
 20
329.308258
 11
85.469254
 21
257.431885
  0
LINE
  8
0
  6
CONTINUOUS
 10
52.969257
 20
266.482147
 11
117.969254
 21
266.482147
  0
LINE
  8
0
  6
CONTINUOUS
 10
120.469254
 20
268.982147
 11
120.469254
 21
271.482147
  0
LINE
  8
0
  6
CONTINUOUS
 10
50.469257
 20
268.982147
 11
50.469257
 21
271.482147
  0
LINE
  8
0
  6
CONTINUOUS
 10
120.469254
 20
271.482147
 11
50.469257
 21
271.482147
  0
LINE
  8
0
  6
CONTINUOUS
 10
120.469254
 20
272.482147
 11
50.469257
 21
272.482147
  0
LINE
  8
0
  6
CONTINUOUS
 10
120.469254
 20
271.482147
 11
120.469254
 21
272.482147
  0
LINE
  8
0
  6
CONTINUOUS
 10
50.469257
 20
271.482147
 11
50.469257
 21
272.482147
  0
LINE
  8
0
  6
CENTER
 10
55.469257
 20
288.482147
 11
18.549807
 21
288.482147
  0
LINE
  8
0
  6
CONTINUOUS
 10
111.956352
 20
269.482147
 11
119.469254
 21
269.482147
  0
LINE
  8
0
  6
CONTINUOUS
 10
58.982197
 20
269.482147
 11
51.469257
 21
269.482147
  0
LINE
  8
0
  6
CONTINUOUS
 10
111.456558
 20
268.995270
 11
111.416260
 21
267.455963
  0
ARC
  8
0
  6
CONTINUOUS
 10
111.956352
 20
268.982147
 40
0.500000
 50
90.000000
 51
178.500000
  0
ARC
  8
0
  6
CONTINUOUS
 10
110.416557
 20
267.482147
 40
1.000000
 50
-90.000000
 51
-1.499802
  0
ARC
  8
0
  6
CONTINUOUS
 10
119.469254
 20
270.482147
 40
1.000000
 50
-90.000000
 51
0.000000
  0
ARC
  8
0
  6
CONTINUOUS
 10
117.969254
 20
268.982147
 40
2.500000
 50
-90.000000
 51
0.000000
  0
LINE
  8
0
  6
CONTINUOUS
 10
59.482075
 20
268.995270
 11
59.522354
 21
267.455963
  0
ARC
  8
0
  6
CONTINUOUS
 10
60.521984
 20
267.482147
 40
1.000000
 50
-178.499603
 51
-90.000000
  0
ARC
  8
0
  6
CONTINUOUS
 10
58.982197
 20
268.982147
 40
0.500000
 50
1.500198
 51
90.000000
  0
ARC
  8
0
  6
CONTINUOUS
 10
51.469257
 20
270.482147
 40
1.000000
 50
-180.000000
 51
-90.000000
  0
ARC
  8
0
  6
CONTINUOUS
 10
52.969257
 20
268.982147
 40
2.500000
 50
-180.000000
 51
-90.000000
  0
ARC
  8
0
  6
CONTINUOUS
 10
115.469254
 20
269.482147
 40
3.000000
 50
-180.000000
 51
0.000000
  0
LINE
  8
0
  6
CONTINUOUS
 10
118.427254
 20
268.982147
 11
112.511253
 21
268.982147
  0
LINE
  8
0
  6
CONTINUOUS
 10
115.469254
 20
266.982147
 11
115.188156
 21
266.495361
  0
LINE
  8
0
  6
CONTINUOUS
 10
115.469254
 20
266.982147
 11
115.750359
 21
266.495361
  0
ARC
  8
0
  6
CONTINUOUS
 10
55.469257
 20
269.482147
 40
3.000000
 50
-180.000000
 51
0.000000
  0
LINE
  8
0
  6
CONTINUOUS
 10
58.427265
 20
268.982147
 11
52.511246
 21
268.982147
  0
LINE
  8
0
  6
CONTINUOUS
 10
55.469257
 20
266.982147
 11
55.188187
 21
266.495361
  0
LINE
  8
0
  6
CONTINUOUS
 10
55.469257
 20
266.982147
 11
55.750385
 21
266.495361
  0
LINE
  8
0
  6
CONTINUOUS
 10
108.469254
 20
325.482147
 11
108.469254
 21
326.982147
  0
LINE
  8
0
  6
CONTINUOUS
 10
62.469257
 20
325.482147
 11
62.469257
 21
326.982147
  0
LINE
  8
0
  6
CONTINUOUS
 10
22.469307
 20
302.982300
 11
22.469307
 21
273.982208
  0
LINE
  8
0
  6
CONTINUOUS
 10
30.469307
 20
302.982300
 11
30.469307
 21
273.982208
  0
LINE
  8
0
  6
CONTINUOUS
 10
22.469307
 20
302.982300
 11
30.469307
 21
302.982300
  0
LINE
  8
0
  6
CONTINUOUS
 10
22.469307
 20
273.982208
 11
30.469307
 21
273.982208
  0
LINE
  8
0
  6
CONTINUOUS
 10
39.469307
 20
301.482300
 11
39.469307
 21
275.482208
  0
LINE
  8
0
  6
CONTINUOUS
 10
30.469307
 20
301.482300
 11
39.469307
 21
301.482300
  0
LINE
  8
0
  6
CONTINUOUS
 10
30.469307
 20
275.482208
 11
39.469307
 21
275.482208
  0
LINE
  8
0
  6
CONTINUOUS
 10
39.469307
 20
299.982300
 11
44.469307
 21
299.982300
  0
LINE
  8
0
  6
CONTINUOUS
 10
39.469307
 20
276.982208
 11
44.469307
 21
276.982208
  0
LINE
  8
0
  6
CONTINUOUS
 10
44.469307
 20
301.982300
 11
44.469307
 21
274.982208
  0
LINE
  8
0
  6
CONTINUOUS
 10
48.969307
 20
302.982300
 11
48.969307
 21
273.982208
  0
LINE
  8
0
  6
CONTINUOUS
 10
44.469307
 20
301.982300
 11
48.969307
 21
301.982300
  0
LINE
  8
0
  6
CONTINUOUS
 10
44.469307
 20
274.982208
 11
48.969307
 21
274.982208
  0
LINE
  8
0
  6
CONTINUOUS
 10
48.969307
 20
302.982300
 11
51.277798
 21
302.982300
  0
LINE
  8
0
  6
CONTINUOUS
 10
48.969307
 20
273.982208
 11
50.509022
 21
273.982208
  0
LINE
  8
0
  6
CONTINUOUS
 10
22.469307
 20
296.482300
 11
30.469307
 21
296.482300
  0
LINE
  8
0
  6
CONTINUOUS
 10
22.469307
 20
280.482208
 11
30.469307
 21
280.482208
  0
ARC
  8
0
  6
CONTINUOUS
 10
58.259033
 20
317.482147
 40
2.000000
 50
-90.000000
 51
-1.499917
  0
ARC
  8
0
  6
CONTINUOUS
 10
112.679382
 20
317.482147
 40
2.000000
 50
-178.500046
 51
-90.000000
  0
LINE
  8
0
  6
CONTINUOUS
 10
154.469299
 20
189.127213
 11
154.469299
 21
74.127220
  0
LINE
  8
0
  6
CONTINUOUS
 10
154.469299
 20
189.127213
 11
154.469299
 21
74.127220
  0
LINE
  8
0
  6
CONTINUOUS
 10
154.469299
 20
189.127106
 11
154.469299
 21
74.127098
  0
LINE
  8
0
  6
CONTINUOUS
 10
49.469296
 20
189.627060
 11
49.469296
 21
146.127167
  0
LINE
  8
0
  6
CONTINUOUS
 10
49.469296
 20
189.127213
 11
154.469299
 21
189.127213
  0
LINE
  8
0
  6
CONTINUOUS
 10
54.469292
 20
74.127220
 11
70.969345
 21
74.127220
  0
LINE
  8
0
  6
CONTINUOUS
 10
57.469296
 20
182.913223
 11
57.469296
 21
178.627213
  0
LINE
  8
0
  6
CONTINUOUS
 10
146.469299
 20
182.913223
 11
146.469299
 21
178.627213
  0
LINE
  8
0
  6
CONTINUOUS
 10
122.469299
 20
158.627213
 11
120.469345
 21
158.627213
  0
LINE
  8
0
  6
CONTINUOUS
 10
122.469299
 20
104.627220
 11
120.469345
 21
104.627220
  0
LINE
  8
0
  6
CONTINUOUS
 10
124.469299
 20
106.627220
 11
124.469299
 21
156.627213
  0
LINE
  8
0
  6
CONTINUOUS
 10
124.469299
 20
138.427216
 11
146.469299
 21
138.427216
  0
LINE
  8
0
  6
CONTINUOUS
 10
124.469299
 20
124.827217
 11
146.469299
 21
124.827217
  0
LINE
  8
0
  6
CONTINUOUS
 10
124.469299
 20
140.427216
 11
146.469299
 21
140.427216
  0
LINE
  8
0
  6
CONTINUOUS
 10
124.469299
 20
122.827217
 11
146.469299
 21
122.827217
  0
LINE
  8
0
  6
CONTINUOUS
 10
124.469299
 20
146.227219
 11
146.469299
 21
146.227219
  0
LINE
  8
0
  6
CONTINUOUS
 10
124.469299
 20
148.227219
 11
146.469299
 21
148.227219
  0
LINE
  8
0
  6
CONTINUOUS
 10
124.469299
 20
117.027222
 11
146.469299
 21
117.027222
  0
LINE
  8
0
  6
CONTINUOUS
 10
124.469299
 20
115.027222
 11
146.469299
 21
115.027222
  0
LINE
  8
0
  6
CONTINUOUS
 10
124.469299
 20
154.027222
 11
146.469299
 21
154.027222
  0
LINE
  8
0
  6
CONTINUOUS
 10
124.469299
 20
109.227219
 11
146.469299
 21
109.227219
  0
LINE
  8
0
  6
CONTINUOUS
 10
124.469299
 20
156.027222
 11
146.469299
 21
156.027222
  0
LINE
  8
0
  6
CONTINUOUS
 10
124.469299
 20
107.227219
 11
146.469299
 21
107.227219
  0
LINE
  8
0
  6
CONTINUOUS
 10
57.469296
 20
169.627213
 11
146.469299
 21
169.627213
  0
LINE
  8
0
  6
CONTINUOUS
 10
57.469296
 20
93.627220
 11
98.969444
 21
93.627220
  0
LINE
  8
0
  6
CONTINUOUS
 10
57.469296
 20
171.627213
 11
146.469299
 21
171.627213
  0
LINE
  8
0
  6
CONTINUOUS
 10
57.469296
 20
91.627220
 11
71.969345
 21
91.627220
  0
LINE
  8
0
  6
CONTINUOUS
 10
57.469296
 20
176.627213
 11
146.469299
 21
176.627213
  0
LINE
  8
0
  6
CONTINUOUS
 10
57.469296
 20
86.627220
 11
96.969444
 21
86.627220
  0
LINE
  8
0
  6
CONTINUOUS
 10
57.469296
 20
178.627213
 11
146.469299
 21
178.627213
  0
LINE
  8
0
  6
CONTINUOUS
 10
57.469296
 20
84.627220
 11
72.469345
 21
84.627220
  0
LINE
  8
0
  6
CONTINUOUS
 10
57.469296
 20
182.913223
 11
146.469299
 21
182.913223
  0
LINE
  8
0
  6
CONTINUOUS
 10
57.469296
 20
80.341217
 11
98.469444
 21
80.341217
  0
LINE
  8
0
  6
CONTINUOUS
 10
57.469296
 20
80.341217
 11
57.469296
 21
84.627220
  0
LINE
  8
0
  6
CONTINUOUS
 10
57.469296
 20
176.627213
 11
57.469296
 21
171.627213
  0
LINE
  8
0
  6
CONTINUOUS
 10
57.469296
 20
169.627213
 11
57.469296
 21
166.627213
  0
LINE
  8
0
  6
CONTINUOUS
 10
57.469296
 20
96.627220
 11
57.469296
 21
93.627220
  0
LINE
  8
0
  6
CONTINUOUS
 10
57.469296
 20
91.627220
 11
57.469296
 21
86.627220
  0
LINE
  8
0
  6
CONTINUOUS
 10
146.469299
 20
80.341217
 11
146.469299
 21
84.627220
  0
LINE
  8
0
  6
CONTINUOUS
 10
146.469299
 20
86.627220
 11
146.469299
 21
91.627220
  0
LINE
  8
0
  6
CONTINUOUS
 10
146.469299
 20
93.627220
 11
146.469299
 21
99.127220
  0
LINE
  8
0
  6
CONTINUOUS
 10
146.469299
 20
101.127220
 11
146.469299
 21
107.227219
  0
LINE
  8
0
  6
CONTINUOUS
 10
146.469299
 20
109.227219
 11
146.469299
 21
115.027206
  0
LINE
  8
0
  6
CONTINUOUS
 10
146.469299
 20
117.027214
 11
146.469299
 21
122.827225
  0
LINE
  8
0
  6
CONTINUOUS
 10
124.469299
 20
132.627213
 11
146.469299
 21
132.627213
  0
LINE
  8
0
  6
CONTINUOUS
 10
124.469299
 20
130.627213
 11
146.469299
 21
130.627213
  0
LINE
  8
0
  6
CONTINUOUS
 10
146.469299
 20
124.827225
 11
146.469299
 21
130.627228
  0
LINE
  8
0
  6
CONTINUOUS
 10
146.469299
 20
132.627213
 11
146.469299
 21
138.427231
  0
LINE
  8
0
  6
CONTINUOUS
 10
146.469299
 20
140.427216
 11
146.469299
 21
146.227219
  0
LINE
  8
0
  6
CONTINUOUS
 10
146.469299
 20
148.227219
 11
146.469299
 21
154.027222
  0
LINE
  8
0
  6
CONTINUOUS
 10
146.469299
 20
156.027222
 11
146.469299
 21
162.127213
  0
LINE
  8
0
  6
CONTINUOUS
 10
146.469299
 20
164.127213
 11
146.469299
 21
169.627213
  0
LINE
  8
0
  6
CONTINUOUS
 10
146.469299
 20
171.627213
 11
146.469299
 21
176.627213
  0
ARC
  8
0
  6
CONTINUOUS
 10
122.469299
 20
156.627213
 40
2.000000
 50
0.000000
 51
90.000000
  0
ARC
  8
0
  6
CONTINUOUS
 10
122.469299
 20
106.627220
 40
2.000000
 50
-90.000000
 51
0.000000
  0
LINE
  8
0
  6
CONTINUOUS
 10
146.469299
 20
101.127220
 11
120.469345
 21
101.127220
  0
LINE
  8
0
  6
CONTINUOUS
 10
146.469299
 20
99.127220
 11
120.469345
 21
99.127220
  0
LINE
  8
0
  6
CONTINUOUS
 10
146.469299
 20
93.627220
 11
98.969444
 21
93.627220
  0
LINE
  8
0
  6
CONTINUOUS
 10
146.469299
 20
91.627220
 11
71.969345
 21
91.627220
  0
LINE
  8
0
  6
CONTINUOUS
 10
146.469299
 20
86.627220
 11
96.969444
 21
86.627220
  0
LINE
  8
0
  6
CONTINUOUS
 10
146.469299
 20
84.627220
 11
72.469345
 21
84.627220
  0
LINE
  8
0
  6
CONTINUOUS
 10
146.469299
 20
80.341217
 11
98.469444
 21
80.341217
  0
LINE
  8
0
  6
CONTINUOUS
 10
154.469299
 20
74.127220
 11
70.969345
 21
74.127220
  0
LINE
  8
0
  6
CONTINUOUS
 10
52.969307
 20
166.627213
 11
117.969246
 21
166.627213
  0
LINE
  8
0
  6
CONTINUOUS
 10
117.969345
 20
96.627220
 11
52.969296
 21
96.627220
  0
LINE
  8
0
  6
CONTINUOUS
 10
50.469296
 20
123.900620
 11
50.469296
 21
164.127213
  0
LINE
  8
0
  6
CONTINUOUS
 10
120.469345
 20
123.900620
 11
120.469345
 21
164.127213
  0
ARC
  8
0
  6
CONTINUOUS
 10
117.969345
 20
164.127213
 40
2.500000
 50
0.000000
 51
90.000000
  0
ARC
  8
0
  6
CONTINUOUS
 10
52.969326
 20
164.127213
 40
2.500000
 50
90.000000
 51
180.000000
  0
ARC
  8
0
  6
CONTINUOUS
 10
52.969307
 20
99.127220
 40
2.500000
 50
180.000000
 51
270.000000
  0
ARC
  8
0
  6
CONTINUOUS
 10
117.969345
 20
99.127213
 40
2.500000
 50
-90.000000
 51
0.000000
  0
ARC
  8
0
  6
CONTINUOUS
 10
55.469307
 20
161.627213
 40
4.000000
 50
-90.000000
 51
0.000000
  0
ARC
  8
0
  6
CONTINUOUS
 10
115.469345
 20
161.627213
 40
4.000000
 50
180.000000
 51
270.000000
  0
ARC
  8
0
  6
CONTINUOUS
 10
115.469345
 20
101.627220
 40
4.000000
 50
90.000000
 51
180.000000
  0
ARC
  8
0
  6
CONTINUOUS
 10
55.469307
 20
101.627220
 40
4.000000
 50
0.000000
 51
90.000000
  0
LINE
  8
0
  6
CONTINUOUS
 10
115.469345
 20
157.627213
 11
117.969345
 21
157.627213
  0
LINE
  8
0
  6
CONTINUOUS
 10
55.469296
 20
157.627213
 11
52.969296
 21
157.627213
  0
LINE
  8
0
  6
CONTINUOUS
 10
55.469296
 20
105.627220
 11
52.969326
 21
105.627220
  0
LINE
  8
0
  6
CONTINUOUS
 10
115.469345
 20
105.627220
 11
117.969345
 21
105.627220
  0
LINE
  8
0
  6
CONTINUOUS
 10
111.469345
 20
161.627213
 11
111.469345
 21
164.127213
  0
LINE
  8
0
  6
CONTINUOUS
 10
59.469307
 20
161.627213
 11
59.469307
 21
164.127213
  0
LINE
  8
0
  6
CONTINUOUS
 10
59.469307
 20
101.627220
 11
59.469307
 21
99.127213
  0
LINE
  8
0
  6
CONTINUOUS
 10
111.469345
 20
101.627197
 11
111.469345
 21
99.127213
  0
ARC
  8
0
  6
CONTINUOUS
 10
52.969307
 20
155.127213
 40
2.500000
 50
90.000000
 51
180.000000
  0
ARC
  8
0
  6
CONTINUOUS
 10
61.969326
 20
164.127213
 40
2.500000
 50
90.000000
 51
180.000000
  0
ARC
  8
0
  6
CONTINUOUS
 10
108.969345
 20
164.127213
 40
2.500000
 50
0.000000
 51
90.000000
  0
ARC
  8
0
  6
CONTINUOUS
 10
117.969345
 20
155.127213
 40
2.500000
 50
0.000000
 51
90.000000
  0
ARC
  8
0
  6
CONTINUOUS
 10
52.969307
 20
108.127220
 40
2.500000
 50
180.000000
 51
270.000000
  0
ARC
  8
0
  6
CONTINUOUS
 10
61.969307
 20
99.127220
 40
2.500000
 50
180.000000
 51
270.000000
  0
ARC
  8
0
  6
CONTINUOUS
 10
117.969345
 20
108.127213
 40
2.500000
 50
-90.000000
 51
0.000000
  0
ARC
  8
0
  6
CONTINUOUS
 10
108.969345
 20
99.127213
 40
2.500000
 50
-90.000000
 51
0.000000
  0
LINE
  8
0
  6
CONTINUOUS
 10
120.469345
 20
99.127220
 11
120.469345
 21
123.900620
  0
LINE
  8
0
  6
CONTINUOUS
 10
50.469307
 20
99.127220
 11
50.469296
 21
123.900620
  0
LINE
  8
0
  6
CONTINUOUS
 10
22.469347
 20
117.127068
 11
22.469347
 21
146.127167
  0
LINE
  8
0
  6
CONTINUOUS
 10
30.469347
 20
117.127068
 11
30.469347
 21
146.127167
  0
LINE
  8
0
  6
CONTINUOUS
 10
22.469347
 20
117.127068
 11
30.469347
 21
117.127068
  0
LINE
  8
0
  6
CONTINUOUS
 10
22.469347
 20
146.127167
 11
30.469347
 21
146.127167
  0
LINE
  8
0
  6
CONTINUOUS
 10
39.469345
 20
118.627068
 11
39.469345
 21
144.627167
  0
LINE
  8
0
  6
CONTINUOUS
 10
30.469347
 20
118.627068
 11
39.469345
 21
118.627068
  0
LINE
  8
0
  6
CONTINUOUS
 10
30.469347
 20
144.627167
 11
39.469345
 21
144.627167
  0
LINE
  8
0
  6
CONTINUOUS
 10
39.469345
 20
120.127068
 11
44.469345
 21
120.127068
  0
LINE
  8
0
  6
CONTINUOUS
 10
39.469345
 20
143.127167
 11
44.469345
 21
143.127167
  0
LINE
  8
0
  6
CONTINUOUS
 10
44.469345
 20
118.127068
 11
44.469345
 21
145.127167
  0
LINE
  8
0
  6
CONTINUOUS
 10
48.969345
 20
117.127068
 11
48.969345
 21
146.127167
  0
LINE
  8
0
  6
CONTINUOUS
 10
44.469345
 20
118.127068
 11
48.969345
 21
118.127068
  0
LINE
  8
0
  6
CONTINUOUS
 10
44.469345
 20
145.127167
 11
48.969345
 21
145.127167
  0
LINE
  8
0
  6
CONTINUOUS
 10
48.969345
 20
117.127068
 11
50.508648
 21
117.127068
  0
LINE
  8
0
  6
CONTINUOUS
 10
48.969345
 20
146.127167
 11
50.469296
 21
146.127167
  0
LINE
  8
0
  6
CONTINUOUS
 10
22.469347
 20
123.627068
 11
30.469347
 21
123.627068
  0
LINE
  8
0
  6
CONTINUOUS
 10
22.469347
 20
139.627167
 11
30.469347
 21
139.627167
  0
LINE
  8
0
  6
CENTER
 10
85.469299
 20
87.252220
 11
85.469299
 21
178.104614
  0
LINE
  8
0
  6
CONTINUOUS
 10
120.469345
 20
162.127213
 11
146.469299
 21
162.127213
  0
LINE
  8
0
  6
CONTINUOUS
 10
120.469345
 20
164.127213
 11
146.469299
 21
164.127213
  0
LINE
  8
0
  6
CONTINUOUS
 10
49.469296
 20
117.127068
 11
49.469296
 21
82.001701
  0
LINE
  8
0
  6
CONTINUOUS
 10
470.122345
 20
97.689453
 11
430.044189
 21
96.627007
  0
LINE
  8
0
  6
CONTINUOUS
 10
470.122345
 20
165.564056
 11
430.044189
 21
166.627014
  0
LINE
  8
0
  6
CONTINUOUS
 10
483.044189
 20
155.652802
 11
483.044189
 21
154.127014
  0
LINE
  8
0
  6
CONTINUOUS
 10
473.044189
 20
162.578308
 11
473.044189
 21
154.127014
  0
ARC
  8
0
  6
CONTINUOUS
 10
470.044189
 20
100.675110
 40
3.000000
 50
-88.500267
 51
0.000000
  0
ARC
  8
0
  6
CONTINUOUS
 10
470.044189
 20
162.578308
 40
3.000000
 50
0.000000
 51
88.500099
  0
LINE
  8
0
  6
CONTINUOUS
 10
476.586639
 20
106.457863
 11
474.991821
 21
106.416100
  0
LINE
  8
0
  6
CONTINUOUS
 10
477.898376
 20
156.761703
 11
474.991821
 21
156.837814
  0
ARC
  8
0
  6
CONTINUOUS
 10
482.044189
 20
155.652802
 40
1.000000
 50
0.000000
 51
88.500702
  0
LINE
  8
0
  6
CONTINUOUS
 10
473.044189
 20
100.675209
 11
473.044189
 21
118.315735
  0
LINE
  8
0
  6
CONTINUOUS
 10
482.070374
 20
156.652512
 11
477.898376
 21
156.761703
  0
LINE
  8
0
  6
CONTINUOUS
 10
424.044189
 20
99.127007
 11
424.044189
 21
164.127014
  0
LINE
  8
0
  6
CONTINUOUS
 10
426.544189
 20
166.627014
 11
429.044189
 21
166.627014
  0
LINE
  8
0
  6
CONTINUOUS
 10
426.544189
 20
96.627007
 11
429.044189
 21
96.627007
  0
LINE
  8
0
  6
CONTINUOUS
 10
429.044189
 20
166.627014
 11
429.044189
 21
96.627007
  0
LINE
  8
0
  6
CONTINUOUS
 10
430.044189
 20
166.627014
 11
430.044189
 21
96.627007
  0
LINE
  8
0
  6
CONTINUOUS
 10
429.044189
 20
166.627014
 11
430.044189
 21
166.627014
  0
LINE
  8
0
  6
CONTINUOUS
 10
429.044189
 20
96.627007
 11
430.044189
 21
96.627007
  0
LINE
  8
0
  6
CENTER
 10
446.044189
 20
174.084015
 11
446.044189
 21
83.746246
  0
LINE
  8
0
  6
CONTINUOUS
 10
427.044189
 20
158.114105
 11
427.044189
 21
165.627014
  0
LINE
  8
0
  6
CONTINUOUS
 10
427.044189
 20
105.139946
 11
427.044189
 21
97.627007
  0
LINE
  8
0
  6
CONTINUOUS
 10
426.557281
 20
157.614304
 11
425.017975
 21
157.574005
  0
ARC
  8
0
  6
CONTINUOUS
 10
426.544189
 20
158.114105
 40
0.500000
 50
-88.500000
 51
0.000000
  0
ARC
  8
0
  6
CONTINUOUS
 10
425.044189
 20
156.574310
 40
1.000000
 50
91.499802
 51
180.000000
  0
ARC
  8
0
  6
CONTINUOUS
 10
428.044189
 20
165.627014
 40
1.000000
 50
90.000000
 51
180.000000
  0
ARC
  8
0
  6
CONTINUOUS
 10
426.544189
 20
164.127014
 40
2.500000
 50
90.000000
 51
180.000000
  0
LINE
  8
0
  6
CONTINUOUS
 10
426.557281
 20
105.639832
 11
425.017975
 21
105.680107
  0
ARC
  8
0
  6
CONTINUOUS
 10
425.044189
 20
106.679741
 40
1.000000
 50
180.000000
 51
268.499603
  0
ARC
  8
0
  6
CONTINUOUS
 10
426.544189
 20
105.139946
 40
0.500000
 50
0.000000
 51
88.499802
  0
ARC
  8
0
  6
CONTINUOUS
 10
428.044189
 20
97.627007
 40
1.000000
 50
180.000000
 51
270.000000
  0
ARC
  8
0
  6
CONTINUOUS
 10
426.544189
 20
99.127007
 40
2.500000
 50
180.000000
 51
270.000000
  0
ARC
  8
0
  6
CONTINUOUS
 10
427.044189
 20
161.627014
 40
3.000000
 50
90.000000
 51
270.000000
  0
LINE
  8
0
  6
CONTINUOUS
 10
426.544189
 20
164.585007
 11
426.544189
 21
158.669006
  0
LINE
  8
0
  6
CONTINUOUS
 10
424.544189
 20
161.627014
 11
424.057373
 21
161.345901
  0
LINE
  8
0
  6
CONTINUOUS
 10
424.544189
 20
161.627014
 11
424.057373
 21
161.908112
  0
ARC
  8
0
  6
CONTINUOUS
 10
427.044189
 20
101.627007
 40
3.000000
 50
90.000000
 51
270.000000
  0
LINE
  8
0
  6
CONTINUOUS
 10
426.544189
 20
104.585022
 11
426.544189
 21
98.668999
  0
LINE
  8
0
  6
CONTINUOUS
 10
424.544189
 20
101.627007
 11
424.057373
 21
101.345940
  0
LINE
  8
0
  6
CONTINUOUS
 10
424.544189
 20
101.627007
 11
424.057373
 21
101.908134
  0
LINE
  8
0
  6
CONTINUOUS
 10
483.044189
 20
154.627014
 11
484.544189
 21
154.627014
  0
LINE
  8
0
  6
CONTINUOUS
 10
485.509308
 20
158.660706
 11
487.544189
 21
158.731766
  0
ARC
  8
0
  6
CONTINUOUS
 10
485.544189
 20
157.661331
 40
1.000000
 50
92.000458
 51
180.000000
  0
LINE
  8
0
  6
CONTINUOUS
 10
484.544189
 20
157.661331
 11
484.544189
 21
154.127014
  0
ARC
  8
0
  6
CONTINUOUS
 10
475.044189
 20
104.416786
 40
2.000000
 50
91.499916
 51
180.000000
  0
ARC
  8
0
  6
CONTINUOUS
 10
475.044189
 20
158.837128
 40
2.000000
 50
180.000000
 51
268.500031
  0
ARC
  8
0
  6
CONTINUOUS
 10
540.544189
 20
131.627014
 40
68.800003
 50
184.585220
 51
191.155807
  0
ARC
  8
0
  6
CONTINUOUS
 10
337.969360
 20
382.984894
 40
340.000000
 50
170.966705
 51
180.000000
  0
ARC
  8
0
  6
CONTINUOUS
 10
14.037557
 20
434.484711
 40
12.000000
 50
90.000000
 51
170.966904
  0
LINE
  8
0
  6
CONTINUOUS
 10
42.956268
 20
450.468964
 11
24.223772
 21
450.305481
  0
LINE
  8
0
  6
CONTINUOUS
 10
14.037357
 20
446.478302
 11
22.232557
 21
446.478302
  0
LINE
  8
0
  6
CONTINUOUS
 10
44.469357
 20
448.969025
 11
44.469357
 21
382.982147
  0
ARC
  8
0
  6
CONTINUOUS
 10
340.969360
 20
382.981720
 40
325.000000
 50
168.259811
 51
179.999924
  0
LINE
  8
0
  6
CONTINUOUS
 10
44.469357
 20
440.982147
 11
49.469357
 21
440.982147
  0
LINE
  8
0
  6
CONTINUOUS
 10
44.469357
 20
324.982147
 11
49.469357
 21
324.982147
  0
LINE
  8
0
  6
CONTINUOUS
 10
44.969357
 20
376.482147
 11
44.969357
 21
389.482147
  0
LINE
  8
0
  6
CONTINUOUS
 10
44.469357
 20
389.482147
 11
44.969357
 21
389.482147
  0
LINE
  8
0
  6
CONTINUOUS
 10
44.469357
 20
376.482147
 11
44.969357
 21
376.482147
  0
ARC
  8
0
  6
CONTINUOUS
 10
42.969357
 20
448.969025
 40
1.500000
 50
0.000000
 51
90.500000
  0
ARC
  8
0
  6
CONTINUOUS
 10
24.236862
 20
448.805542
 40
1.500000
 50
90.500000
 51
168.259811
  0
ARC
  8
0
  6
CONTINUOUS
 10
337.969360
 20
382.979401
 40
340.000000
 50
-180.000000
 51
-170.966705
  0
ARC
  8
0
  6
CONTINUOUS
 10
14.037557
 20
331.479614
 40
12.000000
 50
-170.966904
 51
-90.000000
  0
LINE
  8
0
  6
CONTINUOUS
 10
42.956268
 20
315.495361
 11
24.223772
 21
315.658844
  0
LINE
  8
0
  6
CONTINUOUS
 10
14.037357
 20
319.486023
 11
22.232557
 21
319.486023
  0
LINE
  8
0
  6
CONTINUOUS
 10
44.469357
 20
316.995300
 11
44.469357
 21
382.982147
  0
ARC
  8
0
  6
CONTINUOUS
 10
340.969360
 20
382.982605
 40
325.000000
 50
-179.999924
 51
-168.259811
  0
ARC
  8
0
  6
CONTINUOUS
 10
42.969357
 20
316.995300
 40
1.500000
 50
-90.500000
 51
0.000000
  0
ARC
  8
0
  6
CONTINUOUS
 10
24.236862
 20
317.158783
 40
1.500000
 50
-168.259811
 51
-90.500000
  0
ARC
  8
0
  6
CONTINUOUS
 10
46.469292
 20
74.585503
 40
8.000000
 50
0.000000
 51
90.000000
  0
ARC
  8
0
  6
CONTINUOUS
 10
46.469292
 20
74.585503
 40
5.000000
 50
0.000000
 51
90.000000
  0
ARC
  8
0
  6
CONTINUOUS
 10
46.469292
 20
74.585503
 40
2.000000
 50
0.000000
 51
90.000000
  0
LINE
  8
0
  6
CONTINUOUS
 10
46.469292
 20
76.585503
 11
44.469292
 21
76.585503
  0
LINE
  8
0
  6
CONTINUOUS
 10
48.469292
 20
74.585503
 11
48.469292
 21
65.871086
  0
LINE
  8
0
  6
CONTINUOUS
 10
51.469292
 20
74.585503
 11
51.469292
 21
64.613083
  0
LINE
  8
0
  6
CONTINUOUS
 10
54.469292
 20
74.585503
 11
54.469292
 21
67.458382
  0
LINE
  8
0
  6
CONTINUOUS
 10
46.469292
 20
79.585503
 11
44.469292
 21
79.585503
  0
LINE
  8
0
  6
CONTINUOUS
 10
48.469292
 20
65.871086
 11
51.469292
 21
64.613083
  0
LINE
  8
0
  6
CONTINUOUS
 10
51.469292
 20
66.325279
 11
54.469292
 21
67.458382
  0
LINE
  8
0
  6
CONTINUOUS
 10
49.969273
 20
65.241920
 11
49.969273
 21
59.940384
  0
LINE
  8
0
  6
CONTINUOUS
 10
52.969292
 20
66.891701
 11
52.969292
 21
61.711082
  0
LINE
  8
0
  6
CONTINUOUS
 10
53.169270
 20
66.967300
 11
53.169270
 21
61.711082
  0
LINE
  8
0
  6
CONTINUOUS
 10
52.769291
 20
66.816185
 11
52.769291
 21
61.711082
  0
LINE
  8
0
  6
CONTINUOUS
 10
53.369289
 20
67.042847
 11
53.369289
 21
61.711082
  0
LINE
  8
0
  6
CONTINUOUS
 10
52.569290
 20
66.740623
 11
52.569290
 21
61.711082
  0
LINE
  8
0
  6
CONTINUOUS
 10
53.569290
 20
67.118401
 11
53.569290
 21
61.711082
  0
LINE
  8
0
  6
CONTINUOUS
 10
52.369289
 20
66.665085
 11
52.369289
 21
61.711082
  0
LINE
  8
0
  6
CONTINUOUS
 10
53.769291
 20
67.193962
 11
53.769291
 21
61.711082
  0
LINE
  8
0
  6
CONTINUOUS
 10
52.169270
 20
66.589523
 11
52.169270
 21
61.711082
  0
LINE
  8
0
  6
CONTINUOUS
 10
53.969273
 20
67.269485
 11
53.969273
 21
61.711082
  0
LINE
  8
0
  6
CONTINUOUS
 10
51.969292
 20
66.513962
 11
51.969292
 21
61.711082
  0
LINE
  8
0
  6
CONTINUOUS
 10
54.169312
 20
67.345085
 11
54.169270
 21
61.711082
  0
LINE
  8
0
  6
CONTINUOUS
 10
51.769272
 20
66.438400
 11
51.769272
 21
61.711082
  0
LINE
  8
0
  6
CONTINUOUS
 10
50.169270
 20
65.158180
 11
50.169270
 21
59.940384
  0
LINE
  8
0
  6
CONTINUOUS
 10
49.769272
 20
65.325981
 11
49.769272
 21
59.940384
  0
LINE
  8
0
  6
CONTINUOUS
 10
50.369251
 20
65.074181
 11
50.369251
 21
59.940384
  0
LINE
  8
0
  6
CONTINUOUS
 10
49.569271
 20
65.409721
 11
49.569271
 21
59.940384
  0
LINE
  8
0
  6
CONTINUOUS
 10
50.569290
 20
64.990402
 11
50.569290
 21
59.940384
  0
LINE
  8
0
  6
CONTINUOUS
 10
49.369289
 20
65.493523
 11
49.369289
 21
59.940384
  0
LINE
  8
0
  6
CONTINUOUS
 10
50.769272
 20
64.906647
 11
50.769272
 21
59.940384
  0
LINE
  8
0
  6
CONTINUOUS
 10
49.169270
 20
65.577499
 11
49.169270
 21
59.940384
  0
LINE
  8
0
  6
CONTINUOUS
 10
50.969292
 20
64.822624
 11
50.969292
 21
59.940384
  0
LINE
  8
0
  6
CONTINUOUS
 10
48.969292
 20
65.661301
 11
48.969292
 21
59.940384
  0
LINE
  8
0
  6
CONTINUOUS
 10
51.169312
 20
64.738846
 11
51.169270
 21
59.940384
  0
LINE
  8
0
  6
CONTINUOUS
 10
48.769291
 20
65.745262
 11
48.769291
 21
59.940384
  0
LINE
  8
0
  6
CONTINUOUS
 10
46.469273
 20
82.585526
 11
44.469292
 21
82.585526
  0
LINE
  8
0
  6
CONTINUOUS
 10
44.969330
 20
195.627060
 11
44.469292
 21
195.627060
  0
LINE
  8
0
  6
CONTINUOUS
 10
44.969330
 20
189.627060
 11
44.969330
 21
195.627060
  0
LINE
  8
0
  6
CONTINUOUS
 10
44.969330
 20
195.627060
 11
44.469292
 21
195.627060
  0
LINE
  8
0
  6
CONTINUOUS
 10
44.469292
 20
189.627060
 11
49.469292
 21
189.627060
  0
LINE
  8
0
  6
CONTINUOUS
 10
44.469292
 20
74.127060
 11
48.469292
 21
74.127060
  0
LINE
  8
0
  6
CONTINUOUS
 10
42.956211
 20
198.965561
 11
17.794312
 21
198.745850
  0
ARC
  8
0
  6
CONTINUOUS
 10
14.037611
 20
183.127243
 40
12.000000
 50
82.994843
 51
170.966507
  0
ARC
  8
0
  6
CONTINUOUS
 10
337.969299
 20
131.627060
 40
340.000000
 50
170.966507
 51
188.814499
  0
ARC
  8
0
  6
CONTINUOUS
 10
15.623011
 20
196.030258
 40
1.000000
 50
262.995300
 51
343.455597
  0
ARC
  8
0
  6
CONTINUOUS
 10
17.807310
 20
197.246185
 40
1.500000
 50
90.500267
 51
191.594803
  0
LINE
  8
0
  6
CONTINUOUS
 10
43.964912
 20
74.131462
 11
7.861599
 21
74.446541
  0
ARC
  8
0
  6
CONTINUOUS
 10
7.913953
 20
80.446281
 40
6.000000
 50
188.814499
 51
269.500000
  0
ARC
  8
0
  6
CONTINUOUS
 10
19.668612
 20
75.843559
 40
1.500000
 50
170.162598
 51
269.500000
  0
ARC
  8
0
  6
CONTINUOUS
 10
42.969292
 20
197.465561
 40
1.500000
 50
0.000000
 51
90.500191
  0
ARC
  8
0
  6
CONTINUOUS
 10
43.969292
 20
74.631462
 40
0.500000
 50
-90.500000
 51
0.000000
  0
LINE
  8
0
  6
CONTINUOUS
 10
44.469292
 20
74.631462
 11
44.469292
 21
197.465561
  0
ARC
  8
0
  6
CONTINUOUS
 10
-302.030701
 20
131.627060
 40
325.000000
 50
350.162567
 51
357.442871
  0
ARC
  8
0
  6
CONTINUOUS
 10
-302.030701
 20
131.627060
 40
325.000000
 50
2.557141
 51
11.594100
  0
ARC
  8
0
  6
CONTINUOUS
 10
540.544189
 20
131.627075
 40
67.500000
 50
67.938179
 51
90.000526
  0
ARC
  8
0
  6
CONTINUOUS
 10
540.544189
 20
131.627075
 40
67.500000
 50
90.000343
 51
112.062523
  0
ARC
  8
0
  6
CONTINUOUS
 10
540.544189
 20
131.627075
 40
67.500000
 50
-19.127836
 51
56.759937
  0
ARC
  8
0
  6
CONTINUOUS
 10
540.544189
 20
131.627075
 40
67.500000
 50
123.240059
 51
158.138443
  0
LINE
  8
0
  6
CONTINUOUS
 10
268.411072
 20
40.127010
 11
305.527313
 21
40.127010
  0
LINE
  8
0
  6
CONTINUOUS
 10
266.068451
 20
39.001091
 11
263.869934
 21
36.252930
  0
LINE
  8
0
  6
CONTINUOUS
 10
266.969208
 20
39.757786
 11
266.969208
 21
35.127010
  0
ARC
  8
0
  6
CONTINUOUS
 10
268.411072
 20
37.127010
 40
3.000000
 50
90.000000
 51
141.340302
  0
ARC
  8
0
  6
CONTINUOUS
 10
261.527344
 20
38.127010
 40
3.000000
 50
270.000000
 51
321.340302
  0
LINE
  8
0
  6
CONTINUOUS
 10
307.869934
 20
39.001091
 11
310.068451
 21
36.252930
  0
LINE
  8
0
  6
CONTINUOUS
 10
306.969208
 20
39.757786
 11
306.969208
 21
35.127010
  0
ARC
  8
0
  6
CONTINUOUS
 10
305.527313
 20
37.127010
 40
3.000000
 50
38.659702
 51
90.000000
  0
ARC
  8
0
  6
CONTINUOUS
 10
312.411072
 20
38.127010
 40
3.000000
 50
-141.340302
 51
-90.000000
  0
LINE
  8
0
  6
CONTINUOUS
 10
222.969193
 20
155.727005
 11
222.969193
 21
52.527027
  0
LINE
  8
0
  6
CONTINUOUS
 10
222.969193
 20
155.727005
 11
224.469193
 21
155.727005
  0
LINE
  8
0
  6
CONTINUOUS
 10
222.969193
 20
52.527027
 11
224.469193
 21
52.527027
  0
ARC
  8
0
  6
CONTINUOUS
 10
406.922394
 20
104.127007
 40
191.053177
 50
164.330902
 51
195.669098
  0
ARC
  8
0
  6
CONTINUOUS
 10
406.922394
 20
104.127007
 40
190.053177
 50
178.548599
 51
181.478500
  0
LINE
  8
0
  6
CONTINUOUS
 10
218.969193
 20
109.127007
 11
217.964401
 21
109.127007
  0
LINE
  8
0
  6
CONTINUOUS
 10
221.469193
 20
106.627007
 11
221.469193
 21
101.627007
  0
ARC
  8
0
  6
CONTINUOUS
 10
217.964401
 20
110.125412
 40
1.000000
 50
178.182098
 51
270.000000
  0
ARC
  8
0
  6
CONTINUOUS
 10
218.969193
 20
106.627007
 40
2.500000
 50
0.000000
 51
90.000000
  0
LINE
  8
0
  6
CONTINUOUS
 10
218.969193
 20
99.127007
 11
217.964401
 21
99.127007
  0
ARC
  8
0
  6
CONTINUOUS
 10
217.964401
 20
98.128609
 40
1.000000
 50
-270.000000
 51
-178.182098
  0
ARC
  8
0
  6
CONTINUOUS
 10
218.969193
 20
101.627007
 40
2.500000
 50
-90.000000
 51
0.000000
  0
LINE
  8
0
  6
CONTINUOUS
 10
224.469193
 20
155.727005
 11
224.469193
 21
165.498596
  0
LINE
  8
0
  6
CONTINUOUS
 10
57.219307
 20
162.027206
 11
57.219307
 21
161.227203
  0
LINE
  8
0
  6
CONTINUOUS
 10
55.069283
 20
163.377213
 11
55.869301
 21
163.377213
  0
LINE
  8
0
  6
CONTINUOUS
 10
55.069283
 20
159.877213
 11
55.869301
 21
159.877213
  0
LINE
  8
0
  6
CONTINUOUS
 10
53.719307
 20
162.027206
 11
53.719307
 21
161.227203
  0
CIRCLE
  8
0
  6
CONTINUOUS
 10
55.469307
 20
161.627213
 40
2.750000
  0
ARC
  8
0
  6
CONTINUOUS
 10
53.719307
 20
163.377213
 40
1.350000
 50
-90.000000
 51
0.000000
  0
ARC
  8
0
  6
CONTINUOUS
 10
53.719307
 20
159.877213
 40
1.350000
 50
0.000000
 51
90.000000
  0
ARC
  8
0
  6
CONTINUOUS
 10
57.219307
 20
163.377213
 40
1.350000
 50
180.000000
 51
270.000000
  0
ARC
  8
0
  6
CONTINUOUS
 10
57.219307
 20
159.877213
 40
1.350000
 50
90.000000
 51
180.000000
  0
LINE
  8
0
  6
CONTINUOUS
 10
117.219345
 20
162.027206
 11
117.219345
 21
161.227203
  0
LINE
  8
0
  6
CONTINUOUS
 10
115.069321
 20
163.377213
 11
115.869339
 21
163.377213
  0
LINE
  8
0
  6
CONTINUOUS
 10
115.069321
 20
159.877213
 11
115.869339
 21
159.877213
  0
LINE
  8
0
  6
CONTINUOUS
 10
113.719345
 20
162.027206
 11
113.719345
 21
161.227203
  0
CIRCLE
  8
0
  6
CONTINUOUS
 10
115.469345
 20
161.627213
 40
2.750000
  0
ARC
  8
0
  6
CONTINUOUS
 10
113.719345
 20
163.377213
 40
1.350000
 50
-90.000000
 51
0.000000
  0
ARC
  8
0
  6
CONTINUOUS
 10
113.719345
 20
159.877213
 40
1.350000
 50
0.000000
 51
90.000000
  0
ARC
  8
0
  6
CONTINUOUS
 10
117.219345
 20
163.377213
 40
1.350000
 50
180.000000
 51
270.000000
  0
ARC
  8
0
  6
CONTINUOUS
 10
117.219345
 20
159.877213
 40
1.350000
 50
90.000000
 51
180.000000
  0
LINE
  8
0
  6
CONTINUOUS
 10
117.219345
 20
102.027214
 11
117.219345
 21
101.227196
  0
LINE
  8
0
  6
CONTINUOUS
 10
115.069321
 20
103.377220
 11
115.869339
 21
103.377220
  0
LINE
  8
0
  6
CONTINUOUS
 10
115.069321
 20
99.877220
 11
115.869339
 21
99.877220
  0
LINE
  8
0
  6
CONTINUOUS
 10
113.719345
 20
102.027214
 11
113.719345
 21
101.227196
  0
CIRCLE
  8
0
  6
CONTINUOUS
 10
115.469345
 20
101.627220
 40
2.750000
  0
ARC
  8
0
  6
CONTINUOUS
 10
113.719345
 20
103.377220
 40
1.350000
 50
-90.000000
 51
0.000000
  0
ARC
  8
0
  6
CONTINUOUS
 10
113.719345
 20
99.877220
 40
1.350000
 50
0.000000
 51
90.000000
  0
ARC
  8
0
  6
CONTINUOUS
 10
117.219345
 20
103.377220
 40
1.350000
 50
180.000000
 51
270.000000
  0
ARC
  8
0
  6
CONTINUOUS
 10
117.219345
 20
99.877220
 40
1.350000
 50
90.000000
 51
180.000000
  0
LINE
  8
0
  6
CONTINUOUS
 10
57.219307
 20
102.027214
 11
57.219307
 21
101.227196
  0
LINE
  8
0
  6
CONTINUOUS
 10
55.069283
 20
103.377220
 11
55.869301
 21
103.377220
  0
LINE
  8
0
  6
CONTINUOUS
 10
55.069283
 20
99.877220
 11
55.869301
 21
99.877220
  0
LINE
  8
0
  6
CONTINUOUS
 10
53.719307
 20
102.027214
 11
53.719307
 21
101.227196
  0
CIRCLE
  8
0
  6
CONTINUOUS
 10
55.469307
 20
101.627220
 40
2.750000
  0
ARC
  8
0
  6
CONTINUOUS
 10
53.719307
 20
103.377220
 40
1.350000
 50
-90.000000
 51
0.000000
  0
ARC
  8
0
  6
CONTINUOUS
 10
53.719307
 20
99.877220
 40
1.350000
 50
0.000000
 51
90.000000
  0
ARC
  8
0
  6
CONTINUOUS
 10
57.219307
 20
103.377220
 40
1.350000
 50
180.000000
 51
270.000000
  0
ARC
  8
0
  6
CONTINUOUS
 10
57.219307
 20
99.877220
 40
1.350000
 50
90.000000
 51
180.000000
  0
TEXT
  8
0
 10
-16.000000
 20
-17.000000
 40
4.000000
 41
1.000000
  1
H2LB-28R-300~450-T010WA
 50
0.000000
  0
ENDSEC
  0
EOF
