  0
SECTION
  2
HEADER
  9
$CLAYER
  8
1
  9
$LTSCALE
 40
3.0
  0
ENDSEC
  0
SECTION
  2
TABLES
  0
TABLE
  2
LTYPE
 70
     4
  0
LTYPE
  2
CONTINUOUS
  3
solid line
 70
    64
 72
    65
 73
     0
 40
0.0
  0
LTYPE
  2
DASHED
  3
__ __ __ __ __ __ __ __ __ __ __ __ __ __ __
 70
    64
 72
    65
 73
     2
 40
0.75
 49
0.5
 49
-0.25
  0
LTYPE
  2
CENTER
  3
____ _ ____ _ ____ _ ____ _ ____ _ ____ _ ____
 70
    64
 72
    65
 73
     4
 40
2.0
 49
1.25
 49
-0.25
 49
0.25
 49
-0.25
  0
LTYPE
  2
PHANTOM
  3
_____ _ _ _____ _ _ _____ _ _ _____ _ _ ____
 70
    64
 72
    65
 73
     6
 40
2.5
 49
1.25
 49
-0.25
 49
0.25
 49
-0.25
 49
0.25
 49
-0.25
  0
ENDTAB
  0
TABLE
  2
LAYER
 70
     1
  0
LAYER
  2
0
 70
    64
 62
     7
  6
CONTINUOUS
  0
ENDTAB
  0
TABLE
  2
STYLE
 70
     1
  0
STYLE
  2
STANDARD
 70
     0
 40
0.000000
 41
1.000000
 50
0.000000
 71
     0
 42
3.000000
  3
txt
  4
BIGFONT
  0
ENDTAB
  0
ENDSEC
  0
SECTION
  2
BLOCKS
  0
ENDSEC
  0
SECTION
  2
ENTITIES
  0
LINE
  8
0
  6
CONTINUOUS
 10
354.469208
 20
146.498627
 11
354.469208
 21
1.127009
  0
LINE
  8
0
  6
CONTINUOUS
 10
229.469193
 20
1.127009
 11
354.469208
 21
1.127009
  0
LINE
  8
0
  6
CENTER
 10
217.219299
 20
121.127007
 11
347.022491
 21
121.127007
  0
LINE
  8
0
  6
CENTER
 10
291.969208
 20
189.309998
 11
291.969208
 21
-7.372991
  0
LINE
  8
0
  6
CONTINUOUS
 10
269.523651
 20
175.626968
 11
314.414825
 21
175.626968
  0
LINE
  8
0
  6
CONTINUOUS
 10
317.249603
 20
174.745667
 11
352.303986
 21
150.617249
  0
LINE
  8
0
  6
CONTINUOUS
 10
232.469193
 20
16.127008
 11
351.469208
 21
16.127008
  0
LINE
  8
0
  6
CONTINUOUS
 10
344.469208
 20
14.589509
 11
344.469208
 21
1.127009
  0
LINE
  8
0
  6
CONTINUOUS
 10
240.469193
 20
14.589509
 11
240.469193
 21
1.127009
  0
LINE
  8
0
  6
CENTER
 10
331.969208
 20
23.377008
 11
331.969208
 21
-5.622991
  0
LINE
  8
0
  6
CENTER
 10
251.969193
 20
23.377008
 11
251.969193
 21
-4.372991
  0
LINE
  8
0
  6
DASHED
 10
337.469208
 20
16.127008
 11
337.469208
 21
1.127009
  0
LINE
  8
0
  6
DASHED
 10
326.469208
 20
16.127008
 11
326.469208
 21
1.127009
  0
LINE
  8
0
  6
DASHED
 10
257.469208
 20
16.127008
 11
257.469208
 21
1.127009
  0
LINE
  8
0
  6
DASHED
 10
246.469193
 20
16.127008
 11
246.469193
 21
1.127009
  0
ARC
  8
0
  6
CONTINUOUS
 10
271.969208
 20
71.127007
 40
26.500000
 50
170.529099
 51
270.000000
  0
ARC
  8
0
  6
CONTINUOUS
 10
311.969208
 20
71.127007
 40
26.500000
 50
-90.000000
 51
9.470950
  0
LINE
  8
0
  6
CONTINUOUS
 10
245.830399
 20
75.487480
 11
254.487213
 21
127.379852
  0
LINE
  8
0
  6
CONTINUOUS
 10
329.451202
 20
127.379852
 11
338.108002
 21
75.487511
  0
LINE
  8
0
  6
CONTINUOUS
 10
271.969208
 20
44.627010
 11
311.969208
 21
44.627010
  0
ARC
  8
0
  6
CONTINUOUS
 10
349.469208
 20
146.498566
 40
5.000000
 50
0.000000
 51
55.460110
  0
ARC
  8
0
  6
CONTINUOUS
 10
314.414825
 20
170.626968
 40
5.000000
 50
55.460079
 51
90.000000
  0
ARC
  8
0
  6
CONTINUOUS
 10
269.557587
 20
170.626968
 40
5.000000
 50
90.000000
 51
91.038872
  0
LINE
  8
0
  6
CONTINUOUS
 10
229.469193
 20
1.127009
 11
229.469193
 21
33.527027
  0
ARC
  8
0
  6
CONTINUOUS
 10
271.969208
 20
71.127007
 40
24.000000
 50
170.529221
 51
270.000000
  0
ARC
  8
0
  6
CONTINUOUS
 10
311.969208
 20
71.127007
 40
24.000000
 50
-91.534416
 51
9.471022
  0
LINE
  8
0
  6
CONTINUOUS
 10
271.969208
 20
47.127010
 11
311.969208
 21
47.127010
  0
CIRCLE
  8
0
  6
CONTINUOUS
 10
291.969208
 20
121.127007
 40
33.500000
  0
ARC
  8
0
  6
CONTINUOUS
 10
291.969208
 20
121.127007
 40
38.000000
 50
9.470963
 51
170.529007
  0
ARC
  8
0
  6
CONTINUOUS
 10
291.969208
 20
121.127007
 40
35.500000
 50
-189.470795
 51
9.471022
  0
LINE
  8
0
  6
CONTINUOUS
 10
248.296387
 20
75.076073
 11
256.952972
 21
126.968346
  0
LINE
  8
0
  6
CONTINUOUS
 10
326.985199
 20
126.968468
 11
335.641998
 21
75.076172
  0
LINE
  8
0
  6
CENTER
 10
209.469193
 20
85.127007
 11
246.069214
 21
85.127007
  0
LINE
  8
0
  6
CONTINUOUS
 10
227.914841
 20
149.127045
 11
209.469193
 21
149.127045
  0
LINE
  8
0
  6
CONTINUOUS
 10
209.469193
 20
21.127008
 11
224.469193
 21
21.127008
  0
LINE
  8
0
  6
CONTINUOUS
 10
209.469193
 20
85.127007
 11
209.469193
 21
21.127008
  0
LINE
  8
0
  6
CONTINUOUS
 10
209.469193
 20
85.127007
 11
209.469193
 21
149.127045
  0
LINE
  8
0
  6
CONTINUOUS
 10
230.749756
 20
150.008408
 11
266.688751
 21
174.745636
  0
ARC
  8
0
  6
CONTINUOUS
 10
269.523682
 20
170.626968
 40
5.000000
 50
90.000000
 51
124.540298
  0
ARC
  8
0
  6
CONTINUOUS
 10
234.469223
 20
146.498611
 40
5.000000
 50
124.540398
 51
180.000000
  0
ARC
  8
0
  6
CONTINUOUS
 10
224.469208
 20
16.126989
 40
5.000000
 50
0.000000
 51
90.000000
  0
ARC
  8
0
  6
CONTINUOUS
 10
232.469223
 20
13.127029
 40
3.000000
 50
90.000000
 51
180.000000
  0
ARC
  8
0
  6
CONTINUOUS
 10
351.469208
 20
13.127009
 40
3.000000
 50
0.000000
 51
90.000000
  0
LINE
  8
0
  6
CONTINUOUS
 10
281.672791
 20
57.127010
 11
277.512451
 21
57.127010
  0
LINE
  8
0
  6
CONTINUOUS
 10
283.969208
 20
64.095749
 11
283.969208
 21
57.127010
  0
LINE
  8
0
  6
CONTINUOUS
 10
287.969208
 20
66.627007
 11
287.969208
 21
69.127007
  0
LINE
  8
0
  6
CONTINUOUS
 10
295.969208
 20
66.627007
 11
295.969208
 21
69.127007
  0
LINE
  8
0
  6
CONTINUOUS
 10
291.187958
 20
67.658257
 11
291.187958
 21
58.439510
  0
LINE
  8
0
  6
CONTINUOUS
 10
292.687958
 20
67.658257
 11
292.687958
 21
58.439510
  0
LINE
  8
0
  6
CONTINUOUS
 10
300.562958
 20
67.658257
 11
300.562958
 21
58.377010
  0
LINE
  8
0
  6
CONTINUOUS
 10
301.937958
 20
62.736389
 11
301.937958
 21
58.377010
  0
LINE
  8
0
  6
CONTINUOUS
 10
282.071136
 20
67.533257
 11
278.216187
 21
67.533257
  0
LINE
  8
0
  6
CONTINUOUS
 10
278.216187
 20
67.533257
 11
277.312958
 21
66.413261
  0
LINE
  8
0
  6
CONTINUOUS
 10
277.421570
 20
69.127007
 11
275.969208
 21
67.267250
  0
LINE
  8
0
  6
CONTINUOUS
 10
277.312958
 20
59.499928
 11
278.230682
 21
58.533249
  0
LINE
  8
0
  6
CONTINUOUS
 10
275.969208
 20
58.684170
 11
277.512451
 21
57.127010
  0
LINE
  8
0
  6
CONTINUOUS
 10
275.969208
 20
67.267250
 11
275.969208
 21
58.684170
  0
LINE
  8
0
  6
CONTINUOUS
 10
277.312958
 20
66.413261
 11
277.312958
 21
59.499928
  0
LINE
  8
0
  6
CONTINUOUS
 10
282.812958
 20
66.816154
 11
282.056000
 21
67.533257
  0
LINE
  8
0
  6
CONTINUOUS
 10
282.800934
 20
69.127007
 11
283.969208
 21
67.830521
  0
LINE
  8
0
  6
CONTINUOUS
 10
282.812958
 20
66.627007
 11
283.969208
 21
66.627007
  0
LINE
  8
0
  6
CONTINUOUS
 10
277.421570
 20
69.127007
 11
282.800934
 21
69.127007
  0
LINE
  8
0
  6
CONTINUOUS
 10
280.719208
 20
64.095749
 11
283.969208
 21
64.095749
  0
LINE
  8
0
  6
CONTINUOUS
 10
282.812958
 20
62.783249
 11
280.719208
 21
62.783249
  0
LINE
  8
0
  6
CONTINUOUS
 10
280.312958
 20
58.533249
 11
278.230682
 21
58.533249
  0
LINE
  8
0
  6
CONTINUOUS
 10
282.812958
 20
61.533249
 11
282.812958
 21
62.533249
  0
ARC
  8
0
  6
CONTINUOUS
 10
280.312958
 20
61.033249
 40
2.500000
 50
-89.999786
 51
0.000109
  0
LINE
  8
0
  6
CONTINUOUS
 10
282.812958
 20
58.083569
 11
282.812958
 21
57.127010
  0
LINE
  8
0
  6
CONTINUOUS
 10
283.969208
 20
67.830521
 11
283.969208
 21
66.627007
  0
LINE
  8
0
  6
CONTINUOUS
 10
282.812958
 20
62.783249
 11
282.812958
 21
61.033249
  0
LINE
  8
0
  6
CONTINUOUS
 10
280.719208
 20
64.095749
 11
280.719208
 21
62.783249
  0
LINE
  8
0
  6
CONTINUOUS
 10
282.812958
 20
57.127010
 11
283.969208
 21
57.127010
  0
LINE
  8
0
  6
CONTINUOUS
 10
282.812958
 20
58.083569
 11
281.672791
 21
57.127010
  0
LINE
  8
0
  6
CONTINUOUS
 10
292.687958
 20
58.439510
 11
293.187958
 21
58.439510
  0
LINE
  8
0
  6
CONTINUOUS
 10
290.594208
 20
58.439510
 11
290.594208
 21
57.127010
  0
LINE
  8
0
  6
CONTINUOUS
 10
293.187958
 20
58.439510
 11
293.187958
 21
57.127010
  0
LINE
  8
0
  6
CONTINUOUS
 10
295.134735
 20
66.627007
 11
295.969208
 21
66.627007
  0
LINE
  8
0
  6
CONTINUOUS
 10
287.969208
 20
66.627007
 11
288.857208
 21
66.627007
  0
LINE
  8
0
  6
CONTINUOUS
 10
287.969208
 20
69.127007
 11
295.969208
 21
69.127007
  0
LINE
  8
0
  6
CONTINUOUS
 10
290.594208
 20
57.127010
 11
293.187958
 21
57.127010
  0
LINE
  8
0
  6
CONTINUOUS
 10
290.594208
 20
58.439510
 11
291.187958
 21
58.439510
  0
ARC
  8
0
  6
CONTINUOUS
 10
304.766083
 20
65.923882
 40
3.203126
 50
-73.981873
 51
90.003510
  0
ARC
  8
0
  6
CONTINUOUS
 10
304.766083
 20
65.923882
 40
1.954124
 50
-82.585274
 51
62.411850
  0
LINE
  8
0
  6
CONTINUOUS
 10
299.969208
 20
69.127007
 11
304.766083
 21
69.127007
  0
LINE
  8
0
  6
CONTINUOUS
 10
305.018250
 20
63.986088
 11
301.937958
 21
63.986088
  0
LINE
  8
0
  6
CONTINUOUS
 10
299.969208
 20
69.127007
 11
299.969208
 21
67.658257
  0
LINE
  8
0
  6
CONTINUOUS
 10
301.937958
 20
67.658257
 11
301.937958
 21
63.986088
  0
LINE
  8
0
  6
CONTINUOUS
 10
305.649933
 20
62.845127
 11
307.632507
 21
58.377010
  0
LINE
  8
0
  6
CONTINUOUS
 10
304.498474
 20
62.736389
 11
306.374664
 21
58.377010
  0
LINE
  8
0
  6
CONTINUOUS
 10
299.969208
 20
58.377010
 11
300.562958
 21
58.377010
  0
LINE
  8
0
  6
CONTINUOUS
 10
301.937958
 20
58.377010
 11
302.484833
 21
58.377010
  0
LINE
  8
0
  6
CONTINUOUS
 10
302.484833
 20
57.127010
 11
299.969208
 21
57.127010
  0
LINE
  8
0
  6
CONTINUOUS
 10
306.125458
 20
58.377010
 11
306.374664
 21
58.377010
  0
LINE
  8
0
  6
CONTINUOUS
 10
307.632507
 20
58.377010
 11
307.969208
 21
58.377010
  0
LINE
  8
0
  6
CONTINUOUS
 10
306.125458
 20
57.127010
 11
307.969208
 21
57.127010
  0
LINE
  8
0
  6
CONTINUOUS
 10
307.969208
 20
58.377010
 11
307.969208
 21
57.127010
  0
LINE
  8
0
  6
CONTINUOUS
 10
306.125458
 20
58.377010
 11
306.125458
 21
57.127010
  0
LINE
  8
0
  6
CONTINUOUS
 10
302.484833
 20
58.377010
 11
302.484833
 21
57.127010
  0
LINE
  8
0
  6
CONTINUOUS
 10
299.969208
 20
58.377010
 11
299.969208
 21
57.127010
  0
LINE
  8
0
  6
CONTINUOUS
 10
289.286926
 20
67.658257
 11
288.857208
 21
66.627007
  0
LINE
  8
0
  6
CONTINUOUS
 10
294.772400
 20
67.658257
 11
295.134735
 21
66.627007
  0
LINE
  8
0
  6
CONTINUOUS
 10
292.687958
 20
67.658257
 11
294.772400
 21
67.658257
  0
LINE
  8
0
  6
CONTINUOUS
 10
291.187958
 20
67.658257
 11
289.286926
 21
67.658257
  0
LINE
  8
0
  6
CONTINUOUS
 10
301.937958
 20
62.736389
 11
304.498474
 21
62.736389
  0
LINE
  8
0
  6
CONTINUOUS
 10
299.969208
 20
67.658257
 11
300.562958
 21
67.658257
  0
LINE
  8
0
  6
CONTINUOUS
 10
301.937958
 20
67.658257
 11
305.671051
 21
67.655830
  0
LINE
  8
0
  6
CONTINUOUS
 10
282.812958
 20
66.816154
 11
282.812958
 21
66.627007
  0
LINE
  8
0
  6
CONTINUOUS
 10
301.969208
 20
117.127052
 11
301.969177
 21
125.127052
  0
LINE
  8
0
  6
CONTINUOUS
 10
308.969208
 20
117.127068
 11
308.969177
 21
125.127068
  0
LINE
  8
0
  6
CONTINUOUS
 10
308.969208
 20
117.127068
 11
301.969208
 21
117.127052
  0
LINE
  8
0
  6
CONTINUOUS
 10
308.969177
 20
125.127068
 11
301.969177
 21
125.127052
  0
ARC
  8
0
  6
CONTINUOUS
 10
291.969208
 20
121.127007
 40
14.000000
 50
16.601500
 51
343.398499
  0
LINE
  8
0
  6
CENTER
 10
545.544189
 20
-6.262737
 11
545.544189
 21
189.750000
  0
LINE
  8
0
  6
CENTER
 10
420.882507
 20
121.127007
 11
608.693726
 21
121.127007
  0
LINE
  8
0
  6
CONTINUOUS
 10
482.544189
 20
1.127009
 11
518.044189
 21
1.127009
  0
LINE
  8
0
  6
CONTINUOUS
 10
510.044189
 20
149.127014
 11
580.794189
 21
149.127014
  0
LINE
  8
0
  6
CONTINUOUS
 10
579.596497
 20
175.032883
 11
545.544189
 21
175.627014
  0
LINE
  8
0
  6
CONTINUOUS
 10
511.491821
 20
175.032486
 11
545.544189
 21
175.627014
  0
LINE
  8
0
  6
CONTINUOUS
 10
582.544189
 20
172.033356
 11
582.544189
 21
1.126989
  0
LINE
  8
0
  6
CONTINUOUS
 10
508.544189
 20
172.032944
 11
508.544189
 21
1.127009
  0
LINE
  8
0
  6
CONTINUOUS
 10
492.544189
 20
91.414742
 11
492.544189
 21
150.839249
  0
LINE
  8
0
  6
CONTINUOUS
 10
598.544189
 20
150.839264
 11
598.544189
 21
91.414749
  0
LINE
  8
0
  6
CONTINUOUS
 10
499.544189
 20
50.927429
 11
499.544189
 21
123.627007
  0
LINE
  8
0
  6
CONTINUOUS
 10
591.544189
 20
50.927429
 11
591.544189
 21
123.627007
  0
LINE
  8
0
  6
CONTINUOUS
 10
608.544189
 20
12.822952
 11
608.544189
 21
1.127009
  0
LINE
  8
0
  6
CONTINUOUS
 10
482.544189
 20
12.822952
 11
482.544189
 21
1.127009
  0
LINE
  8
0
  6
CENTER
 10
495.544189
 20
24.127008
 11
495.544189
 21
-10.226391
  0
LINE
  8
0
  6
CENTER
 10
595.544189
 20
24.627008
 11
595.544189
 21
-10.226391
  0
LINE
  8
0
  6
DASHED
 10
490.044189
 20
16.127008
 11
490.044189
 21
1.127009
  0
LINE
  8
0
  6
DASHED
 10
501.044189
 20
16.127008
 11
501.044189
 21
1.127009
  0
LINE
  8
0
  6
DASHED
 10
590.044189
 20
16.127008
 11
590.044189
 21
1.127009
  0
LINE
  8
0
  6
DASHED
 10
601.044189
 20
16.127008
 11
601.044189
 21
1.127009
  0
ARC
  8
0
  6
CONTINUOUS
 10
511.544189
 20
172.032974
 40
3.000000
 50
91.000526
 51
180.000000
  0
ARC
  8
0
  6
CONTINUOUS
 10
579.544189
 20
172.033325
 40
3.000000
 50
0.000000
 51
89.000580
  0
LINE
  8
0
  6
CONTINUOUS
 10
573.044189
 20
1.127009
 11
608.544189
 21
1.127009
  0
LINE
  8
0
  6
CONTINUOUS
 10
519.044189
 20
2.127009
 11
572.044189
 21
2.127009
  0
LINE
  8
0
  6
CONTINUOUS
 10
496.190460
 20
155.652527
 11
504.897888
 21
158.101486
  0
LINE
  8
0
  6
CONTINUOUS
 10
496.190460
 20
86.601486
 11
497.356415
 21
86.273560
  0
LINE
  8
0
  6
CONTINUOUS
 10
503.205963
 20
46.109852
 11
504.882416
 21
45.644169
  0
LINE
  8
0
  6
CONTINUOUS
 10
587.882385
 20
46.109852
 11
586.205933
 21
45.644169
  0
LINE
  8
0
  6
CONTINUOUS
 10
594.897888
 20
86.601494
 11
593.731934
 21
86.273567
  0
LINE
  8
0
  6
CONTINUOUS
 10
594.897888
 20
155.652527
 11
586.190491
 21
158.101486
  0
ARC
  8
0
  6
CONTINUOUS
 10
497.544189
 20
150.839294
 40
5.000000
 50
105.709000
 51
180.000000
  0
ARC
  8
0
  6
CONTINUOUS
 10
497.544128
 20
91.414780
 40
5.000000
 50
180.000000
 51
254.291702
  0
ARC
  8
0
  6
CONTINUOUS
 10
504.544159
 20
50.927467
 40
5.000000
 50
180.000000
 51
254.476196
  0
ARC
  8
0
  6
CONTINUOUS
 10
586.544189
 20
50.927429
 40
5.000000
 50
-74.475708
 51
0.000000
  0
ARC
  8
0
  6
CONTINUOUS
 10
593.544189
 20
91.414742
 40
5.000000
 50
-74.291199
 51
0.000000
  0
ARC
  8
0
  6
CONTINUOUS
 10
593.544189
 20
150.839249
 40
5.000000
 50
0.000000
 51
74.291527
  0
ARC
  8
0
  6
CONTINUOUS
 10
594.544189
 20
83.385628
 40
3.000000
 50
105.709000
 51
180.000000
  0
ARC
  8
0
  6
CONTINUOUS
 10
496.544189
 20
83.385597
 40
3.000000
 50
0.000000
 51
74.291397
  0
ARC
  8
0
  6
CONTINUOUS
 10
503.544189
 20
162.914749
 40
5.000000
 50
-74.291199
 51
0.000000
  0
ARC
  8
0
  6
CONTINUOUS
 10
587.544128
 20
162.914764
 40
5.000000
 50
180.000000
 51
254.291702
  0
ARC
  8
0
  6
CONTINUOUS
 10
587.544189
 20
40.826611
 40
5.000000
 50
105.524399
 51
180.000000
  0
ARC
  8
0
  6
CONTINUOUS
 10
503.544189
 20
40.826569
 40
5.000000
 50
0.000000
 51
74.475952
  0
LINE
  8
0
  6
CONTINUOUS
 10
573.044189
 20
1.127009
 11
572.044189
 21
2.127009
  0
LINE
  8
0
  6
CONTINUOUS
 10
518.044189
 20
1.127009
 11
519.044189
 21
2.127009
  0
LINE
  8
0
  6
CENTER
 10
476.506195
 20
85.127007
 11
615.013428
 21
85.127007
  0
LINE
  8
0
  6
CONTINUOUS
 10
445.544189
 20
107.127007
 11
445.544189
 21
135.127014
  0
LINE
  8
0
  6
CONTINUOUS
 10
490.544189
 20
135.127014
 11
445.544189
 21
135.127014
  0
LINE
  8
0
  6
CONTINUOUS
 10
490.544189
 20
107.127007
 11
445.544189
 21
107.127007
  0
LINE
  8
0
  6
CONTINUOUS
 10
490.544189
 20
136.127014
 11
490.544189
 21
106.127007
  0
LINE
  8
0
  6
CONTINUOUS
 10
492.544189
 20
106.127007
 11
490.544189
 21
106.127007
  0
ARC
  8
0
  6
CONTINUOUS
 10
481.544189
 20
121.127007
 40
4.000000
 50
-90.000000
 51
90.000000
  0
LINE
  8
0
  6
CONTINUOUS
 10
481.544189
 20
125.127007
 11
445.544189
 21
125.127007
  0
LINE
  8
0
  6
CONTINUOUS
 10
481.544159
 20
117.127007
 11
445.544189
 21
117.127007
  0
LINE
  8
0
  6
CONTINUOUS
 10
492.544189
 20
136.127014
 11
490.544189
 21
136.127014
  0
LINE
  8
0
  6
CONTINUOUS
 10
167.969177
 20
167.127106
 11
167.969177
 21
115.564606
  0
LINE
  8
0
  6
CONTINUOUS
 10
159.469421
 20
170.127106
 11
159.469177
 21
55.127110
  0
LINE
  8
0
  6
CONTINUOUS
 10
190.340042
 20
49.758709
 11
159.469177
 21
55.127110
  0
LINE
  8
0
  6
CONTINUOUS
 10
198.917084
 20
21.403269
 11
209.469193
 21
21.127008
  0
LINE
  8
0
  6
CONTINUOUS
 10
172.838196
 20
150.086533
 11
209.469193
 21
149.127045
  0
ARC
  8
0
  6
CONTINUOUS
 10
172.969055
 20
155.084808
 40
5.000000
 50
180.000000
 51
268.499786
  0
LINE
  8
0
  6
CENTER
 10
-6.869687
 20
112.627106
 11
225.469299
 21
112.627106
  0
LINE
  8
0
  6
CENTER
 10
186.969299
 20
85.127106
 11
209.469193
 21
85.127106
  0
LINE
  8
0
  6
CONTINUOUS
 10
164.969177
 20
170.127106
 11
159.469421
 21
170.127106
  0
ARC
  8
0
  6
CONTINUOUS
 10
164.969193
 20
167.127090
 40
3.000000
 50
0.000000
 51
90.000000
  0
LINE
  8
0
  6
CONTINUOUS
 10
196.969421
 20
23.402590
 11
196.969421
 21
108.439606
  0
ARC
  8
0
  6
CONTINUOUS
 10
198.969391
 20
23.402609
 40
2.000000
 50
180.000000
 51
268.500610
  0
ARC
  8
0
  6
CONTINUOUS
 10
188.969437
 20
41.876968
 40
8.000000
 50
0.000000
 51
80.135094
  0
ARC
  8
0
  6
CONTINUOUS
 10
545.544189
 20
85.127007
 40
64.000000
 50
-54.681229
 51
34.093391
  0
ARC
  8
0
  6
CONTINUOUS
 10
545.544189
 20
112.627068
 40
57.500000
 50
0.607185
 51
22.818331
  0
ARC
  8
0
  6
CONTINUOUS
 10
545.544189
 20
85.127007
 40
64.000000
 50
159.894485
 51
234.681229
  0
LINE
  8
0
  6
CENTER
 10
621.113098
 20
112.627007
 11
420.000000
 21
112.627007
  0
LINE
  8
0
  6
CONTINUOUS
 10
486.544189
 20
16.127008
 11
504.544189
 21
16.127008
  0
LINE
  8
0
  6
CONTINUOUS
 10
485.788818
 20
16.750973
 11
505.299561
 21
20.503044
  0
ARC
  8
0
  6
CONTINUOUS
 10
504.544189
 20
24.431070
 40
4.000000
 50
-79.114464
 51
0.000000
  0
ARC
  8
0
  6
CONTINUOUS
 10
504.544189
 20
20.127008
 40
4.000000
 50
-90.000000
 51
0.000000
  0
ARC
  8
0
  6
CONTINUOUS
 10
486.544189
 20
12.822952
 40
4.000000
 50
100.885605
 51
180.000000
  0
ARC
  8
0
  6
CONTINUOUS
 10
486.544189
 20
12.127014
 40
4.000000
 50
90.000000
 51
180.000000
  0
LINE
  8
0
  6
CONTINUOUS
 10
604.544189
 20
16.127008
 11
586.544189
 21
16.127008
  0
LINE
  8
0
  6
CONTINUOUS
 10
605.299561
 20
16.750973
 11
585.788818
 21
20.503044
  0
ARC
  8
0
  6
CONTINUOUS
 10
586.544189
 20
24.431070
 40
4.000000
 50
180.000000
 51
259.114471
  0
ARC
  8
0
  6
CONTINUOUS
 10
586.544189
 20
20.127008
 40
4.000000
 50
180.000000
 51
270.000000
  0
ARC
  8
0
  6
CONTINUOUS
 10
604.544189
 20
12.822952
 40
4.000000
 50
0.000000
 51
79.114395
  0
ARC
  8
0
  6
CONTINUOUS
 10
604.544189
 20
12.127014
 40
4.000000
 50
0.000000
 51
90.000000
  0
ARC
  8
0
  6
CONTINUOUS
 10
227.914841
 20
154.127045
 40
5.000000
 50
270.000000
 51
304.540100
  0
LINE
  8
0
  6
CONTINUOUS
 10
170.061600
 20
134.592133
 11
201.328979
 21
134.592133
  0
LINE
  8
0
  6
CONTINUOUS
 10
170.061600
 20
126.137108
 11
201.328979
 21
126.137108
  0
LINE
  8
0
  6
CONTINUOUS
 10
203.469177
 20
127.637108
 11
203.469177
 21
133.537109
  0
LINE
  8
0
  6
CONTINUOUS
 10
231.732574
 20
400.982147
 11
350.875275
 21
400.982147
  0
ARC
  8
0
  6
CONTINUOUS
 10
350.875275
 20
397.982147
 40
3.000000
 50
1.000000
 51
90.000000
  0
LINE
  8
0
  6
CONTINUOUS
 10
336.963470
 20
406.335876
 11
337.853882
 21
403.169922
  0
ARC
  8
0
  6
CONTINUOUS
 10
340.741852
 20
403.982147
 40
3.000000
 50
195.708649
 51
270.000000
  0
ARC
  8
0
  6
CONTINUOUS
 10
223.546799
 20
418.208710
 40
3.000000
 50
1.500200
 51
77.801201
  0
LINE
  8
0
  6
CONTINUOUS
 10
226.545792
 20
418.287292
 11
226.901794
 21
404.692505
  0
ARC
  8
0
  6
CONTINUOUS
 10
224.814590
 20
424.073273
 40
3.000000
 50
-164.999893
 51
-102.198799
  0
LINE
  8
0
  6
CONTINUOUS
 10
242.984070
 20
300.982147
 11
277.969208
 21
300.982147
  0
LINE
  8
0
  6
CONTINUOUS
 10
354.469208
 20
363.982147
 11
353.823364
 21
400.982147
  0
LINE
  8
0
  6
CONTINUOUS
 10
345.659088
 20
423.674835
 11
353.823364
 21
400.982147
  0
ARC
  8
0
  6
CONTINUOUS
 10
340.954315
 20
421.982147
 40
5.000000
 50
19.787489
 51
90.000000
  0
LINE
  8
0
  6
CONTINUOUS
 10
354.469208
 20
363.982147
 11
353.823364
 21
326.982147
  0
LINE
  8
0
  6
CONTINUOUS
 10
345.659088
 20
304.289490
 11
353.823364
 21
326.982147
  0
ARC
  8
0
  6
CONTINUOUS
 10
340.954315
 20
305.982147
 40
5.000000
 50
-90.000000
 51
-19.787489
  0
LINE
  8
0
  6
CONTINUOUS
 10
231.732574
 20
400.982147
 11
350.875275
 21
400.982147
  0
LINE
  8
0
  6
CENTER
 10
291.969208
 20
244.744614
 11
291.969208
 21
444.114990
  0
ARC
  8
0
  6
CONTINUOUS
 10
350.875275
 20
397.982147
 40
3.000000
 50
1.000000
 51
90.000000
  0
ARC
  8
0
  6
CONTINUOUS
 10
350.875275
 20
329.982147
 40
3.000000
 50
-90.000000
 51
-1.000000
  0
LINE
  8
0
  6
CONTINUOUS
 10
231.805801
 20
326.982147
 11
350.875275
 21
326.982147
  0
LINE
  8
0
  6
CONTINUOUS
 10
321.681458
 20
416.982147
 11
262.256927
 21
416.982147
  0
LINE
  8
0
  6
CONTINUOUS
 10
326.494720
 20
413.335876
 11
327.437958
 21
409.982147
  0
ARC
  8
0
  6
CONTINUOUS
 10
321.681458
 20
411.982147
 40
5.000000
 50
15.708638
 51
90.000000
  0
LINE
  8
0
  6
CONTINUOUS
 10
327.437958
 20
409.982147
 11
332.150208
 21
409.982147
  0
ARC
  8
0
  6
CONTINUOUS
 10
332.150208
 20
404.982147
 40
5.000000
 50
15.708638
 51
90.000000
  0
LINE
  8
0
  6
CONTINUOUS
 10
257.443695
 20
413.335876
 11
256.500458
 21
409.982147
  0
ARC
  8
0
  6
CONTINUOUS
 10
262.256927
 20
411.982147
 40
5.000000
 50
90.000000
 51
164.291367
  0
LINE
  8
0
  6
CONTINUOUS
 10
256.500458
 20
409.982147
 11
251.788193
 21
409.982147
  0
LINE
  8
0
  6
CONTINUOUS
 10
246.974930
 20
406.335876
 11
246.084503
 21
403.169922
  0
ARC
  8
0
  6
CONTINUOUS
 10
251.788193
 20
404.982147
 40
5.000000
 50
90.000000
 51
164.291367
  0
ARC
  8
0
  6
CONTINUOUS
 10
243.196548
 20
403.982147
 40
3.000000
 50
-90.000000
 51
-15.708638
  0
LINE
  8
0
  6
CONTINUOUS
 10
321.681458
 20
310.982147
 11
262.256927
 21
310.982147
  0
LINE
  8
0
  6
CONTINUOUS
 10
326.494720
 20
314.628418
 11
327.437958
 21
317.982147
  0
ARC
  8
0
  6
CONTINUOUS
 10
321.681458
 20
315.982147
 40
5.000000
 50
-90.000000
 51
-15.708638
  0
LINE
  8
0
  6
CONTINUOUS
 10
327.437958
 20
317.982147
 11
332.150208
 21
317.982147
  0
LINE
  8
0
  6
CONTINUOUS
 10
336.963470
 20
321.628418
 11
337.853882
 21
324.794403
  0
ARC
  8
0
  6
CONTINUOUS
 10
332.150208
 20
322.982147
 40
5.000000
 50
-90.000000
 51
-15.708638
  0
ARC
  8
0
  6
CONTINUOUS
 10
340.741852
 20
323.982147
 40
3.000000
 50
-270.000000
 51
-195.708633
  0
LINE
  8
0
  6
CONTINUOUS
 10
257.443695
 20
314.628418
 11
256.500458
 21
317.982147
  0
ARC
  8
0
  6
CONTINUOUS
 10
262.256927
 20
315.982147
 40
5.000000
 50
-164.291367
 51
-90.000000
  0
LINE
  8
0
  6
CONTINUOUS
 10
256.500458
 20
317.982147
 11
251.788193
 21
317.982147
  0
LINE
  8
0
  6
CONTINUOUS
 10
246.974930
 20
321.628418
 11
246.084503
 21
324.794403
  0
ARC
  8
0
  6
CONTINUOUS
 10
251.788193
 20
322.982147
 40
5.000000
 50
-164.291367
 51
-90.000000
  0
ARC
  8
0
  6
CONTINUOUS
 10
243.196548
 20
323.982147
 40
3.000000
 50
15.708638
 51
90.000000
  0
LINE
  8
0
  6
CONTINUOUS
 10
238.279297
 20
423.674835
 11
230.201447
 21
401.222351
  0
ARC
  8
0
  6
CONTINUOUS
 10
242.984070
 20
421.982147
 40
5.000000
 50
90.000000
 51
160.212509
  0
LINE
  8
0
  6
CONTINUOUS
 10
238.279297
 20
304.289490
 11
230.217300
 21
326.697906
  0
ARC
  8
0
  6
CONTINUOUS
 10
242.984070
 20
305.982147
 40
5.000000
 50
199.787491
 51
270.000000
  0
LINE
  8
0
  6
CONTINUOUS
 10
242.984070
 20
426.982147
 11
291.969208
 21
426.982147
  0
LINE
  8
0
  6
CENTER
 10
331.969208
 20
425.095428
 11
331.969208
 21
405.654022
  0
LINE
  8
0
  6
CENTER
 10
322.058319
 20
413.982147
 11
340.576874
 21
413.982147
  0
ARC
  8
0
  6
CONTINUOUS
 10
331.969208
 20
413.982147
 40
5.500000
 50
-59.465683
 51
187.598495
  0
ARC
  8
0
  6
CONTINUOUS
 10
251.969193
 20
413.982147
 40
5.500000
 50
-7.598608
 51
239.465683
  0
LINE
  8
0
  6
CENTER
 10
251.969193
 20
425.095428
 11
251.969193
 21
405.654022
  0
LINE
  8
0
  6
CENTER
 10
261.880096
 20
413.982147
 11
243.361526
 21
413.982147
  0
ARC
  8
0
  6
CONTINUOUS
 10
251.969193
 20
313.982147
 40
5.500000
 50
-239.465683
 51
7.598608
  0
LINE
  8
0
  6
CENTER
 10
261.880096
 20
313.982147
 11
243.361526
 21
313.982147
  0
LINE
  8
0
  6
CENTER
 10
251.969193
 20
302.868866
 11
251.969193
 21
322.310272
  0
LINE
  8
0
  6
CENTER
 10
331.969208
 20
302.868866
 11
331.969208
 21
322.310272
  0
LINE
  8
0
  6
CENTER
 10
322.058319
 20
313.982147
 11
340.576874
 21
313.982147
  0
ARC
  8
0
  6
CONTINUOUS
 10
331.969208
 20
313.982147
 40
5.500000
 50
-187.598602
 51
59.465683
  0
LINE
  8
0
  6
CONTINUOUS
 10
315.969208
 20
329.982147
 11
315.969208
 21
397.982147
  0
LINE
  8
0
  6
CONTINUOUS
 10
267.969208
 20
329.982147
 11
267.969208
 21
397.982147
  0
LINE
  8
0
  6
CONTINUOUS
 10
227.049484
 20
323.276245
 11
221.800873
 21
303.688080
  0
LINE
  8
0
  6
CONTINUOUS
 10
226.545792
 20
309.130127
 11
226.901794
 21
322.724915
  0
ARC
  8
0
  6
CONTINUOUS
 10
223.546799
 20
309.208710
 40
3.000000
 50
282.198792
 51
358.499786
  0
ARC
  8
0
  6
CONTINUOUS
 10
224.814590
 20
303.344116
 40
3.000000
 50
102.198799
 51
165.000031
  0
ARC
  8
0
  6
CONTINUOUS
 10
223.546799
 20
418.208710
 40
3.000000
 50
1.500200
 51
77.801201
  0
LINE
  8
0
  6
CONTINUOUS
 10
226.545792
 20
418.287292
 11
226.901794
 21
404.692505
  0
ARC
  8
0
  6
CONTINUOUS
 10
224.814590
 20
424.073273
 40
3.000000
 50
-164.999893
 51
-102.198799
  0
LINE
  8
0
  6
CONTINUOUS
 10
216.897995
 20
427.982147
 11
209.469193
 21
427.982147
  0
LINE
  8
0
  6
CONTINUOUS
 10
221.654358
 20
424.276245
 11
226.976196
 21
404.414673
  0
ARC
  8
0
  6
CONTINUOUS
 10
231.879120
 20
321.982147
 40
5.000000
 50
90.000000
 51
165.000031
  0
ARC
  8
0
  6
CONTINUOUS
 10
231.732574
 20
405.982147
 40
5.000000
 50
194.999847
 51
270.000000
  0
LINE
  8
0
  6
CONTINUOUS
 10
291.969208
 20
426.982147
 11
340.954315
 21
426.982147
  0
LINE
  8
0
  6
CONTINUOUS
 10
308.969208
 20
263.982147
 11
277.969208
 21
263.982147
  0
LINE
  8
0
  6
CONTINUOUS
 10
277.969208
 20
308.982147
 11
277.969208
 21
263.982147
  0
LINE
  8
0
  6
CONTINUOUS
 10
305.969208
 20
308.982147
 11
305.969208
 21
303.982147
  0
LINE
  8
0
  6
CONTINUOUS
 10
276.969208
 20
308.982147
 11
306.969208
 21
308.982147
  0
LINE
  8
0
  6
CONTINUOUS
 10
306.969208
 20
310.982147
 11
306.969208
 21
308.982147
  0
LINE
  8
0
  6
CONTINUOUS
 10
276.969208
 20
310.982147
 11
276.969208
 21
308.982147
  0
LINE
  8
0
  6
CONTINUOUS
 10
305.385620
 20
303.982147
 11
308.969208
 21
303.982147
  0
LINE
  8
0
  6
CONTINUOUS
 10
305.385620
 20
303.982147
 11
305.385620
 21
263.982147
  0
LINE
  8
0
  6
CONTINUOUS
 10
308.969208
 20
263.982147
 11
308.969208
 21
303.982147
  0
LINE
  8
0
  6
CONTINUOUS
 10
308.969208
 20
300.982147
 11
340.954315
 21
300.982147
  0
LINE
  8
0
  6
CONTINUOUS
 10
209.469193
 20
299.982147
 11
209.469193
 21
427.982147
  0
LINE
  8
0
  6
CENTER
 10
-11.866016
 20
363.982147
 11
369.873077
 21
363.982147
  0
LINE
  8
0
  6
CONTINUOUS
 10
209.469193
 20
299.982147
 11
216.971237
 21
299.982147
  0
ARC
  8
0
  6
CONTINUOUS
 10
216.971237
 20
304.982147
 40
5.000000
 50
270.000000
 51
345.000031
  0
ARC
  8
0
  6
CONTINUOUS
 10
216.824722
 20
422.982147
 40
5.000000
 50
14.999846
 51
90.000000
  0
LINE
  8
0
  6
CONTINUOUS
 10
229.469193
 20
363.982147
 11
230.063583
 21
398.034515
  0
LINE
  8
0
  6
CONTINUOUS
 10
229.469193
 20
363.982147
 11
230.063583
 21
329.929810
  0
ARC
  8
0
  6
CONTINUOUS
 10
233.063126
 20
397.982147
 40
3.000000
 50
90.000000
 51
179.000000
  0
ARC
  8
0
  6
CONTINUOUS
 10
233.063126
 20
329.982147
 40
3.000000
 50
181.000000
 51
270.000000
  0
LINE
  8
0
  6
CONTINUOUS
 10
209.469193
 20
427.982117
 11
209.469193
 21
299.982208
  0
LINE
  8
0
  6
CONTINUOUS
 10
167.969131
 20
309.627167
 11
167.969193
 21
418.350189
  0
LINE
  8
0
  6
CONTINUOUS
 10
198.917374
 20
300.258453
 11
209.469193
 21
299.982147
  0
LINE
  8
0
  6
CONTINUOUS
 10
165.047440
 20
306.628204
 11
159.469193
 21
306.482147
  0
ARC
  8
0
  6
CONTINUOUS
 10
164.968948
 20
309.627167
 40
3.000000
 50
-88.499977
 51
0.000000
  0
LINE
  8
0
  6
CONTINUOUS
 10
198.917145
 20
427.705872
 11
209.469193
 21
427.982147
  0
ARC
  8
0
  6
CONTINUOUS
 10
198.969681
 20
302.257324
 40
2.000000
 50
180.000000
 51
268.500092
  0
LINE
  8
0
  6
CONTINUOUS
 10
196.969437
 20
425.399506
 11
196.969437
 21
425.706970
  0
ARC
  8
0
  6
CONTINUOUS
 10
198.969482
 20
425.706970
 40
2.000000
 50
91.499924
 51
180.000000
  0
LINE
  8
0
  6
CONTINUOUS
 10
196.969437
 20
422.464142
 11
196.969437
 21
425.706970
  0
LINE
  8
0
  6
CONTINUOUS
 10
209.469193
 20
427.982147
 11
209.469193
 21
299.982147
  0
ARC
  8
0
  6
CONTINUOUS
 10
164.968948
 20
418.337128
 40
3.000000
 50
0.000000
 51
88.499977
  0
LINE
  8
0
  6
CONTINUOUS
 10
165.047440
 20
421.336090
 11
159.469193
 21
421.482147
  0
LINE
  8
0
  6
CONTINUOUS
 10
159.469193
 20
421.482147
 11
196.969437
 21
422.464142
  0
LINE
  8
0
  6
CONTINUOUS
 10
159.469193
 20
306.482147
 11
196.969437
 21
305.500183
  0
LINE
  8
0
  6
CONTINUOUS
 10
196.969437
 20
305.500183
 11
196.969437
 21
302.257355
  0
LINE
  8
0
  6
CONTINUOUS
 10
170.061615
 20
404.552155
 11
201.329010
 21
404.552155
  0
LINE
  8
0
  6
CONTINUOUS
 10
170.061615
 20
413.452148
 11
201.329010
 21
413.452148
  0
LINE
  8
0
  6
CONTINUOUS
 10
203.469193
 20
411.952148
 11
203.469193
 21
406.052155
  0
LINE
  8
0
  6
CONTINUOUS
 10
170.061615
 20
323.412170
 11
201.329010
 21
323.412170
  0
LINE
  8
0
  6
CONTINUOUS
 10
170.061615
 20
314.512146
 11
201.329010
 21
314.512146
  0
LINE
  8
0
  6
CONTINUOUS
 10
203.469193
 20
316.012146
 11
203.469193
 21
321.912170
  0
LINE
  8
0
  6
CONTINUOUS
 10
159.469193
 20
421.482208
 11
159.469315
 21
306.482147
  0
LINE
  8
0
  6
CONTINUOUS
 10
54.469357
 20
421.482147
 11
159.469315
 21
421.482147
  0
LINE
  8
0
  6
CONTINUOUS
 10
54.469357
 20
306.482147
 11
62.469357
 21
306.482147
  0
LINE
  8
0
  6
CONTINUOUS
 10
54.469357
 20
421.982147
 11
54.469357
 21
305.982147
  0
LINE
  8
0
  6
CONTINUOUS
 10
62.469357
 20
421.482147
 11
62.469357
 21
389.982056
  0
LINE
  8
0
  6
CONTINUOUS
 10
62.469357
 20
389.982056
 11
151.469376
 21
389.982056
  0
LINE
  8
0
  6
CONTINUOUS
 10
62.469357
 20
397.752686
 11
151.469376
 21
397.752686
  0
LINE
  8
0
  6
CONTINUOUS
 10
63.469357
 20
401.032135
 11
150.469376
 21
401.032135
  0
LINE
  8
0
  6
CONTINUOUS
 10
62.469357
 20
405.847168
 11
151.469376
 21
405.847168
  0
LINE
  8
0
  6
CONTINUOUS
 10
63.469357
 20
407.835052
 11
150.469376
 21
407.835052
  0
LINE
  8
0
  6
CONTINUOUS
 10
62.469357
 20
411.877747
 11
151.469376
 21
411.877747
  0
LINE
  8
0
  6
CONTINUOUS
 10
62.469357
 20
416.408691
 11
151.469376
 21
416.408691
  0
LINE
  8
0
  6
CONTINUOUS
 10
62.469357
 20
419.285767
 11
151.469376
 21
419.285767
  0
LINE
  8
0
  6
CONTINUOUS
 10
62.469357
 20
420.941132
 11
151.469376
 21
420.941132
  0
LINE
  8
0
  6
CONTINUOUS
 10
151.469376
 20
421.482147
 11
151.469376
 21
389.982056
  0
LINE
  8
0
  6
CONTINUOUS
 10
62.469357
 20
306.482147
 11
62.469357
 21
337.982269
  0
LINE
  8
0
  6
CONTINUOUS
 10
62.469357
 20
337.982269
 11
151.469376
 21
337.982269
  0
LINE
  8
0
  6
CONTINUOUS
 10
62.469357
 20
330.211670
 11
151.469376
 21
330.211670
  0
LINE
  8
0
  6
CONTINUOUS
 10
63.469357
 20
326.932190
 11
150.469376
 21
326.932190
  0
LINE
  8
0
  6
CONTINUOUS
 10
62.469357
 20
322.117157
 11
151.469376
 21
322.117157
  0
LINE
  8
0
  6
CONTINUOUS
 10
63.469357
 20
320.129272
 11
150.469376
 21
320.129272
  0
LINE
  8
0
  6
CONTINUOUS
 10
62.469357
 20
316.086609
 11
151.469376
 21
316.086609
  0
LINE
  8
0
  6
CONTINUOUS
 10
129.469315
 20
311.555664
 11
151.469376
 21
311.555664
  0
LINE
  8
0
  6
CONTINUOUS
 10
129.469315
 20
308.678528
 11
151.469376
 21
308.678528
  0
LINE
  8
0
  6
CONTINUOUS
 10
129.969315
 20
307.023193
 11
151.469376
 21
307.023193
  0
LINE
  8
0
  6
CONTINUOUS
 10
151.469376
 20
306.482147
 11
151.469376
 21
337.982269
  0
LINE
  8
0
  6
CONTINUOUS
 10
63.469357
 20
307.982147
 11
128.469376
 21
307.982147
  0
LINE
  8
0
  6
CONTINUOUS
 10
129.969315
 20
306.482147
 11
159.469315
 21
306.482147
  0
LINE
  8
0
  6
CONTINUOUS
 10
129.469315
 20
306.982208
 11
129.469315
 21
313.180786
  0
ARC
  8
0
  6
CONTINUOUS
 10
129.969315
 20
306.982208
 40
0.500000
 50
-180.000000
 51
-90.000000
  0
ARC
  8
0
  6
CONTINUOUS
 10
129.969315
 20
307.523224
 40
0.500000
 50
-180.000000
 51
-90.000000
  0
LINE
  8
0
  6
CONTINUOUS
 10
62.469357
 20
313.180786
 11
129.469315
 21
313.180786
  0
ARC
  8
0
  6
CONTINUOUS
 10
128.469376
 20
308.982147
 40
1.000000
 50
-90.000000
 51
0.000000
  0
ARC
  8
0
  6
CONTINUOUS
 10
63.469357
 20
308.982147
 40
1.000000
 50
-180.000000
 51
-90.000000
  0
LINE
  8
0
  6
CONTINUOUS
 10
56.531700
 20
293.560333
 11
55.469257
 21
253.482162
  0
LINE
  8
0
  6
CONTINUOUS
 10
124.406303
 20
293.560333
 11
125.469254
 21
253.482162
  0
LINE
  8
0
  6
CONTINUOUS
 10
114.495056
 20
306.482147
 11
66.443359
 21
306.482147
  0
LINE
  8
0
  6
CONTINUOUS
 10
121.420555
 20
296.482147
 11
103.780525
 21
296.482147
  0
ARC
  8
0
  6
CONTINUOUS
 10
59.517357
 20
293.482147
 40
3.000000
 50
90.000000
 51
178.500275
  0
ARC
  8
0
  6
CONTINUOUS
 10
121.420555
 20
293.482147
 40
3.000000
 50
1.499900
 51
90.000000
  0
LINE
  8
0
  6
CONTINUOUS
 10
65.443695
 20
305.508331
 11
65.258347
 21
298.429810
  0
LINE
  8
0
  6
CONTINUOUS
 10
115.494713
 20
305.508331
 11
115.680061
 21
298.429810
  0
ARC
  8
0
  6
CONTINUOUS
 10
114.495056
 20
305.482147
 40
1.000000
 50
1.499300
 51
90.000000
  0
ARC
  8
0
  6
CONTINUOUS
 10
66.443359
 20
305.482147
 40
1.000000
 50
90.000000
 51
178.499405
  0
LINE
  8
0
  6
CONTINUOUS
 10
59.517456
 20
296.482147
 11
77.157982
 21
296.482147
  0
ARC
  8
0
  6
CONTINUOUS
 10
90.469254
 20
363.982147
 40
68.800003
 50
-101.155815
 51
-78.844185
  0
LINE
  8
0
  6
CENTER
 10
90.469254
 20
310.308258
 11
90.469254
 21
238.431870
  0
LINE
  8
0
  6
CONTINUOUS
 10
57.969257
 20
247.482162
 11
122.969254
 21
247.482162
  0
LINE
  8
0
  6
CONTINUOUS
 10
125.469254
 20
249.982162
 11
125.469254
 21
252.482162
  0
LINE
  8
0
  6
CONTINUOUS
 10
55.469257
 20
249.982162
 11
55.469257
 21
252.482162
  0
LINE
  8
0
  6
CONTINUOUS
 10
125.469254
 20
252.482162
 11
55.469257
 21
252.482162
  0
LINE
  8
0
  6
CONTINUOUS
 10
125.469254
 20
253.482162
 11
55.469257
 21
253.482162
  0
LINE
  8
0
  6
CONTINUOUS
 10
125.469254
 20
252.482162
 11
125.469254
 21
253.482162
  0
LINE
  8
0
  6
CONTINUOUS
 10
55.469257
 20
252.482162
 11
55.469257
 21
253.482162
  0
LINE
  8
0
  6
CENTER
 10
60.469257
 20
269.482147
 11
23.549807
 21
269.482147
  0
LINE
  8
0
  6
CONTINUOUS
 10
116.956352
 20
250.482162
 11
124.469254
 21
250.482162
  0
LINE
  8
0
  6
CONTINUOUS
 10
63.982197
 20
250.482162
 11
56.469257
 21
250.482162
  0
LINE
  8
0
  6
CONTINUOUS
 10
116.456558
 20
249.995255
 11
116.416260
 21
248.455963
  0
ARC
  8
0
  6
CONTINUOUS
 10
116.956352
 20
249.982162
 40
0.500000
 50
90.000000
 51
178.500000
  0
ARC
  8
0
  6
CONTINUOUS
 10
115.416557
 20
248.482162
 40
1.000000
 50
-90.000000
 51
-1.499802
  0
ARC
  8
0
  6
CONTINUOUS
 10
124.469254
 20
251.482162
 40
1.000000
 50
-90.000000
 51
0.000000
  0
ARC
  8
0
  6
CONTINUOUS
 10
122.969254
 20
249.982162
 40
2.500000
 50
-90.000000
 51
0.000000
  0
LINE
  8
0
  6
CONTINUOUS
 10
64.482079
 20
249.995255
 11
64.522354
 21
248.455963
  0
ARC
  8
0
  6
CONTINUOUS
 10
65.521988
 20
248.482162
 40
1.000000
 50
-178.499603
 51
-90.000000
  0
ARC
  8
0
  6
CONTINUOUS
 10
63.982197
 20
249.982162
 40
0.500000
 50
1.500198
 51
90.000000
  0
ARC
  8
0
  6
CONTINUOUS
 10
56.469257
 20
251.482162
 40
1.000000
 50
-180.000000
 51
-90.000000
  0
ARC
  8
0
  6
CONTINUOUS
 10
57.969257
 20
249.982162
 40
2.500000
 50
-180.000000
 51
-90.000000
  0
ARC
  8
0
  6
CONTINUOUS
 10
120.469254
 20
250.482162
 40
3.000000
 50
-180.000000
 51
0.000000
  0
LINE
  8
0
  6
CONTINUOUS
 10
123.427254
 20
249.982162
 11
117.511253
 21
249.982162
  0
LINE
  8
0
  6
CONTINUOUS
 10
120.469254
 20
247.982162
 11
120.188156
 21
247.495361
  0
LINE
  8
0
  6
CONTINUOUS
 10
120.469254
 20
247.982162
 11
120.750359
 21
247.495361
  0
ARC
  8
0
  6
CONTINUOUS
 10
60.469257
 20
250.482162
 40
3.000000
 50
-180.000000
 51
0.000000
  0
LINE
  8
0
  6
CONTINUOUS
 10
63.427265
 20
249.982162
 11
57.511246
 21
249.982162
  0
LINE
  8
0
  6
CONTINUOUS
 10
60.469257
 20
247.982162
 11
60.188187
 21
247.495361
  0
LINE
  8
0
  6
CONTINUOUS
 10
60.469257
 20
247.982162
 11
60.750385
 21
247.495361
  0
LINE
  8
0
  6
CONTINUOUS
 10
113.469254
 20
306.482147
 11
113.469254
 21
307.982147
  0
LINE
  8
0
  6
CONTINUOUS
 10
67.469254
 20
306.482147
 11
67.469254
 21
307.982147
  0
LINE
  8
0
  6
CONTINUOUS
 10
27.469307
 20
283.982300
 11
27.469307
 21
254.982208
  0
LINE
  8
0
  6
CONTINUOUS
 10
35.469307
 20
283.982300
 11
35.469307
 21
254.982208
  0
LINE
  8
0
  6
CONTINUOUS
 10
27.469307
 20
283.982300
 11
35.469307
 21
283.982300
  0
LINE
  8
0
  6
CONTINUOUS
 10
27.469307
 20
254.982208
 11
35.469307
 21
254.982208
  0
LINE
  8
0
  6
CONTINUOUS
 10
44.469307
 20
282.482300
 11
44.469307
 21
256.482208
  0
LINE
  8
0
  6
CONTINUOUS
 10
35.469307
 20
282.482300
 11
44.469307
 21
282.482300
  0
LINE
  8
0
  6
CONTINUOUS
 10
35.469307
 20
256.482208
 11
44.469307
 21
256.482208
  0
LINE
  8
0
  6
CONTINUOUS
 10
44.469307
 20
280.982300
 11
49.469307
 21
280.982300
  0
LINE
  8
0
  6
CONTINUOUS
 10
44.469307
 20
257.982208
 11
49.469307
 21
257.982208
  0
LINE
  8
0
  6
CONTINUOUS
 10
49.469307
 20
282.982300
 11
49.469307
 21
255.982208
  0
LINE
  8
0
  6
CONTINUOUS
 10
53.969307
 20
283.982300
 11
53.969307
 21
254.982208
  0
LINE
  8
0
  6
CONTINUOUS
 10
49.469307
 20
282.982300
 11
53.969307
 21
282.982300
  0
LINE
  8
0
  6
CONTINUOUS
 10
49.469307
 20
255.982208
 11
53.969307
 21
255.982208
  0
LINE
  8
0
  6
CONTINUOUS
 10
53.969307
 20
283.982300
 11
56.277798
 21
283.982300
  0
LINE
  8
0
  6
CONTINUOUS
 10
53.969307
 20
254.982208
 11
55.509022
 21
254.982208
  0
LINE
  8
0
  6
CONTINUOUS
 10
27.469307
 20
277.482300
 11
35.469307
 21
277.482300
  0
LINE
  8
0
  6
CONTINUOUS
 10
27.469307
 20
261.482208
 11
35.469307
 21
261.482208
  0
ARC
  8
0
  6
CONTINUOUS
 10
63.259033
 20
298.482147
 40
2.000000
 50
-90.000000
 51
-1.499917
  0
ARC
  8
0
  6
CONTINUOUS
 10
117.679382
 20
298.482147
 40
2.000000
 50
-178.500046
 51
-90.000000
  0
LINE
  8
0
  6
CONTINUOUS
 10
159.469299
 20
170.127213
 11
159.469299
 21
55.127220
  0
LINE
  8
0
  6
CONTINUOUS
 10
159.469299
 20
170.127213
 11
159.469299
 21
55.127220
  0
LINE
  8
0
  6
CONTINUOUS
 10
159.469299
 20
170.127106
 11
159.469299
 21
55.127102
  0
LINE
  8
0
  6
CONTINUOUS
 10
54.469296
 20
170.627060
 11
54.469296
 21
127.127167
  0
LINE
  8
0
  6
CONTINUOUS
 10
54.469296
 20
170.127213
 11
159.469299
 21
170.127213
  0
LINE
  8
0
  6
CONTINUOUS
 10
54.469296
 20
55.127220
 11
75.969345
 21
55.127220
  0
LINE
  8
0
  6
CONTINUOUS
 10
62.469296
 20
163.913223
 11
62.469296
 21
159.627213
  0
LINE
  8
0
  6
CONTINUOUS
 10
151.469299
 20
163.913223
 11
151.469299
 21
159.627213
  0
LINE
  8
0
  6
CONTINUOUS
 10
127.469299
 20
139.627213
 11
125.469345
 21
139.627213
  0
LINE
  8
0
  6
CONTINUOUS
 10
127.469299
 20
85.627220
 11
125.469345
 21
85.627220
  0
LINE
  8
0
  6
CONTINUOUS
 10
129.469299
 20
87.627220
 11
129.469299
 21
137.627213
  0
LINE
  8
0
  6
CONTINUOUS
 10
129.469299
 20
119.427223
 11
151.469299
 21
119.427223
  0
LINE
  8
0
  6
CONTINUOUS
 10
129.469299
 20
105.827217
 11
151.469299
 21
105.827217
  0
LINE
  8
0
  6
CONTINUOUS
 10
129.469299
 20
121.427223
 11
151.469299
 21
121.427223
  0
LINE
  8
0
  6
CONTINUOUS
 10
129.469299
 20
103.827217
 11
151.469299
 21
103.827217
  0
LINE
  8
0
  6
CONTINUOUS
 10
129.469299
 20
127.227219
 11
151.469299
 21
127.227219
  0
LINE
  8
0
  6
CONTINUOUS
 10
129.469299
 20
129.227219
 11
151.469299
 21
129.227219
  0
LINE
  8
0
  6
CONTINUOUS
 10
129.469299
 20
98.027222
 11
151.469299
 21
98.027222
  0
LINE
  8
0
  6
CONTINUOUS
 10
129.469299
 20
96.027222
 11
151.469299
 21
96.027222
  0
LINE
  8
0
  6
CONTINUOUS
 10
129.469299
 20
135.027222
 11
151.469299
 21
135.027222
  0
LINE
  8
0
  6
CONTINUOUS
 10
129.469299
 20
90.227219
 11
151.469299
 21
90.227219
  0
LINE
  8
0
  6
CONTINUOUS
 10
129.469299
 20
137.027222
 11
151.469299
 21
137.027222
  0
LINE
  8
0
  6
CONTINUOUS
 10
129.469299
 20
88.227219
 11
151.469299
 21
88.227219
  0
LINE
  8
0
  6
CONTINUOUS
 10
62.469296
 20
150.627213
 11
151.469299
 21
150.627213
  0
LINE
  8
0
  6
CONTINUOUS
 10
62.469296
 20
74.627220
 11
87.969315
 21
74.627220
  0
LINE
  8
0
  6
CONTINUOUS
 10
62.469296
 20
152.627213
 11
151.469299
 21
152.627213
  0
LINE
  8
0
  6
CONTINUOUS
 10
62.469296
 20
72.627220
 11
76.969345
 21
72.627220
  0
LINE
  8
0
  6
CONTINUOUS
 10
62.469296
 20
157.627213
 11
151.469299
 21
157.627213
  0
LINE
  8
0
  6
CONTINUOUS
 10
62.469296
 20
67.627220
 11
86.653519
 21
67.627220
  0
LINE
  8
0
  6
CONTINUOUS
 10
62.469296
 20
159.627213
 11
151.469299
 21
159.627213
  0
LINE
  8
0
  6
CONTINUOUS
 10
62.469296
 20
65.627220
 11
77.469345
 21
65.627220
  0
LINE
  8
0
  6
CONTINUOUS
 10
62.469296
 20
163.913223
 11
151.469299
 21
163.913223
  0
LINE
  8
0
  6
CONTINUOUS
 10
87.897362
 20
61.341221
 11
103.469444
 21
61.341221
  0
LINE
  8
0
  6
CONTINUOUS
 10
62.469296
 20
62.585503
 11
62.469296
 21
65.627220
  0
LINE
  8
0
  6
CONTINUOUS
 10
62.469296
 20
157.627213
 11
62.469296
 21
152.627213
  0
LINE
  8
0
  6
CONTINUOUS
 10
62.469296
 20
150.627213
 11
62.469296
 21
147.627213
  0
LINE
  8
0
  6
CONTINUOUS
 10
62.469296
 20
77.627220
 11
62.469296
 21
74.627220
  0
LINE
  8
0
  6
CONTINUOUS
 10
62.469296
 20
72.627220
 11
62.469296
 21
67.627220
  0
LINE
  8
0
  6
CONTINUOUS
 10
151.469299
 20
61.341221
 11
151.469299
 21
65.627220
  0
LINE
  8
0
  6
CONTINUOUS
 10
151.469299
 20
67.627220
 11
151.469299
 21
72.627220
  0
LINE
  8
0
  6
CONTINUOUS
 10
151.469299
 20
74.627220
 11
151.469299
 21
80.127220
  0
LINE
  8
0
  6
CONTINUOUS
 10
151.469299
 20
82.127220
 11
151.469299
 21
88.227219
  0
LINE
  8
0
  6
CONTINUOUS
 10
151.469299
 20
90.227219
 11
151.469299
 21
96.027206
  0
LINE
  8
0
  6
CONTINUOUS
 10
151.469299
 20
98.027214
 11
151.469299
 21
103.827225
  0
LINE
  8
0
  6
CONTINUOUS
 10
129.469299
 20
113.627220
 11
151.469299
 21
113.627220
  0
LINE
  8
0
  6
CONTINUOUS
 10
129.469299
 20
111.627220
 11
151.469299
 21
111.627220
  0
LINE
  8
0
  6
CONTINUOUS
 10
151.469299
 20
105.827225
 11
151.469299
 21
111.627220
  0
LINE
  8
0
  6
CONTINUOUS
 10
151.469299
 20
113.627220
 11
151.469299
 21
119.427223
  0
LINE
  8
0
  6
CONTINUOUS
 10
151.469299
 20
121.427216
 11
151.469299
 21
127.227226
  0
LINE
  8
0
  6
CONTINUOUS
 10
151.469299
 20
129.227219
 11
151.469299
 21
135.027222
  0
LINE
  8
0
  6
CONTINUOUS
 10
151.469299
 20
137.027222
 11
151.469299
 21
143.127213
  0
LINE
  8
0
  6
CONTINUOUS
 10
151.469299
 20
145.127213
 11
151.469299
 21
150.627213
  0
LINE
  8
0
  6
CONTINUOUS
 10
151.469299
 20
152.627213
 11
151.469299
 21
157.627213
  0
ARC
  8
0
  6
CONTINUOUS
 10
127.469299
 20
137.627213
 40
2.000000
 50
0.000000
 51
90.000000
  0
ARC
  8
0
  6
CONTINUOUS
 10
127.469299
 20
87.627220
 40
2.000000
 50
-90.000000
 51
0.000000
  0
LINE
  8
0
  6
CONTINUOUS
 10
151.469299
 20
82.127220
 11
125.469345
 21
82.127220
  0
LINE
  8
0
  6
CONTINUOUS
 10
151.469299
 20
80.127220
 11
125.469345
 21
80.127220
  0
LINE
  8
0
  6
CONTINUOUS
 10
151.469299
 20
74.627220
 11
103.969444
 21
74.627220
  0
LINE
  8
0
  6
CONTINUOUS
 10
151.469299
 20
72.627220
 11
92.969315
 21
72.627083
  0
LINE
  8
0
  6
CONTINUOUS
 10
151.469299
 20
67.627220
 11
101.969444
 21
67.627220
  0
LINE
  8
0
  6
CONTINUOUS
 10
151.469299
 20
65.627220
 11
91.257744
 21
65.627220
  0
LINE
  8
0
  6
CONTINUOUS
 10
151.469299
 20
61.341221
 11
103.469444
 21
61.341221
  0
LINE
  8
0
  6
CONTINUOUS
 10
159.469299
 20
55.127220
 11
75.969345
 21
55.127220
  0
LINE
  8
0
  6
CONTINUOUS
 10
57.969307
 20
147.627213
 11
122.969246
 21
147.627213
  0
LINE
  8
0
  6
CONTINUOUS
 10
122.969345
 20
77.627220
 11
57.969296
 21
77.627220
  0
LINE
  8
0
  6
CONTINUOUS
 10
55.469296
 20
104.900620
 11
55.469296
 21
145.127213
  0
LINE
  8
0
  6
CONTINUOUS
 10
125.469345
 20
104.900620
 11
125.469345
 21
145.127213
  0
ARC
  8
0
  6
CONTINUOUS
 10
122.969345
 20
145.127213
 40
2.500000
 50
0.000000
 51
90.000000
  0
ARC
  8
0
  6
CONTINUOUS
 10
57.969326
 20
145.127213
 40
2.500000
 50
90.000000
 51
180.000000
  0
ARC
  8
0
  6
CONTINUOUS
 10
57.969307
 20
80.127220
 40
2.500000
 50
180.000000
 51
270.000000
  0
ARC
  8
0
  6
CONTINUOUS
 10
122.969345
 20
80.127213
 40
2.500000
 50
-90.000000
 51
0.000000
  0
ARC
  8
0
  6
CONTINUOUS
 10
60.469307
 20
142.627213
 40
4.000000
 50
-90.000000
 51
0.000000
  0
ARC
  8
0
  6
CONTINUOUS
 10
120.469345
 20
142.627213
 40
4.000000
 50
180.000000
 51
270.000000
  0
ARC
  8
0
  6
CONTINUOUS
 10
120.469345
 20
82.627220
 40
4.000000
 50
90.000000
 51
180.000000
  0
ARC
  8
0
  6
CONTINUOUS
 10
60.469307
 20
82.627220
 40
4.000000
 50
0.000000
 51
90.000000
  0
LINE
  8
0
  6
CONTINUOUS
 10
120.469345
 20
138.627213
 11
122.969345
 21
138.627213
  0
LINE
  8
0
  6
CONTINUOUS
 10
60.469296
 20
138.627213
 11
57.969296
 21
138.627213
  0
LINE
  8
0
  6
CONTINUOUS
 10
60.469296
 20
86.627220
 11
57.969326
 21
86.627220
  0
LINE
  8
0
  6
CONTINUOUS
 10
120.469345
 20
86.627220
 11
122.969345
 21
86.627220
  0
LINE
  8
0
  6
CONTINUOUS
 10
116.469345
 20
142.627213
 11
116.469345
 21
145.127213
  0
LINE
  8
0
  6
CONTINUOUS
 10
64.469307
 20
142.627213
 11
64.469307
 21
145.127213
  0
LINE
  8
0
  6
CONTINUOUS
 10
64.469307
 20
82.627220
 11
64.469307
 21
80.127213
  0
LINE
  8
0
  6
CONTINUOUS
 10
116.469345
 20
82.627197
 11
116.469345
 21
80.127213
  0
ARC
  8
0
  6
CONTINUOUS
 10
57.969307
 20
136.127213
 40
2.500000
 50
90.000000
 51
180.000000
  0
ARC
  8
0
  6
CONTINUOUS
 10
66.969330
 20
145.127213
 40
2.500000
 50
90.000000
 51
180.000000
  0
ARC
  8
0
  6
CONTINUOUS
 10
113.969345
 20
145.127213
 40
2.500000
 50
0.000000
 51
90.000000
  0
ARC
  8
0
  6
CONTINUOUS
 10
122.969345
 20
136.127213
 40
2.500000
 50
0.000000
 51
90.000000
  0
ARC
  8
0
  6
CONTINUOUS
 10
57.969307
 20
89.127220
 40
2.500000
 50
180.000000
 51
270.000000
  0
ARC
  8
0
  6
CONTINUOUS
 10
66.969307
 20
80.127220
 40
2.500000
 50
180.000000
 51
270.000000
  0
ARC
  8
0
  6
CONTINUOUS
 10
122.969345
 20
89.127213
 40
2.500000
 50
-90.000000
 51
0.000000
  0
ARC
  8
0
  6
CONTINUOUS
 10
113.969345
 20
80.127213
 40
2.500000
 50
-90.000000
 51
0.000000
  0
LINE
  8
0
  6
CONTINUOUS
 10
125.469345
 20
80.127220
 11
125.469345
 21
104.900620
  0
LINE
  8
0
  6
CONTINUOUS
 10
55.469307
 20
80.127220
 11
55.469296
 21
104.900620
  0
LINE
  8
0
  6
CONTINUOUS
 10
27.469347
 20
98.127068
 11
27.469347
 21
127.127167
  0
LINE
  8
0
  6
CONTINUOUS
 10
35.469345
 20
98.127068
 11
35.469345
 21
127.127167
  0
LINE
  8
0
  6
CONTINUOUS
 10
27.469347
 20
98.127068
 11
35.469345
 21
98.127068
  0
LINE
  8
0
  6
CONTINUOUS
 10
27.469347
 20
127.127167
 11
35.469345
 21
127.127167
  0
LINE
  8
0
  6
CONTINUOUS
 10
44.469345
 20
99.627068
 11
44.469345
 21
125.627167
  0
LINE
  8
0
  6
CONTINUOUS
 10
35.469345
 20
99.627068
 11
44.469345
 21
99.627068
  0
LINE
  8
0
  6
CONTINUOUS
 10
35.469345
 20
125.627167
 11
44.469345
 21
125.627167
  0
LINE
  8
0
  6
CONTINUOUS
 10
44.469345
 20
101.127068
 11
49.469345
 21
101.127068
  0
LINE
  8
0
  6
CONTINUOUS
 10
44.469345
 20
124.127167
 11
49.469345
 21
124.127167
  0
LINE
  8
0
  6
CONTINUOUS
 10
49.469345
 20
99.127068
 11
49.469345
 21
126.127167
  0
LINE
  8
0
  6
CONTINUOUS
 10
53.969345
 20
98.127068
 11
53.969345
 21
127.127167
  0
LINE
  8
0
  6
CONTINUOUS
 10
49.469345
 20
99.127068
 11
53.969345
 21
99.127068
  0
LINE
  8
0
  6
CONTINUOUS
 10
49.469345
 20
126.127167
 11
53.969345
 21
126.127167
  0
LINE
  8
0
  6
CONTINUOUS
 10
53.969345
 20
98.127068
 11
55.508648
 21
98.127068
  0
LINE
  8
0
  6
CONTINUOUS
 10
53.969345
 20
127.127167
 11
55.469296
 21
127.127167
  0
LINE
  8
0
  6
CONTINUOUS
 10
27.469347
 20
104.627068
 11
35.469345
 21
104.627068
  0
LINE
  8
0
  6
CONTINUOUS
 10
27.469347
 20
120.627167
 11
35.469345
 21
120.627167
  0
LINE
  8
0
  6
CENTER
 10
90.469299
 20
68.252220
 11
90.469299
 21
159.104614
  0
LINE
  8
0
  6
CONTINUOUS
 10
125.469345
 20
143.127213
 11
151.469299
 21
143.127213
  0
LINE
  8
0
  6
CONTINUOUS
 10
125.469345
 20
145.127213
 11
151.469299
 21
145.127213
  0
LINE
  8
0
  6
CONTINUOUS
 10
54.469296
 20
98.127068
 11
54.469296
 21
62.585503
  0
LINE
  8
0
  6
CONTINUOUS
 10
475.122345
 20
78.689453
 11
435.044189
 21
77.627007
  0
LINE
  8
0
  6
CONTINUOUS
 10
475.122345
 20
146.564056
 11
435.044189
 21
147.627014
  0
LINE
  8
0
  6
CONTINUOUS
 10
488.044189
 20
136.652802
 11
488.044189
 21
135.127014
  0
LINE
  8
0
  6
CONTINUOUS
 10
478.044189
 20
143.578308
 11
478.044189
 21
135.127014
  0
ARC
  8
0
  6
CONTINUOUS
 10
475.044189
 20
81.675110
 40
3.000000
 50
-88.500267
 51
0.000000
  0
ARC
  8
0
  6
CONTINUOUS
 10
475.044189
 20
143.578308
 40
3.000000
 50
0.000000
 51
88.500099
  0
LINE
  8
0
  6
CONTINUOUS
 10
481.586639
 20
87.457863
 11
479.991821
 21
87.416100
  0
LINE
  8
0
  6
CONTINUOUS
 10
482.898376
 20
137.761703
 11
479.991821
 21
137.837814
  0
ARC
  8
0
  6
CONTINUOUS
 10
487.044189
 20
136.652802
 40
1.000000
 50
0.000000
 51
88.500702
  0
LINE
  8
0
  6
CONTINUOUS
 10
478.044189
 20
81.675209
 11
478.044189
 21
99.315735
  0
LINE
  8
0
  6
CONTINUOUS
 10
487.070374
 20
137.652512
 11
482.898376
 21
137.761703
  0
LINE
  8
0
  6
CONTINUOUS
 10
429.044189
 20
80.127007
 11
429.044189
 21
145.127014
  0
LINE
  8
0
  6
CONTINUOUS
 10
431.544189
 20
147.627014
 11
434.044189
 21
147.627014
  0
LINE
  8
0
  6
CONTINUOUS
 10
431.544189
 20
77.627007
 11
434.044189
 21
77.627007
  0
LINE
  8
0
  6
CONTINUOUS
 10
434.044189
 20
147.627014
 11
434.044189
 21
77.627007
  0
LINE
  8
0
  6
CONTINUOUS
 10
435.044189
 20
147.627014
 11
435.044189
 21
77.627007
  0
LINE
  8
0
  6
CONTINUOUS
 10
434.044189
 20
147.627014
 11
435.044189
 21
147.627014
  0
LINE
  8
0
  6
CONTINUOUS
 10
434.044189
 20
77.627007
 11
435.044189
 21
77.627007
  0
LINE
  8
0
  6
CENTER
 10
451.044189
 20
155.084015
 11
451.044189
 21
64.746246
  0
LINE
  8
0
  6
CONTINUOUS
 10
432.044189
 20
139.114105
 11
432.044189
 21
146.627014
  0
LINE
  8
0
  6
CONTINUOUS
 10
432.044189
 20
86.139946
 11
432.044189
 21
78.627007
  0
LINE
  8
0
  6
CONTINUOUS
 10
431.557281
 20
138.614304
 11
430.017975
 21
138.574005
  0
ARC
  8
0
  6
CONTINUOUS
 10
431.544189
 20
139.114105
 40
0.500000
 50
-88.500000
 51
0.000000
  0
ARC
  8
0
  6
CONTINUOUS
 10
430.044189
 20
137.574310
 40
1.000000
 50
91.499802
 51
180.000000
  0
ARC
  8
0
  6
CONTINUOUS
 10
433.044189
 20
146.627014
 40
1.000000
 50
90.000000
 51
180.000000
  0
ARC
  8
0
  6
CONTINUOUS
 10
431.544189
 20
145.127014
 40
2.500000
 50
90.000000
 51
180.000000
  0
LINE
  8
0
  6
CONTINUOUS
 10
431.557281
 20
86.639832
 11
430.017975
 21
86.680107
  0
ARC
  8
0
  6
CONTINUOUS
 10
430.044189
 20
87.679741
 40
1.000000
 50
180.000000
 51
268.499603
  0
ARC
  8
0
  6
CONTINUOUS
 10
431.544189
 20
86.139946
 40
0.500000
 50
0.000000
 51
88.499802
  0
ARC
  8
0
  6
CONTINUOUS
 10
433.044189
 20
78.627007
 40
1.000000
 50
180.000000
 51
270.000000
  0
ARC
  8
0
  6
CONTINUOUS
 10
431.544189
 20
80.127007
 40
2.500000
 50
180.000000
 51
270.000000
  0
ARC
  8
0
  6
CONTINUOUS
 10
432.044189
 20
142.627014
 40
3.000000
 50
90.000000
 51
270.000000
  0
LINE
  8
0
  6
CONTINUOUS
 10
431.544189
 20
145.585007
 11
431.544189
 21
139.669006
  0
LINE
  8
0
  6
CONTINUOUS
 10
429.544189
 20
142.627014
 11
429.057373
 21
142.345901
  0
LINE
  8
0
  6
CONTINUOUS
 10
429.544189
 20
142.627014
 11
429.057373
 21
142.908112
  0
ARC
  8
0
  6
CONTINUOUS
 10
432.044189
 20
82.627007
 40
3.000000
 50
90.000000
 51
270.000000
  0
LINE
  8
0
  6
CONTINUOUS
 10
431.544189
 20
85.585022
 11
431.544189
 21
79.668999
  0
LINE
  8
0
  6
CONTINUOUS
 10
429.544189
 20
82.627007
 11
429.057373
 21
82.345940
  0
LINE
  8
0
  6
CONTINUOUS
 10
429.544189
 20
82.627007
 11
429.057373
 21
82.908134
  0
LINE
  8
0
  6
CONTINUOUS
 10
488.044189
 20
135.627014
 11
489.544189
 21
135.627014
  0
LINE
  8
0
  6
CONTINUOUS
 10
490.509308
 20
139.660706
 11
492.544189
 21
139.731766
  0
ARC
  8
0
  6
CONTINUOUS
 10
490.544189
 20
138.661331
 40
1.000000
 50
92.000458
 51
180.000000
  0
LINE
  8
0
  6
CONTINUOUS
 10
489.544189
 20
138.661331
 11
489.544189
 21
135.127014
  0
ARC
  8
0
  6
CONTINUOUS
 10
480.044189
 20
85.416786
 40
2.000000
 50
91.499916
 51
180.000000
  0
ARC
  8
0
  6
CONTINUOUS
 10
480.044189
 20
139.837128
 40
2.000000
 50
180.000000
 51
268.500031
  0
ARC
  8
0
  6
CONTINUOUS
 10
545.544189
 20
112.627007
 40
68.800003
 50
184.585220
 51
191.155807
  0
ARC
  8
0
  6
CONTINUOUS
 10
342.969360
 20
363.984894
 40
340.000000
 50
170.966705
 51
180.000000
  0
ARC
  8
0
  6
CONTINUOUS
 10
19.037558
 20
415.484711
 40
12.000000
 50
90.000000
 51
170.966904
  0
LINE
  8
0
  6
CONTINUOUS
 10
47.956268
 20
431.468964
 11
29.223772
 21
431.305481
  0
LINE
  8
0
  6
CONTINUOUS
 10
19.037357
 20
427.478302
 11
27.232557
 21
427.478302
  0
LINE
  8
0
  6
CONTINUOUS
 10
49.469357
 20
429.969025
 11
49.469357
 21
363.982147
  0
ARC
  8
0
  6
CONTINUOUS
 10
345.969360
 20
363.981720
 40
325.000000
 50
168.259811
 51
179.999924
  0
LINE
  8
0
  6
CONTINUOUS
 10
49.469357
 20
421.982147
 11
54.469357
 21
421.982147
  0
LINE
  8
0
  6
CONTINUOUS
 10
49.469357
 20
305.982147
 11
54.469357
 21
305.982147
  0
LINE
  8
0
  6
CONTINUOUS
 10
49.969357
 20
357.482147
 11
49.969357
 21
370.482147
  0
LINE
  8
0
  6
CONTINUOUS
 10
49.469357
 20
370.482147
 11
49.969357
 21
370.482147
  0
LINE
  8
0
  6
CONTINUOUS
 10
49.469357
 20
357.482147
 11
49.969357
 21
357.482147
  0
ARC
  8
0
  6
CONTINUOUS
 10
47.969357
 20
429.969025
 40
1.500000
 50
0.000000
 51
90.500000
  0
ARC
  8
0
  6
CONTINUOUS
 10
29.236862
 20
429.805542
 40
1.500000
 50
90.500000
 51
168.259811
  0
ARC
  8
0
  6
CONTINUOUS
 10
342.969360
 20
363.979401
 40
340.000000
 50
-180.000000
 51
-170.966705
  0
ARC
  8
0
  6
CONTINUOUS
 10
19.037558
 20
312.479614
 40
12.000000
 50
-170.966904
 51
-90.000000
  0
LINE
  8
0
  6
CONTINUOUS
 10
47.956268
 20
296.495361
 11
29.223772
 21
296.658844
  0
LINE
  8
0
  6
CONTINUOUS
 10
19.037357
 20
300.486023
 11
27.232557
 21
300.486023
  0
LINE
  8
0
  6
CONTINUOUS
 10
49.469357
 20
297.995300
 11
49.469357
 21
363.982147
  0
ARC
  8
0
  6
CONTINUOUS
 10
345.969360
 20
363.982605
 40
325.000000
 50
-179.999924
 51
-168.259811
  0
ARC
  8
0
  6
CONTINUOUS
 10
47.969357
 20
297.995300
 40
1.500000
 50
-90.500000
 51
0.000000
  0
ARC
  8
0
  6
CONTINUOUS
 10
29.236862
 20
298.158783
 40
1.500000
 50
-168.259811
 51
-90.500000
  0
LINE
  8
0
  6
CONTINUOUS
 10
49.969330
 20
176.627060
 11
49.469292
 21
176.627060
  0
LINE
  8
0
  6
CONTINUOUS
 10
49.969330
 20
170.627060
 11
49.969330
 21
176.627060
  0
LINE
  8
0
  6
CONTINUOUS
 10
49.969330
 20
176.627060
 11
49.469292
 21
176.627060
  0
LINE
  8
0
  6
CONTINUOUS
 10
49.469292
 20
170.627060
 11
54.469292
 21
170.627060
  0
LINE
  8
0
  6
CONTINUOUS
 10
49.469292
 20
55.127064
 11
54.469296
 21
55.127064
  0
LINE
  8
0
  6
CONTINUOUS
 10
47.956211
 20
179.965561
 11
22.794312
 21
179.745850
  0
ARC
  8
0
  6
CONTINUOUS
 10
19.037611
 20
164.127243
 40
12.000000
 50
82.994843
 51
170.966507
  0
ARC
  8
0
  6
CONTINUOUS
 10
342.969299
 20
112.627060
 40
340.000000
 50
170.966507
 51
188.814499
  0
ARC
  8
0
  6
CONTINUOUS
 10
20.623011
 20
177.030258
 40
1.000000
 50
262.995300
 51
343.455597
  0
ARC
  8
0
  6
CONTINUOUS
 10
22.807310
 20
178.246185
 40
1.500000
 50
90.500267
 51
191.594803
  0
LINE
  8
0
  6
CONTINUOUS
 10
48.964912
 20
55.131462
 11
12.861599
 21
55.446545
  0
ARC
  8
0
  6
CONTINUOUS
 10
12.913953
 20
61.446281
 40
6.000000
 50
188.814499
 51
269.500000
  0
ARC
  8
0
  6
CONTINUOUS
 10
24.668612
 20
56.843563
 40
1.500000
 50
170.162598
 51
269.500000
  0
ARC
  8
0
  6
CONTINUOUS
 10
47.969292
 20
178.465561
 40
1.500000
 50
0.000000
 51
90.500191
  0
ARC
  8
0
  6
CONTINUOUS
 10
48.969292
 20
55.631462
 40
0.500000
 50
-90.500000
 51
0.000000
  0
LINE
  8
0
  6
CONTINUOUS
 10
49.469292
 20
55.631462
 11
49.469292
 21
178.465561
  0
ARC
  8
0
  6
CONTINUOUS
 10
-297.030701
 20
112.627060
 40
325.000000
 50
350.162567
 51
357.442871
  0
ARC
  8
0
  6
CONTINUOUS
 10
-297.030701
 20
112.627060
 40
325.000000
 50
2.557141
 51
11.594100
  0
ARC
  8
0
  6
CONTINUOUS
 10
545.544189
 20
112.627068
 40
67.500000
 50
67.938179
 51
90.000526
  0
ARC
  8
0
  6
CONTINUOUS
 10
545.544189
 20
112.627068
 40
67.500000
 50
90.000343
 51
112.062523
  0
ARC
  8
0
  6
CONTINUOUS
 10
545.544189
 20
112.627068
 40
67.500000
 50
-19.127836
 51
56.759937
  0
ARC
  8
0
  6
CONTINUOUS
 10
545.544189
 20
112.627068
 40
67.500000
 50
123.240059
 51
158.138443
  0
LINE
  8
0
  6
CONTINUOUS
 10
273.411072
 20
21.127008
 11
310.527313
 21
21.127008
  0
LINE
  8
0
  6
CONTINUOUS
 10
271.068451
 20
20.001089
 11
268.869934
 21
17.252928
  0
LINE
  8
0
  6
CONTINUOUS
 10
271.969208
 20
20.757786
 11
271.969208
 21
16.127008
  0
ARC
  8
0
  6
CONTINUOUS
 10
273.411072
 20
18.127008
 40
3.000000
 50
90.000000
 51
141.340302
  0
ARC
  8
0
  6
CONTINUOUS
 10
266.527344
 20
19.127008
 40
3.000000
 50
270.000000
 51
321.340302
  0
LINE
  8
0
  6
CONTINUOUS
 10
312.869934
 20
20.001089
 11
315.068451
 21
17.252928
  0
LINE
  8
0
  6
CONTINUOUS
 10
311.969208
 20
20.757786
 11
311.969208
 21
16.127008
  0
ARC
  8
0
  6
CONTINUOUS
 10
310.527313
 20
18.127008
 40
3.000000
 50
38.659702
 51
90.000000
  0
ARC
  8
0
  6
CONTINUOUS
 10
317.411072
 20
19.127008
 40
3.000000
 50
-141.340302
 51
-90.000000
  0
LINE
  8
0
  6
CONTINUOUS
 10
227.969193
 20
136.727005
 11
227.969193
 21
33.527027
  0
LINE
  8
0
  6
CONTINUOUS
 10
227.969193
 20
136.727005
 11
229.469193
 21
136.727005
  0
LINE
  8
0
  6
CONTINUOUS
 10
227.969193
 20
33.527027
 11
229.469193
 21
33.527027
  0
ARC
  8
0
  6
CONTINUOUS
 10
411.922394
 20
85.127007
 40
191.053177
 50
164.330902
 51
195.669098
  0
ARC
  8
0
  6
CONTINUOUS
 10
411.922394
 20
85.127007
 40
190.053177
 50
178.548599
 51
181.478500
  0
LINE
  8
0
  6
CONTINUOUS
 10
223.969193
 20
90.127007
 11
222.964401
 21
90.127007
  0
LINE
  8
0
  6
CONTINUOUS
 10
226.469193
 20
87.627007
 11
226.469193
 21
82.627007
  0
ARC
  8
0
  6
CONTINUOUS
 10
222.964401
 20
91.125412
 40
1.000000
 50
178.182098
 51
270.000000
  0
ARC
  8
0
  6
CONTINUOUS
 10
223.969193
 20
87.627007
 40
2.500000
 50
0.000000
 51
90.000000
  0
LINE
  8
0
  6
CONTINUOUS
 10
223.969193
 20
80.127007
 11
222.964401
 21
80.127007
  0
ARC
  8
0
  6
CONTINUOUS
 10
222.964401
 20
79.128609
 40
1.000000
 50
-270.000000
 51
-178.182098
  0
ARC
  8
0
  6
CONTINUOUS
 10
223.969193
 20
82.627007
 40
2.500000
 50
-90.000000
 51
0.000000
  0
LINE
  8
0
  6
CONTINUOUS
 10
229.469193
 20
136.727005
 11
229.469193
 21
146.498596
  0
LINE
  8
0
  6
CONTINUOUS
 10
62.219307
 20
143.027206
 11
62.219307
 21
142.227203
  0
LINE
  8
0
  6
CONTINUOUS
 10
60.069283
 20
144.377213
 11
60.869301
 21
144.377213
  0
LINE
  8
0
  6
CONTINUOUS
 10
60.069283
 20
140.877213
 11
60.869301
 21
140.877213
  0
LINE
  8
0
  6
CONTINUOUS
 10
58.719307
 20
143.027206
 11
58.719307
 21
142.227203
  0
CIRCLE
  8
0
  6
CONTINUOUS
 10
60.469307
 20
142.627213
 40
2.750000
  0
ARC
  8
0
  6
CONTINUOUS
 10
58.719307
 20
144.377213
 40
1.350000
 50
-90.000000
 51
0.000000
  0
ARC
  8
0
  6
CONTINUOUS
 10
58.719307
 20
140.877213
 40
1.350000
 50
0.000000
 51
90.000000
  0
ARC
  8
0
  6
CONTINUOUS
 10
62.219307
 20
144.377213
 40
1.350000
 50
180.000000
 51
270.000000
  0
ARC
  8
0
  6
CONTINUOUS
 10
62.219307
 20
140.877213
 40
1.350000
 50
90.000000
 51
180.000000
  0
LINE
  8
0
  6
CONTINUOUS
 10
122.219345
 20
143.027206
 11
122.219345
 21
142.227203
  0
LINE
  8
0
  6
CONTINUOUS
 10
120.069321
 20
144.377213
 11
120.869339
 21
144.377213
  0
LINE
  8
0
  6
CONTINUOUS
 10
120.069321
 20
140.877213
 11
120.869339
 21
140.877213
  0
LINE
  8
0
  6
CONTINUOUS
 10
118.719345
 20
143.027206
 11
118.719345
 21
142.227203
  0
CIRCLE
  8
0
  6
CONTINUOUS
 10
120.469345
 20
142.627213
 40
2.750000
  0
ARC
  8
0
  6
CONTINUOUS
 10
118.719345
 20
144.377213
 40
1.350000
 50
-90.000000
 51
0.000000
  0
ARC
  8
0
  6
CONTINUOUS
 10
118.719345
 20
140.877213
 40
1.350000
 50
0.000000
 51
90.000000
  0
ARC
  8
0
  6
CONTINUOUS
 10
122.219345
 20
144.377213
 40
1.350000
 50
180.000000
 51
270.000000
  0
ARC
  8
0
  6
CONTINUOUS
 10
122.219345
 20
140.877213
 40
1.350000
 50
90.000000
 51
180.000000
  0
LINE
  8
0
  6
CONTINUOUS
 10
122.219345
 20
83.027214
 11
122.219345
 21
82.227196
  0
LINE
  8
0
  6
CONTINUOUS
 10
120.069321
 20
84.377220
 11
120.869339
 21
84.377220
  0
LINE
  8
0
  6
CONTINUOUS
 10
120.069321
 20
80.877220
 11
120.869339
 21
80.877220
  0
LINE
  8
0
  6
CONTINUOUS
 10
118.719345
 20
83.027214
 11
118.719345
 21
82.227196
  0
CIRCLE
  8
0
  6
CONTINUOUS
 10
120.469345
 20
82.627220
 40
2.750000
  0
ARC
  8
0
  6
CONTINUOUS
 10
118.719345
 20
84.377220
 40
1.350000
 50
-90.000000
 51
0.000000
  0
ARC
  8
0
  6
CONTINUOUS
 10
118.719345
 20
80.877220
 40
1.350000
 50
0.000000
 51
90.000000
  0
ARC
  8
0
  6
CONTINUOUS
 10
122.219345
 20
84.377220
 40
1.350000
 50
180.000000
 51
270.000000
  0
ARC
  8
0
  6
CONTINUOUS
 10
122.219345
 20
80.877220
 40
1.350000
 50
90.000000
 51
180.000000
  0
LINE
  8
0
  6
CONTINUOUS
 10
62.219307
 20
83.027214
 11
62.219307
 21
82.227196
  0
LINE
  8
0
  6
CONTINUOUS
 10
60.069283
 20
84.377220
 11
60.869301
 21
84.377220
  0
LINE
  8
0
  6
CONTINUOUS
 10
60.069283
 20
80.877220
 11
60.869301
 21
80.877220
  0
LINE
  8
0
  6
CONTINUOUS
 10
58.719307
 20
83.027214
 11
58.719307
 21
82.227196
  0
CIRCLE
  8
0
  6
CONTINUOUS
 10
60.469307
 20
82.627220
 40
2.750000
  0
ARC
  8
0
  6
CONTINUOUS
 10
58.719307
 20
84.377220
 40
1.350000
 50
-90.000000
 51
0.000000
  0
ARC
  8
0
  6
CONTINUOUS
 10
58.719307
 20
80.877220
 40
1.350000
 50
0.000000
 51
90.000000
  0
ARC
  8
0
  6
CONTINUOUS
 10
62.219307
 20
84.377220
 40
1.350000
 50
180.000000
 51
270.000000
  0
ARC
  8
0
  6
CONTINUOUS
 10
62.219307
 20
80.877220
 40
1.350000
 50
90.000000
 51
180.000000
  0
LINE
  8
0
  6
CONTINUOUS
 10
479.044189
 20
87.148933
 11
479.044189
 21
78.585533
  0
ARC
  8
0
  6
CONTINUOUS
 10
500.044189
 20
78.585533
 40
21.000000
 50
180.000000
 51
225.177582
  0
LINE
  8
0
  6
CONTINUOUS
 10
92.969315
 20
72.627083
 11
92.969315
 21
77.627075
  0
LINE
  8
0
  6
CONTINUOUS
 10
87.969315
 20
72.585503
 11
87.969315
 21
77.627075
  0
ARC
  8
0
  6
CONTINUOUS
 10
77.969315
 20
72.585503
 40
10.000000
 50
-90.000000
 51
0.000000
  0
ARC
  8
0
  6
CONTINUOUS
 10
77.969315
 20
72.585503
 40
15.000000
 50
-90.000000
 51
0.158824
  0
LINE
  8
0
  6
CONTINUOUS
 10
77.969315
 20
62.585503
 11
49.469311
 21
62.585503
  0
LINE
  8
0
  6
CONTINUOUS
 10
77.969315
 20
57.585503
 11
49.469311
 21
57.585503
  0
LINE
  8
0
  6
CONTINUOUS
 10
54.469296
 20
57.585503
 11
54.469296
 21
55.127064
  0
LINE
  8
0
  6
CONTINUOUS
 10
85.151398
 20
65.627220
 11
77.469345
 21
65.627220
  0
LINE
  8
0
  6
CONTINUOUS
 10
92.126129
 20
67.627220
 11
101.969444
 21
67.627220
  0
LINE
  8
0
  6
CONTINUOUS
 10
87.969315
 20
72.627220
 11
76.969345
 21
72.627220
  0
LINE
  8
0
  6
CONTINUOUS
 10
92.969315
 20
74.627220
 11
103.969444
 21
74.627220
  0
TEXT
  8
0
 10
-11.000000
 20
-36.000000
 40
4.000000
 41
1.000000
  1
H2LB-28R-300~450-T010WZ
 50
0.000000
  0
ENDSEC
  0
EOF
