  0
SECTION
  2
HEADER
  9
$CLAYER
  8
1
  9
$LTSCALE
 40
3.0
  0
ENDSEC
  0
SECTION
  2
TABLES
  0
TABLE
  2
LTYPE
 70
     4
  0
LTYPE
  2
CONTINUOUS
  3
solid line
 70
    64
 72
    65
 73
     0
 40
0.0
  0
LTYPE
  2
DASHED
  3
__ __ __ __ __ __ __ __ __ __ __ __ __ __ __
 70
    64
 72
    65
 73
     2
 40
0.75
 49
0.5
 49
-0.25
  0
LTYPE
  2
CENTER
  3
____ _ ____ _ ____ _ ____ _ ____ _ ____ _ ____
 70
    64
 72
    65
 73
     4
 40
2.0
 49
1.25
 49
-0.25
 49
0.25
 49
-0.25
  0
LTYPE
  2
PHANTOM
  3
_____ _ _ _____ _ _ _____ _ _ _____ _ _ ____
 70
    64
 72
    65
 73
     6
 40
2.5
 49
1.25
 49
-0.25
 49
0.25
 49
-0.25
 49
0.25
 49
-0.25
  0
ENDTAB
  0
TABLE
  2
LAYER
 70
     1
  0
LAYER
  2
0
 70
    64
 62
     7
  6
CONTINUOUS
  0
ENDTAB
  0
TABLE
  2
STYLE
 70
     1
  0
STYLE
  2
STANDARD
 70
     0
 40
0.000000
 41
1.000000
 50
0.000000
 71
     0
 42
3.000000
  3
txt
  4
BIGFONT
  0
ENDTAB
  0
ENDSEC
  0
SECTION
  2
BLOCKS
  0
ENDSEC
  0
SECTION
  2
ENTITIES
  0
LINE
  8
0
  6
CONTINUOUS
 10
350.255493
 20
145.111618
 11
350.255493
 21
-0.260000
  0
LINE
  8
0
  6
CONTINUOUS
 10
225.255508
 20
-0.260000
 11
350.255493
 21
-0.260000
  0
LINE
  8
0
  6
CENTER
 10
233.242493
 20
119.739998
 11
339.075012
 21
119.739998
  0
LINE
  8
0
  6
CENTER
 10
287.755493
 20
187.005005
 11
287.755493
 21
-8.760000
  0
LINE
  8
0
  6
CONTINUOUS
 10
265.309906
 20
174.239960
 11
310.201111
 21
174.239960
  0
LINE
  8
0
  6
CONTINUOUS
 10
313.035919
 20
173.358658
 11
348.090302
 21
149.230240
  0
LINE
  8
0
  6
CONTINUOUS
 10
228.255508
 20
14.740000
 11
347.255493
 21
14.740000
  0
LINE
  8
0
  6
CONTINUOUS
 10
340.255493
 20
13.202500
 11
340.255493
 21
-0.260000
  0
LINE
  8
0
  6
CONTINUOUS
 10
236.255508
 20
13.202500
 11
236.255508
 21
-0.260000
  0
LINE
  8
0
  6
CENTER
 10
327.755493
 20
21.990000
 11
327.755493
 21
-7.010000
  0
LINE
  8
0
  6
CENTER
 10
247.755508
 20
21.990000
 11
247.755508
 21
-5.760000
  0
LINE
  8
0
  6
DASHED
 10
333.255493
 20
14.740000
 11
333.255493
 21
-0.260000
  0
LINE
  8
0
  6
DASHED
 10
322.255493
 20
14.740000
 11
322.255493
 21
-0.260000
  0
LINE
  8
0
  6
DASHED
 10
253.255508
 20
14.740000
 11
253.255508
 21
-0.260000
  0
LINE
  8
0
  6
DASHED
 10
242.255508
 20
14.740000
 11
242.255508
 21
-0.260000
  0
ARC
  8
0
  6
CONTINUOUS
 10
267.755493
 20
69.739998
 40
26.500000
 50
170.529099
 51
270.000000
  0
ARC
  8
0
  6
CONTINUOUS
 10
307.755493
 20
69.739998
 40
26.500000
 50
-90.000000
 51
9.470950
  0
LINE
  8
0
  6
CONTINUOUS
 10
241.616699
 20
74.100471
 11
250.273499
 21
125.992844
  0
LINE
  8
0
  6
CONTINUOUS
 10
325.237518
 20
125.992844
 11
333.894318
 21
74.100502
  0
LINE
  8
0
  6
CONTINUOUS
 10
267.755493
 20
43.240002
 11
307.755493
 21
43.240002
  0
ARC
  8
0
  6
CONTINUOUS
 10
345.255493
 20
145.111557
 40
5.000000
 50
0.000000
 51
55.460110
  0
ARC
  8
0
  6
CONTINUOUS
 10
310.201111
 20
169.239960
 40
5.000000
 50
55.460079
 51
90.000000
  0
ARC
  8
0
  6
CONTINUOUS
 10
265.343903
 20
169.239960
 40
5.000000
 50
90.000000
 51
91.038872
  0
LINE
  8
0
  6
CONTINUOUS
 10
225.255508
 20
-0.260000
 11
225.255508
 21
32.140018
  0
ARC
  8
0
  6
CONTINUOUS
 10
267.755493
 20
69.739998
 40
24.000000
 50
170.529205
 51
270.000000
  0
ARC
  8
0
  6
CONTINUOUS
 10
307.755493
 20
69.739998
 40
24.000000
 50
-90.000000
 51
9.471000
  0
LINE
  8
0
  6
CONTINUOUS
 10
267.755493
 20
45.740002
 11
307.755493
 21
45.740002
  0
CIRCLE
  8
0
  6
CONTINUOUS
 10
287.755493
 20
119.739998
 40
33.500000
  0
ARC
  8
0
  6
CONTINUOUS
 10
287.755493
 20
119.739998
 40
38.000000
 50
9.470963
 51
170.529007
  0
ARC
  8
0
  6
CONTINUOUS
 10
287.755493
 20
119.739998
 40
35.500000
 50
-189.470795
 51
9.471022
  0
LINE
  8
0
  6
CONTINUOUS
 10
244.082703
 20
73.689072
 11
252.739304
 21
125.581337
  0
LINE
  8
0
  6
CONTINUOUS
 10
322.771515
 20
125.581459
 11
331.428314
 21
73.689148
  0
LINE
  8
0
  6
CENTER
 10
205.255508
 20
83.739998
 11
236.324997
 21
83.739998
  0
LINE
  8
0
  6
CONTINUOUS
 10
223.701004
 20
147.740005
 11
205.255508
 21
147.740005
  0
LINE
  8
0
  6
CONTINUOUS
 10
205.255508
 20
19.740000
 11
220.255508
 21
19.740000
  0
LINE
  8
0
  6
CONTINUOUS
 10
226.535904
 20
148.621353
 11
262.475098
 21
173.358627
  0
ARC
  8
0
  6
CONTINUOUS
 10
265.309906
 20
169.239960
 40
5.000000
 50
90.000000
 51
124.540298
  0
ARC
  8
0
  6
CONTINUOUS
 10
230.255508
 20
145.111603
 40
5.000000
 50
124.540398
 51
180.000000
  0
ARC
  8
0
  6
CONTINUOUS
 10
220.255524
 20
14.739980
 40
5.000000
 50
0.000000
 51
90.000000
  0
ARC
  8
0
  6
CONTINUOUS
 10
228.255508
 20
11.740020
 40
3.000000
 50
90.000000
 51
180.000000
  0
ARC
  8
0
  6
CONTINUOUS
 10
347.255493
 20
11.740000
 40
3.000000
 50
0.000000
 51
90.000000
  0
LINE
  8
0
  6
CONTINUOUS
 10
277.459106
 20
55.740002
 11
273.298706
 21
55.740002
  0
LINE
  8
0
  6
CONTINUOUS
 10
279.755493
 20
62.708740
 11
279.755493
 21
55.740002
  0
LINE
  8
0
  6
CONTINUOUS
 10
283.755493
 20
65.239998
 11
283.755493
 21
67.739998
  0
LINE
  8
0
  6
CONTINUOUS
 10
291.755493
 20
65.239998
 11
291.755493
 21
67.739998
  0
LINE
  8
0
  6
CONTINUOUS
 10
286.974304
 20
66.271248
 11
286.974304
 21
57.052502
  0
LINE
  8
0
  6
CONTINUOUS
 10
288.474304
 20
66.271248
 11
288.474304
 21
57.052502
  0
LINE
  8
0
  6
CONTINUOUS
 10
296.349304
 20
66.271248
 11
296.349304
 21
56.990002
  0
LINE
  8
0
  6
CONTINUOUS
 10
297.724304
 20
61.349380
 11
297.724304
 21
56.990002
  0
LINE
  8
0
  6
CONTINUOUS
 10
277.857513
 20
66.146248
 11
274.002502
 21
66.146248
  0
LINE
  8
0
  6
CONTINUOUS
 10
274.002502
 20
66.146248
 11
273.099304
 21
65.026253
  0
LINE
  8
0
  6
CONTINUOUS
 10
273.207916
 20
67.739998
 11
271.755493
 21
65.880241
  0
LINE
  8
0
  6
CONTINUOUS
 10
273.099304
 20
58.112919
 11
274.016907
 21
57.146240
  0
LINE
  8
0
  6
CONTINUOUS
 10
271.755493
 20
57.297161
 11
273.298706
 21
55.740002
  0
LINE
  8
0
  6
CONTINUOUS
 10
271.755493
 20
65.880241
 11
271.755493
 21
57.297161
  0
LINE
  8
0
  6
CONTINUOUS
 10
273.099304
 20
65.026253
 11
273.099304
 21
58.112919
  0
LINE
  8
0
  6
CONTINUOUS
 10
278.599304
 20
65.429146
 11
277.842316
 21
66.146248
  0
LINE
  8
0
  6
CONTINUOUS
 10
278.587311
 20
67.739998
 11
279.755493
 21
66.443512
  0
LINE
  8
0
  6
CONTINUOUS
 10
278.599304
 20
65.239998
 11
279.755493
 21
65.239998
  0
LINE
  8
0
  6
CONTINUOUS
 10
273.207916
 20
67.739998
 11
278.587311
 21
67.739998
  0
LINE
  8
0
  6
CONTINUOUS
 10
276.505493
 20
62.708740
 11
279.755493
 21
62.708740
  0
LINE
  8
0
  6
CONTINUOUS
 10
278.599304
 20
61.396240
 11
276.505493
 21
61.396240
  0
LINE
  8
0
  6
CONTINUOUS
 10
276.099304
 20
57.146240
 11
274.016907
 21
57.146240
  0
LINE
  8
0
  6
CONTINUOUS
 10
278.599304
 20
60.146240
 11
278.599304
 21
61.146240
  0
ARC
  8
0
  6
CONTINUOUS
 10
276.099304
 20
59.646240
 40
2.500000
 50
-89.999786
 51
0.000109
  0
LINE
  8
0
  6
CONTINUOUS
 10
278.599304
 20
56.696560
 11
278.599304
 21
55.740002
  0
LINE
  8
0
  6
CONTINUOUS
 10
279.755493
 20
66.443512
 11
279.755493
 21
65.239998
  0
LINE
  8
0
  6
CONTINUOUS
 10
278.599304
 20
61.396240
 11
278.599304
 21
59.646240
  0
LINE
  8
0
  6
CONTINUOUS
 10
276.505493
 20
62.708740
 11
276.505493
 21
61.396240
  0
LINE
  8
0
  6
CONTINUOUS
 10
278.599304
 20
55.740002
 11
279.755493
 21
55.740002
  0
LINE
  8
0
  6
CONTINUOUS
 10
278.599304
 20
56.696560
 11
277.459106
 21
55.740002
  0
LINE
  8
0
  6
CONTINUOUS
 10
288.474304
 20
57.052502
 11
288.974304
 21
57.052502
  0
LINE
  8
0
  6
CONTINUOUS
 10
286.380493
 20
57.052502
 11
286.380493
 21
55.740002
  0
LINE
  8
0
  6
CONTINUOUS
 10
288.974304
 20
57.052502
 11
288.974304
 21
55.740002
  0
LINE
  8
0
  6
CONTINUOUS
 10
290.921112
 20
65.239998
 11
291.755493
 21
65.239998
  0
LINE
  8
0
  6
CONTINUOUS
 10
283.755493
 20
65.239998
 11
284.643494
 21
65.239998
  0
LINE
  8
0
  6
CONTINUOUS
 10
283.755493
 20
67.739998
 11
291.755493
 21
67.739998
  0
LINE
  8
0
  6
CONTINUOUS
 10
286.380493
 20
55.740002
 11
288.974304
 21
55.740002
  0
LINE
  8
0
  6
CONTINUOUS
 10
286.380493
 20
57.052502
 11
286.974304
 21
57.052502
  0
ARC
  8
0
  6
CONTINUOUS
 10
300.552307
 20
64.536873
 40
3.203126
 50
-73.981873
 51
90.003510
  0
ARC
  8
0
  6
CONTINUOUS
 10
300.552307
 20
64.536873
 40
1.954124
 50
-82.585274
 51
62.411850
  0
LINE
  8
0
  6
CONTINUOUS
 10
295.755493
 20
67.739998
 11
300.552307
 21
67.739998
  0
LINE
  8
0
  6
CONTINUOUS
 10
300.804504
 20
62.599079
 11
297.724304
 21
62.599079
  0
LINE
  8
0
  6
CONTINUOUS
 10
295.755493
 20
67.739998
 11
295.755493
 21
66.271248
  0
LINE
  8
0
  6
CONTINUOUS
 10
297.724304
 20
66.271248
 11
297.724304
 21
62.599079
  0
LINE
  8
0
  6
CONTINUOUS
 10
301.436310
 20
61.458118
 11
303.418701
 21
56.990002
  0
LINE
  8
0
  6
CONTINUOUS
 10
300.284698
 20
61.349380
 11
302.160919
 21
56.990002
  0
LINE
  8
0
  6
CONTINUOUS
 10
295.755493
 20
56.990002
 11
296.349304
 21
56.990002
  0
LINE
  8
0
  6
CONTINUOUS
 10
297.724304
 20
56.990002
 11
298.271118
 21
56.990002
  0
LINE
  8
0
  6
CONTINUOUS
 10
298.271118
 20
55.740002
 11
295.755493
 21
55.740002
  0
LINE
  8
0
  6
CONTINUOUS
 10
301.911713
 20
56.990002
 11
302.160919
 21
56.990002
  0
LINE
  8
0
  6
CONTINUOUS
 10
303.418701
 20
56.990002
 11
303.755493
 21
56.990002
  0
LINE
  8
0
  6
CONTINUOUS
 10
301.911713
 20
55.740002
 11
303.755493
 21
55.740002
  0
LINE
  8
0
  6
CONTINUOUS
 10
303.755493
 20
56.990002
 11
303.755493
 21
55.740002
  0
LINE
  8
0
  6
CONTINUOUS
 10
301.911713
 20
56.990002
 11
301.911713
 21
55.740002
  0
LINE
  8
0
  6
CONTINUOUS
 10
298.271118
 20
56.990002
 11
298.271118
 21
55.740002
  0
LINE
  8
0
  6
CONTINUOUS
 10
295.755493
 20
56.990002
 11
295.755493
 21
55.740002
  0
LINE
  8
0
  6
CONTINUOUS
 10
285.073303
 20
66.271248
 11
284.643494
 21
65.239998
  0
LINE
  8
0
  6
CONTINUOUS
 10
290.558716
 20
66.271248
 11
290.921112
 21
65.239998
  0
LINE
  8
0
  6
CONTINUOUS
 10
288.474304
 20
66.271248
 11
290.558716
 21
66.271248
  0
LINE
  8
0
  6
CONTINUOUS
 10
286.974304
 20
66.271248
 11
285.073303
 21
66.271248
  0
LINE
  8
0
  6
CONTINUOUS
 10
297.724304
 20
61.349380
 11
300.284698
 21
61.349380
  0
LINE
  8
0
  6
CONTINUOUS
 10
295.755493
 20
66.271248
 11
296.349304
 21
66.271248
  0
LINE
  8
0
  6
CONTINUOUS
 10
297.724304
 20
66.271248
 11
301.457306
 21
66.268822
  0
LINE
  8
0
  6
CONTINUOUS
 10
278.599304
 20
65.429146
 11
278.599304
 21
65.239998
  0
LINE
  8
0
  6
CONTINUOUS
 10
297.755493
 20
115.740044
 11
297.755493
 21
123.740044
  0
LINE
  8
0
  6
CONTINUOUS
 10
304.755493
 20
115.740059
 11
304.755493
 21
123.740059
  0
LINE
  8
0
  6
CONTINUOUS
 10
304.755493
 20
115.740059
 11
297.755493
 21
115.740044
  0
LINE
  8
0
  6
CONTINUOUS
 10
304.755493
 20
123.740059
 11
297.755493
 21
123.740044
  0
ARC
  8
0
  6
CONTINUOUS
 10
287.755493
 20
119.739998
 40
14.000000
 50
16.601500
 51
343.398499
  0
LINE
  8
0
  6
CENTER
 10
205.049988
 20
83.739998
 11
205.255508
 21
83.739998
  0
LINE
  8
0
  6
CENTER
 10
-10.275000
 20
83.739998
 11
205.255508
 21
83.739998
  0
LINE
  8
0
  6
CONTINUOUS
 10
205.255508
 20
147.740005
 11
205.255508
 21
19.740000
  0
LINE
  8
0
  6
CONTINUOUS
 10
71.255547
 20
147.740005
 11
205.255508
 21
147.740005
  0
LINE
  8
0
  6
CONTINUOUS
 10
81.255501
 20
142.220993
 11
81.255501
 21
138.240005
  0
LINE
  8
0
  6
CONTINUOUS
 10
197.255508
 20
142.220993
 11
197.255478
 21
138.240005
  0
LINE
  8
0
  6
CONTINUOUS
 10
144.255554
 20
115.940002
 11
197.255508
 21
115.940002
  0
LINE
  8
0
  6
CONTINUOUS
 10
81.255486
 20
121.739998
 11
197.255508
 21
121.739998
  0
LINE
  8
0
  6
CONTINUOUS
 10
81.255501
 20
123.739998
 11
197.255508
 21
123.739998
  0
LINE
  8
0
  6
CONTINUOUS
 10
81.255501
 20
129.240005
 11
197.255508
 21
129.240005
  0
LINE
  8
0
  6
CONTINUOUS
 10
81.255501
 20
131.240005
 11
197.255508
 21
131.240005
  0
LINE
  8
0
  6
CONTINUOUS
 10
81.255501
 20
136.240005
 11
197.255508
 21
136.240005
  0
LINE
  8
0
  6
CONTINUOUS
 10
81.255501
 20
138.240005
 11
197.255478
 21
138.240005
  0
LINE
  8
0
  6
CONTINUOUS
 10
81.255501
 20
142.220993
 11
197.255508
 21
142.220993
  0
LINE
  8
0
  6
CONTINUOUS
 10
81.255501
 20
28.406614
 11
81.255501
 21
29.240000
  0
LINE
  8
0
  6
CONTINUOUS
 10
81.255501
 20
136.240005
 11
81.255501
 21
131.240005
  0
LINE
  8
0
  6
CONTINUOUS
 10
81.255501
 20
129.240005
 11
81.255501
 21
123.739998
  0
LINE
  8
0
  6
CONTINUOUS
 10
81.255486
 20
121.739998
 11
81.255486
 21
118.739998
  0
LINE
  8
0
  6
CONTINUOUS
 10
81.255501
 20
48.740002
 11
81.255501
 21
45.740002
  0
LINE
  8
0
  6
CONTINUOUS
 10
81.255501
 20
43.740002
 11
81.255501
 21
38.240002
  0
LINE
  8
0
  6
CONTINUOUS
 10
81.255501
 20
36.240002
 11
81.255501
 21
31.240000
  0
LINE
  8
0
  6
CONTINUOUS
 10
197.255508
 20
25.259001
 11
197.255508
 21
29.240000
  0
LINE
  8
0
  6
CONTINUOUS
 10
197.255508
 20
31.240000
 11
197.255508
 21
36.240002
  0
LINE
  8
0
  6
CONTINUOUS
 10
197.255508
 20
38.240002
 11
197.255508
 21
43.740002
  0
LINE
  8
0
  6
CONTINUOUS
 10
197.255508
 20
45.740002
 11
197.255508
 21
51.540020
  0
LINE
  8
0
  6
CONTINUOUS
 10
197.255508
 20
53.540001
 11
197.255508
 21
59.340000
  0
LINE
  8
0
  6
CONTINUOUS
 10
197.255508
 20
61.340000
 11
197.255508
 21
67.140007
  0
LINE
  8
0
  6
CONTINUOUS
 10
197.255508
 20
69.140007
 11
197.255508
 21
74.939995
  0
LINE
  8
0
  6
CONTINUOUS
 10
197.255508
 20
76.939995
 11
197.255508
 21
82.739998
  0
LINE
  8
0
  6
CONTINUOUS
 10
197.255478
 20
84.739998
 11
197.255478
 21
90.540001
  0
LINE
  8
0
  6
CONTINUOUS
 10
197.255478
 20
92.540001
 11
197.255478
 21
98.339996
  0
LINE
  8
0
  6
CONTINUOUS
 10
197.255478
 20
100.339996
 11
197.255478
 21
106.139999
  0
LINE
  8
0
  6
CONTINUOUS
 10
197.255508
 20
108.139999
 11
197.255508
 21
113.940002
  0
LINE
  8
0
  6
CONTINUOUS
 10
197.255508
 20
115.940002
 11
197.255508
 21
121.739998
  0
LINE
  8
0
  6
CONTINUOUS
 10
197.255508
 20
123.739998
 11
197.255508
 21
129.240005
  0
LINE
  8
0
  6
CONTINUOUS
 10
197.255508
 20
131.240005
 11
197.255508
 21
136.240005
  0
LINE
  8
0
  6
CONTINUOUS
 10
197.255508
 20
53.540001
 11
144.255554
 21
53.540001
  0
LINE
  8
0
  6
CONTINUOUS
 10
197.255508
 20
51.540001
 11
144.255554
 21
51.540001
  0
LINE
  8
0
  6
CONTINUOUS
 10
197.255508
 20
45.740002
 11
81.255501
 21
45.740002
  0
LINE
  8
0
  6
CONTINUOUS
 10
197.255508
 20
43.740002
 11
81.255501
 21
43.740002
  0
LINE
  8
0
  6
CONTINUOUS
 10
197.255508
 20
38.240002
 11
81.255501
 21
38.240002
  0
LINE
  8
0
  6
CONTINUOUS
 10
197.255508
 20
36.240002
 11
81.255501
 21
36.240002
  0
LINE
  8
0
  6
CONTINUOUS
 10
197.255508
 20
31.240000
 11
81.255501
 21
31.240000
  0
LINE
  8
0
  6
CONTINUOUS
 10
197.255508
 20
29.240000
 11
81.255501
 21
29.240000
  0
LINE
  8
0
  6
CONTINUOUS
 10
197.255508
 20
25.259001
 11
82.128952
 21
25.259001
  0
LINE
  8
0
  6
CONTINUOUS
 10
205.255508
 20
19.740000
 11
82.145882
 21
19.740000
  0
LINE
  8
0
  6
CENTER
 10
563.583740
 20
-17.588840
 11
563.583740
 21
189.059998
  0
LINE
  8
0
  6
CENTER
 10
446.312744
 20
119.739998
 11
634.335388
 21
119.739998
  0
LINE
  8
0
  6
CONTINUOUS
 10
500.583740
 20
-0.260000
 11
536.083740
 21
-0.260000
  0
LINE
  8
0
  6
CONTINUOUS
 10
504.583740
 20
14.740000
 11
522.583740
 21
14.740000
  0
LINE
  8
0
  6
CONTINUOUS
 10
528.083740
 20
147.740005
 11
598.833740
 21
147.740005
  0
LINE
  8
0
  6
CONTINUOUS
 10
597.636108
 20
173.645874
 11
563.583740
 21
174.240005
  0
LINE
  8
0
  6
CONTINUOUS
 10
529.531311
 20
173.645477
 11
563.583740
 21
174.240005
  0
LINE
  8
0
  6
CONTINUOUS
 10
600.583740
 20
170.646347
 11
600.583740
 21
-0.260018
  0
LINE
  8
0
  6
CONTINUOUS
 10
526.583740
 20
170.645935
 11
526.583740
 21
-0.260000
  0
LINE
  8
0
  6
CONTINUOUS
 10
510.583740
 20
90.027733
 11
510.583740
 21
149.452240
  0
LINE
  8
0
  6
CONTINUOUS
 10
616.583740
 20
149.452255
 11
616.583740
 21
90.027740
  0
LINE
  8
0
  6
CONTINUOUS
 10
517.583740
 20
49.540421
 11
517.583740
 21
122.239998
  0
LINE
  8
0
  6
CONTINUOUS
 10
609.583740
 20
49.540421
 11
609.583740
 21
122.239998
  0
LINE
  8
0
  6
CONTINUOUS
 10
626.583740
 20
11.435938
 11
626.583740
 21
-0.260000
  0
LINE
  8
0
  6
CONTINUOUS
 10
500.583740
 20
11.435938
 11
500.583740
 21
-0.260000
  0
LINE
  8
0
  6
CENTER
 10
513.583740
 20
22.740000
 11
513.583740
 21
-11.613400
  0
LINE
  8
0
  6
CENTER
 10
613.583740
 20
23.240000
 11
613.583740
 21
-11.613400
  0
LINE
  8
0
  6
DASHED
 10
508.083740
 20
14.740000
 11
508.083740
 21
-0.260000
  0
LINE
  8
0
  6
DASHED
 10
519.083740
 20
14.740000
 11
519.083740
 21
-0.260000
  0
LINE
  8
0
  6
DASHED
 10
608.083740
 20
14.740000
 11
608.083740
 21
-0.260000
  0
LINE
  8
0
  6
DASHED
 10
619.083740
 20
14.740000
 11
619.083740
 21
-0.260000
  0
ARC
  8
0
  6
CONTINUOUS
 10
529.583740
 20
170.645966
 40
3.000000
 50
91.000526
 51
180.000000
  0
ARC
  8
0
  6
CONTINUOUS
 10
597.583740
 20
170.646317
 40
3.000000
 50
0.000000
 51
89.000580
  0
LINE
  8
0
  6
CONTINUOUS
 10
591.083740
 20
-0.260000
 11
626.583740
 21
-0.260000
  0
LINE
  8
0
  6
CONTINUOUS
 10
537.083740
 20
0.740000
 11
590.083740
 21
0.740000
  0
LINE
  8
0
  6
CONTINUOUS
 10
514.229919
 20
154.265518
 11
522.937561
 21
156.714478
  0
LINE
  8
0
  6
CONTINUOUS
 10
514.229919
 20
85.214478
 11
515.395935
 21
84.886551
  0
LINE
  8
0
  6
CONTINUOUS
 10
521.245544
 20
44.722839
 11
522.921936
 21
44.257160
  0
LINE
  8
0
  6
CONTINUOUS
 10
605.921936
 20
44.722839
 11
604.245544
 21
44.257160
  0
LINE
  8
0
  6
CONTINUOUS
 10
612.937317
 20
85.214485
 11
611.771545
 21
84.886559
  0
LINE
  8
0
  6
CONTINUOUS
 10
612.937317
 20
154.265518
 11
604.230103
 21
156.714478
  0
ARC
  8
0
  6
CONTINUOUS
 10
515.583740
 20
149.452286
 40
5.000000
 50
105.709000
 51
180.000000
  0
ARC
  8
0
  6
CONTINUOUS
 10
515.583740
 20
90.027771
 40
5.000000
 50
180.000000
 51
254.291702
  0
ARC
  8
0
  6
CONTINUOUS
 10
522.583740
 20
49.540462
 40
5.000000
 50
180.000000
 51
254.476196
  0
ARC
  8
0
  6
CONTINUOUS
 10
604.583740
 20
49.540421
 40
5.000000
 50
-74.475708
 51
0.000000
  0
ARC
  8
0
  6
CONTINUOUS
 10
611.583740
 20
90.027733
 40
5.000000
 50
-74.291199
 51
0.000000
  0
ARC
  8
0
  6
CONTINUOUS
 10
611.583740
 20
149.452240
 40
5.000000
 50
0.000000
 51
74.291527
  0
ARC
  8
0
  6
CONTINUOUS
 10
612.583740
 20
81.998619
 40
3.000000
 50
105.709000
 51
180.000000
  0
ARC
  8
0
  6
CONTINUOUS
 10
514.583740
 20
81.998589
 40
3.000000
 50
0.000000
 51
74.291397
  0
ARC
  8
0
  6
CONTINUOUS
 10
521.583740
 20
161.527740
 40
5.000000
 50
-74.291199
 51
0.000000
  0
ARC
  8
0
  6
CONTINUOUS
 10
605.583740
 20
161.527756
 40
5.000000
 50
180.000000
 51
254.291702
  0
ARC
  8
0
  6
CONTINUOUS
 10
605.583740
 20
39.439602
 40
5.000000
 50
105.524399
 51
180.000000
  0
ARC
  8
0
  6
CONTINUOUS
 10
521.583740
 20
39.439560
 40
5.000000
 50
0.000000
 51
74.475952
  0
LINE
  8
0
  6
CONTINUOUS
 10
591.083740
 20
-0.260000
 11
590.083740
 21
0.740000
  0
LINE
  8
0
  6
CONTINUOUS
 10
536.083740
 20
-0.260000
 11
537.083740
 21
0.740000
  0
LINE
  8
0
  6
CONTINUOUS
 10
503.828339
 20
15.363975
 11
523.339111
 21
19.116037
  0
LINE
  8
0
  6
CENTER
 10
429.132904
 20
83.739998
 11
645.783752
 21
83.739998
  0
LINE
  8
0
  6
CONTINUOUS
 10
463.583740
 20
105.739998
 11
463.583740
 21
133.740005
  0
LINE
  8
0
  6
CONTINUOUS
 10
508.583740
 20
133.740005
 11
463.583740
 21
133.740005
  0
LINE
  8
0
  6
CONTINUOUS
 10
508.583740
 20
105.739998
 11
463.583740
 21
105.739998
  0
LINE
  8
0
  6
CONTINUOUS
 10
508.583740
 20
134.740005
 11
508.583740
 21
104.739998
  0
LINE
  8
0
  6
CONTINUOUS
 10
510.583740
 20
104.739998
 11
508.583740
 21
104.739998
  0
ARC
  8
0
  6
CONTINUOUS
 10
499.583740
 20
119.739998
 40
4.000000
 50
-90.000000
 51
90.000000
  0
LINE
  8
0
  6
CONTINUOUS
 10
499.583740
 20
123.739998
 11
463.583740
 21
123.739998
  0
LINE
  8
0
  6
CONTINUOUS
 10
499.583740
 20
115.739998
 11
463.583740
 21
115.739998
  0
LINE
  8
0
  6
CONTINUOUS
 10
510.583740
 20
134.740005
 11
508.583740
 21
134.740005
  0
LINE
  8
0
  6
CONTINUOUS
 10
501.583588
 20
105.739998
 11
501.583557
 21
99.614243
  0
ARC
  8
0
  6
CONTINUOUS
 10
563.583740
 20
83.739998
 40
70.500107
 50
200.824036
 51
238.343750
  0
ARC
  8
0
  6
CONTINUOUS
 10
563.583740
 20
83.739998
 40
64.000099
 50
-54.681290
 51
34.093521
  0
ARC
  8
0
  6
CONTINUOUS
 10
563.583740
 20
83.739998
 40
70.500107
 50
-58.343746
 51
41.255901
  0
ARC
  8
0
  6
CONTINUOUS
 10
563.583740
 20
83.739998
 40
64.000099
 50
159.894516
 51
234.681290
  0
ARC
  8
0
  6
CONTINUOUS
 10
504.583740
 20
10.740000
 40
4.000000
 50
90.000000
 51
180.000000
  0
ARC
  8
0
  6
CONTINUOUS
 10
504.583740
 20
11.435938
 40
4.000000
 50
100.885529
 51
180.000000
  0
ARC
  8
0
  6
CONTINUOUS
 10
522.583740
 20
23.044064
 40
4.000000
 50
-79.114502
 51
0.000000
  0
ARC
  8
0
  6
CONTINUOUS
 10
522.583740
 20
18.740000
 40
4.000000
 50
-90.000000
 51
0.000000
  0
LINE
  8
0
  6
CONTINUOUS
 10
622.583740
 20
14.740000
 11
604.583740
 21
14.740000
  0
LINE
  8
0
  6
CONTINUOUS
 10
623.339111
 20
15.363975
 11
603.828369
 21
19.116037
  0
ARC
  8
0
  6
CONTINUOUS
 10
622.583740
 20
10.740000
 40
4.000000
 50
0.000000
 51
90.000000
  0
ARC
  8
0
  6
CONTINUOUS
 10
622.583740
 20
11.435938
 40
4.000000
 50
0.000000
 51
79.114471
  0
ARC
  8
0
  6
CONTINUOUS
 10
604.583740
 20
23.044064
 40
4.000000
 50
180.000000
 51
259.114502
  0
ARC
  8
0
  6
CONTINUOUS
 10
604.583740
 20
18.740000
 40
4.000000
 50
180.000000
 51
270.000000
  0
LINE
  8
0
  6
CONTINUOUS
 10
267.755493
 20
19.370773
 11
267.755493
 21
14.740000
  0
LINE
  8
0
  6
CONTINUOUS
 10
269.197388
 20
19.740000
 11
306.313629
 21
19.740000
  0
LINE
  8
0
  6
CONTINUOUS
 10
266.854767
 20
18.614075
 11
264.656281
 21
15.865926
  0
ARC
  8
0
  6
CONTINUOUS
 10
262.313660
 20
17.740000
 40
3.000000
 50
270.000000
 51
321.340454
  0
ARC
  8
0
  6
CONTINUOUS
 10
269.197388
 20
16.740000
 40
3.000000
 50
90.000000
 51
141.340454
  0
LINE
  8
0
  6
CONTINUOUS
 10
307.755493
 20
19.370773
 11
307.755493
 21
14.740000
  0
LINE
  8
0
  6
CONTINUOUS
 10
308.656250
 20
18.614075
 11
310.854736
 21
15.865926
  0
ARC
  8
0
  6
CONTINUOUS
 10
313.197357
 20
17.740000
 40
3.000000
 50
-141.340454
 51
-90.000000
  0
ARC
  8
0
  6
CONTINUOUS
 10
306.313629
 20
16.740000
 40
3.000000
 50
38.659546
 51
90.000000
  0
LINE
  8
0
  6
CONTINUOUS
 10
223.755508
 20
135.339996
 11
223.755508
 21
32.140018
  0
LINE
  8
0
  6
CONTINUOUS
 10
223.755508
 20
135.339996
 11
225.255508
 21
135.339996
  0
LINE
  8
0
  6
CONTINUOUS
 10
223.755508
 20
32.140018
 11
225.255508
 21
32.140018
  0
ARC
  8
0
  6
CONTINUOUS
 10
407.708710
 20
83.739998
 40
191.053177
 50
164.330902
 51
195.669098
  0
ARC
  8
0
  6
CONTINUOUS
 10
407.708710
 20
83.739998
 40
190.053177
 50
178.548599
 51
181.478500
  0
LINE
  8
0
  6
CONTINUOUS
 10
219.755508
 20
88.739998
 11
218.750702
 21
88.739998
  0
LINE
  8
0
  6
CONTINUOUS
 10
222.255508
 20
86.239998
 11
222.255508
 21
81.239998
  0
ARC
  8
0
  6
CONTINUOUS
 10
218.750702
 20
89.738403
 40
1.000000
 50
178.182098
 51
270.000000
  0
ARC
  8
0
  6
CONTINUOUS
 10
219.755508
 20
86.239998
 40
2.500000
 50
0.000000
 51
90.000000
  0
LINE
  8
0
  6
CONTINUOUS
 10
219.755508
 20
78.739998
 11
218.750702
 21
78.739998
  0
ARC
  8
0
  6
CONTINUOUS
 10
218.750702
 20
77.741600
 40
1.000000
 50
-270.000000
 51
-178.182098
  0
ARC
  8
0
  6
CONTINUOUS
 10
219.755508
 20
81.239998
 40
2.500000
 50
-90.000000
 51
0.000000
  0
LINE
  8
0
  6
CONTINUOUS
 10
225.255508
 20
135.339996
 11
225.255508
 21
145.111588
  0
LINE
  8
0
  6
CONTINUOUS
 10
227.518875
 20
406.947540
 11
346.661560
 21
406.947540
  0
ARC
  8
0
  6
CONTINUOUS
 10
346.661560
 20
403.947540
 40
3.000000
 50
1.000000
 51
90.000000
  0
LINE
  8
0
  6
CONTINUOUS
 10
332.749756
 20
412.301270
 11
333.640198
 21
409.135315
  0
ARC
  8
0
  6
CONTINUOUS
 10
336.528137
 20
409.947540
 40
3.000000
 50
195.708649
 51
270.000000
  0
ARC
  8
0
  6
CONTINUOUS
 10
219.333099
 20
424.174103
 40
3.000000
 50
1.500200
 51
77.801201
  0
LINE
  8
0
  6
CONTINUOUS
 10
222.332108
 20
424.252686
 11
222.688095
 21
410.657898
  0
ARC
  8
0
  6
CONTINUOUS
 10
220.600906
 20
430.038666
 40
3.000000
 50
-164.999893
 51
-102.198799
  0
LINE
  8
0
  6
CENTER
 10
-16.440001
 20
369.947540
 11
365.659363
 21
369.947540
  0
LINE
  8
0
  6
CONTINUOUS
 10
238.770386
 20
306.947540
 11
273.755493
 21
306.947540
  0
LINE
  8
0
  6
CONTINUOUS
 10
350.255493
 20
369.947540
 11
349.609680
 21
406.947540
  0
LINE
  8
0
  6
CONTINUOUS
 10
341.445404
 20
429.640198
 11
349.609680
 21
406.947540
  0
ARC
  8
0
  6
CONTINUOUS
 10
336.740631
 20
427.947540
 40
5.000000
 50
19.787489
 51
90.000000
  0
LINE
  8
0
  6
CONTINUOUS
 10
350.255493
 20
369.947540
 11
349.609680
 21
332.947540
  0
LINE
  8
0
  6
CONTINUOUS
 10
341.445404
 20
310.254883
 11
349.609680
 21
332.947540
  0
ARC
  8
0
  6
CONTINUOUS
 10
336.740631
 20
311.947540
 40
5.000000
 50
-90.000000
 51
-19.787489
  0
LINE
  8
0
  6
CONTINUOUS
 10
227.518875
 20
406.947540
 11
346.661560
 21
406.947540
  0
LINE
  8
0
  6
CENTER
 10
287.755493
 20
257.388763
 11
287.755493
 21
446.355316
  0
ARC
  8
0
  6
CONTINUOUS
 10
346.661560
 20
403.947540
 40
3.000000
 50
1.000000
 51
90.000000
  0
ARC
  8
0
  6
CONTINUOUS
 10
346.661560
 20
335.947540
 40
3.000000
 50
-90.000000
 51
-1.000000
  0
LINE
  8
0
  6
CONTINUOUS
 10
227.592102
 20
332.947540
 11
346.661560
 21
332.947540
  0
LINE
  8
0
  6
CONTINUOUS
 10
317.467773
 20
422.947540
 11
258.043243
 21
422.947540
  0
LINE
  8
0
  6
CONTINUOUS
 10
322.281006
 20
419.301270
 11
323.224243
 21
415.947540
  0
ARC
  8
0
  6
CONTINUOUS
 10
317.467773
 20
417.947540
 40
5.000000
 50
15.708638
 51
90.000000
  0
LINE
  8
0
  6
CONTINUOUS
 10
323.224243
 20
415.947540
 11
327.936523
 21
415.947540
  0
ARC
  8
0
  6
CONTINUOUS
 10
327.936523
 20
410.947540
 40
5.000000
 50
15.708638
 51
90.000000
  0
LINE
  8
0
  6
CONTINUOUS
 10
253.229996
 20
419.301270
 11
252.286758
 21
415.947540
  0
ARC
  8
0
  6
CONTINUOUS
 10
258.043243
 20
417.947540
 40
5.000000
 50
90.000000
 51
164.291367
  0
LINE
  8
0
  6
CONTINUOUS
 10
252.286758
 20
415.947540
 11
247.574493
 21
415.947540
  0
LINE
  8
0
  6
CONTINUOUS
 10
242.761246
 20
412.301270
 11
241.870819
 21
409.135315
  0
ARC
  8
0
  6
CONTINUOUS
 10
247.574493
 20
410.947540
 40
5.000000
 50
90.000000
 51
164.291367
  0
ARC
  8
0
  6
CONTINUOUS
 10
238.982864
 20
409.947540
 40
3.000000
 50
-90.000000
 51
-15.708638
  0
LINE
  8
0
  6
CONTINUOUS
 10
317.467773
 20
316.947540
 11
258.043243
 21
316.947540
  0
LINE
  8
0
  6
CONTINUOUS
 10
322.281006
 20
320.593811
 11
323.224243
 21
323.947540
  0
ARC
  8
0
  6
CONTINUOUS
 10
317.467773
 20
321.947540
 40
5.000000
 50
-90.000000
 51
-15.708638
  0
LINE
  8
0
  6
CONTINUOUS
 10
323.224243
 20
323.947540
 11
327.936523
 21
323.947540
  0
LINE
  8
0
  6
CONTINUOUS
 10
332.749756
 20
327.593811
 11
333.640198
 21
330.759796
  0
ARC
  8
0
  6
CONTINUOUS
 10
327.936523
 20
328.947540
 40
5.000000
 50
-90.000000
 51
-15.708638
  0
ARC
  8
0
  6
CONTINUOUS
 10
336.528137
 20
329.947540
 40
3.000000
 50
-270.000000
 51
-195.708633
  0
LINE
  8
0
  6
CONTINUOUS
 10
253.229996
 20
320.593811
 11
252.286758
 21
323.947540
  0
ARC
  8
0
  6
CONTINUOUS
 10
258.043243
 20
321.947540
 40
5.000000
 50
-164.291367
 51
-90.000000
  0
LINE
  8
0
  6
CONTINUOUS
 10
252.286758
 20
323.947540
 11
247.574493
 21
323.947540
  0
LINE
  8
0
  6
CONTINUOUS
 10
242.761246
 20
327.593811
 11
241.870819
 21
330.759796
  0
ARC
  8
0
  6
CONTINUOUS
 10
247.574493
 20
328.947540
 40
5.000000
 50
-164.291367
 51
-90.000000
  0
ARC
  8
0
  6
CONTINUOUS
 10
238.982864
 20
329.947540
 40
3.000000
 50
15.708638
 51
90.000000
  0
LINE
  8
0
  6
CONTINUOUS
 10
234.065613
 20
429.640198
 11
225.987762
 21
407.187744
  0
ARC
  8
0
  6
CONTINUOUS
 10
238.770386
 20
427.947540
 40
5.000000
 50
90.000000
 51
160.212509
  0
LINE
  8
0
  6
CONTINUOUS
 10
234.065613
 20
310.254883
 11
226.003601
 21
332.663300
  0
ARC
  8
0
  6
CONTINUOUS
 10
238.770386
 20
311.947540
 40
5.000000
 50
199.787491
 51
270.000000
  0
LINE
  8
0
  6
CONTINUOUS
 10
238.770386
 20
432.947540
 11
287.755493
 21
432.947540
  0
LINE
  8
0
  6
CENTER
 10
327.755493
 20
431.060822
 11
327.755493
 21
411.619415
  0
LINE
  8
0
  6
CENTER
 10
317.844604
 20
419.947540
 11
336.363159
 21
419.947540
  0
ARC
  8
0
  6
CONTINUOUS
 10
327.755493
 20
419.947540
 40
5.500000
 50
-59.465683
 51
187.598495
  0
ARC
  8
0
  6
CONTINUOUS
 10
247.755508
 20
419.947540
 40
5.500000
 50
-7.598608
 51
239.465683
  0
LINE
  8
0
  6
CENTER
 10
247.755508
 20
431.060822
 11
247.755508
 21
411.619415
  0
LINE
  8
0
  6
CENTER
 10
257.666382
 20
419.947540
 11
239.147842
 21
419.947540
  0
ARC
  8
0
  6
CONTINUOUS
 10
247.755508
 20
319.947540
 40
5.500000
 50
-239.465683
 51
7.598608
  0
LINE
  8
0
  6
CENTER
 10
257.666382
 20
319.947540
 11
239.147842
 21
319.947540
  0
LINE
  8
0
  6
CENTER
 10
247.755508
 20
308.834259
 11
247.755508
 21
328.275665
  0
LINE
  8
0
  6
CENTER
 10
327.755493
 20
308.834259
 11
327.755493
 21
328.275665
  0
LINE
  8
0
  6
CENTER
 10
317.844604
 20
319.947540
 11
336.363159
 21
319.947540
  0
ARC
  8
0
  6
CONTINUOUS
 10
327.755493
 20
319.947540
 40
5.500000
 50
-187.598602
 51
59.465683
  0
LINE
  8
0
  6
CONTINUOUS
 10
311.755493
 20
335.947540
 11
311.755493
 21
403.947540
  0
LINE
  8
0
  6
CONTINUOUS
 10
263.755493
 20
335.947540
 11
263.755493
 21
403.947540
  0
LINE
  8
0
  6
CONTINUOUS
 10
222.835800
 20
329.241638
 11
217.587173
 21
309.653442
  0
LINE
  8
0
  6
CONTINUOUS
 10
222.332108
 20
315.095520
 11
222.688095
 21
328.690308
  0
ARC
  8
0
  6
CONTINUOUS
 10
219.333099
 20
315.174103
 40
3.000000
 50
282.198792
 51
358.499786
  0
ARC
  8
0
  6
CONTINUOUS
 10
220.600906
 20
309.309509
 40
3.000000
 50
102.198799
 51
165.000031
  0
ARC
  8
0
  6
CONTINUOUS
 10
219.333099
 20
424.174103
 40
3.000000
 50
1.500200
 51
77.801201
  0
LINE
  8
0
  6
CONTINUOUS
 10
222.332108
 20
424.252686
 11
222.688095
 21
410.657898
  0
ARC
  8
0
  6
CONTINUOUS
 10
220.600906
 20
430.038666
 40
3.000000
 50
-164.999893
 51
-102.198799
  0
LINE
  8
0
  6
CONTINUOUS
 10
212.684311
 20
433.947540
 11
205.255508
 21
433.947540
  0
LINE
  8
0
  6
CONTINUOUS
 10
217.440659
 20
430.241638
 11
222.762497
 21
410.380066
  0
ARC
  8
0
  6
CONTINUOUS
 10
227.665421
 20
327.947540
 40
5.000000
 50
90.000000
 51
165.000031
  0
ARC
  8
0
  6
CONTINUOUS
 10
227.518875
 20
411.947540
 40
5.000000
 50
194.999847
 51
270.000000
  0
LINE
  8
0
  6
CONTINUOUS
 10
287.755493
 20
432.947540
 11
336.740631
 21
432.947540
  0
LINE
  8
0
  6
CONTINUOUS
 10
304.755493
 20
269.947540
 11
273.755493
 21
269.947540
  0
LINE
  8
0
  6
CONTINUOUS
 10
273.755493
 20
314.947540
 11
273.755493
 21
269.947540
  0
LINE
  8
0
  6
CONTINUOUS
 10
301.755493
 20
314.947540
 11
301.755493
 21
309.947540
  0
LINE
  8
0
  6
CONTINUOUS
 10
272.755493
 20
314.947540
 11
302.755493
 21
314.947540
  0
LINE
  8
0
  6
CONTINUOUS
 10
302.755493
 20
316.947540
 11
302.755493
 21
314.947540
  0
LINE
  8
0
  6
CONTINUOUS
 10
272.755493
 20
316.947540
 11
272.755493
 21
314.947540
  0
LINE
  8
0
  6
CONTINUOUS
 10
301.171906
 20
309.947540
 11
304.755493
 21
309.947540
  0
LINE
  8
0
  6
CONTINUOUS
 10
301.171906
 20
309.947540
 11
301.171906
 21
269.947540
  0
LINE
  8
0
  6
CONTINUOUS
 10
304.755493
 20
269.947540
 11
304.755493
 21
309.947540
  0
LINE
  8
0
  6
CONTINUOUS
 10
304.755493
 20
306.947540
 11
336.740631
 21
306.947540
  0
LINE
  8
0
  6
CONTINUOUS
 10
205.255508
 20
305.947540
 11
212.757538
 21
305.947540
  0
ARC
  8
0
  6
CONTINUOUS
 10
212.757538
 20
310.947540
 40
5.000000
 50
270.000000
 51
345.000031
  0
ARC
  8
0
  6
CONTINUOUS
 10
212.611038
 20
428.947540
 40
5.000000
 50
14.999846
 51
90.000000
  0
LINE
  8
0
  6
CONTINUOUS
 10
225.255508
 20
369.947540
 11
225.849884
 21
403.999908
  0
LINE
  8
0
  6
CONTINUOUS
 10
225.255508
 20
369.947540
 11
225.849884
 21
335.895203
  0
ARC
  8
0
  6
CONTINUOUS
 10
228.849442
 20
403.947540
 40
3.000000
 50
90.000000
 51
179.000000
  0
ARC
  8
0
  6
CONTINUOUS
 10
228.849442
 20
335.947540
 40
3.000000
 50
181.000000
 51
270.000000
  0
LINE
  8
0
  6
CONTINUOUS
 10
205.255508
 20
433.947540
 11
205.255508
 21
305.947540
  0
LINE
  8
0
  6
CONTINUOUS
 10
71.255501
 20
305.947540
 11
81.255501
 21
305.947540
  0
LINE
  8
0
  6
CONTINUOUS
 10
71.255501
 20
433.947540
 11
205.255508
 21
433.947540
  0
LINE
  8
0
  6
CONTINUOUS
 10
81.255501
 20
396.447540
 11
81.255501
 21
433.947540
  0
LINE
  8
0
  6
CONTINUOUS
 10
197.255508
 20
396.447540
 11
197.255508
 21
433.947540
  0
LINE
  8
0
  6
CONTINUOUS
 10
81.755501
 20
395.947540
 11
196.755508
 21
395.947540
  0
LINE
  8
0
  6
CONTINUOUS
 10
81.255501
 20
404.164307
 11
197.255508
 21
404.164307
  0
LINE
  8
0
  6
CONTINUOUS
 10
82.255501
 20
408.124298
 11
196.255508
 21
408.124298
  0
LINE
  8
0
  6
CONTINUOUS
 10
81.255501
 20
413.515564
 11
197.255508
 21
413.515564
  0
LINE
  8
0
  6
CONTINUOUS
 10
82.255501
 20
416.946045
 11
196.255508
 21
416.946045
  0
LINE
  8
0
  6
CONTINUOUS
 10
81.255501
 20
420.427307
 11
197.255508
 21
420.427307
  0
LINE
  8
0
  6
CONTINUOUS
 10
82.255501
 20
421.954559
 11
196.255508
 21
421.954559
  0
LINE
  8
0
  6
CONTINUOUS
 10
81.255501
 20
425.681793
 11
197.255508
 21
425.681793
  0
LINE
  8
0
  6
CONTINUOUS
 10
81.255501
 20
429.443054
 11
197.255508
 21
429.443054
  0
LINE
  8
0
  6
CONTINUOUS
 10
81.255501
 20
431.988037
 11
197.255508
 21
431.988037
  0
LINE
  8
0
  6
CONTINUOUS
 10
81.255501
 20
433.465302
 11
197.255508
 21
433.465302
  0
LINE
  8
0
  6
CONTINUOUS
 10
81.755501
 20
343.947540
 11
196.755508
 21
343.947540
  0
LINE
  8
0
  6
CONTINUOUS
 10
81.255501
 20
335.730804
 11
197.255508
 21
335.730804
  0
LINE
  8
0
  6
CONTINUOUS
 10
81.255501
 20
331.771057
 11
196.255508
 21
331.771057
  0
LINE
  8
0
  6
CONTINUOUS
 10
81.255501
 20
314.213562
 11
197.255508
 21
314.213562
  0
LINE
  8
0
  6
CONTINUOUS
 10
148.255508
 20
310.452057
 11
197.255508
 21
310.452057
  0
LINE
  8
0
  6
CONTINUOUS
 10
148.255508
 20
307.907043
 11
197.255508
 21
307.907043
  0
LINE
  8
0
  6
CONTINUOUS
 10
148.755508
 20
306.429810
 11
197.255508
 21
306.429810
  0
LINE
  8
0
  6
CONTINUOUS
 10
82.255501
 20
307.947540
 11
147.255508
 21
307.947540
  0
LINE
  8
0
  6
CONTINUOUS
 10
148.755508
 20
305.947540
 11
205.255508
 21
305.947540
  0
LINE
  8
0
  6
CONTINUOUS
 10
148.255508
 20
306.447540
 11
148.255508
 21
313.213287
  0
ARC
  8
0
  6
CONTINUOUS
 10
148.755508
 20
306.447540
 40
0.500000
 50
180.000000
 51
270.000000
  0
ARC
  8
0
  6
CONTINUOUS
 10
148.755508
 20
306.929810
 40
0.500000
 50
180.000000
 51
270.000000
  0
ARC
  8
0
  6
CONTINUOUS
 10
147.255508
 20
308.947540
 40
1.000000
 50
-90.000000
 51
0.000000
  0
ARC
  8
0
  6
CONTINUOUS
 10
82.255501
 20
308.947540
 40
1.000000
 50
180.000000
 51
270.000000
  0
LINE
  8
0
  6
CONTINUOUS
 10
81.255501
 20
343.447540
 11
81.255501
 21
305.947540
  0
LINE
  8
0
  6
CONTINUOUS
 10
197.255508
 20
343.447540
 11
197.255508
 21
305.947540
  0
ARC
  8
0
  6
CONTINUOUS
 10
196.755508
 20
343.447540
 40
0.500000
 50
0.000000
 51
90.000000
  0
ARC
  8
0
  6
CONTINUOUS
 10
196.755508
 20
396.447540
 40
0.500000
 50
-90.000000
 51
0.000000
  0
ARC
  8
0
  6
CONTINUOUS
 10
81.755501
 20
396.447540
 40
0.500000
 50
180.000000
 51
270.000000
  0
ARC
  8
0
  6
CONTINUOUS
 10
81.755501
 20
343.447540
 40
0.500000
 50
90.000000
 51
180.000000
  0
ARC
  8
0
  6
CONTINUOUS
 10
149.255508
 20
313.213287
 40
1.000000
 50
90.000000
 51
180.000000
  0
LINE
  8
0
  6
CONTINUOUS
 10
81.255501
 20
326.379547
 11
197.255508
 21
326.379547
  0
LINE
  8
0
  6
CONTINUOUS
 10
81.255501
 20
322.949310
 11
196.255508
 21
322.949310
  0
LINE
  8
0
  6
CONTINUOUS
 10
81.255501
 20
317.940552
 11
196.255508
 21
317.940552
  0
LINE
  8
0
  6
CONTINUOUS
 10
81.255501
 20
319.467804
 11
197.255508
 21
319.467804
  0
ARC
  8
0
  6
CONTINUOUS
 10
223.701004
 20
152.740005
 40
5.000000
 50
270.000000
 51
304.539978
  0
LINE
  8
0
  6
CONTINUOUS
 10
75.318001
 20
293.525787
 11
74.255501
 21
253.447556
  0
LINE
  8
0
  6
CONTINUOUS
 10
143.192505
 20
293.525787
 11
144.255508
 21
253.447556
  0
LINE
  8
0
  6
CONTINUOUS
 10
140.207001
 20
296.447540
 11
122.566757
 21
296.447540
  0
ARC
  8
0
  6
CONTINUOUS
 10
78.303757
 20
293.447540
 40
3.000000
 50
90.000000
 51
178.500275
  0
ARC
  8
0
  6
CONTINUOUS
 10
140.207001
 20
293.447540
 40
3.000000
 50
1.499900
 51
90.000000
  0
LINE
  8
0
  6
CONTINUOUS
 10
78.303757
 20
296.447540
 11
95.944252
 21
296.447540
  0
ARC
  8
0
  6
CONTINUOUS
 10
136.478760
 20
298.447540
 40
2.000000
 50
-178.500504
 51
-90.000000
  0
ARC
  8
0
  6
CONTINUOUS
 10
82.032005
 20
298.447540
 40
2.000000
 50
-90.000000
 51
-1.500400
  0
ARC
  8
0
  6
CONTINUOUS
 10
109.255501
 20
363.947540
 40
68.800003
 50
-101.155800
 51
-78.844200
  0
LINE
  8
0
  6
CONTINUOUS
 10
76.755501
 20
247.447556
 11
141.755508
 21
247.447556
  0
LINE
  8
0
  6
CONTINUOUS
 10
144.255508
 20
249.947556
 11
144.255508
 21
252.447556
  0
LINE
  8
0
  6
CONTINUOUS
 10
74.255501
 20
249.947556
 11
74.255501
 21
252.447556
  0
LINE
  8
0
  6
CONTINUOUS
 10
144.255508
 20
252.447556
 11
74.255501
 21
252.447556
  0
LINE
  8
0
  6
CONTINUOUS
 10
144.255508
 20
253.447556
 11
74.255501
 21
253.447556
  0
LINE
  8
0
  6
CONTINUOUS
 10
144.255508
 20
252.447556
 11
144.255508
 21
253.447556
  0
LINE
  8
0
  6
CONTINUOUS
 10
74.255501
 20
252.447556
 11
74.255501
 21
253.447556
  0
LINE
  8
0
  6
CENTER
 10
79.255501
 20
269.447540
 11
41.600414
 21
269.447540
  0
LINE
  8
0
  6
CONTINUOUS
 10
135.742508
 20
250.447556
 11
143.255508
 21
250.447556
  0
LINE
  8
0
  6
CONTINUOUS
 10
82.768501
 20
250.447556
 11
75.255501
 21
250.447556
  0
LINE
  8
0
  6
CONTINUOUS
 10
135.243011
 20
249.960800
 11
135.202499
 21
248.421295
  0
ARC
  8
0
  6
CONTINUOUS
 10
135.742508
 20
249.947556
 40
0.500000
 50
90.000000
 51
178.500000
  0
ARC
  8
0
  6
CONTINUOUS
 10
134.202759
 20
248.447556
 40
1.000000
 50
-90.000000
 51
-1.499800
  0
ARC
  8
0
  6
CONTINUOUS
 10
143.255508
 20
251.447556
 40
1.000000
 50
-90.000000
 51
0.000000
  0
ARC
  8
0
  6
CONTINUOUS
 10
141.755508
 20
249.947556
 40
2.500000
 50
-90.000000
 51
0.000000
  0
LINE
  8
0
  6
CONTINUOUS
 10
83.268257
 20
249.960800
 11
83.308754
 21
248.421295
  0
ARC
  8
0
  6
CONTINUOUS
 10
84.308250
 20
248.447556
 40
1.000000
 50
-178.499603
 51
-90.000000
  0
ARC
  8
0
  6
CONTINUOUS
 10
82.768501
 20
249.947556
 40
0.500000
 50
1.500200
 51
90.000000
  0
ARC
  8
0
  6
CONTINUOUS
 10
75.255501
 20
251.447556
 40
1.000000
 50
180.000000
 51
270.000000
  0
ARC
  8
0
  6
CONTINUOUS
 10
76.755501
 20
249.947556
 40
2.500000
 50
180.000000
 51
270.000000
  0
ARC
  8
0
  6
CONTINUOUS
 10
139.255508
 20
250.447556
 40
3.000000
 50
-180.000000
 51
0.000000
  0
LINE
  8
0
  6
CONTINUOUS
 10
142.213501
 20
249.947556
 11
136.297501
 21
249.947556
  0
LINE
  8
0
  6
CONTINUOUS
 10
139.255508
 20
247.947556
 11
138.974258
 21
247.460800
  0
LINE
  8
0
  6
CONTINUOUS
 10
139.255508
 20
247.947556
 11
139.536499
 21
247.460800
  0
ARC
  8
0
  6
CONTINUOUS
 10
79.255501
 20
250.447556
 40
3.000000
 50
-180.000000
 51
0.000000
  0
LINE
  8
0
  6
CONTINUOUS
 10
82.213501
 20
249.947556
 11
76.297501
 21
249.947556
  0
LINE
  8
0
  6
CONTINUOUS
 10
79.255501
 20
247.947556
 11
78.974503
 21
247.460800
  0
LINE
  8
0
  6
CONTINUOUS
 10
79.255501
 20
247.947556
 11
79.536751
 21
247.460800
  0
LINE
  8
0
  6
CONTINUOUS
 10
46.255505
 20
283.947815
 11
46.255505
 21
254.947556
  0
LINE
  8
0
  6
CONTINUOUS
 10
54.255505
 20
283.947815
 11
54.255505
 21
254.947556
  0
LINE
  8
0
  6
CONTINUOUS
 10
46.255505
 20
283.947815
 11
54.255505
 21
283.947815
  0
LINE
  8
0
  6
CONTINUOUS
 10
46.255505
 20
254.947556
 11
54.255505
 21
254.947556
  0
LINE
  8
0
  6
CONTINUOUS
 10
63.255505
 20
282.447815
 11
63.255505
 21
256.447540
  0
LINE
  8
0
  6
CONTINUOUS
 10
54.255505
 20
282.447815
 11
63.255505
 21
282.447815
  0
LINE
  8
0
  6
CONTINUOUS
 10
54.255505
 20
256.447540
 11
63.255505
 21
256.447540
  0
LINE
  8
0
  6
CONTINUOUS
 10
63.255505
 20
280.947815
 11
68.255501
 21
280.947815
  0
LINE
  8
0
  6
CONTINUOUS
 10
63.255505
 20
257.947540
 11
68.255501
 21
257.947540
  0
LINE
  8
0
  6
CONTINUOUS
 10
68.255501
 20
282.947815
 11
68.255501
 21
255.947556
  0
LINE
  8
0
  6
CONTINUOUS
 10
72.755501
 20
283.947815
 11
72.755501
 21
254.947556
  0
LINE
  8
0
  6
CONTINUOUS
 10
68.255501
 20
282.947815
 11
72.755501
 21
282.947815
  0
LINE
  8
0
  6
CONTINUOUS
 10
68.255501
 20
255.947556
 11
72.755501
 21
255.947556
  0
LINE
  8
0
  6
CONTINUOUS
 10
72.755501
 20
283.947815
 11
75.064003
 21
283.947815
  0
LINE
  8
0
  6
CONTINUOUS
 10
72.755501
 20
254.947556
 11
74.255501
 21
254.947556
  0
LINE
  8
0
  6
CONTINUOUS
 10
46.255505
 20
277.447815
 11
54.255505
 21
277.447815
  0
LINE
  8
0
  6
CONTINUOUS
 10
46.255505
 20
261.447540
 11
54.255505
 21
261.447540
  0
LINE
  8
0
  6
CONTINUOUS
 10
63.255505
 20
279.447815
 11
68.255501
 21
279.447815
  0
LINE
  8
0
  6
CONTINUOUS
 10
63.255505
 20
259.447540
 11
68.255501
 21
259.447540
  0
LINE
  8
0
  6
CENTER
 10
109.255501
 20
238.380005
 11
109.255501
 21
311.058289
  0
LINE
  8
0
  6
CONTINUOUS
 10
84.230003
 20
305.473785
 11
84.044632
 21
298.394836
  0
LINE
  8
0
  6
CONTINUOUS
 10
133.281250
 20
306.447540
 11
85.229507
 21
306.447540
  0
ARC
  8
0
  6
CONTINUOUS
 10
85.229507
 20
305.447540
 40
1.000000
 50
90.000000
 51
178.499405
  0
LINE
  8
0
  6
CONTINUOUS
 10
86.255501
 20
306.447540
 11
86.255501
 21
307.947540
  0
LINE
  8
0
  6
CONTINUOUS
 10
132.255508
 20
306.447540
 11
132.255508
 21
307.947540
  0
ARC
  8
0
  6
CONTINUOUS
 10
133.281250
 20
305.447540
 40
1.000000
 50
1.499300
 51
90.000000
  0
LINE
  8
0
  6
CONTINUOUS
 10
134.281006
 20
305.473785
 11
134.466370
 21
298.394867
  0
LINE
  8
0
  6
CONTINUOUS
 10
146.255463
 20
110.739998
 11
144.255554
 21
110.739998
  0
LINE
  8
0
  6
CONTINUOUS
 10
146.255508
 20
56.740002
 11
144.255554
 21
56.740002
  0
LINE
  8
0
  6
CONTINUOUS
 10
148.255508
 20
58.740002
 11
148.255478
 21
108.739998
  0
ARC
  8
0
  6
CONTINUOUS
 10
146.255478
 20
108.739998
 40
2.000000
 50
0.000000
 51
90.000000
  0
ARC
  8
0
  6
CONTINUOUS
 10
146.255508
 20
58.740002
 40
2.000000
 50
-90.000000
 51
0.000000
  0
LINE
  8
0
  6
CONTINUOUS
 10
76.755516
 20
118.739998
 11
141.755447
 21
118.739998
  0
LINE
  8
0
  6
CONTINUOUS
 10
141.755554
 20
48.740002
 11
76.755501
 21
48.740002
  0
LINE
  8
0
  6
CONTINUOUS
 10
74.255501
 20
51.240002
 11
74.255501
 21
116.239998
  0
LINE
  8
0
  6
CONTINUOUS
 10
144.255554
 20
51.239990
 11
144.255554
 21
116.239998
  0
ARC
  8
0
  6
CONTINUOUS
 10
141.755554
 20
116.239998
 40
2.500000
 50
0.000000
 51
90.000000
  0
ARC
  8
0
  6
CONTINUOUS
 10
76.755531
 20
116.239998
 40
2.500000
 50
90.000000
 51
180.000000
  0
ARC
  8
0
  6
CONTINUOUS
 10
76.755516
 20
51.240002
 40
2.500000
 50
180.000000
 51
270.000000
  0
ARC
  8
0
  6
CONTINUOUS
 10
141.755554
 20
51.239990
 40
2.500000
 50
-90.000000
 51
0.000000
  0
ARC
  8
0
  6
CONTINUOUS
 10
79.255516
 20
113.739998
 40
4.000000
 50
-90.000000
 51
0.000000
  0
ARC
  8
0
  6
CONTINUOUS
 10
139.255554
 20
113.739998
 40
4.000000
 50
180.000000
 51
270.000000
  0
ARC
  8
0
  6
CONTINUOUS
 10
139.255554
 20
53.740002
 40
4.000000
 50
90.000000
 51
180.000000
  0
ARC
  8
0
  6
CONTINUOUS
 10
79.255516
 20
53.740002
 40
4.000000
 50
0.000000
 51
90.000000
  0
LINE
  8
0
  6
CONTINUOUS
 10
139.255554
 20
109.739998
 11
141.755554
 21
109.739998
  0
LINE
  8
0
  6
CONTINUOUS
 10
79.255501
 20
109.739998
 11
76.755501
 21
109.739998
  0
LINE
  8
0
  6
CONTINUOUS
 10
79.255501
 20
57.740002
 11
76.755531
 21
57.740002
  0
LINE
  8
0
  6
CONTINUOUS
 10
139.255554
 20
57.740002
 11
141.755554
 21
57.740002
  0
LINE
  8
0
  6
CONTINUOUS
 10
135.255554
 20
113.739998
 11
135.255554
 21
116.239998
  0
LINE
  8
0
  6
CONTINUOUS
 10
83.255516
 20
113.739998
 11
83.255516
 21
116.239998
  0
LINE
  8
0
  6
CONTINUOUS
 10
83.255516
 20
53.740002
 11
83.255516
 21
51.239990
  0
LINE
  8
0
  6
CONTINUOUS
 10
135.255554
 20
53.739979
 11
135.255554
 21
51.239990
  0
ARC
  8
0
  6
CONTINUOUS
 10
76.755516
 20
107.239998
 40
2.500000
 50
90.000000
 51
180.000000
  0
ARC
  8
0
  6
CONTINUOUS
 10
85.755531
 20
116.239998
 40
2.500000
 50
90.000000
 51
180.000000
  0
ARC
  8
0
  6
CONTINUOUS
 10
132.755554
 20
116.239998
 40
2.500000
 50
0.000000
 51
90.000000
  0
ARC
  8
0
  6
CONTINUOUS
 10
141.755554
 20
107.239998
 40
2.500000
 50
0.000000
 51
90.000000
  0
ARC
  8
0
  6
CONTINUOUS
 10
76.755516
 20
60.240002
 40
2.500000
 50
180.000000
 51
270.000000
  0
ARC
  8
0
  6
CONTINUOUS
 10
85.755516
 20
51.240002
 40
2.500000
 50
180.000000
 51
270.000000
  0
ARC
  8
0
  6
CONTINUOUS
 10
141.755554
 20
60.239990
 40
2.500000
 50
-90.000000
 51
0.000000
  0
ARC
  8
0
  6
CONTINUOUS
 10
132.755554
 20
51.239990
 40
2.500000
 50
-90.000000
 51
0.000000
  0
LINE
  8
0
  6
CONTINUOUS
 10
46.255554
 20
69.239853
 11
46.255554
 21
98.239952
  0
LINE
  8
0
  6
CONTINUOUS
 10
54.255554
 20
69.239853
 11
54.255554
 21
98.239952
  0
LINE
  8
0
  6
CONTINUOUS
 10
46.255554
 20
69.239853
 11
54.255554
 21
69.239853
  0
LINE
  8
0
  6
CONTINUOUS
 10
46.255554
 20
98.239952
 11
54.255554
 21
98.239952
  0
LINE
  8
0
  6
CONTINUOUS
 10
63.255554
 20
70.739853
 11
63.255554
 21
96.739952
  0
LINE
  8
0
  6
CONTINUOUS
 10
54.255554
 20
70.739853
 11
63.255554
 21
70.739853
  0
LINE
  8
0
  6
CONTINUOUS
 10
54.255554
 20
96.739952
 11
63.255554
 21
96.739952
  0
LINE
  8
0
  6
CONTINUOUS
 10
63.255554
 20
72.239853
 11
68.255554
 21
72.239853
  0
LINE
  8
0
  6
CONTINUOUS
 10
63.255554
 20
95.239952
 11
68.255554
 21
95.239952
  0
LINE
  8
0
  6
CONTINUOUS
 10
68.255554
 20
70.239853
 11
68.255554
 21
97.239952
  0
LINE
  8
0
  6
CONTINUOUS
 10
72.755554
 20
69.239853
 11
72.755554
 21
98.239952
  0
LINE
  8
0
  6
CONTINUOUS
 10
68.255554
 20
70.239853
 11
72.755554
 21
70.239853
  0
LINE
  8
0
  6
CONTINUOUS
 10
68.255554
 20
97.239952
 11
72.755554
 21
97.239952
  0
LINE
  8
0
  6
CONTINUOUS
 10
72.755554
 20
69.239853
 11
74.294853
 21
69.239853
  0
LINE
  8
0
  6
CONTINUOUS
 10
72.755554
 20
98.239952
 11
74.255501
 21
98.239952
  0
LINE
  8
0
  6
CONTINUOUS
 10
46.255554
 20
75.739853
 11
54.255554
 21
75.739853
  0
LINE
  8
0
  6
CONTINUOUS
 10
46.255554
 20
91.739952
 11
54.255554
 21
91.739952
  0
LINE
  8
0
  6
CENTER
 10
109.255501
 20
31.852501
 11
109.255501
 21
130.217407
  0
LINE
  8
0
  6
CONTINUOUS
 10
197.255508
 20
113.940002
 11
144.255554
 21
113.940002
  0
LINE
  8
0
  6
CONTINUOUS
 10
197.255508
 20
108.139999
 11
148.255478
 21
108.139999
  0
LINE
  8
0
  6
CONTINUOUS
 10
197.255478
 20
106.139999
 11
148.255478
 21
106.139999
  0
LINE
  8
0
  6
CONTINUOUS
 10
197.255478
 20
100.339996
 11
148.255493
 21
100.339996
  0
LINE
  8
0
  6
CONTINUOUS
 10
197.255478
 20
98.339996
 11
148.255493
 21
98.339996
  0
LINE
  8
0
  6
CONTINUOUS
 10
197.255478
 20
92.540001
 11
148.255493
 21
92.540001
  0
LINE
  8
0
  6
CONTINUOUS
 10
197.255478
 20
90.540001
 11
148.255493
 21
90.540001
  0
LINE
  8
0
  6
CONTINUOUS
 10
197.255478
 20
84.739998
 11
148.255493
 21
84.739998
  0
LINE
  8
0
  6
CONTINUOUS
 10
197.255508
 20
82.739998
 11
148.255493
 21
82.739998
  0
LINE
  8
0
  6
CONTINUOUS
 10
197.255508
 20
76.940002
 11
148.255493
 21
76.940002
  0
LINE
  8
0
  6
CONTINUOUS
 10
197.255508
 20
74.940002
 11
148.255493
 21
74.940002
  0
LINE
  8
0
  6
CONTINUOUS
 10
197.255508
 20
69.139999
 11
148.255493
 21
69.139999
  0
LINE
  8
0
  6
CONTINUOUS
 10
197.255508
 20
67.139999
 11
148.255508
 21
67.139999
  0
LINE
  8
0
  6
CONTINUOUS
 10
197.255508
 20
61.340000
 11
148.255508
 21
61.340000
  0
LINE
  8
0
  6
CONTINUOUS
 10
197.255508
 20
59.340000
 11
148.255508
 21
59.340000
  0
LINE
  8
0
  6
CONTINUOUS
 10
502.548737
 20
56.706257
 11
505.623627
 21
56.598877
  0
LINE
  8
0
  6
CONTINUOUS
 10
501.583740
 20
57.705681
 11
501.583710
 21
67.865562
  0
ARC
  8
0
  6
CONTINUOUS
 10
502.583740
 20
57.705700
 40
1.000000
 50
180.000000
 51
268.000214
  0
LINE
  8
0
  6
CONTINUOUS
 10
487.161804
 20
49.802444
 11
447.083649
 21
48.740002
  0
LINE
  8
0
  6
CONTINUOUS
 10
463.583740
 20
118.302383
 11
447.083649
 21
118.739998
  0
LINE
  8
0
  6
CONTINUOUS
 10
500.083649
 20
59.714100
 11
500.083649
 21
75.755493
  0
LINE
  8
0
  6
CONTINUOUS
 10
500.083649
 20
105.739998
 11
500.083649
 21
91.723724
  0
ARC
  8
0
  6
CONTINUOUS
 10
487.083649
 20
52.788101
 40
3.000000
 50
-88.500267
 51
0.000000
  0
LINE
  8
0
  6
CONTINUOUS
 10
494.937866
 20
58.605202
 11
492.031311
 21
58.529095
  0
ARC
  8
0
  6
CONTINUOUS
 10
499.083649
 20
59.714100
 40
1.000000
 50
-88.499397
 51
0.000000
  0
LINE
  8
0
  6
CONTINUOUS
 10
490.083649
 20
52.788200
 11
490.083649
 21
70.428726
  0
LINE
  8
0
  6
CONTINUOUS
 10
499.109863
 20
58.714500
 11
494.937866
 21
58.605202
  0
ARC
  8
0
  6
CONTINUOUS
 10
557.583679
 20
83.739998
 40
68.800003
 50
168.844193
 51
191.155807
  0
LINE
  8
0
  6
CONTINUOUS
 10
441.083649
 20
51.240002
 11
441.083649
 21
116.239998
  0
LINE
  8
0
  6
CONTINUOUS
 10
443.583649
 20
118.739998
 11
446.083649
 21
118.739998
  0
LINE
  8
0
  6
CONTINUOUS
 10
443.583649
 20
48.740002
 11
446.083649
 21
48.740002
  0
LINE
  8
0
  6
CONTINUOUS
 10
446.083649
 20
118.739998
 11
446.083649
 21
48.740002
  0
LINE
  8
0
  6
CONTINUOUS
 10
447.083649
 20
118.739998
 11
447.083649
 21
48.740002
  0
LINE
  8
0
  6
CONTINUOUS
 10
446.083649
 20
118.739998
 11
447.083649
 21
118.739998
  0
LINE
  8
0
  6
CONTINUOUS
 10
446.083649
 20
48.740002
 11
447.083649
 21
48.740002
  0
LINE
  8
0
  6
CONTINUOUS
 10
444.083649
 20
110.227097
 11
444.083649
 21
117.739998
  0
LINE
  8
0
  6
CONTINUOUS
 10
444.083649
 20
57.252941
 11
444.083649
 21
49.740002
  0
LINE
  8
0
  6
CONTINUOUS
 10
443.596741
 20
109.727303
 11
442.057434
 21
109.686996
  0
ARC
  8
0
  6
CONTINUOUS
 10
443.583649
 20
110.227097
 40
0.500000
 50
-88.500000
 51
0.000000
  0
ARC
  8
0
  6
CONTINUOUS
 10
442.083649
 20
108.687302
 40
1.000000
 50
91.499802
 51
180.000000
  0
ARC
  8
0
  6
CONTINUOUS
 10
445.083649
 20
117.739998
 40
1.000000
 50
90.000000
 51
180.000000
  0
ARC
  8
0
  6
CONTINUOUS
 10
443.583649
 20
116.239998
 40
2.500000
 50
90.000000
 51
180.000000
  0
LINE
  8
0
  6
CONTINUOUS
 10
443.596741
 20
57.752819
 11
442.057434
 21
57.793098
  0
ARC
  8
0
  6
CONTINUOUS
 10
442.083649
 20
58.792728
 40
1.000000
 50
180.000000
 51
268.499603
  0
ARC
  8
0
  6
CONTINUOUS
 10
443.583649
 20
57.252941
 40
0.500000
 50
0.000000
 51
88.499802
  0
ARC
  8
0
  6
CONTINUOUS
 10
445.083649
 20
49.740002
 40
1.000000
 50
180.000000
 51
270.000000
  0
ARC
  8
0
  6
CONTINUOUS
 10
443.583649
 20
51.240002
 40
2.500000
 50
180.000000
 51
270.000000
  0
ARC
  8
0
  6
CONTINUOUS
 10
444.083649
 20
113.739998
 40
3.000000
 50
90.000000
 51
270.000000
  0
LINE
  8
0
  6
CONTINUOUS
 10
443.583649
 20
116.697998
 11
443.583649
 21
110.781998
  0
LINE
  8
0
  6
CONTINUOUS
 10
441.583649
 20
113.739998
 11
441.096863
 21
113.458900
  0
LINE
  8
0
  6
CONTINUOUS
 10
441.583649
 20
113.739998
 11
441.096863
 21
114.021103
  0
ARC
  8
0
  6
CONTINUOUS
 10
444.083649
 20
53.740002
 40
3.000000
 50
90.000000
 51
270.000000
  0
LINE
  8
0
  6
CONTINUOUS
 10
443.583649
 20
56.698009
 11
443.583649
 21
50.781990
  0
LINE
  8
0
  6
CONTINUOUS
 10
441.583649
 20
53.740002
 11
441.096863
 21
53.458931
  0
LINE
  8
0
  6
CONTINUOUS
 10
441.583649
 20
53.740002
 11
441.096863
 21
54.021130
  0
LINE
  8
0
  6
CONTINUOUS
 10
500.083649
 20
60.740002
 11
501.583649
 21
60.740002
  0
ARC
  8
0
  6
CONTINUOUS
 10
492.083649
 20
56.529778
 40
2.000000
 50
91.499916
 51
180.000000
  0
LINE
  8
0
  6
CENTER
 10
463.083649
 20
126.196999
 11
463.083649
 21
38.531250
  0
LINE
  8
0
  6
CONTINUOUS
 10
490.083649
 20
105.739998
 11
490.083649
 21
97.051270
  0
LINE
  8
0
  6
CONTINUOUS
 10
73.255501
 20
433.947540
 11
73.255501
 21
305.947540
  0
ARC
  8
0
  6
CONTINUOUS
 10
365.255219
 20
369.950562
 40
360.000000
 50
180.000000
 51
188.618607
  0
ARC
  8
0
  6
CONTINUOUS
 10
22.173904
 20
317.950562
 40
13.000000
 50
-171.381805
 51
-90.000000
  0
LINE
  8
0
  6
CONTINUOUS
 10
34.556705
 20
299.449158
 11
71.255501
 21
299.447174
  0
LINE
  8
0
  6
CONTINUOUS
 10
22.173904
 20
304.950562
 11
31.608044
 21
304.950562
  0
LINE
  8
0
  6
CONTINUOUS
 10
71.255501
 20
440.447937
 11
71.255501
 21
299.447174
  0
ARC
  8
0
  6
CONTINUOUS
 10
371.055237
 20
369.948944
 40
345.000000
 50
-179.999771
 51
-168.412003
  0
ARC
  8
0
  6
CONTINUOUS
 10
31.408283
 20
303.950562
 40
1.000000
 50
10.996500
 51
90.000000
  0
ARC
  8
0
  6
CONTINUOUS
 10
34.556843
 20
300.949127
 40
1.500000
 50
191.587906
 51
270.000000
  0
LINE
  8
0
  6
CONTINUOUS
 10
34.556705
 20
440.445953
 11
71.255501
 21
440.447937
  0
ARC
  8
0
  6
CONTINUOUS
 10
371.055237
 20
369.946136
 40
345.000000
 50
168.412003
 51
179.999771
  0
ARC
  8
0
  6
CONTINUOUS
 10
365.255219
 20
369.944519
 40
360.000000
 50
171.381393
 51
180.000000
  0
ARC
  8
0
  6
CONTINUOUS
 10
22.173904
 20
421.944550
 40
13.000000
 50
90.000000
 51
171.381805
  0
LINE
  8
0
  6
CONTINUOUS
 10
22.173904
 20
434.944519
 11
31.608044
 21
434.944519
  0
ARC
  8
0
  6
CONTINUOUS
 10
31.408283
 20
435.944550
 40
1.000000
 50
270.000000
 51
349.003510
  0
ARC
  8
0
  6
CONTINUOUS
 10
34.556843
 20
438.945984
 40
1.500000
 50
90.000000
 51
168.412094
  0
ARC
  8
0
  6
CONTINUOUS
 10
365.255493
 20
83.739998
 40
360.000000
 50
171.381500
 51
188.618607
  0
LINE
  8
0
  6
CONTINUOUS
 10
71.255486
 20
154.240005
 11
71.255486
 21
97.239952
  0
LINE
  8
0
  6
CONTINUOUS
 10
27.815844
 20
154.240005
 11
71.255486
 21
154.240005
  0
LINE
  8
0
  6
CONTINUOUS
 10
22.173878
 20
148.739944
 11
27.076963
 21
148.739944
  0
LINE
  8
0
  6
CONTINUOUS
 10
22.173967
 20
18.740000
 11
27.076963
 21
18.740000
  0
ARC
  8
0
  6
CONTINUOUS
 10
-311.744507
 20
83.739998
 40
345.000000
 50
-11.486330
 51
11.486320
  0
ARC
  8
0
  6
CONTINUOUS
 10
22.173908
 20
135.739761
 40
13.000000
 50
90.000000
 51
171.381805
  0
ARC
  8
0
  6
CONTINUOUS
 10
27.815844
 20
152.739761
 40
1.500000
 50
90.000000
 51
191.486496
  0
ARC
  8
0
  6
CONTINUOUS
 10
22.173908
 20
31.740000
 40
13.000000
 50
188.618607
 51
270.000000
  0
ARC
  8
0
  6
CONTINUOUS
 10
27.815844
 20
14.739760
 40
1.500000
 50
168.513794
 51
199.461502
  0
LINE
  8
0
  6
CONTINUOUS
 10
71.255486
 20
14.240000
 11
26.401545
 21
14.240000
  0
LINE
  8
0
  6
CONTINUOUS
 10
71.255486
 20
70.239853
 11
71.255486
 21
14.240000
  0
LINE
  8
0
  6
CONTINUOUS
 10
73.255547
 20
69.239853
 11
73.255547
 21
32.738739
  0
LINE
  8
0
  6
CONTINUOUS
 10
73.255547
 20
26.738741
 11
73.255547
 21
19.740000
  0
LINE
  8
0
  6
CONTINUOUS
 10
73.255547
 20
147.740005
 11
73.255547
 21
98.239952
  0
LINE
  8
0
  6
CONTINUOUS
 10
74.145844
 20
32.738739
 11
71.255486
 21
32.738739
  0
LINE
  8
0
  6
CONTINUOUS
 10
74.145882
 20
29.738741
 11
71.255486
 21
29.738741
  0
LINE
  8
0
  6
CONTINUOUS
 10
74.145882
 20
26.738741
 11
71.255486
 21
26.738741
  0
ARC
  8
0
  6
CONTINUOUS
 10
74.145882
 20
24.738741
 40
2.000000
 50
0.000000
 51
90.000000
  0
ARC
  8
0
  6
CONTINUOUS
 10
74.145882
 20
24.738741
 40
5.000000
 50
0.000000
 51
90.000000
  0
ARC
  8
0
  6
CONTINUOUS
 10
74.145882
 20
24.738741
 40
8.000000
 50
0.000000
 51
90.000000
  0
LINE
  8
0
  6
CONTINUOUS
 10
76.145882
 20
24.738741
 11
76.145882
 21
16.024300
  0
LINE
  8
0
  6
CONTINUOUS
 10
79.145882
 20
24.738741
 11
79.145882
 21
14.766240
  0
LINE
  8
0
  6
CONTINUOUS
 10
82.145882
 20
24.738741
 11
82.145882
 21
17.611820
  0
LINE
  8
0
  6
CONTINUOUS
 10
79.145882
 20
16.478460
 11
82.145882
 21
17.611820
  0
LINE
  8
0
  6
CONTINUOUS
 10
79.645882
 20
16.667360
 11
79.645882
 21
11.363880
  0
LINE
  8
0
  6
CONTINUOUS
 10
79.845863
 20
16.742920
 11
79.845863
 21
11.363880
  0
LINE
  8
0
  6
CONTINUOUS
 10
80.045860
 20
16.818520
 11
80.045860
 21
11.363880
  0
LINE
  8
0
  6
CONTINUOUS
 10
80.245888
 20
16.894079
 11
80.245888
 21
11.363880
  0
LINE
  8
0
  6
CONTINUOUS
 10
80.445885
 20
16.973181
 11
80.445885
 21
11.363880
  0
LINE
  8
0
  6
CONTINUOUS
 10
80.645882
 20
17.045200
 11
80.645882
 21
11.363880
  0
LINE
  8
0
  6
CONTINUOUS
 10
80.845863
 20
17.120701
 11
80.845863
 21
11.363880
  0
LINE
  8
0
  6
CONTINUOUS
 10
81.045860
 20
17.196260
 11
81.045860
 21
11.363880
  0
LINE
  8
0
  6
CONTINUOUS
 10
81.245865
 20
17.271900
 11
81.245865
 21
11.363880
  0
LINE
  8
0
  6
CONTINUOUS
 10
81.445862
 20
17.347401
 11
81.445908
 21
11.363880
  0
LINE
  8
0
  6
CONTINUOUS
 10
81.645882
 20
17.422920
 11
81.645882
 21
11.363880
  0
LINE
  8
0
  6
CONTINUOUS
 10
76.145882
 20
16.024300
 11
79.145882
 21
14.766240
  0
LINE
  8
0
  6
CONTINUOUS
 10
76.645882
 20
15.814700
 11
76.645882
 21
10.082520
  0
LINE
  8
0
  6
CONTINUOUS
 10
76.845886
 20
15.730900
 11
76.845863
 21
10.082520
  0
LINE
  8
0
  6
CONTINUOUS
 10
77.045845
 20
15.646920
 11
77.045845
 21
10.082520
  0
LINE
  8
0
  6
CONTINUOUS
 10
77.245888
 20
15.563180
 11
77.245888
 21
10.082520
  0
LINE
  8
0
  6
CONTINUOUS
 10
77.445862
 20
15.479160
 11
77.445885
 21
10.082520
  0
LINE
  8
0
  6
CONTINUOUS
 10
77.645882
 20
15.395420
 11
77.645882
 21
10.082520
  0
LINE
  8
0
  6
CONTINUOUS
 10
77.845886
 20
15.311440
 11
77.845886
 21
10.082520
  0
LINE
  8
0
  6
CONTINUOUS
 10
78.045860
 20
15.227600
 11
78.045860
 21
10.082520
  0
LINE
  8
0
  6
CONTINUOUS
 10
78.245903
 20
15.143800
 11
78.245903
 21
10.082520
  0
LINE
  8
0
  6
CONTINUOUS
 10
78.445885
 20
15.059820
 11
78.445862
 21
10.082520
  0
LINE
  8
0
  6
CONTINUOUS
 10
78.645882
 20
14.976020
 11
78.645882
 21
10.082520
  0
LINE
  8
0
  6
CONTINUOUS
 10
76.145882
 20
19.740000
 11
71.255486
 21
19.740000
  0
LINE
  8
0
  6
CONTINUOUS
 10
81.005516
 20
114.139992
 11
81.005516
 21
113.339973
  0
LINE
  8
0
  6
CONTINUOUS
 10
78.855492
 20
115.489998
 11
79.655510
 21
115.489998
  0
LINE
  8
0
  6
CONTINUOUS
 10
78.855492
 20
111.989998
 11
79.655510
 21
111.989998
  0
LINE
  8
0
  6
CONTINUOUS
 10
77.505516
 20
114.139992
 11
77.505516
 21
113.339973
  0
CIRCLE
  8
0
  6
CONTINUOUS
 10
79.255516
 20
113.739998
 40
2.750000
  0
ARC
  8
0
  6
CONTINUOUS
 10
77.505516
 20
115.489998
 40
1.350000
 50
-90.000000
 51
0.000000
  0
ARC
  8
0
  6
CONTINUOUS
 10
77.505516
 20
111.989998
 40
1.350000
 50
0.000000
 51
90.000000
  0
ARC
  8
0
  6
CONTINUOUS
 10
81.005516
 20
115.489998
 40
1.350000
 50
180.000000
 51
270.000000
  0
ARC
  8
0
  6
CONTINUOUS
 10
81.005516
 20
111.989998
 40
1.350000
 50
90.000000
 51
180.000000
  0
LINE
  8
0
  6
CONTINUOUS
 10
141.005554
 20
114.139992
 11
141.005554
 21
113.339973
  0
LINE
  8
0
  6
CONTINUOUS
 10
138.855530
 20
115.489998
 11
139.655548
 21
115.489998
  0
LINE
  8
0
  6
CONTINUOUS
 10
138.855530
 20
111.989998
 11
139.655548
 21
111.989998
  0
LINE
  8
0
  6
CONTINUOUS
 10
137.505554
 20
114.139992
 11
137.505554
 21
113.339973
  0
CIRCLE
  8
0
  6
CONTINUOUS
 10
139.255554
 20
113.739998
 40
2.750000
  0
ARC
  8
0
  6
CONTINUOUS
 10
137.505554
 20
115.489998
 40
1.350000
 50
-90.000000
 51
0.000000
  0
ARC
  8
0
  6
CONTINUOUS
 10
137.505554
 20
111.989998
 40
1.350000
 50
0.000000
 51
90.000000
  0
ARC
  8
0
  6
CONTINUOUS
 10
141.005554
 20
115.489998
 40
1.350000
 50
180.000000
 51
270.000000
  0
ARC
  8
0
  6
CONTINUOUS
 10
141.005554
 20
111.989998
 40
1.350000
 50
90.000000
 51
180.000000
  0
LINE
  8
0
  6
CONTINUOUS
 10
141.005554
 20
54.139996
 11
141.005554
 21
53.339977
  0
LINE
  8
0
  6
CONTINUOUS
 10
138.855530
 20
55.490002
 11
139.655548
 21
55.490002
  0
LINE
  8
0
  6
CONTINUOUS
 10
138.855530
 20
51.990002
 11
139.655548
 21
51.990002
  0
LINE
  8
0
  6
CONTINUOUS
 10
137.505554
 20
54.139996
 11
137.505554
 21
53.339977
  0
CIRCLE
  8
0
  6
CONTINUOUS
 10
139.255554
 20
53.740002
 40
2.750000
  0
ARC
  8
0
  6
CONTINUOUS
 10
137.505554
 20
55.490002
 40
1.350000
 50
-90.000000
 51
0.000000
  0
ARC
  8
0
  6
CONTINUOUS
 10
137.505554
 20
51.990002
 40
1.350000
 50
0.000000
 51
90.000000
  0
ARC
  8
0
  6
CONTINUOUS
 10
141.005554
 20
55.490002
 40
1.350000
 50
180.000000
 51
270.000000
  0
ARC
  8
0
  6
CONTINUOUS
 10
141.005554
 20
51.990002
 40
1.350000
 50
90.000000
 51
180.000000
  0
LINE
  8
0
  6
CONTINUOUS
 10
81.005516
 20
54.139996
 11
81.005516
 21
53.339977
  0
LINE
  8
0
  6
CONTINUOUS
 10
78.855492
 20
55.490002
 11
79.655510
 21
55.490002
  0
LINE
  8
0
  6
CONTINUOUS
 10
78.855492
 20
51.990002
 11
79.655510
 21
51.990002
  0
LINE
  8
0
  6
CONTINUOUS
 10
77.505516
 20
54.139996
 11
77.505516
 21
53.339977
  0
CIRCLE
  8
0
  6
CONTINUOUS
 10
79.255516
 20
53.740002
 40
2.750000
  0
ARC
  8
0
  6
CONTINUOUS
 10
77.505516
 20
55.490002
 40
1.350000
 50
-90.000000
 51
0.000000
  0
ARC
  8
0
  6
CONTINUOUS
 10
77.505516
 20
51.990002
 40
1.350000
 50
0.000000
 51
90.000000
  0
ARC
  8
0
  6
CONTINUOUS
 10
81.005516
 20
55.490002
 40
1.350000
 50
180.000000
 51
270.000000
  0
ARC
  8
0
  6
CONTINUOUS
 10
81.005516
 20
51.990002
 40
1.350000
 50
90.000000
 51
180.000000
  0
TEXT
  8
0
 10
-16.000000
 20
-46.000000
 40
4.000000
 41
1.000000
  1
H2LB-28R-5~60-T040WA
 50
0.000000
  0
ENDSEC
  0
EOF
