  0
SECTION
  2
HEADER
  9
$CLAYER
  8
1
  9
$LTSCALE
 40
3.0
  0
ENDSEC
  0
SECTION
  2
TABLES
  0
TABLE
  2
LTYPE
 70
     4
  0
LTYPE
  2
CONTINUOUS
  3
solid line
 70
    64
 72
    65
 73
     0
 40
0.0
  0
LTYPE
  2
DASHED
  3
__ __ __ __ __ __ __ __ __ __ __ __ __ __ __
 70
    64
 72
    65
 73
     2
 40
0.75
 49
0.5
 49
-0.25
  0
LTYPE
  2
CENTER
  3
____ _ ____ _ ____ _ ____ _ ____ _ ____ _ ____
 70
    64
 72
    65
 73
     4
 40
2.0
 49
1.25
 49
-0.25
 49
0.25
 49
-0.25
  0
LTYPE
  2
PHANTOM
  3
_____ _ _ _____ _ _ _____ _ _ _____ _ _ ____
 70
    64
 72
    65
 73
     6
 40
2.5
 49
1.25
 49
-0.25
 49
0.25
 49
-0.25
 49
0.25
 49
-0.25
  0
ENDTAB
  0
TABLE
  2
LAYER
 70
     1
  0
LAYER
  2
0
 70
    64
 62
     7
  6
CONTINUOUS
  0
ENDTAB
  0
TABLE
  2
STYLE
 70
     1
  0
STYLE
  2
STANDARD
 70
     0
 40
0.000000
 41
1.000000
 50
0.000000
 71
     0
 42
3.000000
  3
txt
  4
BIGFONT
  0
ENDTAB
  0
ENDSEC
  0
SECTION
  2
BLOCKS
  0
ENDSEC
  0
SECTION
  2
ENTITIES
  0
LINE
  8
0
  6
CONTINUOUS
 10
340.255493
 20
142.911621
 11
340.255493
 21
-2.460000
  0
LINE
  8
0
  6
CONTINUOUS
 10
215.255508
 20
-2.460000
 11
340.255493
 21
-2.460000
  0
LINE
  8
0
  6
CENTER
 10
223.242493
 20
117.540001
 11
329.075012
 21
117.540001
  0
LINE
  8
0
  6
CENTER
 10
277.755493
 20
184.804993
 11
277.755493
 21
-10.960000
  0
LINE
  8
0
  6
CONTINUOUS
 10
255.309906
 20
172.039963
 11
300.201111
 21
172.039963
  0
LINE
  8
0
  6
CONTINUOUS
 10
303.035919
 20
171.158661
 11
338.090302
 21
147.030243
  0
LINE
  8
0
  6
CONTINUOUS
 10
218.255508
 20
12.540000
 11
337.255493
 21
12.540000
  0
LINE
  8
0
  6
CONTINUOUS
 10
330.255493
 20
11.002500
 11
330.255493
 21
-2.460000
  0
LINE
  8
0
  6
CONTINUOUS
 10
226.255508
 20
11.002500
 11
226.255508
 21
-2.460000
  0
LINE
  8
0
  6
CENTER
 10
317.755493
 20
19.790001
 11
317.755493
 21
-9.210000
  0
LINE
  8
0
  6
CENTER
 10
237.755508
 20
19.790001
 11
237.755508
 21
-7.960000
  0
LINE
  8
0
  6
DASHED
 10
323.255493
 20
12.540000
 11
323.255493
 21
-2.460000
  0
LINE
  8
0
  6
DASHED
 10
312.255493
 20
12.540000
 11
312.255493
 21
-2.460000
  0
LINE
  8
0
  6
DASHED
 10
243.255508
 20
12.540000
 11
243.255508
 21
-2.460000
  0
LINE
  8
0
  6
DASHED
 10
232.255508
 20
12.540000
 11
232.255508
 21
-2.460000
  0
ARC
  8
0
  6
CONTINUOUS
 10
257.755493
 20
67.540001
 40
26.500000
 50
170.529099
 51
270.000000
  0
ARC
  8
0
  6
CONTINUOUS
 10
297.755493
 20
67.540001
 40
26.500000
 50
-90.000000
 51
9.470950
  0
LINE
  8
0
  6
CONTINUOUS
 10
231.616699
 20
71.900475
 11
240.273499
 21
123.792839
  0
LINE
  8
0
  6
CONTINUOUS
 10
315.237518
 20
123.792839
 11
323.894318
 21
71.900505
  0
LINE
  8
0
  6
CONTINUOUS
 10
257.755493
 20
41.040001
 11
297.755493
 21
41.040001
  0
ARC
  8
0
  6
CONTINUOUS
 10
335.255493
 20
142.911560
 40
5.000000
 50
0.000000
 51
55.460110
  0
ARC
  8
0
  6
CONTINUOUS
 10
300.201111
 20
167.039963
 40
5.000000
 50
55.460079
 51
90.000000
  0
ARC
  8
0
  6
CONTINUOUS
 10
255.343903
 20
167.039963
 40
5.000000
 50
90.000000
 51
91.038872
  0
LINE
  8
0
  6
CONTINUOUS
 10
215.255508
 20
-2.460000
 11
215.255508
 21
29.940020
  0
ARC
  8
0
  6
CONTINUOUS
 10
257.755493
 20
67.540001
 40
24.000000
 50
170.529205
 51
270.000000
  0
ARC
  8
0
  6
CONTINUOUS
 10
297.755493
 20
67.540001
 40
24.000000
 50
-90.000000
 51
9.471000
  0
LINE
  8
0
  6
CONTINUOUS
 10
257.755493
 20
43.540001
 11
297.755493
 21
43.540001
  0
CIRCLE
  8
0
  6
CONTINUOUS
 10
277.755493
 20
117.540001
 40
33.500000
  0
ARC
  8
0
  6
CONTINUOUS
 10
277.755493
 20
117.540001
 40
38.000000
 50
9.470963
 51
170.529007
  0
ARC
  8
0
  6
CONTINUOUS
 10
277.755493
 20
117.540001
 40
35.500000
 50
-189.470795
 51
9.471022
  0
LINE
  8
0
  6
CONTINUOUS
 10
234.082703
 20
71.489067
 11
242.739304
 21
123.381340
  0
LINE
  8
0
  6
CONTINUOUS
 10
312.771515
 20
123.381462
 11
321.428314
 21
71.489151
  0
LINE
  8
0
  6
CENTER
 10
195.255508
 20
81.540001
 11
226.324997
 21
81.540001
  0
LINE
  8
0
  6
CONTINUOUS
 10
213.701004
 20
145.539993
 11
195.255508
 21
145.539993
  0
LINE
  8
0
  6
CONTINUOUS
 10
195.255508
 20
17.540001
 11
210.255508
 21
17.540001
  0
LINE
  8
0
  6
CONTINUOUS
 10
216.535904
 20
146.421341
 11
252.475098
 21
171.158615
  0
ARC
  8
0
  6
CONTINUOUS
 10
255.309906
 20
167.039963
 40
5.000000
 50
90.000000
 51
124.540298
  0
ARC
  8
0
  6
CONTINUOUS
 10
220.255508
 20
142.911606
 40
5.000000
 50
124.540398
 51
180.000000
  0
ARC
  8
0
  6
CONTINUOUS
 10
210.255524
 20
12.539980
 40
5.000000
 50
0.000000
 51
90.000000
  0
ARC
  8
0
  6
CONTINUOUS
 10
218.255508
 20
9.540020
 40
3.000000
 50
90.000000
 51
180.000000
  0
ARC
  8
0
  6
CONTINUOUS
 10
337.255493
 20
9.540000
 40
3.000000
 50
0.000000
 51
90.000000
  0
LINE
  8
0
  6
CONTINUOUS
 10
267.459106
 20
53.540001
 11
263.298706
 21
53.540001
  0
LINE
  8
0
  6
CONTINUOUS
 10
269.755493
 20
60.508739
 11
269.755493
 21
53.540001
  0
LINE
  8
0
  6
CONTINUOUS
 10
273.755493
 20
63.040001
 11
273.755493
 21
65.540001
  0
LINE
  8
0
  6
CONTINUOUS
 10
281.755493
 20
63.040001
 11
281.755493
 21
65.540001
  0
LINE
  8
0
  6
CONTINUOUS
 10
276.974304
 20
64.071251
 11
276.974304
 21
54.852501
  0
LINE
  8
0
  6
CONTINUOUS
 10
278.474304
 20
64.071251
 11
278.474304
 21
54.852501
  0
LINE
  8
0
  6
CONTINUOUS
 10
286.349304
 20
64.071251
 11
286.349304
 21
54.790001
  0
LINE
  8
0
  6
CONTINUOUS
 10
287.724304
 20
59.149380
 11
287.724304
 21
54.790001
  0
LINE
  8
0
  6
CONTINUOUS
 10
267.857513
 20
63.946251
 11
264.002502
 21
63.946251
  0
LINE
  8
0
  6
CONTINUOUS
 10
264.002502
 20
63.946251
 11
263.099304
 21
62.826252
  0
LINE
  8
0
  6
CONTINUOUS
 10
263.207916
 20
65.540001
 11
261.755493
 21
63.680241
  0
LINE
  8
0
  6
CONTINUOUS
 10
263.099304
 20
55.912922
 11
264.016907
 21
54.946239
  0
LINE
  8
0
  6
CONTINUOUS
 10
261.755493
 20
55.097160
 11
263.298706
 21
53.540001
  0
LINE
  8
0
  6
CONTINUOUS
 10
261.755493
 20
63.680241
 11
261.755493
 21
55.097160
  0
LINE
  8
0
  6
CONTINUOUS
 10
263.099304
 20
62.826252
 11
263.099304
 21
55.912922
  0
LINE
  8
0
  6
CONTINUOUS
 10
268.599304
 20
63.229145
 11
267.842316
 21
63.946251
  0
LINE
  8
0
  6
CONTINUOUS
 10
268.587311
 20
65.540001
 11
269.755493
 21
64.243507
  0
LINE
  8
0
  6
CONTINUOUS
 10
268.599304
 20
63.040001
 11
269.755493
 21
63.040001
  0
LINE
  8
0
  6
CONTINUOUS
 10
263.207916
 20
65.540001
 11
268.587311
 21
65.540001
  0
LINE
  8
0
  6
CONTINUOUS
 10
266.505493
 20
60.508739
 11
269.755493
 21
60.508739
  0
LINE
  8
0
  6
CONTINUOUS
 10
268.599304
 20
59.196239
 11
266.505493
 21
59.196239
  0
LINE
  8
0
  6
CONTINUOUS
 10
266.099304
 20
54.946239
 11
264.016907
 21
54.946239
  0
LINE
  8
0
  6
CONTINUOUS
 10
268.599304
 20
57.946239
 11
268.599304
 21
58.946239
  0
ARC
  8
0
  6
CONTINUOUS
 10
266.099304
 20
57.446239
 40
2.500000
 50
-89.999786
 51
0.000109
  0
LINE
  8
0
  6
CONTINUOUS
 10
268.599304
 20
54.496559
 11
268.599304
 21
53.540001
  0
LINE
  8
0
  6
CONTINUOUS
 10
269.755493
 20
64.243507
 11
269.755493
 21
63.040001
  0
LINE
  8
0
  6
CONTINUOUS
 10
268.599304
 20
59.196239
 11
268.599304
 21
57.446239
  0
LINE
  8
0
  6
CONTINUOUS
 10
266.505493
 20
60.508739
 11
266.505493
 21
59.196239
  0
LINE
  8
0
  6
CONTINUOUS
 10
268.599304
 20
53.540001
 11
269.755493
 21
53.540001
  0
LINE
  8
0
  6
CONTINUOUS
 10
268.599304
 20
54.496559
 11
267.459106
 21
53.540001
  0
LINE
  8
0
  6
CONTINUOUS
 10
278.474304
 20
54.852501
 11
278.974304
 21
54.852501
  0
LINE
  8
0
  6
CONTINUOUS
 10
276.380493
 20
54.852501
 11
276.380493
 21
53.540001
  0
LINE
  8
0
  6
CONTINUOUS
 10
278.974304
 20
54.852501
 11
278.974304
 21
53.540001
  0
LINE
  8
0
  6
CONTINUOUS
 10
280.921112
 20
63.040001
 11
281.755493
 21
63.040001
  0
LINE
  8
0
  6
CONTINUOUS
 10
273.755493
 20
63.040001
 11
274.643494
 21
63.040001
  0
LINE
  8
0
  6
CONTINUOUS
 10
273.755493
 20
65.540001
 11
281.755493
 21
65.540001
  0
LINE
  8
0
  6
CONTINUOUS
 10
276.380493
 20
53.540001
 11
278.974304
 21
53.540001
  0
LINE
  8
0
  6
CONTINUOUS
 10
276.380493
 20
54.852501
 11
276.974304
 21
54.852501
  0
ARC
  8
0
  6
CONTINUOUS
 10
290.552307
 20
62.336872
 40
3.203126
 50
-73.981873
 51
90.003510
  0
ARC
  8
0
  6
CONTINUOUS
 10
290.552307
 20
62.336872
 40
1.954124
 50
-82.585274
 51
62.411850
  0
LINE
  8
0
  6
CONTINUOUS
 10
285.755493
 20
65.540001
 11
290.552307
 21
65.540001
  0
LINE
  8
0
  6
CONTINUOUS
 10
290.804504
 20
60.399078
 11
287.724304
 21
60.399078
  0
LINE
  8
0
  6
CONTINUOUS
 10
285.755493
 20
65.540001
 11
285.755493
 21
64.071251
  0
LINE
  8
0
  6
CONTINUOUS
 10
287.724304
 20
64.071251
 11
287.724304
 21
60.399078
  0
LINE
  8
0
  6
CONTINUOUS
 10
291.436310
 20
59.258121
 11
293.418701
 21
54.790001
  0
LINE
  8
0
  6
CONTINUOUS
 10
290.284698
 20
59.149380
 11
292.160919
 21
54.790001
  0
LINE
  8
0
  6
CONTINUOUS
 10
285.755493
 20
54.790001
 11
286.349304
 21
54.790001
  0
LINE
  8
0
  6
CONTINUOUS
 10
287.724304
 20
54.790001
 11
288.271118
 21
54.790001
  0
LINE
  8
0
  6
CONTINUOUS
 10
288.271118
 20
53.540001
 11
285.755493
 21
53.540001
  0
LINE
  8
0
  6
CONTINUOUS
 10
291.911713
 20
54.790001
 11
292.160919
 21
54.790001
  0
LINE
  8
0
  6
CONTINUOUS
 10
293.418701
 20
54.790001
 11
293.755493
 21
54.790001
  0
LINE
  8
0
  6
CONTINUOUS
 10
291.911713
 20
53.540001
 11
293.755493
 21
53.540001
  0
LINE
  8
0
  6
CONTINUOUS
 10
293.755493
 20
54.790001
 11
293.755493
 21
53.540001
  0
LINE
  8
0
  6
CONTINUOUS
 10
291.911713
 20
54.790001
 11
291.911713
 21
53.540001
  0
LINE
  8
0
  6
CONTINUOUS
 10
288.271118
 20
54.790001
 11
288.271118
 21
53.540001
  0
LINE
  8
0
  6
CONTINUOUS
 10
285.755493
 20
54.790001
 11
285.755493
 21
53.540001
  0
LINE
  8
0
  6
CONTINUOUS
 10
275.073303
 20
64.071251
 11
274.643494
 21
63.040001
  0
LINE
  8
0
  6
CONTINUOUS
 10
280.558716
 20
64.071251
 11
280.921112
 21
63.040001
  0
LINE
  8
0
  6
CONTINUOUS
 10
278.474304
 20
64.071251
 11
280.558716
 21
64.071251
  0
LINE
  8
0
  6
CONTINUOUS
 10
276.974304
 20
64.071251
 11
275.073303
 21
64.071251
  0
LINE
  8
0
  6
CONTINUOUS
 10
287.724304
 20
59.149380
 11
290.284698
 21
59.149380
  0
LINE
  8
0
  6
CONTINUOUS
 10
285.755493
 20
64.071251
 11
286.349304
 21
64.071251
  0
LINE
  8
0
  6
CONTINUOUS
 10
287.724304
 20
64.071251
 11
291.457306
 21
64.068817
  0
LINE
  8
0
  6
CONTINUOUS
 10
268.599304
 20
63.229145
 11
268.599304
 21
63.040001
  0
LINE
  8
0
  6
CONTINUOUS
 10
287.755493
 20
113.540039
 11
287.755493
 21
121.540039
  0
LINE
  8
0
  6
CONTINUOUS
 10
294.755493
 20
113.540062
 11
294.755493
 21
121.540062
  0
LINE
  8
0
  6
CONTINUOUS
 10
294.755493
 20
113.540062
 11
287.755493
 21
113.540039
  0
LINE
  8
0
  6
CONTINUOUS
 10
294.755493
 20
121.540062
 11
287.755493
 21
121.540039
  0
ARC
  8
0
  6
CONTINUOUS
 10
277.755493
 20
117.540001
 40
14.000000
 50
16.601500
 51
343.398499
  0
LINE
  8
0
  6
CENTER
 10
195.049988
 20
81.540001
 11
195.255508
 21
81.540001
  0
LINE
  8
0
  6
CENTER
 10
-20.275000
 20
81.540001
 11
195.255508
 21
81.540001
  0
LINE
  8
0
  6
CONTINUOUS
 10
195.255508
 20
145.539993
 11
195.255508
 21
17.540001
  0
LINE
  8
0
  6
CONTINUOUS
 10
61.255543
 20
145.539993
 11
195.255508
 21
145.539993
  0
LINE
  8
0
  6
CONTINUOUS
 10
71.255501
 20
140.020996
 11
71.255501
 21
136.039993
  0
LINE
  8
0
  6
CONTINUOUS
 10
187.255508
 20
140.020996
 11
187.255478
 21
136.039993
  0
LINE
  8
0
  6
CONTINUOUS
 10
134.255554
 20
113.739998
 11
187.255508
 21
113.739998
  0
LINE
  8
0
  6
CONTINUOUS
 10
71.255486
 20
119.540001
 11
187.255508
 21
119.540001
  0
LINE
  8
0
  6
CONTINUOUS
 10
71.255501
 20
121.540001
 11
187.255508
 21
121.540001
  0
LINE
  8
0
  6
CONTINUOUS
 10
71.255501
 20
127.040001
 11
187.255508
 21
127.040001
  0
LINE
  8
0
  6
CONTINUOUS
 10
71.255501
 20
129.039993
 11
187.255508
 21
129.039993
  0
LINE
  8
0
  6
CONTINUOUS
 10
71.255501
 20
134.039993
 11
187.255508
 21
134.039993
  0
LINE
  8
0
  6
CONTINUOUS
 10
71.255501
 20
136.039993
 11
187.255478
 21
136.039993
  0
LINE
  8
0
  6
CONTINUOUS
 10
71.255501
 20
140.020996
 11
187.255508
 21
140.020996
  0
LINE
  8
0
  6
CONTINUOUS
 10
71.255501
 20
23.059000
 11
71.255501
 21
24.958475
  0
LINE
  8
0
  6
CONTINUOUS
 10
71.255501
 20
134.039993
 11
71.255501
 21
129.039993
  0
LINE
  8
0
  6
CONTINUOUS
 10
71.255501
 20
127.040001
 11
71.255501
 21
121.540001
  0
LINE
  8
0
  6
CONTINUOUS
 10
71.255486
 20
119.540001
 11
71.255486
 21
116.540001
  0
LINE
  8
0
  6
CONTINUOUS
 10
71.255501
 20
46.540001
 11
71.255501
 21
43.540001
  0
LINE
  8
0
  6
CONTINUOUS
 10
71.255501
 20
41.540001
 11
71.255501
 21
36.040001
  0
LINE
  8
0
  6
CONTINUOUS
 10
71.255501
 20
34.040001
 11
71.255501
 21
29.958475
  0
LINE
  8
0
  6
CONTINUOUS
 10
187.255508
 20
23.059000
 11
187.255508
 21
27.040001
  0
LINE
  8
0
  6
CONTINUOUS
 10
187.255508
 20
29.040001
 11
187.255508
 21
34.040001
  0
LINE
  8
0
  6
CONTINUOUS
 10
187.255508
 20
36.040001
 11
187.255508
 21
41.540001
  0
LINE
  8
0
  6
CONTINUOUS
 10
187.255508
 20
43.540001
 11
187.255508
 21
49.340019
  0
LINE
  8
0
  6
CONTINUOUS
 10
187.255508
 20
51.340000
 11
187.255508
 21
57.139999
  0
LINE
  8
0
  6
CONTINUOUS
 10
187.255508
 20
59.139999
 11
187.255508
 21
64.940010
  0
LINE
  8
0
  6
CONTINUOUS
 10
187.255508
 20
66.940002
 11
187.255508
 21
72.739998
  0
LINE
  8
0
  6
CONTINUOUS
 10
187.255508
 20
74.739998
 11
187.255508
 21
80.540001
  0
LINE
  8
0
  6
CONTINUOUS
 10
187.255478
 20
82.540001
 11
187.255478
 21
88.339996
  0
LINE
  8
0
  6
CONTINUOUS
 10
187.255478
 20
90.339996
 11
187.255478
 21
96.139999
  0
LINE
  8
0
  6
CONTINUOUS
 10
187.255478
 20
98.139992
 11
187.255478
 21
103.940002
  0
LINE
  8
0
  6
CONTINUOUS
 10
187.255508
 20
105.940002
 11
187.255508
 21
111.739998
  0
LINE
  8
0
  6
CONTINUOUS
 10
187.255508
 20
113.739998
 11
187.255508
 21
119.540001
  0
LINE
  8
0
  6
CONTINUOUS
 10
187.255508
 20
121.540001
 11
187.255508
 21
127.040001
  0
LINE
  8
0
  6
CONTINUOUS
 10
187.255508
 20
129.039993
 11
187.255508
 21
134.039993
  0
LINE
  8
0
  6
CONTINUOUS
 10
187.255508
 20
51.340000
 11
134.255554
 21
51.340000
  0
LINE
  8
0
  6
CONTINUOUS
 10
187.255508
 20
49.340000
 11
134.255554
 21
49.340000
  0
LINE
  8
0
  6
CONTINUOUS
 10
187.255508
 20
43.540001
 11
101.755501
 21
43.540001
  0
LINE
  8
0
  6
CONTINUOUS
 10
187.255508
 20
41.540001
 11
101.755501
 21
41.540001
  0
LINE
  8
0
  6
CONTINUOUS
 10
187.255508
 20
36.040001
 11
101.234650
 21
36.040001
  0
LINE
  8
0
  6
CONTINUOUS
 10
187.255508
 20
34.040001
 11
100.538521
 21
34.040001
  0
LINE
  8
0
  6
CONTINUOUS
 10
187.255508
 20
29.040001
 11
97.040779
 21
29.040001
  0
LINE
  8
0
  6
CONTINUOUS
 10
187.255508
 20
27.040001
 11
94.378693
 21
27.040001
  0
LINE
  8
0
  6
CONTINUOUS
 10
187.255508
 20
23.059000
 11
71.255501
 21
23.059000
  0
LINE
  8
0
  6
CONTINUOUS
 10
195.255508
 20
17.540001
 11
61.255486
 21
17.540001
  0
LINE
  8
0
  6
CENTER
 10
553.583740
 20
-19.788839
 11
553.583740
 21
186.860001
  0
LINE
  8
0
  6
CENTER
 10
436.312744
 20
117.540001
 11
624.335388
 21
117.540001
  0
LINE
  8
0
  6
CONTINUOUS
 10
490.583740
 20
-2.460000
 11
526.083740
 21
-2.460000
  0
LINE
  8
0
  6
CONTINUOUS
 10
494.583740
 20
12.540000
 11
512.583740
 21
12.540000
  0
LINE
  8
0
  6
CONTINUOUS
 10
518.083740
 20
145.539993
 11
588.833740
 21
145.539993
  0
LINE
  8
0
  6
CONTINUOUS
 10
587.636108
 20
171.445877
 11
553.583740
 21
172.039993
  0
LINE
  8
0
  6
CONTINUOUS
 10
519.531311
 20
171.445480
 11
553.583740
 21
172.039993
  0
LINE
  8
0
  6
CONTINUOUS
 10
590.583740
 20
168.446335
 11
590.583740
 21
-2.460018
  0
LINE
  8
0
  6
CONTINUOUS
 10
516.583740
 20
168.445938
 11
516.583740
 21
-2.460000
  0
LINE
  8
0
  6
CONTINUOUS
 10
500.583740
 20
87.827736
 11
500.583740
 21
147.252243
  0
LINE
  8
0
  6
CONTINUOUS
 10
606.583740
 20
147.252258
 11
606.583740
 21
87.827736
  0
LINE
  8
0
  6
CONTINUOUS
 10
507.583740
 20
47.340424
 11
507.583740
 21
120.040001
  0
LINE
  8
0
  6
CONTINUOUS
 10
599.583740
 20
47.340424
 11
599.583740
 21
120.040001
  0
LINE
  8
0
  6
CONTINUOUS
 10
616.583740
 20
9.235938
 11
616.583740
 21
-2.460000
  0
LINE
  8
0
  6
CONTINUOUS
 10
490.583740
 20
9.235938
 11
490.583740
 21
-2.460000
  0
LINE
  8
0
  6
CENTER
 10
503.583740
 20
20.540001
 11
503.583740
 21
-13.813400
  0
LINE
  8
0
  6
CENTER
 10
603.583740
 20
21.040001
 11
603.583740
 21
-13.813400
  0
LINE
  8
0
  6
DASHED
 10
498.083740
 20
12.540000
 11
498.083740
 21
-2.460000
  0
LINE
  8
0
  6
DASHED
 10
509.083740
 20
12.540000
 11
509.083740
 21
-2.460000
  0
LINE
  8
0
  6
DASHED
 10
598.083740
 20
12.540000
 11
598.083740
 21
-2.460000
  0
LINE
  8
0
  6
DASHED
 10
609.083740
 20
12.540000
 11
609.083740
 21
-2.460000
  0
ARC
  8
0
  6
CONTINUOUS
 10
519.583740
 20
168.445953
 40
3.000000
 50
91.000526
 51
180.000000
  0
ARC
  8
0
  6
CONTINUOUS
 10
587.583740
 20
168.446320
 40
3.000000
 50
0.000000
 51
89.000580
  0
LINE
  8
0
  6
CONTINUOUS
 10
581.083740
 20
-2.460000
 11
616.583740
 21
-2.460000
  0
LINE
  8
0
  6
CONTINUOUS
 10
527.083740
 20
-1.460000
 11
580.083740
 21
-1.460000
  0
LINE
  8
0
  6
CONTINUOUS
 10
504.229919
 20
152.065521
 11
512.937561
 21
154.514481
  0
LINE
  8
0
  6
CONTINUOUS
 10
504.229919
 20
83.014481
 11
505.395935
 21
82.686546
  0
LINE
  8
0
  6
CONTINUOUS
 10
511.245544
 20
42.522839
 11
512.921936
 21
42.057159
  0
LINE
  8
0
  6
CONTINUOUS
 10
595.921936
 20
42.522839
 11
594.245544
 21
42.057159
  0
LINE
  8
0
  6
CONTINUOUS
 10
602.937317
 20
83.014481
 11
601.771545
 21
82.686554
  0
LINE
  8
0
  6
CONTINUOUS
 10
602.937317
 20
152.065521
 11
594.230103
 21
154.514481
  0
ARC
  8
0
  6
CONTINUOUS
 10
505.583740
 20
147.252274
 40
5.000000
 50
105.709000
 51
180.000000
  0
ARC
  8
0
  6
CONTINUOUS
 10
505.583740
 20
87.827774
 40
5.000000
 50
180.000000
 51
254.291702
  0
ARC
  8
0
  6
CONTINUOUS
 10
512.583740
 20
47.340462
 40
5.000000
 50
180.000000
 51
254.476196
  0
ARC
  8
0
  6
CONTINUOUS
 10
594.583740
 20
47.340424
 40
5.000000
 50
-74.475708
 51
0.000000
  0
ARC
  8
0
  6
CONTINUOUS
 10
601.583740
 20
87.827728
 40
5.000000
 50
-74.291199
 51
0.000000
  0
ARC
  8
0
  6
CONTINUOUS
 10
601.583740
 20
147.252243
 40
5.000000
 50
0.000000
 51
74.291527
  0
ARC
  8
0
  6
CONTINUOUS
 10
602.583740
 20
79.798622
 40
3.000000
 50
105.709000
 51
180.000000
  0
ARC
  8
0
  6
CONTINUOUS
 10
504.583740
 20
79.798592
 40
3.000000
 50
0.000000
 51
74.291397
  0
ARC
  8
0
  6
CONTINUOUS
 10
511.583740
 20
159.327744
 40
5.000000
 50
-74.291199
 51
0.000000
  0
ARC
  8
0
  6
CONTINUOUS
 10
595.583740
 20
159.327759
 40
5.000000
 50
180.000000
 51
254.291702
  0
ARC
  8
0
  6
CONTINUOUS
 10
595.583740
 20
37.239601
 40
5.000000
 50
105.524399
 51
180.000000
  0
ARC
  8
0
  6
CONTINUOUS
 10
511.583740
 20
37.239559
 40
5.000000
 50
0.000000
 51
74.475952
  0
LINE
  8
0
  6
CONTINUOUS
 10
581.083740
 20
-2.460000
 11
580.083740
 21
-1.460000
  0
LINE
  8
0
  6
CONTINUOUS
 10
526.083740
 20
-2.460000
 11
527.083740
 21
-1.460000
  0
LINE
  8
0
  6
CONTINUOUS
 10
493.828339
 20
13.163975
 11
513.339111
 21
16.916037
  0
LINE
  8
0
  6
CENTER
 10
419.132904
 20
81.540001
 11
635.783752
 21
81.540001
  0
LINE
  8
0
  6
CONTINUOUS
 10
453.583740
 20
103.540001
 11
453.583740
 21
131.539993
  0
LINE
  8
0
  6
CONTINUOUS
 10
498.583740
 20
131.539993
 11
453.583740
 21
131.539993
  0
LINE
  8
0
  6
CONTINUOUS
 10
498.583740
 20
103.540001
 11
453.583740
 21
103.540001
  0
LINE
  8
0
  6
CONTINUOUS
 10
498.583740
 20
132.539993
 11
498.583740
 21
102.540001
  0
LINE
  8
0
  6
CONTINUOUS
 10
500.583740
 20
102.540001
 11
498.583740
 21
102.540001
  0
ARC
  8
0
  6
CONTINUOUS
 10
489.583740
 20
117.540001
 40
4.000000
 50
-90.000000
 51
90.000000
  0
LINE
  8
0
  6
CONTINUOUS
 10
489.583740
 20
121.540001
 11
453.583740
 21
121.540001
  0
LINE
  8
0
  6
CONTINUOUS
 10
489.583740
 20
113.540001
 11
453.583740
 21
113.540001
  0
LINE
  8
0
  6
CONTINUOUS
 10
500.583740
 20
132.539993
 11
498.583740
 21
132.539993
  0
LINE
  8
0
  6
CONTINUOUS
 10
491.583588
 20
103.540001
 11
491.583557
 21
97.414246
  0
ARC
  8
0
  6
CONTINUOUS
 10
553.583740
 20
81.540001
 40
70.500107
 50
200.824036
 51
227.025040
  0
ARC
  8
0
  6
CONTINUOUS
 10
553.583740
 20
81.540001
 40
64.000099
 50
-54.681290
 51
34.093521
  0
ARC
  8
0
  6
CONTINUOUS
 10
553.583740
 20
81.540001
 40
70.500107
 50
-58.343746
 51
41.255901
  0
ARC
  8
0
  6
CONTINUOUS
 10
553.583740
 20
81.540001
 40
64.000099
 50
159.894516
 51
234.681290
  0
ARC
  8
0
  6
CONTINUOUS
 10
494.583740
 20
8.540000
 40
4.000000
 50
90.000000
 51
180.000000
  0
ARC
  8
0
  6
CONTINUOUS
 10
494.583740
 20
9.235938
 40
4.000000
 50
100.885529
 51
180.000000
  0
ARC
  8
0
  6
CONTINUOUS
 10
512.583740
 20
20.844063
 40
4.000000
 50
-79.114502
 51
0.000000
  0
ARC
  8
0
  6
CONTINUOUS
 10
512.583740
 20
16.540001
 40
4.000000
 50
-90.000000
 51
0.000000
  0
LINE
  8
0
  6
CONTINUOUS
 10
612.583740
 20
12.540000
 11
594.583740
 21
12.540000
  0
LINE
  8
0
  6
CONTINUOUS
 10
613.339111
 20
13.163975
 11
593.828369
 21
16.916037
  0
ARC
  8
0
  6
CONTINUOUS
 10
612.583740
 20
8.540000
 40
4.000000
 50
0.000000
 51
90.000000
  0
ARC
  8
0
  6
CONTINUOUS
 10
612.583740
 20
9.235938
 40
4.000000
 50
0.000000
 51
79.114471
  0
ARC
  8
0
  6
CONTINUOUS
 10
594.583740
 20
20.844063
 40
4.000000
 50
180.000000
 51
259.114502
  0
ARC
  8
0
  6
CONTINUOUS
 10
594.583740
 20
16.540001
 40
4.000000
 50
180.000000
 51
270.000000
  0
LINE
  8
0
  6
CONTINUOUS
 10
257.755493
 20
17.170774
 11
257.755493
 21
12.540000
  0
LINE
  8
0
  6
CONTINUOUS
 10
259.197388
 20
17.540001
 11
296.313629
 21
17.540001
  0
LINE
  8
0
  6
CONTINUOUS
 10
256.854767
 20
16.414074
 11
254.656281
 21
13.665926
  0
ARC
  8
0
  6
CONTINUOUS
 10
252.313660
 20
15.540000
 40
3.000000
 50
270.000000
 51
321.340454
  0
ARC
  8
0
  6
CONTINUOUS
 10
259.197388
 20
14.540000
 40
3.000000
 50
90.000000
 51
141.340454
  0
LINE
  8
0
  6
CONTINUOUS
 10
297.755493
 20
17.170774
 11
297.755493
 21
12.540000
  0
LINE
  8
0
  6
CONTINUOUS
 10
298.656250
 20
16.414074
 11
300.854736
 21
13.665926
  0
ARC
  8
0
  6
CONTINUOUS
 10
303.197357
 20
15.540000
 40
3.000000
 50
-141.340454
 51
-90.000000
  0
ARC
  8
0
  6
CONTINUOUS
 10
296.313629
 20
14.540000
 40
3.000000
 50
38.659546
 51
90.000000
  0
LINE
  8
0
  6
CONTINUOUS
 10
213.755508
 20
133.139999
 11
213.755508
 21
29.940020
  0
LINE
  8
0
  6
CONTINUOUS
 10
213.755508
 20
133.139999
 11
215.255508
 21
133.139999
  0
LINE
  8
0
  6
CONTINUOUS
 10
213.755508
 20
29.940020
 11
215.255508
 21
29.940020
  0
ARC
  8
0
  6
CONTINUOUS
 10
397.708710
 20
81.540001
 40
191.053177
 50
164.330902
 51
195.669098
  0
ARC
  8
0
  6
CONTINUOUS
 10
397.708710
 20
81.540001
 40
190.053177
 50
178.548599
 51
181.478500
  0
LINE
  8
0
  6
CONTINUOUS
 10
209.755508
 20
86.540001
 11
208.750702
 21
86.540001
  0
LINE
  8
0
  6
CONTINUOUS
 10
212.255508
 20
84.040001
 11
212.255508
 21
79.040001
  0
ARC
  8
0
  6
CONTINUOUS
 10
208.750702
 20
87.538399
 40
1.000000
 50
178.182098
 51
270.000000
  0
ARC
  8
0
  6
CONTINUOUS
 10
209.755508
 20
84.040001
 40
2.500000
 50
0.000000
 51
90.000000
  0
LINE
  8
0
  6
CONTINUOUS
 10
209.755508
 20
76.540001
 11
208.750702
 21
76.540001
  0
ARC
  8
0
  6
CONTINUOUS
 10
208.750702
 20
75.541603
 40
1.000000
 50
-270.000000
 51
-178.182098
  0
ARC
  8
0
  6
CONTINUOUS
 10
209.755508
 20
79.040001
 40
2.500000
 50
-90.000000
 51
0.000000
  0
LINE
  8
0
  6
CONTINUOUS
 10
215.255508
 20
133.139999
 11
215.255508
 21
142.911575
  0
LINE
  8
0
  6
CONTINUOUS
 10
217.518875
 20
404.747559
 11
336.661560
 21
404.747559
  0
ARC
  8
0
  6
CONTINUOUS
 10
336.661560
 20
401.747559
 40
3.000000
 50
1.000000
 51
90.000000
  0
LINE
  8
0
  6
CONTINUOUS
 10
322.749756
 20
410.101288
 11
323.640198
 21
406.935303
  0
ARC
  8
0
  6
CONTINUOUS
 10
326.528137
 20
407.747559
 40
3.000000
 50
195.708649
 51
270.000000
  0
ARC
  8
0
  6
CONTINUOUS
 10
209.333099
 20
421.974121
 40
3.000000
 50
1.500200
 51
77.801201
  0
LINE
  8
0
  6
CONTINUOUS
 10
212.332108
 20
422.052673
 11
212.688095
 21
408.457886
  0
ARC
  8
0
  6
CONTINUOUS
 10
210.600906
 20
427.838654
 40
3.000000
 50
-164.999893
 51
-102.198799
  0
LINE
  8
0
  6
CENTER
 10
-26.440001
 20
367.747559
 11
355.659363
 21
367.747559
  0
LINE
  8
0
  6
CONTINUOUS
 10
228.770386
 20
304.747559
 11
263.755493
 21
304.747559
  0
LINE
  8
0
  6
CONTINUOUS
 10
340.255493
 20
367.747559
 11
339.609680
 21
404.747559
  0
LINE
  8
0
  6
CONTINUOUS
 10
331.445404
 20
427.440216
 11
339.609680
 21
404.747559
  0
ARC
  8
0
  6
CONTINUOUS
 10
326.740631
 20
425.747559
 40
5.000000
 50
19.787489
 51
90.000000
  0
LINE
  8
0
  6
CONTINUOUS
 10
340.255493
 20
367.747559
 11
339.609680
 21
330.747559
  0
LINE
  8
0
  6
CONTINUOUS
 10
331.445404
 20
308.054901
 11
339.609680
 21
330.747559
  0
ARC
  8
0
  6
CONTINUOUS
 10
326.740631
 20
309.747559
 40
5.000000
 50
-90.000000
 51
-19.787489
  0
LINE
  8
0
  6
CONTINUOUS
 10
217.518875
 20
404.747559
 11
336.661560
 21
404.747559
  0
LINE
  8
0
  6
CENTER
 10
277.755493
 20
255.188751
 11
277.755493
 21
444.155304
  0
ARC
  8
0
  6
CONTINUOUS
 10
336.661560
 20
401.747559
 40
3.000000
 50
1.000000
 51
90.000000
  0
ARC
  8
0
  6
CONTINUOUS
 10
336.661560
 20
333.747559
 40
3.000000
 50
-90.000000
 51
-1.000000
  0
LINE
  8
0
  6
CONTINUOUS
 10
217.592102
 20
330.747559
 11
336.661560
 21
330.747559
  0
LINE
  8
0
  6
CONTINUOUS
 10
307.467773
 20
420.747559
 11
248.043243
 21
420.747559
  0
LINE
  8
0
  6
CONTINUOUS
 10
312.281006
 20
417.101288
 11
313.224243
 21
413.747559
  0
ARC
  8
0
  6
CONTINUOUS
 10
307.467773
 20
415.747559
 40
5.000000
 50
15.708638
 51
90.000000
  0
LINE
  8
0
  6
CONTINUOUS
 10
313.224243
 20
413.747559
 11
317.936523
 21
413.747559
  0
ARC
  8
0
  6
CONTINUOUS
 10
317.936523
 20
408.747559
 40
5.000000
 50
15.708638
 51
90.000000
  0
LINE
  8
0
  6
CONTINUOUS
 10
243.229996
 20
417.101288
 11
242.286758
 21
413.747559
  0
ARC
  8
0
  6
CONTINUOUS
 10
248.043243
 20
415.747559
 40
5.000000
 50
90.000000
 51
164.291367
  0
LINE
  8
0
  6
CONTINUOUS
 10
242.286758
 20
413.747559
 11
237.574493
 21
413.747559
  0
LINE
  8
0
  6
CONTINUOUS
 10
232.761246
 20
410.101288
 11
231.870819
 21
406.935303
  0
ARC
  8
0
  6
CONTINUOUS
 10
237.574493
 20
408.747559
 40
5.000000
 50
90.000000
 51
164.291367
  0
ARC
  8
0
  6
CONTINUOUS
 10
228.982864
 20
407.747559
 40
3.000000
 50
-90.000000
 51
-15.708638
  0
LINE
  8
0
  6
CONTINUOUS
 10
307.467773
 20
314.747559
 11
248.043243
 21
314.747559
  0
LINE
  8
0
  6
CONTINUOUS
 10
312.281006
 20
318.393829
 11
313.224243
 21
321.747559
  0
ARC
  8
0
  6
CONTINUOUS
 10
307.467773
 20
319.747559
 40
5.000000
 50
-90.000000
 51
-15.708638
  0
LINE
  8
0
  6
CONTINUOUS
 10
313.224243
 20
321.747559
 11
317.936523
 21
321.747559
  0
LINE
  8
0
  6
CONTINUOUS
 10
322.749756
 20
325.393829
 11
323.640198
 21
328.559784
  0
ARC
  8
0
  6
CONTINUOUS
 10
317.936523
 20
326.747559
 40
5.000000
 50
-90.000000
 51
-15.708638
  0
ARC
  8
0
  6
CONTINUOUS
 10
326.528137
 20
327.747559
 40
3.000000
 50
-270.000000
 51
-195.708633
  0
LINE
  8
0
  6
CONTINUOUS
 10
243.229996
 20
318.393829
 11
242.286758
 21
321.747559
  0
ARC
  8
0
  6
CONTINUOUS
 10
248.043243
 20
319.747559
 40
5.000000
 50
-164.291367
 51
-90.000000
  0
LINE
  8
0
  6
CONTINUOUS
 10
242.286758
 20
321.747559
 11
237.574493
 21
321.747559
  0
LINE
  8
0
  6
CONTINUOUS
 10
232.761246
 20
325.393829
 11
231.870819
 21
328.559784
  0
ARC
  8
0
  6
CONTINUOUS
 10
237.574493
 20
326.747559
 40
5.000000
 50
-164.291367
 51
-90.000000
  0
ARC
  8
0
  6
CONTINUOUS
 10
228.982864
 20
327.747559
 40
3.000000
 50
15.708638
 51
90.000000
  0
LINE
  8
0
  6
CONTINUOUS
 10
224.065613
 20
427.440216
 11
215.987762
 21
404.987762
  0
ARC
  8
0
  6
CONTINUOUS
 10
228.770386
 20
425.747559
 40
5.000000
 50
90.000000
 51
160.212509
  0
LINE
  8
0
  6
CONTINUOUS
 10
224.065613
 20
308.054901
 11
216.003601
 21
330.463318
  0
ARC
  8
0
  6
CONTINUOUS
 10
228.770386
 20
309.747559
 40
5.000000
 50
199.787491
 51
270.000000
  0
LINE
  8
0
  6
CONTINUOUS
 10
228.770386
 20
430.747559
 11
277.755493
 21
430.747559
  0
LINE
  8
0
  6
CENTER
 10
317.755493
 20
428.860840
 11
317.755493
 21
409.419434
  0
LINE
  8
0
  6
CENTER
 10
307.844604
 20
417.747559
 11
326.363159
 21
417.747559
  0
ARC
  8
0
  6
CONTINUOUS
 10
317.755493
 20
417.747559
 40
5.500000
 50
-59.465683
 51
187.598495
  0
ARC
  8
0
  6
CONTINUOUS
 10
237.755508
 20
417.747559
 40
5.500000
 50
-7.598608
 51
239.465683
  0
LINE
  8
0
  6
CENTER
 10
237.755508
 20
428.860840
 11
237.755508
 21
409.419434
  0
LINE
  8
0
  6
CENTER
 10
247.666397
 20
417.747559
 11
229.147842
 21
417.747559
  0
ARC
  8
0
  6
CONTINUOUS
 10
237.755508
 20
317.747559
 40
5.500000
 50
-239.465683
 51
7.598608
  0
LINE
  8
0
  6
CENTER
 10
247.666397
 20
317.747559
 11
229.147842
 21
317.747559
  0
LINE
  8
0
  6
CENTER
 10
237.755508
 20
306.634277
 11
237.755508
 21
326.075684
  0
LINE
  8
0
  6
CENTER
 10
317.755493
 20
306.634277
 11
317.755493
 21
326.075684
  0
LINE
  8
0
  6
CENTER
 10
307.844604
 20
317.747559
 11
326.363159
 21
317.747559
  0
ARC
  8
0
  6
CONTINUOUS
 10
317.755493
 20
317.747559
 40
5.500000
 50
-187.598602
 51
59.465683
  0
LINE
  8
0
  6
CONTINUOUS
 10
301.755493
 20
333.747559
 11
301.755493
 21
401.747559
  0
LINE
  8
0
  6
CONTINUOUS
 10
253.755508
 20
333.747559
 11
253.755508
 21
401.747559
  0
LINE
  8
0
  6
CONTINUOUS
 10
212.835800
 20
327.041656
 11
207.587173
 21
307.453461
  0
LINE
  8
0
  6
CONTINUOUS
 10
212.332108
 20
312.895508
 11
212.688095
 21
326.490326
  0
ARC
  8
0
  6
CONTINUOUS
 10
209.333099
 20
312.974121
 40
3.000000
 50
282.198792
 51
358.499786
  0
ARC
  8
0
  6
CONTINUOUS
 10
210.600906
 20
307.109528
 40
3.000000
 50
102.198799
 51
165.000031
  0
ARC
  8
0
  6
CONTINUOUS
 10
209.333099
 20
421.974121
 40
3.000000
 50
1.500200
 51
77.801201
  0
LINE
  8
0
  6
CONTINUOUS
 10
212.332108
 20
422.052673
 11
212.688095
 21
408.457886
  0
ARC
  8
0
  6
CONTINUOUS
 10
210.600906
 20
427.838654
 40
3.000000
 50
-164.999893
 51
-102.198799
  0
LINE
  8
0
  6
CONTINUOUS
 10
202.684311
 20
431.747559
 11
195.255508
 21
431.747559
  0
LINE
  8
0
  6
CONTINUOUS
 10
207.440659
 20
428.041626
 11
212.762497
 21
408.180054
  0
ARC
  8
0
  6
CONTINUOUS
 10
217.665421
 20
325.747559
 40
5.000000
 50
90.000000
 51
165.000031
  0
ARC
  8
0
  6
CONTINUOUS
 10
217.518875
 20
409.747559
 40
5.000000
 50
194.999847
 51
270.000000
  0
LINE
  8
0
  6
CONTINUOUS
 10
277.755493
 20
430.747559
 11
326.740631
 21
430.747559
  0
LINE
  8
0
  6
CONTINUOUS
 10
294.755493
 20
267.747559
 11
263.755493
 21
267.747559
  0
LINE
  8
0
  6
CONTINUOUS
 10
263.755493
 20
312.747559
 11
263.755493
 21
267.747559
  0
LINE
  8
0
  6
CONTINUOUS
 10
291.755493
 20
312.747559
 11
291.755493
 21
307.747559
  0
LINE
  8
0
  6
CONTINUOUS
 10
262.755493
 20
312.747559
 11
292.755493
 21
312.747559
  0
LINE
  8
0
  6
CONTINUOUS
 10
292.755493
 20
314.747559
 11
292.755493
 21
312.747559
  0
LINE
  8
0
  6
CONTINUOUS
 10
262.755493
 20
314.747559
 11
262.755493
 21
312.747559
  0
LINE
  8
0
  6
CONTINUOUS
 10
291.171906
 20
307.747559
 11
294.755493
 21
307.747559
  0
LINE
  8
0
  6
CONTINUOUS
 10
291.171906
 20
307.747559
 11
291.171906
 21
267.747559
  0
LINE
  8
0
  6
CONTINUOUS
 10
294.755493
 20
267.747559
 11
294.755493
 21
307.747559
  0
LINE
  8
0
  6
CONTINUOUS
 10
294.755493
 20
304.747559
 11
326.740631
 21
304.747559
  0
LINE
  8
0
  6
CONTINUOUS
 10
195.255508
 20
303.747559
 11
202.757538
 21
303.747559
  0
ARC
  8
0
  6
CONTINUOUS
 10
202.757538
 20
308.747559
 40
5.000000
 50
270.000000
 51
345.000031
  0
ARC
  8
0
  6
CONTINUOUS
 10
202.611038
 20
426.747559
 40
5.000000
 50
14.999846
 51
90.000000
  0
LINE
  8
0
  6
CONTINUOUS
 10
215.255508
 20
367.747559
 11
215.849884
 21
401.799896
  0
LINE
  8
0
  6
CONTINUOUS
 10
215.255508
 20
367.747559
 11
215.849884
 21
333.695190
  0
ARC
  8
0
  6
CONTINUOUS
 10
218.849442
 20
401.747559
 40
3.000000
 50
90.000000
 51
179.000000
  0
ARC
  8
0
  6
CONTINUOUS
 10
218.849442
 20
333.747559
 40
3.000000
 50
181.000000
 51
270.000000
  0
LINE
  8
0
  6
CONTINUOUS
 10
195.255508
 20
431.747559
 11
195.255508
 21
303.747559
  0
LINE
  8
0
  6
CONTINUOUS
 10
61.255505
 20
303.747559
 11
71.255501
 21
303.747559
  0
LINE
  8
0
  6
CONTINUOUS
 10
61.255505
 20
431.747559
 11
195.255508
 21
431.747559
  0
LINE
  8
0
  6
CONTINUOUS
 10
71.255501
 20
394.247559
 11
71.255501
 21
431.747559
  0
LINE
  8
0
  6
CONTINUOUS
 10
187.255508
 20
394.247559
 11
187.255508
 21
431.747559
  0
LINE
  8
0
  6
CONTINUOUS
 10
71.755501
 20
393.747559
 11
186.755508
 21
393.747559
  0
LINE
  8
0
  6
CONTINUOUS
 10
71.255501
 20
401.964294
 11
187.255508
 21
401.964294
  0
LINE
  8
0
  6
CONTINUOUS
 10
72.255501
 20
405.924286
 11
186.255508
 21
405.924286
  0
LINE
  8
0
  6
CONTINUOUS
 10
71.255501
 20
411.315552
 11
187.255508
 21
411.315552
  0
LINE
  8
0
  6
CONTINUOUS
 10
72.255501
 20
414.746063
 11
186.255508
 21
414.746063
  0
LINE
  8
0
  6
CONTINUOUS
 10
71.255501
 20
418.227295
 11
187.255508
 21
418.227295
  0
LINE
  8
0
  6
CONTINUOUS
 10
72.255501
 20
419.754547
 11
186.255508
 21
419.754547
  0
LINE
  8
0
  6
CONTINUOUS
 10
71.255501
 20
423.481812
 11
187.255508
 21
423.481812
  0
LINE
  8
0
  6
CONTINUOUS
 10
71.255501
 20
427.243042
 11
187.255508
 21
427.243042
  0
LINE
  8
0
  6
CONTINUOUS
 10
71.255501
 20
429.788055
 11
187.255508
 21
429.788055
  0
LINE
  8
0
  6
CONTINUOUS
 10
71.255501
 20
431.265289
 11
187.255508
 21
431.265289
  0
LINE
  8
0
  6
CONTINUOUS
 10
71.755501
 20
341.747559
 11
186.755508
 21
341.747559
  0
LINE
  8
0
  6
CONTINUOUS
 10
71.255501
 20
333.530792
 11
187.255508
 21
333.530792
  0
LINE
  8
0
  6
CONTINUOUS
 10
71.255501
 20
329.571045
 11
186.255508
 21
329.571045
  0
LINE
  8
0
  6
CONTINUOUS
 10
71.255501
 20
312.013550
 11
187.255508
 21
312.013550
  0
LINE
  8
0
  6
CONTINUOUS
 10
138.255508
 20
308.252045
 11
187.255508
 21
308.252045
  0
LINE
  8
0
  6
CONTINUOUS
 10
138.255508
 20
305.707062
 11
187.255508
 21
305.707062
  0
LINE
  8
0
  6
CONTINUOUS
 10
138.755508
 20
304.229797
 11
187.255508
 21
304.229797
  0
LINE
  8
0
  6
CONTINUOUS
 10
72.255501
 20
305.747559
 11
137.255508
 21
305.747559
  0
LINE
  8
0
  6
CONTINUOUS
 10
138.755508
 20
303.747559
 11
195.255508
 21
303.747559
  0
LINE
  8
0
  6
CONTINUOUS
 10
138.255508
 20
304.247559
 11
138.255508
 21
311.013306
  0
ARC
  8
0
  6
CONTINUOUS
 10
138.755508
 20
304.247559
 40
0.500000
 50
180.000000
 51
270.000000
  0
ARC
  8
0
  6
CONTINUOUS
 10
138.755508
 20
304.729797
 40
0.500000
 50
180.000000
 51
270.000000
  0
ARC
  8
0
  6
CONTINUOUS
 10
137.255508
 20
306.747559
 40
1.000000
 50
-90.000000
 51
0.000000
  0
ARC
  8
0
  6
CONTINUOUS
 10
72.255501
 20
306.747559
 40
1.000000
 50
180.000000
 51
270.000000
  0
LINE
  8
0
  6
CONTINUOUS
 10
71.255501
 20
341.247559
 11
71.255501
 21
303.747559
  0
LINE
  8
0
  6
CONTINUOUS
 10
187.255508
 20
341.247559
 11
187.255508
 21
303.747559
  0
ARC
  8
0
  6
CONTINUOUS
 10
186.755508
 20
341.247559
 40
0.500000
 50
0.000000
 51
90.000000
  0
ARC
  8
0
  6
CONTINUOUS
 10
186.755508
 20
394.247559
 40
0.500000
 50
-90.000000
 51
0.000000
  0
ARC
  8
0
  6
CONTINUOUS
 10
71.755501
 20
394.247559
 40
0.500000
 50
180.000000
 51
270.000000
  0
ARC
  8
0
  6
CONTINUOUS
 10
71.755501
 20
341.247559
 40
0.500000
 50
90.000000
 51
180.000000
  0
ARC
  8
0
  6
CONTINUOUS
 10
139.255508
 20
311.013306
 40
1.000000
 50
90.000000
 51
180.000000
  0
LINE
  8
0
  6
CONTINUOUS
 10
71.255501
 20
324.179535
 11
187.255508
 21
324.179535
  0
LINE
  8
0
  6
CONTINUOUS
 10
71.255501
 20
320.749298
 11
186.255508
 21
320.749298
  0
LINE
  8
0
  6
CONTINUOUS
 10
71.255501
 20
315.740540
 11
186.255508
 21
315.740540
  0
LINE
  8
0
  6
CONTINUOUS
 10
71.255501
 20
317.267792
 11
187.255508
 21
317.267792
  0
ARC
  8
0
  6
CONTINUOUS
 10
213.701004
 20
150.539993
 40
5.000000
 50
270.000000
 51
304.539978
  0
LINE
  8
0
  6
CONTINUOUS
 10
65.318001
 20
291.325806
 11
64.255501
 21
251.247543
  0
LINE
  8
0
  6
CONTINUOUS
 10
133.192505
 20
291.325806
 11
134.255508
 21
251.247543
  0
LINE
  8
0
  6
CONTINUOUS
 10
130.207001
 20
294.247559
 11
112.566757
 21
294.247559
  0
ARC
  8
0
  6
CONTINUOUS
 10
68.303757
 20
291.247559
 40
3.000000
 50
90.000000
 51
178.500275
  0
ARC
  8
0
  6
CONTINUOUS
 10
130.207001
 20
291.247559
 40
3.000000
 50
1.499900
 51
90.000000
  0
LINE
  8
0
  6
CONTINUOUS
 10
68.303757
 20
294.247559
 11
85.944252
 21
294.247559
  0
ARC
  8
0
  6
CONTINUOUS
 10
126.478752
 20
296.247559
 40
2.000000
 50
-178.500504
 51
-90.000000
  0
ARC
  8
0
  6
CONTINUOUS
 10
72.032005
 20
296.247559
 40
2.000000
 50
-90.000000
 51
-1.500400
  0
ARC
  8
0
  6
CONTINUOUS
 10
99.255501
 20
361.747559
 40
68.800003
 50
-101.155800
 51
-78.844200
  0
LINE
  8
0
  6
CONTINUOUS
 10
66.755501
 20
245.247543
 11
131.755508
 21
245.247543
  0
LINE
  8
0
  6
CONTINUOUS
 10
134.255508
 20
247.747543
 11
134.255508
 21
250.247543
  0
LINE
  8
0
  6
CONTINUOUS
 10
64.255501
 20
247.747543
 11
64.255501
 21
250.247543
  0
LINE
  8
0
  6
CONTINUOUS
 10
134.255508
 20
250.247543
 11
64.255501
 21
250.247543
  0
LINE
  8
0
  6
CONTINUOUS
 10
134.255508
 20
251.247543
 11
64.255501
 21
251.247543
  0
LINE
  8
0
  6
CONTINUOUS
 10
134.255508
 20
250.247543
 11
134.255508
 21
251.247543
  0
LINE
  8
0
  6
CONTINUOUS
 10
64.255501
 20
250.247543
 11
64.255501
 21
251.247543
  0
LINE
  8
0
  6
CENTER
 10
69.255501
 20
267.247559
 11
31.600414
 21
267.247559
  0
LINE
  8
0
  6
CONTINUOUS
 10
125.742500
 20
248.247543
 11
133.255508
 21
248.247543
  0
LINE
  8
0
  6
CONTINUOUS
 10
72.768501
 20
248.247543
 11
65.255501
 21
248.247543
  0
LINE
  8
0
  6
CONTINUOUS
 10
125.243004
 20
247.760803
 11
125.202507
 21
246.221298
  0
ARC
  8
0
  6
CONTINUOUS
 10
125.742500
 20
247.747543
 40
0.500000
 50
90.000000
 51
178.500000
  0
ARC
  8
0
  6
CONTINUOUS
 10
124.202751
 20
246.247543
 40
1.000000
 50
-90.000000
 51
-1.499800
  0
ARC
  8
0
  6
CONTINUOUS
 10
133.255508
 20
249.247543
 40
1.000000
 50
-90.000000
 51
0.000000
  0
ARC
  8
0
  6
CONTINUOUS
 10
131.755508
 20
247.747543
 40
2.500000
 50
-90.000000
 51
0.000000
  0
LINE
  8
0
  6
CONTINUOUS
 10
73.268257
 20
247.760803
 11
73.308754
 21
246.221298
  0
ARC
  8
0
  6
CONTINUOUS
 10
74.308250
 20
246.247543
 40
1.000000
 50
-178.499603
 51
-90.000000
  0
ARC
  8
0
  6
CONTINUOUS
 10
72.768501
 20
247.747543
 40
0.500000
 50
1.500200
 51
90.000000
  0
ARC
  8
0
  6
CONTINUOUS
 10
65.255501
 20
249.247543
 40
1.000000
 50
180.000000
 51
270.000000
  0
ARC
  8
0
  6
CONTINUOUS
 10
66.755501
 20
247.747543
 40
2.500000
 50
180.000000
 51
270.000000
  0
ARC
  8
0
  6
CONTINUOUS
 10
129.255508
 20
248.247543
 40
3.000000
 50
-180.000000
 51
0.000000
  0
LINE
  8
0
  6
CONTINUOUS
 10
132.213501
 20
247.747543
 11
126.297501
 21
247.747543
  0
LINE
  8
0
  6
CONTINUOUS
 10
129.255508
 20
245.747543
 11
128.974258
 21
245.260803
  0
LINE
  8
0
  6
CONTINUOUS
 10
129.255508
 20
245.747543
 11
129.536499
 21
245.260803
  0
ARC
  8
0
  6
CONTINUOUS
 10
69.255501
 20
248.247543
 40
3.000000
 50
-180.000000
 51
0.000000
  0
LINE
  8
0
  6
CONTINUOUS
 10
72.213501
 20
247.747543
 11
66.297501
 21
247.747543
  0
LINE
  8
0
  6
CONTINUOUS
 10
69.255501
 20
245.747543
 11
68.974503
 21
245.260803
  0
LINE
  8
0
  6
CONTINUOUS
 10
69.255501
 20
245.747543
 11
69.536751
 21
245.260803
  0
LINE
  8
0
  6
CONTINUOUS
 10
36.255505
 20
281.747803
 11
36.255505
 21
252.747543
  0
LINE
  8
0
  6
CONTINUOUS
 10
44.255505
 20
281.747803
 11
44.255505
 21
252.747543
  0
LINE
  8
0
  6
CONTINUOUS
 10
36.255505
 20
281.747803
 11
44.255505
 21
281.747803
  0
LINE
  8
0
  6
CONTINUOUS
 10
36.255505
 20
252.747543
 11
44.255505
 21
252.747543
  0
LINE
  8
0
  6
CONTINUOUS
 10
53.255505
 20
280.247803
 11
53.255505
 21
254.247543
  0
LINE
  8
0
  6
CONTINUOUS
 10
44.255505
 20
280.247803
 11
53.255505
 21
280.247803
  0
LINE
  8
0
  6
CONTINUOUS
 10
44.255505
 20
254.247543
 11
53.255505
 21
254.247543
  0
LINE
  8
0
  6
CONTINUOUS
 10
53.255505
 20
278.747803
 11
58.255505
 21
278.747803
  0
LINE
  8
0
  6
CONTINUOUS
 10
53.255505
 20
255.747543
 11
58.255505
 21
255.747543
  0
LINE
  8
0
  6
CONTINUOUS
 10
58.255505
 20
280.747803
 11
58.255505
 21
253.747543
  0
LINE
  8
0
  6
CONTINUOUS
 10
62.755505
 20
281.747803
 11
62.755505
 21
252.747543
  0
LINE
  8
0
  6
CONTINUOUS
 10
58.255505
 20
280.747803
 11
62.755505
 21
280.747803
  0
LINE
  8
0
  6
CONTINUOUS
 10
58.255505
 20
253.747543
 11
62.755505
 21
253.747543
  0
LINE
  8
0
  6
CONTINUOUS
 10
62.755505
 20
281.747803
 11
65.064003
 21
281.747803
  0
LINE
  8
0
  6
CONTINUOUS
 10
62.755505
 20
252.747543
 11
64.255501
 21
252.747543
  0
LINE
  8
0
  6
CONTINUOUS
 10
36.255505
 20
275.247803
 11
44.255505
 21
275.247803
  0
LINE
  8
0
  6
CONTINUOUS
 10
36.255505
 20
259.247559
 11
44.255505
 21
259.247559
  0
LINE
  8
0
  6
CONTINUOUS
 10
53.255505
 20
277.247803
 11
58.255505
 21
277.247803
  0
LINE
  8
0
  6
CONTINUOUS
 10
53.255505
 20
257.247559
 11
58.255505
 21
257.247559
  0
LINE
  8
0
  6
CENTER
 10
99.255501
 20
236.179993
 11
99.255501
 21
308.858307
  0
LINE
  8
0
  6
CONTINUOUS
 10
74.230003
 20
303.273804
 11
74.044632
 21
296.194824
  0
LINE
  8
0
  6
CONTINUOUS
 10
123.281258
 20
304.247559
 11
75.229507
 21
304.247559
  0
ARC
  8
0
  6
CONTINUOUS
 10
75.229507
 20
303.247559
 40
1.000000
 50
90.000000
 51
178.499405
  0
LINE
  8
0
  6
CONTINUOUS
 10
76.255501
 20
304.247559
 11
76.255501
 21
305.747559
  0
LINE
  8
0
  6
CONTINUOUS
 10
122.255501
 20
304.247559
 11
122.255501
 21
305.747559
  0
ARC
  8
0
  6
CONTINUOUS
 10
123.281258
 20
303.247559
 40
1.000000
 50
1.499300
 51
90.000000
  0
LINE
  8
0
  6
CONTINUOUS
 10
124.281006
 20
303.273804
 11
124.466377
 21
296.194885
  0
LINE
  8
0
  6
CONTINUOUS
 10
136.255463
 20
108.540001
 11
134.255554
 21
108.540001
  0
LINE
  8
0
  6
CONTINUOUS
 10
136.255508
 20
54.540001
 11
134.255554
 21
54.540001
  0
LINE
  8
0
  6
CONTINUOUS
 10
138.255508
 20
56.540001
 11
138.255478
 21
106.540001
  0
ARC
  8
0
  6
CONTINUOUS
 10
136.255478
 20
106.540001
 40
2.000000
 50
0.000000
 51
90.000000
  0
ARC
  8
0
  6
CONTINUOUS
 10
136.255508
 20
56.540001
 40
2.000000
 50
-90.000000
 51
0.000000
  0
LINE
  8
0
  6
CONTINUOUS
 10
66.755516
 20
116.540001
 11
131.755447
 21
116.540001
  0
LINE
  8
0
  6
CONTINUOUS
 10
131.755554
 20
46.540001
 11
66.755501
 21
46.540001
  0
LINE
  8
0
  6
CONTINUOUS
 10
64.255501
 20
49.040001
 11
64.255501
 21
114.040001
  0
LINE
  8
0
  6
CONTINUOUS
 10
134.255554
 20
49.039989
 11
134.255554
 21
114.040001
  0
ARC
  8
0
  6
CONTINUOUS
 10
131.755554
 20
114.040001
 40
2.500000
 50
0.000000
 51
90.000000
  0
ARC
  8
0
  6
CONTINUOUS
 10
66.755531
 20
114.040001
 40
2.500000
 50
90.000000
 51
180.000000
  0
ARC
  8
0
  6
CONTINUOUS
 10
66.755516
 20
49.040001
 40
2.500000
 50
180.000000
 51
270.000000
  0
ARC
  8
0
  6
CONTINUOUS
 10
131.755554
 20
49.039989
 40
2.500000
 50
-90.000000
 51
0.000000
  0
ARC
  8
0
  6
CONTINUOUS
 10
69.255516
 20
111.540001
 40
4.000000
 50
-90.000000
 51
0.000000
  0
ARC
  8
0
  6
CONTINUOUS
 10
129.255554
 20
111.540001
 40
4.000000
 50
180.000000
 51
270.000000
  0
ARC
  8
0
  6
CONTINUOUS
 10
129.255554
 20
51.540001
 40
4.000000
 50
90.000000
 51
180.000000
  0
ARC
  8
0
  6
CONTINUOUS
 10
69.255516
 20
51.540001
 40
4.000000
 50
0.000000
 51
90.000000
  0
LINE
  8
0
  6
CONTINUOUS
 10
129.255554
 20
107.540001
 11
131.755554
 21
107.540001
  0
LINE
  8
0
  6
CONTINUOUS
 10
69.255501
 20
107.540001
 11
66.755501
 21
107.540001
  0
LINE
  8
0
  6
CONTINUOUS
 10
69.255501
 20
55.540001
 11
66.755531
 21
55.540001
  0
LINE
  8
0
  6
CONTINUOUS
 10
129.255554
 20
55.540001
 11
131.755554
 21
55.540001
  0
LINE
  8
0
  6
CONTINUOUS
 10
125.255554
 20
111.540001
 11
125.255554
 21
114.040001
  0
LINE
  8
0
  6
CONTINUOUS
 10
73.255516
 20
111.540001
 11
73.255516
 21
114.040001
  0
LINE
  8
0
  6
CONTINUOUS
 10
73.255516
 20
51.540001
 11
73.255516
 21
49.039989
  0
LINE
  8
0
  6
CONTINUOUS
 10
125.255554
 20
51.539982
 11
125.255554
 21
49.039989
  0
ARC
  8
0
  6
CONTINUOUS
 10
66.755516
 20
105.040001
 40
2.500000
 50
90.000000
 51
180.000000
  0
ARC
  8
0
  6
CONTINUOUS
 10
75.755531
 20
114.040001
 40
2.500000
 50
90.000000
 51
180.000000
  0
ARC
  8
0
  6
CONTINUOUS
 10
122.755554
 20
114.040001
 40
2.500000
 50
0.000000
 51
90.000000
  0
ARC
  8
0
  6
CONTINUOUS
 10
131.755554
 20
105.040001
 40
2.500000
 50
0.000000
 51
90.000000
  0
ARC
  8
0
  6
CONTINUOUS
 10
66.755516
 20
58.040001
 40
2.500000
 50
180.000000
 51
270.000000
  0
ARC
  8
0
  6
CONTINUOUS
 10
75.755516
 20
49.040001
 40
2.500000
 50
180.000000
 51
270.000000
  0
ARC
  8
0
  6
CONTINUOUS
 10
131.755554
 20
58.039989
 40
2.500000
 50
-90.000000
 51
0.000000
  0
ARC
  8
0
  6
CONTINUOUS
 10
122.755554
 20
49.039989
 40
2.500000
 50
-90.000000
 51
0.000000
  0
LINE
  8
0
  6
CONTINUOUS
 10
36.255554
 20
67.039848
 11
36.255554
 21
96.039948
  0
LINE
  8
0
  6
CONTINUOUS
 10
44.255554
 20
67.039848
 11
44.255554
 21
96.039948
  0
LINE
  8
0
  6
CONTINUOUS
 10
36.255554
 20
67.039848
 11
44.255554
 21
67.039848
  0
LINE
  8
0
  6
CONTINUOUS
 10
36.255554
 20
96.039948
 11
44.255554
 21
96.039948
  0
LINE
  8
0
  6
CONTINUOUS
 10
53.255554
 20
68.539848
 11
53.255554
 21
94.539948
  0
LINE
  8
0
  6
CONTINUOUS
 10
44.255554
 20
68.539848
 11
53.255554
 21
68.539848
  0
LINE
  8
0
  6
CONTINUOUS
 10
44.255554
 20
94.539948
 11
53.255554
 21
94.539948
  0
LINE
  8
0
  6
CONTINUOUS
 10
53.255554
 20
70.039848
 11
58.255554
 21
70.039848
  0
LINE
  8
0
  6
CONTINUOUS
 10
53.255554
 20
93.039948
 11
58.255554
 21
93.039948
  0
LINE
  8
0
  6
CONTINUOUS
 10
58.255554
 20
68.039848
 11
58.255554
 21
95.039948
  0
LINE
  8
0
  6
CONTINUOUS
 10
62.755554
 20
67.039848
 11
62.755554
 21
96.039948
  0
LINE
  8
0
  6
CONTINUOUS
 10
58.255554
 20
68.039848
 11
62.755554
 21
68.039848
  0
LINE
  8
0
  6
CONTINUOUS
 10
58.255554
 20
95.039948
 11
62.755554
 21
95.039948
  0
LINE
  8
0
  6
CONTINUOUS
 10
62.755554
 20
67.039848
 11
64.294853
 21
67.039848
  0
LINE
  8
0
  6
CONTINUOUS
 10
62.755554
 20
96.039948
 11
64.255501
 21
96.039948
  0
LINE
  8
0
  6
CONTINUOUS
 10
36.255554
 20
73.539848
 11
44.255554
 21
73.539848
  0
LINE
  8
0
  6
CONTINUOUS
 10
36.255554
 20
89.539948
 11
44.255554
 21
89.539948
  0
LINE
  8
0
  6
CENTER
 10
99.255501
 20
36.299999
 11
99.255501
 21
128.017395
  0
LINE
  8
0
  6
CONTINUOUS
 10
187.255508
 20
111.739998
 11
134.255554
 21
111.739998
  0
LINE
  8
0
  6
CONTINUOUS
 10
187.255508
 20
105.940002
 11
138.255478
 21
105.940002
  0
LINE
  8
0
  6
CONTINUOUS
 10
187.255478
 20
103.940002
 11
138.255478
 21
103.940002
  0
LINE
  8
0
  6
CONTINUOUS
 10
187.255478
 20
98.139999
 11
138.255493
 21
98.139999
  0
LINE
  8
0
  6
CONTINUOUS
 10
187.255478
 20
96.139999
 11
138.255493
 21
96.139999
  0
LINE
  8
0
  6
CONTINUOUS
 10
187.255478
 20
90.339996
 11
138.255493
 21
90.339996
  0
LINE
  8
0
  6
CONTINUOUS
 10
187.255478
 20
88.339996
 11
138.255493
 21
88.339996
  0
LINE
  8
0
  6
CONTINUOUS
 10
187.255478
 20
82.540001
 11
138.255493
 21
82.540001
  0
LINE
  8
0
  6
CONTINUOUS
 10
187.255508
 20
80.540001
 11
138.255493
 21
80.540001
  0
LINE
  8
0
  6
CONTINUOUS
 10
187.255508
 20
74.739998
 11
138.255493
 21
74.739998
  0
LINE
  8
0
  6
CONTINUOUS
 10
187.255508
 20
72.739998
 11
138.255493
 21
72.739998
  0
LINE
  8
0
  6
CONTINUOUS
 10
187.255508
 20
66.940002
 11
138.255493
 21
66.940002
  0
LINE
  8
0
  6
CONTINUOUS
 10
187.255508
 20
64.940002
 11
138.255508
 21
64.940002
  0
LINE
  8
0
  6
CONTINUOUS
 10
187.255508
 20
59.139999
 11
138.255508
 21
59.139999
  0
LINE
  8
0
  6
CONTINUOUS
 10
187.255508
 20
57.139999
 11
138.255508
 21
57.139999
  0
LINE
  8
0
  6
CONTINUOUS
 10
492.548737
 20
54.506256
 11
495.623627
 21
54.398876
  0
LINE
  8
0
  6
CONTINUOUS
 10
491.583740
 20
55.505680
 11
491.583710
 21
65.665565
  0
ARC
  8
0
  6
CONTINUOUS
 10
492.583740
 20
55.505699
 40
1.000000
 50
180.000000
 51
268.000214
  0
LINE
  8
0
  6
CONTINUOUS
 10
477.161804
 20
47.602448
 11
437.083649
 21
46.540001
  0
LINE
  8
0
  6
CONTINUOUS
 10
453.583740
 20
116.102386
 11
437.083649
 21
116.540001
  0
LINE
  8
0
  6
CONTINUOUS
 10
490.083649
 20
57.514099
 11
490.083649
 21
73.555489
  0
LINE
  8
0
  6
CONTINUOUS
 10
490.083649
 20
103.540001
 11
490.083649
 21
89.523727
  0
ARC
  8
0
  6
CONTINUOUS
 10
477.083649
 20
50.588100
 40
3.000000
 50
-88.500267
 51
0.000000
  0
LINE
  8
0
  6
CONTINUOUS
 10
484.937866
 20
56.405201
 11
482.031311
 21
56.329094
  0
ARC
  8
0
  6
CONTINUOUS
 10
489.083649
 20
57.514099
 40
1.000000
 50
-88.499397
 51
0.000000
  0
LINE
  8
0
  6
CONTINUOUS
 10
480.083649
 20
50.588200
 11
480.083649
 21
68.228729
  0
LINE
  8
0
  6
CONTINUOUS
 10
489.109863
 20
56.514500
 11
484.937866
 21
56.405201
  0
ARC
  8
0
  6
CONTINUOUS
 10
547.583679
 20
81.540001
 40
68.800003
 50
168.844193
 51
191.155807
  0
LINE
  8
0
  6
CONTINUOUS
 10
431.083649
 20
49.040001
 11
431.083649
 21
114.040001
  0
LINE
  8
0
  6
CONTINUOUS
 10
433.583649
 20
116.540001
 11
436.083649
 21
116.540001
  0
LINE
  8
0
  6
CONTINUOUS
 10
433.583649
 20
46.540001
 11
436.083649
 21
46.540001
  0
LINE
  8
0
  6
CONTINUOUS
 10
436.083649
 20
116.540001
 11
436.083649
 21
46.540001
  0
LINE
  8
0
  6
CONTINUOUS
 10
437.083649
 20
116.540001
 11
437.083649
 21
46.540001
  0
LINE
  8
0
  6
CONTINUOUS
 10
436.083649
 20
116.540001
 11
437.083649
 21
116.540001
  0
LINE
  8
0
  6
CONTINUOUS
 10
436.083649
 20
46.540001
 11
437.083649
 21
46.540001
  0
LINE
  8
0
  6
CONTINUOUS
 10
434.083649
 20
108.027100
 11
434.083649
 21
115.540001
  0
LINE
  8
0
  6
CONTINUOUS
 10
434.083649
 20
55.052940
 11
434.083649
 21
47.540001
  0
LINE
  8
0
  6
CONTINUOUS
 10
433.596741
 20
107.527298
 11
432.057434
 21
107.487000
  0
ARC
  8
0
  6
CONTINUOUS
 10
433.583649
 20
108.027100
 40
0.500000
 50
-88.500000
 51
0.000000
  0
ARC
  8
0
  6
CONTINUOUS
 10
432.083649
 20
106.487297
 40
1.000000
 50
91.499802
 51
180.000000
  0
ARC
  8
0
  6
CONTINUOUS
 10
435.083649
 20
115.540001
 40
1.000000
 50
90.000000
 51
180.000000
  0
ARC
  8
0
  6
CONTINUOUS
 10
433.583649
 20
114.040001
 40
2.500000
 50
90.000000
 51
180.000000
  0
LINE
  8
0
  6
CONTINUOUS
 10
433.596741
 20
55.552818
 11
432.057434
 21
55.593102
  0
ARC
  8
0
  6
CONTINUOUS
 10
432.083649
 20
56.592731
 40
1.000000
 50
180.000000
 51
268.499603
  0
ARC
  8
0
  6
CONTINUOUS
 10
433.583649
 20
55.052940
 40
0.500000
 50
0.000000
 51
88.499802
  0
ARC
  8
0
  6
CONTINUOUS
 10
435.083649
 20
47.540001
 40
1.000000
 50
180.000000
 51
270.000000
  0
ARC
  8
0
  6
CONTINUOUS
 10
433.583649
 20
49.040001
 40
2.500000
 50
180.000000
 51
270.000000
  0
ARC
  8
0
  6
CONTINUOUS
 10
434.083649
 20
111.540001
 40
3.000000
 50
90.000000
 51
270.000000
  0
LINE
  8
0
  6
CONTINUOUS
 10
433.583649
 20
114.498001
 11
433.583649
 21
108.582001
  0
LINE
  8
0
  6
CONTINUOUS
 10
431.583649
 20
111.540001
 11
431.096863
 21
111.258896
  0
LINE
  8
0
  6
CONTINUOUS
 10
431.583649
 20
111.540001
 11
431.096863
 21
111.821098
  0
ARC
  8
0
  6
CONTINUOUS
 10
434.083649
 20
51.540001
 40
3.000000
 50
90.000000
 51
270.000000
  0
LINE
  8
0
  6
CONTINUOUS
 10
433.583649
 20
54.498009
 11
433.583649
 21
48.581989
  0
LINE
  8
0
  6
CONTINUOUS
 10
431.583649
 20
51.540001
 11
431.096863
 21
51.258930
  0
LINE
  8
0
  6
CONTINUOUS
 10
431.583649
 20
51.540001
 11
431.096863
 21
51.821129
  0
LINE
  8
0
  6
CONTINUOUS
 10
490.083649
 20
58.540001
 11
491.583649
 21
58.540001
  0
ARC
  8
0
  6
CONTINUOUS
 10
482.083649
 20
54.329777
 40
2.000000
 50
91.499916
 51
180.000000
  0
LINE
  8
0
  6
CENTER
 10
453.083649
 20
123.997002
 11
453.083649
 21
36.331249
  0
LINE
  8
0
  6
CONTINUOUS
 10
480.083649
 20
103.540001
 11
480.083649
 21
94.851273
  0
LINE
  8
0
  6
CONTINUOUS
 10
63.255505
 20
431.747559
 11
63.255505
 21
303.747559
  0
ARC
  8
0
  6
CONTINUOUS
 10
355.255219
 20
367.750580
 40
360.000000
 50
180.000000
 51
188.618607
  0
ARC
  8
0
  6
CONTINUOUS
 10
12.173904
 20
315.750549
 40
13.000000
 50
-171.381805
 51
-90.000000
  0
LINE
  8
0
  6
CONTINUOUS
 10
24.556704
 20
297.249146
 11
61.255505
 21
297.247162
  0
LINE
  8
0
  6
CONTINUOUS
 10
12.173904
 20
302.750580
 11
21.608044
 21
302.750580
  0
LINE
  8
0
  6
CONTINUOUS
 10
61.255505
 20
438.247925
 11
61.255505
 21
297.247162
  0
ARC
  8
0
  6
CONTINUOUS
 10
361.055237
 20
367.748962
 40
345.000000
 50
-179.999771
 51
-168.412003
  0
ARC
  8
0
  6
CONTINUOUS
 10
21.408283
 20
301.750549
 40
1.000000
 50
10.996500
 51
90.000000
  0
ARC
  8
0
  6
CONTINUOUS
 10
24.556845
 20
298.749115
 40
1.500000
 50
191.587906
 51
270.000000
  0
LINE
  8
0
  6
CONTINUOUS
 10
24.556704
 20
438.245941
 11
61.255505
 21
438.247925
  0
ARC
  8
0
  6
CONTINUOUS
 10
361.055237
 20
367.746155
 40
345.000000
 50
168.412003
 51
179.999771
  0
ARC
  8
0
  6
CONTINUOUS
 10
355.255219
 20
367.744537
 40
360.000000
 50
171.381393
 51
180.000000
  0
ARC
  8
0
  6
CONTINUOUS
 10
12.173904
 20
419.744537
 40
13.000000
 50
90.000000
 51
171.381805
  0
LINE
  8
0
  6
CONTINUOUS
 10
12.173904
 20
432.744537
 11
21.608044
 21
432.744537
  0
ARC
  8
0
  6
CONTINUOUS
 10
21.408283
 20
433.744537
 40
1.000000
 50
270.000000
 51
349.003510
  0
ARC
  8
0
  6
CONTINUOUS
 10
24.556845
 20
436.745972
 40
1.500000
 50
90.000000
 51
168.412094
  0
ARC
  8
0
  6
CONTINUOUS
 10
355.255493
 20
81.540001
 40
360.000000
 50
171.381500
 51
188.618607
  0
LINE
  8
0
  6
CONTINUOUS
 10
61.255486
 20
152.039993
 11
61.255486
 21
95.039948
  0
LINE
  8
0
  6
CONTINUOUS
 10
17.815844
 20
152.039993
 11
61.255486
 21
152.039993
  0
LINE
  8
0
  6
CONTINUOUS
 10
12.173878
 20
146.539948
 11
17.076963
 21
146.539948
  0
LINE
  8
0
  6
CONTINUOUS
 10
12.173968
 20
16.540001
 11
17.076963
 21
16.540001
  0
ARC
  8
0
  6
CONTINUOUS
 10
-321.744507
 20
81.540001
 40
345.000000
 50
-11.486330
 51
11.486320
  0
ARC
  8
0
  6
CONTINUOUS
 10
12.173908
 20
133.539764
 40
13.000000
 50
90.000000
 51
171.381805
  0
ARC
  8
0
  6
CONTINUOUS
 10
17.815844
 20
150.539764
 40
1.500000
 50
90.000000
 51
191.486496
  0
ARC
  8
0
  6
CONTINUOUS
 10
12.173908
 20
29.540001
 40
13.000000
 50
188.618607
 51
270.000000
  0
ARC
  8
0
  6
CONTINUOUS
 10
17.815844
 20
12.539760
 40
1.500000
 50
168.513794
 51
199.461502
  0
LINE
  8
0
  6
CONTINUOUS
 10
61.255486
 20
12.040000
 11
16.401545
 21
12.040000
  0
LINE
  8
0
  6
CONTINUOUS
 10
61.255486
 20
68.039848
 11
61.255486
 21
12.040000
  0
LINE
  8
0
  6
CONTINUOUS
 10
63.255543
 20
67.039848
 11
63.255543
 21
29.958475
  0
LINE
  8
0
  6
CONTINUOUS
 10
63.255543
 20
145.539993
 11
63.255543
 21
96.039948
  0
LINE
  8
0
  6
CONTINUOUS
 10
71.005516
 20
111.939995
 11
71.005516
 21
111.139977
  0
LINE
  8
0
  6
CONTINUOUS
 10
68.855492
 20
113.290001
 11
69.655510
 21
113.290001
  0
LINE
  8
0
  6
CONTINUOUS
 10
68.855492
 20
109.790001
 11
69.655510
 21
109.790001
  0
LINE
  8
0
  6
CONTINUOUS
 10
67.505516
 20
111.939995
 11
67.505516
 21
111.139977
  0
CIRCLE
  8
0
  6
CONTINUOUS
 10
69.255516
 20
111.540001
 40
2.750000
  0
ARC
  8
0
  6
CONTINUOUS
 10
67.505516
 20
113.290001
 40
1.350000
 50
-90.000000
 51
0.000000
  0
ARC
  8
0
  6
CONTINUOUS
 10
67.505516
 20
109.790001
 40
1.350000
 50
0.000000
 51
90.000000
  0
ARC
  8
0
  6
CONTINUOUS
 10
71.005516
 20
113.290001
 40
1.350000
 50
180.000000
 51
270.000000
  0
ARC
  8
0
  6
CONTINUOUS
 10
71.005516
 20
109.790001
 40
1.350000
 50
90.000000
 51
180.000000
  0
LINE
  8
0
  6
CONTINUOUS
 10
131.005554
 20
111.939995
 11
131.005554
 21
111.139977
  0
LINE
  8
0
  6
CONTINUOUS
 10
128.855530
 20
113.290001
 11
129.655548
 21
113.290001
  0
LINE
  8
0
  6
CONTINUOUS
 10
128.855530
 20
109.790001
 11
129.655548
 21
109.790001
  0
LINE
  8
0
  6
CONTINUOUS
 10
127.505554
 20
111.939995
 11
127.505554
 21
111.139977
  0
CIRCLE
  8
0
  6
CONTINUOUS
 10
129.255554
 20
111.540001
 40
2.750000
  0
ARC
  8
0
  6
CONTINUOUS
 10
127.505554
 20
113.290001
 40
1.350000
 50
-90.000000
 51
0.000000
  0
ARC
  8
0
  6
CONTINUOUS
 10
127.505554
 20
109.790001
 40
1.350000
 50
0.000000
 51
90.000000
  0
ARC
  8
0
  6
CONTINUOUS
 10
131.005554
 20
113.290001
 40
1.350000
 50
180.000000
 51
270.000000
  0
ARC
  8
0
  6
CONTINUOUS
 10
131.005554
 20
109.790001
 40
1.350000
 50
90.000000
 51
180.000000
  0
LINE
  8
0
  6
CONTINUOUS
 10
131.005554
 20
51.939995
 11
131.005554
 21
51.139977
  0
LINE
  8
0
  6
CONTINUOUS
 10
128.855530
 20
53.290001
 11
129.655548
 21
53.290001
  0
LINE
  8
0
  6
CONTINUOUS
 10
128.855530
 20
49.790001
 11
129.655548
 21
49.790001
  0
LINE
  8
0
  6
CONTINUOUS
 10
127.505554
 20
51.939995
 11
127.505554
 21
51.139977
  0
CIRCLE
  8
0
  6
CONTINUOUS
 10
129.255554
 20
51.540001
 40
2.750000
  0
ARC
  8
0
  6
CONTINUOUS
 10
127.505554
 20
53.290001
 40
1.350000
 50
-90.000000
 51
0.000000
  0
ARC
  8
0
  6
CONTINUOUS
 10
127.505554
 20
49.790001
 40
1.350000
 50
0.000000
 51
90.000000
  0
ARC
  8
0
  6
CONTINUOUS
 10
131.005554
 20
53.290001
 40
1.350000
 50
180.000000
 51
270.000000
  0
ARC
  8
0
  6
CONTINUOUS
 10
131.005554
 20
49.790001
 40
1.350000
 50
90.000000
 51
180.000000
  0
LINE
  8
0
  6
CONTINUOUS
 10
71.005516
 20
51.939995
 11
71.005516
 21
51.139977
  0
LINE
  8
0
  6
CONTINUOUS
 10
68.855492
 20
53.290001
 11
69.655510
 21
53.290001
  0
LINE
  8
0
  6
CONTINUOUS
 10
68.855492
 20
49.790001
 11
69.655510
 21
49.790001
  0
LINE
  8
0
  6
CONTINUOUS
 10
67.505516
 20
51.939995
 11
67.505516
 21
51.139977
  0
CIRCLE
  8
0
  6
CONTINUOUS
 10
69.255516
 20
51.540001
 40
2.750000
  0
ARC
  8
0
  6
CONTINUOUS
 10
67.505516
 20
53.290001
 40
1.350000
 50
-90.000000
 51
0.000000
  0
ARC
  8
0
  6
CONTINUOUS
 10
67.505516
 20
49.790001
 40
1.350000
 50
0.000000
 51
90.000000
  0
ARC
  8
0
  6
CONTINUOUS
 10
71.005516
 20
53.290001
 40
1.350000
 50
180.000000
 51
270.000000
  0
ARC
  8
0
  6
CONTINUOUS
 10
71.005516
 20
49.790001
 40
1.350000
 50
90.000000
 51
180.000000
  0
LINE
  8
0
  6
CONTINUOUS
 10
101.755501
 20
40.000057
 11
101.755501
 21
46.540051
  0
LINE
  8
0
  6
CONTINUOUS
 10
96.755501
 20
39.958477
 11
96.755501
 21
46.540051
  0
ARC
  8
0
  6
CONTINUOUS
 10
86.755501
 20
39.958477
 40
10.000000
 50
-90.000000
 51
0.000000
  0
ARC
  8
0
  6
CONTINUOUS
 10
86.755501
 20
39.958477
 40
15.000000
 50
-90.000000
 51
0.158824
  0
LINE
  8
0
  6
CONTINUOUS
 10
86.755501
 20
29.958475
 11
61.255486
 21
29.958475
  0
LINE
  8
0
  6
CONTINUOUS
 10
86.755501
 20
24.958475
 11
61.255486
 21
24.958475
  0
LINE
  8
0
  6
CONTINUOUS
 10
63.255543
 20
24.958475
 11
63.255543
 21
17.540001
  0
LINE
  8
0
  6
CONTINUOUS
 10
94.816002
 20
34.040001
 11
71.255501
 21
34.040001
  0
LINE
  8
0
  6
CONTINUOUS
 10
95.955803
 20
36.040001
 11
71.255501
 21
36.040001
  0
LINE
  8
0
  6
CONTINUOUS
 10
96.755501
 20
41.540001
 11
71.255501
 21
41.540001
  0
LINE
  8
0
  6
CONTINUOUS
 10
96.755501
 20
43.540001
 11
71.255501
 21
43.540001
  0
LINE
  8
0
  6
CONTINUOUS
 10
481.083649
 20
56.061825
 11
481.083649
 21
45.958473
  0
LINE
  8
0
  6
CONTINUOUS
 10
486.083649
 20
56.435215
 11
486.083649
 21
45.958473
  0
ARC
  8
0
  6
CONTINUOUS
 10
502.083649
 20
45.958473
 40
16.000000
 50
180.000000
 51
270.000000
  0
ARC
  8
0
  6
CONTINUOUS
 10
502.083649
 20
45.958473
 40
21.000000
 50
180.000000
 51
270.000000
  0
LINE
  8
0
  6
CONTINUOUS
 10
502.083649
 20
29.958473
 11
515.697754
 21
29.958473
  0
LINE
  8
0
  6
CONTINUOUS
 10
502.083649
 20
24.958473
 11
516.583740
 21
24.958473
  0
ARC
  8
0
  6
CONTINUOUS
 10
553.583740
 20
81.540001
 40
70.500107
 50
233.376572
 51
238.343750
  0
TEXT
  8
0
 10
-26.000000
 20
-48.000000
 40
4.000000
 41
1.000000
  1
H2LB-28R-5~60-T040WZ
 50
0.000000
  0
ENDSEC
  0
EOF
