  0
SECTION
  2
HEADER
  9
$CLAYER
  8
1
  9
$LTSCALE
 40
3.0
  0
ENDSEC
  0
SECTION
  2
TABLES
  0
TABLE
  2
LTYPE
 70
     4
  0
LTYPE
  2
CONTINUOUS
  3
solid line
 70
    64
 72
    65
 73
     0
 40
0.0
  0
LTYPE
  2
DASHED
  3
__ __ __ __ __ __ __ __ __ __ __ __ __ __ __
 70
    64
 72
    65
 73
     2
 40
0.75
 49
0.5
 49
-0.25
  0
LTYPE
  2
CENTER
  3
____ _ ____ _ ____ _ ____ _ ____ _ ____ _ ____
 70
    64
 72
    65
 73
     4
 40
2.0
 49
1.25
 49
-0.25
 49
0.25
 49
-0.25
  0
LTYPE
  2
PHANTOM
  3
_____ _ _ _____ _ _ _____ _ _ _____ _ _ ____
 70
    64
 72
    65
 73
     6
 40
2.5
 49
1.25
 49
-0.25
 49
0.25
 49
-0.25
 49
0.25
 49
-0.25
  0
ENDTAB
  0
TABLE
  2
LAYER
 70
     1
  0
LAYER
  2
0
 70
    64
 62
     7
  6
CONTINUOUS
  0
ENDTAB
  0
TABLE
  2
STYLE
 70
     1
  0
STYLE
  2
STANDARD
 70
     0
 40
0.000000
 41
1.000000
 50
0.000000
 71
     0
 42
3.000000
  3
txt
  4
BIGFONT
  0
ENDTAB
  0
ENDSEC
  0
SECTION
  2
BLOCKS
  0
ENDSEC
  0
SECTION
  2
ENTITIES
  0
LINE
  8
0
  6
CONTINUOUS
 10
157.227615
 20
177.357315
 11
157.227615
 21
125.794815
  0
LINE
  8
0
  6
CONTINUOUS
 10
148.727859
 20
180.357315
 11
148.727615
 21
65.357315
  0
LINE
  8
0
  6
CONTINUOUS
 10
179.598480
 20
59.988918
 11
148.727615
 21
65.357315
  0
LINE
  8
0
  6
CONTINUOUS
 10
188.175522
 20
31.633478
 11
198.727631
 21
31.357218
  0
LINE
  8
0
  6
CONTINUOUS
 10
162.096634
 20
160.316742
 11
198.727631
 21
159.357254
  0
ARC
  8
0
  6
CONTINUOUS
 10
162.227493
 20
165.315018
 40
5.000000
 50
180.000000
 51
268.499786
  0
LINE
  8
0
  6
CENTER
 10
-18.328594
 20
122.857315
 11
221.329376
 21
122.857315
  0
LINE
  8
0
  6
CENTER
 10
176.227737
 20
95.357315
 11
198.727631
 21
95.357315
  0
LINE
  8
0
  6
CONTINUOUS
 10
154.227615
 20
180.357315
 11
148.727859
 21
180.357315
  0
ARC
  8
0
  6
CONTINUOUS
 10
154.227631
 20
177.357300
 40
3.000000
 50
0.000000
 51
90.000000
  0
LINE
  8
0
  6
CONTINUOUS
 10
186.227859
 20
33.632797
 11
186.227859
 21
118.669815
  0
ARC
  8
0
  6
CONTINUOUS
 10
188.227829
 20
33.632816
 40
2.000000
 50
180.000000
 51
268.500610
  0
ARC
  8
0
  6
CONTINUOUS
 10
178.227875
 20
52.107178
 40
8.000000
 50
0.000000
 51
80.135094
  0
LINE
  8
0
  6
CONTINUOUS
 10
198.727631
 20
31.357218
 11
198.727631
 21
159.357254
  0
LINE
  8
0
  6
CENTER
 10
198.727631
 20
95.357216
 11
229.849579
 21
95.357216
  0
LINE
  8
0
  6
CENTER
 10
286.727631
 20
227.653397
 11
286.727631
 21
-10.275663
  0
LINE
  8
0
  6
CENTER
 10
222.843079
 20
140.357224
 11
351.171265
 21
140.357224
  0
LINE
  8
0
  6
CENTER
 10
334.227631
 20
25.632656
 11
334.227631
 21
-8.232083
  0
LINE
  8
0
  6
CENTER
 10
239.227631
 20
25.632656
 11
239.227631
 21
-8.524022
  0
LINE
  8
0
  6
CONTINUOUS
 10
210.727631
 20
0.357217
 11
362.727631
 21
0.357217
  0
LINE
  8
0
  6
CONTINUOUS
 10
210.727631
 20
18.357218
 11
362.727631
 21
18.357218
  0
LINE
  8
0
  6
CONTINUOUS
 10
362.727600
 20
168.662781
 11
362.727631
 21
0.357217
  0
LINE
  8
0
  6
CONTINUOUS
 10
210.727631
 20
163.857224
 11
210.727631
 21
168.662781
  0
LINE
  8
0
  6
CONTINUOUS
 10
260.224213
 20
205.357224
 11
313.231049
 21
205.357224
  0
LINE
  8
0
  6
CONTINUOUS
 10
205.727631
 20
159.357254
 11
198.727631
 21
159.357254
  0
LINE
  8
0
  6
CONTINUOUS
 10
205.727631
 20
31.357218
 11
198.727631
 21
31.357218
  0
LINE
  8
0
  6
CONTINUOUS
 10
359.277679
 20
175.242844
 11
317.781097
 21
203.937271
  0
LINE
  8
0
  6
CONTINUOUS
 10
214.177597
 20
175.242844
 11
255.674179
 21
203.937271
  0
ARC
  8
0
  6
CONTINUOUS
 10
313.231079
 20
197.357224
 40
8.000000
 50
55.336689
 51
90.000000
  0
ARC
  8
0
  6
CONTINUOUS
 10
354.727661
 20
168.662735
 40
8.000000
 50
0.000000
 51
55.336739
  0
ARC
  8
0
  6
CONTINUOUS
 10
260.224243
 20
197.357224
 40
8.000000
 50
90.000000
 51
124.663696
  0
ARC
  8
0
  6
CONTINUOUS
 10
218.727661
 20
168.662811
 40
8.000000
 50
124.663803
 51
180.000000
  0
LINE
  8
0
  6
CONTINUOUS
 10
210.727631
 20
26.857218
 11
210.727631
 21
0.357217
  0
ARC
  8
0
  6
CONTINUOUS
 10
205.727631
 20
164.357254
 40
5.000000
 50
-90.000000
 51
0.000000
  0
LINE
  8
0
  6
CONTINUOUS
 10
210.727631
 20
26.857218
 11
210.727631
 21
163.857224
  0
ARC
  8
0
  6
CONTINUOUS
 10
205.727646
 20
26.357199
 40
5.000000
 50
0.000000
 51
90.000000
  0
LINE
  8
0
  6
DASHED
 10
232.727631
 20
18.357218
 11
232.727631
 21
0.357217
  0
LINE
  8
0
  6
DASHED
 10
245.727631
 20
18.357218
 11
245.727631
 21
0.357217
  0
LINE
  8
0
  6
DASHED
 10
327.727631
 20
18.357218
 11
327.727631
 21
0.357217
  0
LINE
  8
0
  6
DASHED
 10
340.727631
 20
18.357218
 11
340.727631
 21
0.357217
  0
CIRCLE
  8
0
  6
CONTINUOUS
 10
286.727631
 20
140.357224
 40
39.000000
  0
ARC
  8
0
  6
CONTINUOUS
 10
286.727631
 20
140.357224
 40
44.000000
 50
12.523240
 51
167.476898
  0
ARC
  8
0
  6
CONTINUOUS
 10
261.227631
 20
81.357216
 40
29.000000
 50
167.476898
 51
270.000000
  0
ARC
  8
0
  6
CONTINUOUS
 10
312.227631
 20
81.357216
 40
29.000000
 50
-90.000000
 51
12.523240
  0
ARC
  8
0
  6
CONTINUOUS
 10
261.227631
 20
81.357216
 40
31.900000
 50
167.476898
 51
270.000000
  0
ARC
  8
0
  6
CONTINUOUS
 10
312.227631
 20
81.357216
 40
31.900000
 50
-90.000000
 51
12.523240
  0
ARC
  8
0
  6
CONTINUOUS
 10
286.727631
 20
140.357224
 40
41.099998
 50
-192.523102
 51
12.523240
  0
LINE
  8
0
  6
CONTINUOUS
 10
230.086594
 20
88.274223
 11
243.774460
 21
149.897919
  0
LINE
  8
0
  6
CONTINUOUS
 10
232.917603
 20
87.645401
 11
246.605469
 21
149.269104
  0
LINE
  8
0
  6
CONTINUOUS
 10
261.227631
 20
49.457218
 11
312.227631
 21
49.457218
  0
LINE
  8
0
  6
CONTINUOUS
 10
312.227631
 20
52.357216
 11
261.227631
 21
52.357216
  0
LINE
  8
0
  6
CONTINUOUS
 10
329.680786
 20
149.897995
 11
343.368683
 21
88.274284
  0
LINE
  8
0
  6
CONTINUOUS
 10
326.849762
 20
149.269180
 11
340.537659
 21
87.645454
  0
LINE
  8
0
  6
CONTINUOUS
 10
274.500671
 20
64.357216
 11
269.560242
 21
64.357216
  0
LINE
  8
0
  6
CONTINUOUS
 10
277.227631
 20
72.632622
 11
277.227631
 21
64.357216
  0
LINE
  8
0
  6
CONTINUOUS
 10
281.977631
 20
75.638466
 11
281.977631
 21
78.607216
  0
LINE
  8
0
  6
CONTINUOUS
 10
291.477631
 20
75.638466
 11
291.477631
 21
78.607216
  0
LINE
  8
0
  6
CONTINUOUS
 10
285.799896
 20
76.863075
 11
285.799896
 21
65.915817
  0
LINE
  8
0
  6
CONTINUOUS
 10
287.581146
 20
76.863075
 11
287.581146
 21
65.915817
  0
LINE
  8
0
  6
CONTINUOUS
 10
296.932739
 20
76.863075
 11
296.932739
 21
65.841599
  0
LINE
  8
0
  6
CONTINUOUS
 10
298.565552
 20
71.018356
 11
298.565552
 21
65.841599
  0
LINE
  8
0
  6
CONTINUOUS
 10
274.973694
 20
76.714638
 11
270.395935
 21
76.714638
  0
LINE
  8
0
  6
CONTINUOUS
 10
270.395935
 20
76.714638
 11
269.323334
 21
75.384636
  0
LINE
  8
0
  6
CONTINUOUS
 10
269.452332
 20
78.607216
 11
267.727631
 21
76.398750
  0
LINE
  8
0
  6
CONTINUOUS
 10
269.323334
 20
67.175056
 11
270.413147
 21
66.027138
  0
LINE
  8
0
  6
CONTINUOUS
 10
267.727631
 20
66.206337
 11
269.560242
 21
64.357216
  0
LINE
  8
0
  6
CONTINUOUS
 10
267.727631
 20
76.398750
 11
267.727631
 21
66.206337
  0
LINE
  8
0
  6
CONTINUOUS
 10
269.323334
 20
75.384636
 11
269.323334
 21
67.175056
  0
LINE
  8
0
  6
CONTINUOUS
 10
275.854584
 20
75.863075
 11
274.955719
 21
76.714638
  0
LINE
  8
0
  6
CONTINUOUS
 10
275.840332
 20
78.607216
 11
277.227631
 21
77.067635
  0
LINE
  8
0
  6
CONTINUOUS
 10
275.854584
 20
75.638466
 11
277.227631
 21
75.638466
  0
LINE
  8
0
  6
CONTINUOUS
 10
269.452332
 20
78.607216
 11
275.840332
 21
78.607216
  0
LINE
  8
0
  6
CONTINUOUS
 10
273.368256
 20
72.632622
 11
277.227631
 21
72.632622
  0
LINE
  8
0
  6
CONTINUOUS
 10
275.854584
 20
71.074020
 11
273.368256
 21
71.074020
  0
LINE
  8
0
  6
CONTINUOUS
 10
272.885834
 20
66.027138
 11
270.413147
 21
66.027138
  0
LINE
  8
0
  6
CONTINUOUS
 10
275.854584
 20
69.589638
 11
275.854584
 21
70.777138
  0
ARC
  8
0
  6
CONTINUOUS
 10
272.885834
 20
68.995880
 40
2.968750
 50
-89.999786
 51
0.000109
  0
LINE
  8
0
  6
CONTINUOUS
 10
275.854584
 20
65.493141
 11
275.854584
 21
64.357216
  0
LINE
  8
0
  6
CONTINUOUS
 10
277.227631
 20
77.067635
 11
277.227631
 21
75.638466
  0
LINE
  8
0
  6
CONTINUOUS
 10
275.854584
 20
71.074020
 11
275.854584
 21
68.995880
  0
LINE
  8
0
  6
CONTINUOUS
 10
273.368256
 20
72.632622
 11
273.368256
 21
71.074020
  0
LINE
  8
0
  6
CONTINUOUS
 10
275.854584
 20
64.357216
 11
277.227631
 21
64.357216
  0
LINE
  8
0
  6
CONTINUOUS
 10
275.854584
 20
65.493141
 11
274.500671
 21
64.357216
  0
LINE
  8
0
  6
CONTINUOUS
 10
287.581146
 20
65.915817
 11
288.174896
 21
65.915817
  0
LINE
  8
0
  6
CONTINUOUS
 10
285.094818
 20
65.915817
 11
285.094818
 21
64.357216
  0
LINE
  8
0
  6
CONTINUOUS
 10
288.174896
 20
65.915817
 11
288.174896
 21
64.357216
  0
LINE
  8
0
  6
CONTINUOUS
 10
290.486725
 20
75.638466
 11
291.477631
 21
75.638466
  0
LINE
  8
0
  6
CONTINUOUS
 10
281.977631
 20
75.638466
 11
283.032166
 21
75.638466
  0
LINE
  8
0
  6
CONTINUOUS
 10
281.977631
 20
78.607216
 11
291.477631
 21
78.607216
  0
LINE
  8
0
  6
CONTINUOUS
 10
285.094818
 20
64.357216
 11
288.174896
 21
64.357216
  0
LINE
  8
0
  6
CONTINUOUS
 10
285.094818
 20
65.915817
 11
285.799896
 21
65.915817
  0
ARC
  8
0
  6
CONTINUOUS
 10
301.923920
 20
74.803497
 40
3.803712
 50
-73.981873
 51
90.003510
  0
ARC
  8
0
  6
CONTINUOUS
 10
301.923920
 20
74.803497
 40
2.320524
 50
-82.585274
 51
62.411850
  0
LINE
  8
0
  6
CONTINUOUS
 10
296.227631
 20
78.607216
 11
301.923920
 21
78.607216
  0
LINE
  8
0
  6
CONTINUOUS
 10
302.223389
 20
72.502380
 11
298.565552
 21
72.502380
  0
LINE
  8
0
  6
CONTINUOUS
 10
296.227631
 20
78.607216
 11
296.227631
 21
76.863075
  0
LINE
  8
0
  6
CONTINUOUS
 10
298.565552
 20
76.863075
 11
298.565552
 21
72.502380
  0
LINE
  8
0
  6
CONTINUOUS
 10
302.973511
 20
71.147476
 11
305.327820
 21
65.841599
  0
LINE
  8
0
  6
CONTINUOUS
 10
301.606171
 20
71.018356
 11
303.834137
 21
65.841599
  0
LINE
  8
0
  6
CONTINUOUS
 10
296.227631
 20
65.841599
 11
296.932739
 21
65.841599
  0
LINE
  8
0
  6
CONTINUOUS
 10
298.565552
 20
65.841599
 11
299.214966
 21
65.841599
  0
LINE
  8
0
  6
CONTINUOUS
 10
299.214966
 20
64.357216
 11
296.227631
 21
64.357216
  0
LINE
  8
0
  6
CONTINUOUS
 10
303.538208
 20
65.841599
 11
303.834137
 21
65.841599
  0
LINE
  8
0
  6
CONTINUOUS
 10
305.327820
 20
65.841599
 11
305.727631
 21
65.841599
  0
LINE
  8
0
  6
CONTINUOUS
 10
303.538208
 20
64.357216
 11
305.727631
 21
64.357216
  0
LINE
  8
0
  6
CONTINUOUS
 10
305.727631
 20
65.841599
 11
305.727631
 21
64.357216
  0
LINE
  8
0
  6
CONTINUOUS
 10
303.538208
 20
65.841599
 11
303.538208
 21
64.357216
  0
LINE
  8
0
  6
CONTINUOUS
 10
299.214966
 20
65.841599
 11
299.214966
 21
64.357216
  0
LINE
  8
0
  6
CONTINUOUS
 10
296.227631
 20
65.841599
 11
296.227631
 21
64.357216
  0
LINE
  8
0
  6
CONTINUOUS
 10
283.542419
 20
76.863075
 11
283.032166
 21
75.638466
  0
LINE
  8
0
  6
CONTINUOUS
 10
290.056458
 20
76.863075
 11
290.486725
 21
75.638466
  0
LINE
  8
0
  6
CONTINUOUS
 10
287.581146
 20
76.863075
 11
290.056458
 21
76.863075
  0
LINE
  8
0
  6
CONTINUOUS
 10
285.799896
 20
76.863075
 11
283.542419
 21
76.863075
  0
LINE
  8
0
  6
CONTINUOUS
 10
298.565552
 20
71.018356
 11
301.606171
 21
71.018356
  0
LINE
  8
0
  6
CONTINUOUS
 10
296.227631
 20
76.863075
 11
296.932739
 21
76.863075
  0
LINE
  8
0
  6
CONTINUOUS
 10
298.565552
 20
76.863075
 11
302.998596
 21
76.860191
  0
LINE
  8
0
  6
CONTINUOUS
 10
275.854584
 20
75.863075
 11
275.854584
 21
75.638466
  0
ARC
  8
0
  6
CONTINUOUS
 10
390.436523
 20
95.357216
 40
185.208893
 50
166.001907
 51
193.998093
  0
LINE
  8
0
  6
CONTINUOUS
 10
224.727631
 20
16.290659
 11
224.727631
 21
0.357217
  0
LINE
  8
0
  6
CONTINUOUS
 10
348.727631
 20
16.290659
 11
348.727631
 21
0.357217
  0
LINE
  8
0
  6
CONTINUOUS
 10
310.484985
 20
23.357218
 11
262.970276
 21
23.357218
  0
LINE
  8
0
  6
CONTINUOUS
 10
261.727631
 20
22.421337
 11
261.727631
 21
19.357218
  0
LINE
  8
0
  6
CONTINUOUS
 10
312.606323
 20
22.478537
 11
315.263184
 21
19.821676
  0
LINE
  8
0
  6
CONTINUOUS
 10
260.848969
 20
22.478537
 11
258.192139
 21
19.821716
  0
LINE
  8
0
  6
CONTINUOUS
 10
311.727631
 20
22.421337
 11
311.727631
 21
19.357218
  0
ARC
  8
0
  6
CONTINUOUS
 10
254.656570
 20
23.357218
 40
5.000000
 50
270.000000
 51
315.000092
  0
ARC
  8
0
  6
CONTINUOUS
 10
262.970306
 20
20.357218
 40
3.000000
 50
90.000000
 51
135.000305
  0
ARC
  8
0
  6
CONTINUOUS
 10
260.727631
 20
19.357218
 40
1.000000
 50
-90.000000
 51
0.000000
  0
ARC
  8
0
  6
CONTINUOUS
 10
318.798706
 20
23.357218
 40
5.000000
 50
225.000000
 51
270.000000
  0
ARC
  8
0
  6
CONTINUOUS
 10
310.484985
 20
20.357218
 40
3.000000
 50
45.000160
 51
90.000000
  0
ARC
  8
0
  6
CONTINUOUS
 10
312.727631
 20
19.357218
 40
1.000000
 50
180.000000
 51
270.000000
  0
LINE
  8
0
  6
CONTINUOUS
 10
297.727661
 20
135.357254
 11
297.727600
 21
145.357254
  0
LINE
  8
0
  6
CONTINUOUS
 10
305.727661
 20
135.357285
 11
305.727600
 21
145.357285
  0
LINE
  8
0
  6
CONTINUOUS
 10
305.727661
 20
135.357285
 11
297.727661
 21
135.357254
  0
LINE
  8
0
  6
CONTINUOUS
 10
305.727600
 20
145.357285
 11
297.727600
 21
145.357254
  0
ARC
  8
0
  6
CONTINUOUS
 10
286.727631
 20
140.357224
 40
16.000000
 50
18.209900
 51
341.790100
  0
LINE
  8
0
  6
CENTER
 10
578.567749
 20
-6.434256
 11
578.567749
 21
237.082794
  0
LINE
  8
0
  6
CENTER
 10
508.567749
 20
95.357216
 11
648.567749
 21
95.357216
  0
LINE
  8
0
  6
CENTER
 10
445.905243
 20
140.357224
 11
645.288574
 21
140.357224
  0
LINE
  8
0
  6
CENTER
 10
638.567749
 20
26.955957
 11
638.567749
 21
-10.943162
  0
LINE
  8
0
  6
CENTER
 10
518.567749
 20
26.955957
 11
518.567749
 21
-10.943162
  0
LINE
  8
0
  6
CONTINUOUS
 10
503.567749
 20
0.357217
 11
548.567749
 21
0.357217
  0
LINE
  8
0
  6
CONTINUOUS
 10
608.567749
 20
0.357217
 11
653.567749
 21
0.357217
  0
LINE
  8
0
  6
CONTINUOUS
 10
651.067749
 20
18.357218
 11
627.567749
 21
18.357218
  0
LINE
  8
0
  6
CONTINUOUS
 10
506.067749
 20
18.357218
 11
529.567688
 21
18.357218
  0
LINE
  8
0
  6
CONTINUOUS
 10
623.567749
 20
201.623978
 11
623.567749
 21
0.357217
  0
LINE
  8
0
  6
CONTINUOUS
 10
533.567749
 20
188.098419
 11
533.567749
 21
201.623505
  0
LINE
  8
0
  6
CONTINUOUS
 10
653.567749
 20
16.239397
 11
653.567749
 21
0.357217
  0
LINE
  8
0
  6
CONTINUOUS
 10
503.567749
 20
16.239397
 11
503.567749
 21
0.357217
  0
LINE
  8
0
  6
CONTINUOUS
 10
550.067749
 20
1.857217
 11
607.067688
 21
1.857217
  0
LINE
  8
0
  6
CONTINUOUS
 10
620.620056
 20
204.623520
 11
578.567749
 21
205.357224
  0
LINE
  8
0
  6
CONTINUOUS
 10
536.515381
 20
204.623032
 11
578.567749
 21
205.357224
  0
LINE
  8
0
  6
CONTINUOUS
 10
516.567749
 20
105.098412
 11
516.567749
 21
175.616043
  0
LINE
  8
0
  6
CONTINUOUS
 10
640.567749
 20
105.098412
 11
640.567749
 21
175.616043
  0
LINE
  8
0
  6
CONTINUOUS
 10
523.567749
 20
56.113216
 11
523.567749
 21
144.267624
  0
LINE
  8
0
  6
CONTINUOUS
 10
633.567749
 20
56.113239
 11
633.567749
 21
144.267624
  0
LINE
  8
0
  6
DASHED
 10
645.067749
 20
18.357218
 11
645.067749
 21
0.357217
  0
LINE
  8
0
  6
DASHED
 10
632.067749
 20
18.357218
 11
632.067749
 21
0.357217
  0
LINE
  8
0
  6
DASHED
 10
525.067749
 20
18.357218
 11
525.067749
 21
0.357217
  0
LINE
  8
0
  6
DASHED
 10
512.067749
 20
18.357218
 11
512.067749
 21
0.357217
  0
ARC
  8
0
  6
CONTINUOUS
 10
536.567749
 20
201.623505
 40
3.000000
 50
91.000603
 51
180.000000
  0
ARC
  8
0
  6
CONTINUOUS
 10
620.567749
 20
201.623962
 40
3.000000
 50
0.000000
 51
89.000580
  0
LINE
  8
0
  6
CONTINUOUS
 10
529.978577
 20
183.301575
 11
520.156921
 21
180.412842
  0
LINE
  8
0
  6
CONTINUOUS
 10
520.156921
 20
100.301582
 11
520.696411
 21
100.142914
  0
LINE
  8
0
  6
CONTINUOUS
 10
527.175110
 20
51.311077
 11
529.960327
 21
50.503357
  0
LINE
  8
0
  6
CONTINUOUS
 10
505.656738
 20
18.705378
 11
531.060913
 21
22.939417
  0
LINE
  8
0
  6
CONTINUOUS
 10
651.478760
 20
18.705397
 11
626.074585
 21
22.939438
  0
LINE
  8
0
  6
CONTINUOUS
 10
629.960327
 20
51.311077
 11
627.175110
 21
50.503357
  0
LINE
  8
0
  6
CONTINUOUS
 10
636.978577
 20
100.301582
 11
636.439026
 21
100.142906
  0
LINE
  8
0
  6
CONTINUOUS
 10
636.978577
 20
180.412857
 11
627.156921
 21
183.301575
  0
LINE
  8
0
  6
CONTINUOUS
 10
536.142090
 20
172.857224
 11
620.820312
 21
172.857224
  0
ARC
  8
0
  6
CONTINUOUS
 10
521.567749
 20
175.616058
 40
5.000000
 50
106.389900
 51
180.000000
  0
ARC
  8
0
  6
CONTINUOUS
 10
635.567749
 20
175.616013
 40
5.000000
 50
0.000000
 51
73.610527
  0
ARC
  8
0
  6
CONTINUOUS
 10
521.567688
 20
105.098450
 40
5.000000
 50
180.000000
 51
253.610794
  0
ARC
  8
0
  6
CONTINUOUS
 10
635.567749
 20
105.098404
 40
5.000000
 50
-73.610321
 51
0.000000
  0
ARC
  8
0
  6
CONTINUOUS
 10
628.567749
 20
56.113216
 40
5.000000
 50
-73.827698
 51
0.000000
  0
ARC
  8
0
  6
CONTINUOUS
 10
528.567688
 20
56.113258
 40
5.000000
 50
180.000000
 51
253.828201
  0
LINE
  8
0
  6
CONTINUOUS
 10
533.567749
 20
188.098419
 11
533.567749
 21
0.357217
  0
ARC
  8
0
  6
CONTINUOUS
 10
528.567749
 20
188.098404
 40
5.000000
 50
-73.610229
 51
0.000000
  0
ARC
  8
0
  6
CONTINUOUS
 10
519.567749
 20
96.305435
 40
4.000000
 50
0.000000
 51
73.610649
  0
ARC
  8
0
  6
CONTINUOUS
 10
528.567749
 20
45.701199
 40
5.000000
 50
0.000000
 51
73.827919
  0
ARC
  8
0
  6
CONTINUOUS
 10
628.567749
 20
45.701237
 40
5.000000
 50
106.172501
 51
180.000000
  0
ARC
  8
0
  6
CONTINUOUS
 10
637.567749
 20
96.305466
 40
4.000000
 50
106.389999
 51
180.000000
  0
ARC
  8
0
  6
CONTINUOUS
 10
628.567688
 20
188.098434
 40
5.000000
 50
180.000000
 51
253.610794
  0
ARC
  8
0
  6
CONTINUOUS
 10
530.567749
 20
25.898598
 40
3.000000
 50
-80.537483
 51
0.000000
  0
ARC
  8
0
  6
CONTINUOUS
 10
529.567749
 20
22.357178
 40
4.000000
 50
-90.000000
 51
0.000000
  0
ARC
  8
0
  6
CONTINUOUS
 10
506.067749
 20
15.857238
 40
2.500000
 50
90.000000
 51
180.000000
  0
LINE
  8
0
  6
CONTINUOUS
 10
548.567749
 20
0.357217
 11
550.067749
 21
1.857217
  0
LINE
  8
0
  6
CONTINUOUS
 10
608.567749
 20
0.357217
 11
607.067688
 21
1.857217
  0
ARC
  8
0
  6
CONTINUOUS
 10
626.567688
 20
25.898638
 40
3.000000
 50
180.000000
 51
260.537903
  0
ARC
  8
0
  6
CONTINUOUS
 10
627.567749
 20
22.357218
 40
4.000000
 50
180.000000
 51
270.000000
  0
ARC
  8
0
  6
CONTINUOUS
 10
651.067749
 20
15.857217
 40
2.500000
 50
0.000000
 51
90.000000
  0
LINE
  8
0
  6
CONTINUOUS
 10
458.567749
 20
124.357216
 11
458.567749
 21
156.357224
  0
LINE
  8
0
  6
CONTINUOUS
 10
513.567749
 20
156.357224
 11
458.567749
 21
156.357224
  0
LINE
  8
0
  6
CONTINUOUS
 10
513.567749
 20
124.357216
 11
458.567749
 21
124.357216
  0
LINE
  8
0
  6
CONTINUOUS
 10
513.567749
 20
157.857224
 11
513.567749
 21
122.857216
  0
LINE
  8
0
  6
CONTINUOUS
 10
516.567749
 20
157.857224
 11
513.567749
 21
157.857224
  0
LINE
  8
0
  6
CONTINUOUS
 10
516.567749
 20
122.857216
 11
513.567749
 21
122.857216
  0
ARC
  8
0
  6
CONTINUOUS
 10
503.567749
 20
140.357224
 40
5.000000
 50
-90.000000
 51
90.000000
  0
LINE
  8
0
  6
CONTINUOUS
 10
503.567749
 20
145.357224
 11
458.567749
 21
145.357224
  0
LINE
  8
0
  6
CONTINUOUS
 10
503.567749
 20
135.357224
 11
458.567749
 21
135.357224
  0
ARC
  8
0
  6
CONTINUOUS
 10
506.067749
 20
16.239416
 40
2.500000
 50
99.462753
 51
180.000000
  0
ARC
  8
0
  6
CONTINUOUS
 10
651.067749
 20
16.239397
 40
2.500000
 50
0.000000
 51
80.537682
  0
ARC
  8
0
  6
CONTINUOUS
 10
578.567749
 20
95.357216
 40
64.000000
 50
-30.753519
 51
14.361512
  0
ARC
  8
0
  6
CONTINUOUS
 10
578.567749
 20
95.357216
 40
64.000000
 50
165.638489
 51
210.753525
  0
LINE
  8
0
  6
CONTINUOUS
 10
159.320038
 20
144.822342
 11
190.587418
 21
144.822342
  0
LINE
  8
0
  6
CONTINUOUS
 10
159.320038
 20
136.367310
 11
190.587418
 21
136.367310
  0
LINE
  8
0
  6
CONTINUOUS
 10
192.727615
 20
137.867310
 11
192.727615
 21
143.767319
  0
LINE
  8
0
  6
CENTER
 10
286.727631
 20
472.904999
 11
286.727631
 21
256.917328
  0
LINE
  8
0
  6
CONTINUOUS
 10
362.727844
 20
382.354828
 11
361.942352
 21
427.354828
  0
LINE
  8
0
  6
CONTINUOUS
 10
228.277588
 20
457.354828
 11
286.727631
 21
457.354828
  0
LINE
  8
0
  6
CONTINUOUS
 10
352.671234
 20
452.156036
 11
361.942352
 21
427.354828
  0
ARC
  8
0
  6
CONTINUOUS
 10
345.177673
 20
449.354828
 40
8.000000
 50
20.496618
 51
90.000000
  0
LINE
  8
0
  6
CONTINUOUS
 10
362.727844
 20
382.354828
 11
361.942352
 21
337.354828
  0
LINE
  8
0
  6
CONTINUOUS
 10
228.277588
 20
307.354828
 11
270.727631
 21
307.354828
  0
LINE
  8
0
  6
CONTINUOUS
 10
352.671234
 20
312.553589
 11
361.942352
 21
337.354828
  0
ARC
  8
0
  6
CONTINUOUS
 10
345.177673
 20
315.354828
 40
8.000000
 50
-90.000000
 51
-20.496618
  0
LINE
  8
0
  6
CONTINUOUS
 10
220.784042
 20
452.156036
 11
211.729248
 21
427.933533
  0
ARC
  8
0
  6
CONTINUOUS
 10
228.277588
 20
449.354828
 40
8.000000
 50
90.000000
 51
159.503387
  0
LINE
  8
0
  6
CONTINUOUS
 10
220.784042
 20
312.553589
 11
211.729248
 21
336.776093
  0
ARC
  8
0
  6
CONTINUOUS
 10
228.277588
 20
315.354828
 40
8.000000
 50
200.496613
 51
270.000000
  0
LINE
  8
0
  6
CONTINUOUS
 10
214.064270
 20
427.354828
 11
358.994263
 21
427.354828
  0
LINE
  8
0
  6
CONTINUOUS
 10
358.994263
 20
337.354828
 11
214.064270
 21
337.354828
  0
LINE
  8
0
  6
CONTINUOUS
 10
286.727631
 20
444.354828
 11
321.986450
 21
444.354828
  0
ARC
  8
0
  6
CONTINUOUS
 10
358.994263
 20
424.354828
 40
3.000000
 50
1.000000
 51
90.000000
  0
ARC
  8
0
  6
CONTINUOUS
 10
358.994263
 20
340.354828
 40
3.000000
 50
270.000000
 51
359.000000
  0
LINE
  8
0
  6
CONTINUOUS
 10
315.727631
 20
424.354828
 11
315.727631
 21
340.354828
  0
LINE
  8
0
  6
CONTINUOUS
 10
257.727631
 20
424.354828
 11
257.727631
 21
340.354828
  0
LINE
  8
0
  6
CONTINUOUS
 10
198.727631
 20
446.354828
 11
198.727631
 21
318.354828
  0
LINE
  8
0
  6
CONTINUOUS
 10
201.299973
 20
446.354828
 11
198.727631
 21
446.354828
  0
LINE
  8
0
  6
CONTINUOUS
 10
326.783264
 20
440.765656
 11
327.786469
 21
437.354828
  0
ARC
  8
0
  6
CONTINUOUS
 10
321.986450
 20
439.354828
 40
5.000000
 50
16.389540
 51
90.000000
  0
LINE
  8
0
  6
CONTINUOUS
 10
342.273773
 20
433.747437
 11
343.081482
 21
430.962189
  0
LINE
  8
0
  6
CONTINUOUS
 10
337.471619
 20
437.354828
 11
327.786469
 21
437.354828
  0
LINE
  8
0
  6
CONTINUOUS
 10
286.727631
 20
444.354828
 11
251.468826
 21
444.354828
  0
LINE
  8
0
  6
CONTINUOUS
 10
286.727631
 20
320.354828
 11
321.986450
 21
320.354828
  0
LINE
  8
0
  6
CONTINUOUS
 10
286.727631
 20
320.354828
 11
251.468826
 21
320.354828
  0
LINE
  8
0
  6
CONTINUOUS
 10
286.727631
 20
457.354828
 11
345.177673
 21
457.354828
  0
LINE
  8
0
  6
CONTINUOUS
 10
305.727631
 20
262.354828
 11
270.727631
 21
262.354828
  0
LINE
  8
0
  6
CONTINUOUS
 10
270.727631
 20
317.354828
 11
270.727631
 21
262.354828
  0
LINE
  8
0
  6
CONTINUOUS
 10
302.727631
 20
317.354828
 11
302.727631
 21
312.354828
  0
LINE
  8
0
  6
CONTINUOUS
 10
269.227631
 20
317.354828
 11
304.227631
 21
317.354828
  0
LINE
  8
0
  6
CONTINUOUS
 10
269.227631
 20
320.354828
 11
269.227631
 21
317.354828
  0
LINE
  8
0
  6
CONTINUOUS
 10
304.227631
 20
320.354828
 11
304.227631
 21
317.354828
  0
LINE
  8
0
  6
CONTINUOUS
 10
305.727631
 20
262.354828
 11
305.727631
 21
312.354828
  0
LINE
  8
0
  6
CONTINUOUS
 10
301.926331
 20
312.354828
 11
305.727631
 21
312.354828
  0
LINE
  8
0
  6
CONTINUOUS
 10
301.926331
 20
312.354828
 11
301.926331
 21
262.354828
  0
LINE
  8
0
  6
CONTINUOUS
 10
305.727631
 20
307.354828
 11
345.177673
 21
307.354828
  0
LINE
  8
0
  6
CENTER
 10
324.351318
 20
442.354828
 11
343.288818
 21
442.354828
  0
LINE
  8
0
  6
CENTER
 10
334.227631
 20
433.202484
 11
334.227631
 21
452.702484
  0
ARC
  8
0
  6
CONTINUOUS
 10
334.227631
 20
442.354828
 40
6.500000
 50
-51.240688
 51
230.284866
  0
ARC
  8
0
  6
CONTINUOUS
 10
239.227631
 20
442.354828
 40
6.500000
 50
-50.284863
 51
231.240692
  0
LINE
  8
0
  6
CENTER
 10
239.227631
 20
433.202484
 11
239.227631
 21
452.702484
  0
LINE
  8
0
  6
CENTER
 10
249.103958
 20
442.354828
 11
230.166458
 21
442.354828
  0
LINE
  8
0
  6
CENTER
 10
-19.940311
 20
382.354828
 11
374.148651
 21
382.354828
  0
LINE
  8
0
  6
CONTINUOUS
 10
206.129593
 20
442.648926
 11
209.234634
 21
431.060730
  0
ARC
  8
0
  6
CONTINUOUS
 10
214.064270
 20
432.354828
 40
5.000000
 50
195.000000
 51
270.000000
  0
ARC
  8
0
  6
CONTINUOUS
 10
201.299973
 20
441.354828
 40
5.000000
 50
15.000000
 51
90.000000
  0
LINE
  8
0
  6
CONTINUOUS
 10
201.299973
 20
318.354828
 11
198.727631
 21
318.354828
  0
LINE
  8
0
  6
CONTINUOUS
 10
206.129593
 20
322.060730
 11
209.234634
 21
333.648926
  0
ARC
  8
0
  6
CONTINUOUS
 10
201.299973
 20
323.354828
 40
5.000000
 50
-90.000000
 51
-15.000000
  0
ARC
  8
0
  6
CONTINUOUS
 10
214.064270
 20
332.354828
 40
5.000000
 50
-270.000000
 51
-195.000000
  0
LINE
  8
0
  6
CONTINUOUS
 10
210.727432
 20
382.354828
 11
211.461456
 21
424.407166
  0
LINE
  8
0
  6
CONTINUOUS
 10
210.727432
 20
382.354828
 11
211.461456
 21
340.302460
  0
ARC
  8
0
  6
CONTINUOUS
 10
214.460999
 20
424.354828
 40
3.000000
 50
90.000000
 51
179.000000
  0
ARC
  8
0
  6
CONTINUOUS
 10
214.460999
 20
340.354828
 40
3.000000
 50
-179.000000
 51
-90.000000
  0
ARC
  8
0
  6
CONTINUOUS
 10
337.471619
 20
432.354828
 40
5.000000
 50
16.172159
 51
90.000000
  0
ARC
  8
0
  6
CONTINUOUS
 10
347.883636
 20
432.354828
 40
5.000000
 50
196.172165
 51
270.000000
  0
LINE
  8
0
  6
CONTINUOUS
 10
344.127625
 20
427.354828
 11
344.130859
 21
427.343719
  0
ARC
  8
0
  6
CONTINUOUS
 10
251.468826
 20
439.354828
 40
5.000000
 50
90.000000
 51
163.610458
  0
LINE
  8
0
  6
CONTINUOUS
 10
246.671997
 20
440.765656
 11
245.668808
 21
437.354828
  0
LINE
  8
0
  6
CONTINUOUS
 10
231.181488
 20
433.747437
 11
230.373779
 21
430.962189
  0
LINE
  8
0
  6
CONTINUOUS
 10
235.983643
 20
437.354828
 11
245.668808
 21
437.354828
  0
ARC
  8
0
  6
CONTINUOUS
 10
235.983643
 20
432.354828
 40
5.000000
 50
90.000000
 51
163.827835
  0
ARC
  8
0
  6
CONTINUOUS
 10
225.571625
 20
432.354828
 40
5.000000
 50
-90.000000
 51
-16.172159
  0
LINE
  8
0
  6
CONTINUOUS
 10
229.327637
 20
427.354828
 11
229.324417
 21
427.343719
  0
ARC
  8
0
  6
CONTINUOUS
 10
239.227631
 20
322.354828
 40
6.500000
 50
-231.240692
 51
50.284863
  0
LINE
  8
0
  6
CENTER
 10
249.103958
 20
322.354828
 11
230.166458
 21
322.354828
  0
ARC
  8
0
  6
CONTINUOUS
 10
251.468826
 20
325.354828
 40
5.000000
 50
196.389542
 51
270.000000
  0
LINE
  8
0
  6
CONTINUOUS
 10
246.671997
 20
323.944000
 11
245.668808
 21
327.354828
  0
LINE
  8
0
  6
CONTINUOUS
 10
231.181488
 20
330.962189
 11
230.373779
 21
333.747437
  0
LINE
  8
0
  6
CONTINUOUS
 10
235.983643
 20
327.354828
 11
245.668808
 21
327.354828
  0
ARC
  8
0
  6
CONTINUOUS
 10
235.983643
 20
332.354828
 40
5.000000
 50
-163.827835
 51
-90.000000
  0
ARC
  8
0
  6
CONTINUOUS
 10
225.571625
 20
332.354828
 40
5.000000
 50
16.172159
 51
90.000000
  0
LINE
  8
0
  6
CONTINUOUS
 10
229.327637
 20
337.354828
 11
229.324417
 21
337.365906
  0
LINE
  8
0
  6
CENTER
 10
239.227631
 20
331.507172
 11
239.227631
 21
312.007172
  0
LINE
  8
0
  6
CONTINUOUS
 10
326.783264
 20
323.944000
 11
327.786469
 21
327.354828
  0
ARC
  8
0
  6
CONTINUOUS
 10
321.986450
 20
325.354828
 40
5.000000
 50
-90.000000
 51
-16.389540
  0
LINE
  8
0
  6
CONTINUOUS
 10
342.273773
 20
330.962189
 11
343.081482
 21
333.747437
  0
LINE
  8
0
  6
CONTINUOUS
 10
337.471619
 20
327.354828
 11
327.786469
 21
327.354828
  0
LINE
  8
0
  6
CENTER
 10
324.351318
 20
322.354828
 11
343.288818
 21
322.354828
  0
LINE
  8
0
  6
CENTER
 10
334.227631
 20
331.507172
 11
334.227631
 21
312.007172
  0
ARC
  8
0
  6
CONTINUOUS
 10
334.227631
 20
322.354828
 40
6.500000
 50
-230.284866
 51
51.240688
  0
ARC
  8
0
  6
CONTINUOUS
 10
337.471619
 20
332.354828
 40
5.000000
 50
-90.000000
 51
-16.172159
  0
ARC
  8
0
  6
CONTINUOUS
 10
347.883636
 20
332.354828
 40
5.000000
 50
-270.000000
 51
-196.172165
  0
LINE
  8
0
  6
CONTINUOUS
 10
344.127625
 20
337.354828
 11
344.130859
 21
337.365906
  0
LINE
  8
0
  6
CONTINUOUS
 10
198.727631
 20
446.354767
 11
198.727631
 21
318.354889
  0
LINE
  8
0
  6
CONTINUOUS
 10
157.227570
 20
327.999847
 11
157.227631
 21
436.722870
  0
LINE
  8
0
  6
CONTINUOUS
 10
188.175812
 20
318.631104
 11
198.727631
 21
318.354828
  0
LINE
  8
0
  6
CONTINUOUS
 10
154.305878
 20
325.000885
 11
148.727631
 21
324.854828
  0
ARC
  8
0
  6
CONTINUOUS
 10
154.227386
 20
327.999847
 40
3.000000
 50
-88.499977
 51
0.000000
  0
LINE
  8
0
  6
CONTINUOUS
 10
188.175583
 20
446.078552
 11
198.727631
 21
446.354828
  0
ARC
  8
0
  6
CONTINUOUS
 10
188.228119
 20
320.630005
 40
2.000000
 50
180.000000
 51
268.500092
  0
LINE
  8
0
  6
CONTINUOUS
 10
186.227875
 20
443.772186
 11
186.227875
 21
444.079620
  0
ARC
  8
0
  6
CONTINUOUS
 10
188.227921
 20
444.079620
 40
2.000000
 50
91.499924
 51
180.000000
  0
LINE
  8
0
  6
CONTINUOUS
 10
186.227875
 20
440.836792
 11
186.227875
 21
444.079620
  0
LINE
  8
0
  6
CONTINUOUS
 10
198.727631
 20
446.354828
 11
198.727631
 21
318.354828
  0
ARC
  8
0
  6
CONTINUOUS
 10
154.227386
 20
436.709808
 40
3.000000
 50
0.000000
 51
88.499977
  0
LINE
  8
0
  6
CONTINUOUS
 10
154.305878
 20
439.708771
 11
148.727631
 21
439.854828
  0
LINE
  8
0
  6
CONTINUOUS
 10
148.727631
 20
439.854828
 11
186.227875
 21
440.836792
  0
LINE
  8
0
  6
CONTINUOUS
 10
148.727631
 20
324.854828
 11
186.227875
 21
323.872833
  0
LINE
  8
0
  6
CONTINUOUS
 10
186.227875
 20
323.872833
 11
186.227875
 21
320.630005
  0
LINE
  8
0
  6
CONTINUOUS
 10
159.320053
 20
422.924805
 11
190.587448
 21
422.924805
  0
LINE
  8
0
  6
CONTINUOUS
 10
159.320053
 20
431.824829
 11
190.587448
 21
431.824829
  0
LINE
  8
0
  6
CONTINUOUS
 10
192.727631
 20
430.324829
 11
192.727631
 21
424.424805
  0
LINE
  8
0
  6
CONTINUOUS
 10
159.320053
 20
341.784821
 11
190.587448
 21
341.784821
  0
LINE
  8
0
  6
CONTINUOUS
 10
159.320053
 20
332.884827
 11
190.587448
 21
332.884827
  0
LINE
  8
0
  6
CONTINUOUS
 10
192.727631
 20
334.384827
 11
192.727631
 21
340.284821
  0
LINE
  8
0
  6
CONTINUOUS
 10
148.727631
 20
439.854889
 11
148.727753
 21
324.854828
  0
LINE
  8
0
  6
CONTINUOUS
 10
43.727795
 20
439.854828
 11
148.727753
 21
439.854828
  0
LINE
  8
0
  6
CONTINUOUS
 10
43.727795
 20
324.854828
 11
51.727795
 21
324.854828
  0
LINE
  8
0
  6
CONTINUOUS
 10
43.727795
 20
440.354828
 11
43.727795
 21
324.354828
  0
LINE
  8
0
  6
CONTINUOUS
 10
51.727795
 20
439.854828
 11
51.727795
 21
408.354706
  0
LINE
  8
0
  6
CONTINUOUS
 10
51.727795
 20
408.354706
 11
140.727814
 21
408.354706
  0
LINE
  8
0
  6
CONTINUOUS
 10
51.727795
 20
416.125366
 11
140.727814
 21
416.125366
  0
LINE
  8
0
  6
CONTINUOUS
 10
52.727795
 20
419.404785
 11
139.727814
 21
419.404785
  0
LINE
  8
0
  6
CONTINUOUS
 10
51.727795
 20
424.219849
 11
140.727814
 21
424.219849
  0
LINE
  8
0
  6
CONTINUOUS
 10
52.727795
 20
426.207703
 11
139.727814
 21
426.207703
  0
LINE
  8
0
  6
CONTINUOUS
 10
51.727795
 20
430.250427
 11
140.727814
 21
430.250427
  0
LINE
  8
0
  6
CONTINUOUS
 10
51.727795
 20
434.781342
 11
140.727814
 21
434.781342
  0
LINE
  8
0
  6
CONTINUOUS
 10
51.727795
 20
437.658447
 11
140.727814
 21
437.658447
  0
LINE
  8
0
  6
CONTINUOUS
 10
51.727795
 20
439.313782
 11
140.727814
 21
439.313782
  0
LINE
  8
0
  6
CONTINUOUS
 10
140.727814
 20
439.854828
 11
140.727814
 21
408.354706
  0
LINE
  8
0
  6
CONTINUOUS
 10
51.727795
 20
324.854828
 11
51.727795
 21
356.354950
  0
LINE
  8
0
  6
CONTINUOUS
 10
51.727795
 20
356.354950
 11
140.727814
 21
356.354950
  0
LINE
  8
0
  6
CONTINUOUS
 10
51.727795
 20
348.584320
 11
140.727814
 21
348.584320
  0
LINE
  8
0
  6
CONTINUOUS
 10
52.727795
 20
345.304871
 11
139.727814
 21
345.304871
  0
LINE
  8
0
  6
CONTINUOUS
 10
51.727795
 20
340.489807
 11
140.727814
 21
340.489807
  0
LINE
  8
0
  6
CONTINUOUS
 10
52.727795
 20
338.501923
 11
139.727814
 21
338.501923
  0
LINE
  8
0
  6
CONTINUOUS
 10
51.727795
 20
334.459259
 11
140.727814
 21
334.459259
  0
LINE
  8
0
  6
CONTINUOUS
 10
118.727753
 20
329.928345
 11
140.727814
 21
329.928345
  0
LINE
  8
0
  6
CONTINUOUS
 10
118.727753
 20
327.051208
 11
140.727814
 21
327.051208
  0
LINE
  8
0
  6
CONTINUOUS
 10
119.227753
 20
325.395844
 11
140.727814
 21
325.395844
  0
LINE
  8
0
  6
CONTINUOUS
 10
140.727814
 20
324.854828
 11
140.727814
 21
356.354950
  0
LINE
  8
0
  6
CONTINUOUS
 10
52.727795
 20
326.354828
 11
117.727814
 21
326.354828
  0
LINE
  8
0
  6
CONTINUOUS
 10
119.227753
 20
324.854828
 11
148.727753
 21
324.854828
  0
LINE
  8
0
  6
CONTINUOUS
 10
118.727753
 20
325.354858
 11
118.727753
 21
331.553467
  0
ARC
  8
0
  6
CONTINUOUS
 10
119.227753
 20
325.354858
 40
0.500000
 50
-180.000000
 51
-90.000000
  0
ARC
  8
0
  6
CONTINUOUS
 10
119.227753
 20
325.895905
 40
0.500000
 50
-180.000000
 51
-90.000000
  0
LINE
  8
0
  6
CONTINUOUS
 10
51.727795
 20
331.553467
 11
118.727753
 21
331.553467
  0
ARC
  8
0
  6
CONTINUOUS
 10
117.727814
 20
327.354828
 40
1.000000
 50
-90.000000
 51
0.000000
  0
ARC
  8
0
  6
CONTINUOUS
 10
52.727795
 20
327.354828
 40
1.000000
 50
-180.000000
 51
-90.000000
  0
LINE
  8
0
  6
CONTINUOUS
 10
45.790138
 20
311.932983
 11
44.727695
 21
271.854828
  0
LINE
  8
0
  6
CONTINUOUS
 10
113.664742
 20
311.932983
 11
114.727692
 21
271.854828
  0
LINE
  8
0
  6
CONTINUOUS
 10
103.753494
 20
324.854828
 11
55.701794
 21
324.854828
  0
LINE
  8
0
  6
CONTINUOUS
 10
110.678993
 20
314.854828
 11
93.038963
 21
314.854828
  0
ARC
  8
0
  6
CONTINUOUS
 10
48.775795
 20
311.854828
 40
3.000000
 50
90.000000
 51
178.500275
  0
ARC
  8
0
  6
CONTINUOUS
 10
110.678993
 20
311.854828
 40
3.000000
 50
1.499900
 51
90.000000
  0
LINE
  8
0
  6
CONTINUOUS
 10
54.702133
 20
323.880981
 11
54.516788
 21
316.802460
  0
LINE
  8
0
  6
CONTINUOUS
 10
104.753151
 20
323.880981
 11
104.938499
 21
316.802460
  0
ARC
  8
0
  6
CONTINUOUS
 10
103.753494
 20
323.854828
 40
1.000000
 50
1.499300
 51
90.000000
  0
ARC
  8
0
  6
CONTINUOUS
 10
55.701794
 20
323.854828
 40
1.000000
 50
90.000000
 51
178.499405
  0
LINE
  8
0
  6
CONTINUOUS
 10
48.775894
 20
314.854828
 11
66.416420
 21
314.854828
  0
ARC
  8
0
  6
CONTINUOUS
 10
79.727692
 20
382.354828
 40
68.800003
 50
-101.155815
 51
-78.844185
  0
LINE
  8
0
  6
CENTER
 10
79.727692
 20
328.680939
 11
79.727692
 21
252.908127
  0
LINE
  8
0
  6
CONTINUOUS
 10
47.227695
 20
265.854828
 11
112.227692
 21
265.854828
  0
LINE
  8
0
  6
CONTINUOUS
 10
114.727692
 20
268.354828
 11
114.727692
 21
270.854828
  0
LINE
  8
0
  6
CONTINUOUS
 10
44.727695
 20
268.354828
 11
44.727695
 21
270.854828
  0
LINE
  8
0
  6
CONTINUOUS
 10
114.727692
 20
270.854828
 11
44.727695
 21
270.854828
  0
LINE
  8
0
  6
CONTINUOUS
 10
114.727692
 20
271.854828
 11
44.727695
 21
271.854828
  0
LINE
  8
0
  6
CONTINUOUS
 10
114.727692
 20
270.854828
 11
114.727692
 21
271.854828
  0
LINE
  8
0
  6
CONTINUOUS
 10
44.727695
 20
270.854828
 11
44.727695
 21
271.854828
  0
LINE
  8
0
  6
CENTER
 10
49.727695
 20
287.854828
 11
12.808244
 21
287.854828
  0
LINE
  8
0
  6
CONTINUOUS
 10
106.214790
 20
268.854828
 11
113.727692
 21
268.854828
  0
LINE
  8
0
  6
CONTINUOUS
 10
53.240635
 20
268.854828
 11
45.727695
 21
268.854828
  0
LINE
  8
0
  6
CONTINUOUS
 10
105.714996
 20
268.367920
 11
105.674690
 21
266.828613
  0
ARC
  8
0
  6
CONTINUOUS
 10
106.214790
 20
268.354828
 40
0.500000
 50
90.000000
 51
178.500000
  0
ARC
  8
0
  6
CONTINUOUS
 10
104.674995
 20
266.854828
 40
1.000000
 50
-90.000000
 51
-1.499802
  0
ARC
  8
0
  6
CONTINUOUS
 10
113.727692
 20
269.854828
 40
1.000000
 50
-90.000000
 51
0.000000
  0
ARC
  8
0
  6
CONTINUOUS
 10
112.227692
 20
268.354828
 40
2.500000
 50
-90.000000
 51
0.000000
  0
LINE
  8
0
  6
CONTINUOUS
 10
53.740513
 20
268.367920
 11
53.780792
 21
266.828613
  0
ARC
  8
0
  6
CONTINUOUS
 10
54.780422
 20
266.854828
 40
1.000000
 50
-178.499603
 51
-90.000000
  0
ARC
  8
0
  6
CONTINUOUS
 10
53.240635
 20
268.354828
 40
0.500000
 50
1.500198
 51
90.000000
  0
ARC
  8
0
  6
CONTINUOUS
 10
45.727695
 20
269.854828
 40
1.000000
 50
-180.000000
 51
-90.000000
  0
ARC
  8
0
  6
CONTINUOUS
 10
47.227695
 20
268.354828
 40
2.500000
 50
-180.000000
 51
-90.000000
  0
ARC
  8
0
  6
CONTINUOUS
 10
109.727692
 20
268.854828
 40
3.000000
 50
-180.000000
 51
0.000000
  0
LINE
  8
0
  6
CONTINUOUS
 10
112.685692
 20
268.354828
 11
106.769691
 21
268.354828
  0
LINE
  8
0
  6
CONTINUOUS
 10
109.727692
 20
266.354828
 11
109.446594
 21
265.868011
  0
LINE
  8
0
  6
CONTINUOUS
 10
109.727692
 20
266.354828
 11
110.008797
 21
265.868011
  0
ARC
  8
0
  6
CONTINUOUS
 10
49.727695
 20
268.854828
 40
3.000000
 50
-180.000000
 51
0.000000
  0
LINE
  8
0
  6
CONTINUOUS
 10
52.685703
 20
268.354828
 11
46.769684
 21
268.354828
  0
LINE
  8
0
  6
CONTINUOUS
 10
49.727695
 20
266.354828
 11
49.446625
 21
265.868011
  0
LINE
  8
0
  6
CONTINUOUS
 10
49.727695
 20
266.354828
 11
50.008823
 21
265.868011
  0
LINE
  8
0
  6
CONTINUOUS
 10
102.727692
 20
324.854828
 11
102.727692
 21
326.354828
  0
LINE
  8
0
  6
CONTINUOUS
 10
56.727695
 20
324.854828
 11
56.727695
 21
326.354828
  0
LINE
  8
0
  6
CONTINUOUS
 10
16.727743
 20
302.354980
 11
16.727743
 21
273.354858
  0
LINE
  8
0
  6
CONTINUOUS
 10
24.727743
 20
302.354980
 11
24.727743
 21
273.354858
  0
LINE
  8
0
  6
CONTINUOUS
 10
16.727743
 20
302.354980
 11
24.727743
 21
302.354980
  0
LINE
  8
0
  6
CONTINUOUS
 10
16.727743
 20
273.354858
 11
24.727743
 21
273.354858
  0
LINE
  8
0
  6
CONTINUOUS
 10
33.727745
 20
300.854980
 11
33.727745
 21
274.854858
  0
LINE
  8
0
  6
CONTINUOUS
 10
24.727743
 20
300.854980
 11
33.727745
 21
300.854980
  0
LINE
  8
0
  6
CONTINUOUS
 10
24.727743
 20
274.854858
 11
33.727745
 21
274.854858
  0
LINE
  8
0
  6
CONTINUOUS
 10
33.727745
 20
299.354980
 11
38.727745
 21
299.354980
  0
LINE
  8
0
  6
CONTINUOUS
 10
33.727745
 20
276.354858
 11
38.727745
 21
276.354858
  0
LINE
  8
0
  6
CONTINUOUS
 10
38.727745
 20
301.354980
 11
38.727745
 21
274.354858
  0
LINE
  8
0
  6
CONTINUOUS
 10
43.227745
 20
302.354980
 11
43.227745
 21
273.354858
  0
LINE
  8
0
  6
CONTINUOUS
 10
38.727745
 20
301.354980
 11
43.227745
 21
301.354980
  0
LINE
  8
0
  6
CONTINUOUS
 10
38.727745
 20
274.354858
 11
43.227745
 21
274.354858
  0
LINE
  8
0
  6
CONTINUOUS
 10
43.227745
 20
302.354980
 11
45.536236
 21
302.354980
  0
LINE
  8
0
  6
CONTINUOUS
 10
43.227745
 20
273.354858
 11
44.767460
 21
273.354858
  0
LINE
  8
0
  6
CONTINUOUS
 10
16.727743
 20
295.854980
 11
24.727743
 21
295.854980
  0
LINE
  8
0
  6
CONTINUOUS
 10
16.727743
 20
279.854858
 11
24.727743
 21
279.854858
  0
ARC
  8
0
  6
CONTINUOUS
 10
52.517471
 20
316.854828
 40
2.000000
 50
-90.000000
 51
-1.499917
  0
ARC
  8
0
  6
CONTINUOUS
 10
106.937820
 20
316.854828
 40
2.000000
 50
-178.500046
 51
-90.000000
  0
LINE
  8
0
  6
CONTINUOUS
 10
148.727737
 20
180.357422
 11
148.727737
 21
65.357430
  0
LINE
  8
0
  6
CONTINUOUS
 10
148.727737
 20
180.357422
 11
148.727737
 21
65.357430
  0
LINE
  8
0
  6
CONTINUOUS
 10
148.727737
 20
180.357315
 11
148.727737
 21
65.357307
  0
LINE
  8
0
  6
CONTINUOUS
 10
43.727734
 20
180.857269
 11
43.727734
 21
137.357376
  0
LINE
  8
0
  6
CONTINUOUS
 10
43.727734
 20
180.357422
 11
148.727737
 21
180.357422
  0
LINE
  8
0
  6
CONTINUOUS
 10
48.727730
 20
65.357430
 11
65.227783
 21
65.357430
  0
LINE
  8
0
  6
CONTINUOUS
 10
51.727734
 20
174.143433
 11
51.727734
 21
169.857422
  0
LINE
  8
0
  6
CONTINUOUS
 10
140.727737
 20
174.143433
 11
140.727737
 21
169.857422
  0
LINE
  8
0
  6
CONTINUOUS
 10
116.727737
 20
149.857422
 11
114.727783
 21
149.857422
  0
LINE
  8
0
  6
CONTINUOUS
 10
116.727737
 20
95.857430
 11
114.727783
 21
95.857430
  0
LINE
  8
0
  6
CONTINUOUS
 10
118.727737
 20
97.857430
 11
118.727737
 21
147.857422
  0
LINE
  8
0
  6
CONTINUOUS
 10
118.727737
 20
129.657425
 11
140.727737
 21
129.657425
  0
LINE
  8
0
  6
CONTINUOUS
 10
118.727737
 20
116.057426
 11
140.727737
 21
116.057426
  0
LINE
  8
0
  6
CONTINUOUS
 10
118.727737
 20
131.657425
 11
140.727737
 21
131.657425
  0
LINE
  8
0
  6
CONTINUOUS
 10
118.727737
 20
114.057426
 11
140.727737
 21
114.057426
  0
LINE
  8
0
  6
CONTINUOUS
 10
118.727737
 20
137.457428
 11
140.727737
 21
137.457428
  0
LINE
  8
0
  6
CONTINUOUS
 10
118.727737
 20
139.457428
 11
140.727737
 21
139.457428
  0
LINE
  8
0
  6
CONTINUOUS
 10
118.727737
 20
108.257431
 11
140.727737
 21
108.257431
  0
LINE
  8
0
  6
CONTINUOUS
 10
118.727737
 20
106.257431
 11
140.727737
 21
106.257431
  0
LINE
  8
0
  6
CONTINUOUS
 10
118.727737
 20
145.257431
 11
140.727737
 21
145.257431
  0
LINE
  8
0
  6
CONTINUOUS
 10
118.727737
 20
100.457428
 11
140.727737
 21
100.457428
  0
LINE
  8
0
  6
CONTINUOUS
 10
118.727737
 20
147.257431
 11
140.727737
 21
147.257431
  0
LINE
  8
0
  6
CONTINUOUS
 10
118.727737
 20
98.457428
 11
140.727737
 21
98.457428
  0
LINE
  8
0
  6
CONTINUOUS
 10
51.727734
 20
160.857422
 11
140.727737
 21
160.857422
  0
LINE
  8
0
  6
CONTINUOUS
 10
51.727734
 20
84.857430
 11
93.227882
 21
84.857430
  0
LINE
  8
0
  6
CONTINUOUS
 10
51.727734
 20
162.857422
 11
140.727737
 21
162.857422
  0
LINE
  8
0
  6
CONTINUOUS
 10
51.727734
 20
82.857430
 11
66.227783
 21
82.857430
  0
LINE
  8
0
  6
CONTINUOUS
 10
51.727734
 20
167.857422
 11
140.727737
 21
167.857422
  0
LINE
  8
0
  6
CONTINUOUS
 10
51.727734
 20
77.857430
 11
91.227882
 21
77.857430
  0
LINE
  8
0
  6
CONTINUOUS
 10
51.727734
 20
169.857422
 11
140.727737
 21
169.857422
  0
LINE
  8
0
  6
CONTINUOUS
 10
51.727734
 20
75.857430
 11
66.727783
 21
75.857430
  0
LINE
  8
0
  6
CONTINUOUS
 10
51.727734
 20
174.143433
 11
140.727737
 21
174.143433
  0
LINE
  8
0
  6
CONTINUOUS
 10
51.727734
 20
71.571426
 11
92.727882
 21
71.571426
  0
LINE
  8
0
  6
CONTINUOUS
 10
51.727734
 20
71.571426
 11
51.727734
 21
75.857430
  0
LINE
  8
0
  6
CONTINUOUS
 10
51.727734
 20
167.857422
 11
51.727734
 21
162.857422
  0
LINE
  8
0
  6
CONTINUOUS
 10
51.727734
 20
160.857422
 11
51.727734
 21
157.857422
  0
LINE
  8
0
  6
CONTINUOUS
 10
51.727734
 20
87.857430
 11
51.727734
 21
84.857430
  0
LINE
  8
0
  6
CONTINUOUS
 10
51.727734
 20
82.857430
 11
51.727734
 21
77.857430
  0
LINE
  8
0
  6
CONTINUOUS
 10
140.727737
 20
71.571426
 11
140.727737
 21
75.857430
  0
LINE
  8
0
  6
CONTINUOUS
 10
140.727737
 20
77.857430
 11
140.727737
 21
82.857430
  0
LINE
  8
0
  6
CONTINUOUS
 10
140.727737
 20
84.857430
 11
140.727737
 21
90.357430
  0
LINE
  8
0
  6
CONTINUOUS
 10
140.727737
 20
92.357430
 11
140.727737
 21
98.457428
  0
LINE
  8
0
  6
CONTINUOUS
 10
140.727737
 20
100.457428
 11
140.727737
 21
106.257416
  0
LINE
  8
0
  6
CONTINUOUS
 10
140.727737
 20
108.257423
 11
140.727737
 21
114.057434
  0
LINE
  8
0
  6
CONTINUOUS
 10
118.727737
 20
123.857430
 11
140.727737
 21
123.857430
  0
LINE
  8
0
  6
CONTINUOUS
 10
118.727737
 20
121.857430
 11
140.727737
 21
121.857430
  0
LINE
  8
0
  6
CONTINUOUS
 10
140.727737
 20
116.057434
 11
140.727737
 21
121.857430
  0
LINE
  8
0
  6
CONTINUOUS
 10
140.727737
 20
123.857430
 11
140.727737
 21
129.657425
  0
LINE
  8
0
  6
CONTINUOUS
 10
140.727737
 20
131.657425
 11
140.727737
 21
137.457428
  0
LINE
  8
0
  6
CONTINUOUS
 10
140.727737
 20
139.457428
 11
140.727737
 21
145.257431
  0
LINE
  8
0
  6
CONTINUOUS
 10
140.727737
 20
147.257431
 11
140.727737
 21
153.357422
  0
LINE
  8
0
  6
CONTINUOUS
 10
140.727737
 20
155.357422
 11
140.727737
 21
160.857422
  0
LINE
  8
0
  6
CONTINUOUS
 10
140.727737
 20
162.857422
 11
140.727737
 21
167.857422
  0
ARC
  8
0
  6
CONTINUOUS
 10
116.727737
 20
147.857422
 40
2.000000
 50
0.000000
 51
90.000000
  0
ARC
  8
0
  6
CONTINUOUS
 10
116.727737
 20
97.857430
 40
2.000000
 50
-90.000000
 51
0.000000
  0
LINE
  8
0
  6
CONTINUOUS
 10
140.727737
 20
92.357430
 11
114.727783
 21
92.357430
  0
LINE
  8
0
  6
CONTINUOUS
 10
140.727737
 20
90.357430
 11
114.727783
 21
90.357430
  0
LINE
  8
0
  6
CONTINUOUS
 10
140.727737
 20
84.857430
 11
93.227882
 21
84.857430
  0
LINE
  8
0
  6
CONTINUOUS
 10
140.727737
 20
82.857430
 11
66.227783
 21
82.857430
  0
LINE
  8
0
  6
CONTINUOUS
 10
140.727737
 20
77.857430
 11
91.227882
 21
77.857430
  0
LINE
  8
0
  6
CONTINUOUS
 10
140.727737
 20
75.857430
 11
66.727783
 21
75.857430
  0
LINE
  8
0
  6
CONTINUOUS
 10
140.727737
 20
71.571426
 11
92.727882
 21
71.571426
  0
LINE
  8
0
  6
CONTINUOUS
 10
148.727737
 20
65.357430
 11
65.227783
 21
65.357430
  0
LINE
  8
0
  6
CONTINUOUS
 10
47.227745
 20
157.857422
 11
112.227684
 21
157.857422
  0
LINE
  8
0
  6
CONTINUOUS
 10
112.227783
 20
87.857430
 11
47.227734
 21
87.857430
  0
LINE
  8
0
  6
CONTINUOUS
 10
44.727734
 20
115.130829
 11
44.727734
 21
155.357422
  0
LINE
  8
0
  6
CONTINUOUS
 10
114.727783
 20
115.130829
 11
114.727783
 21
155.357422
  0
ARC
  8
0
  6
CONTINUOUS
 10
112.227783
 20
155.357422
 40
2.500000
 50
0.000000
 51
90.000000
  0
ARC
  8
0
  6
CONTINUOUS
 10
47.227764
 20
155.357422
 40
2.500000
 50
90.000000
 51
180.000000
  0
ARC
  8
0
  6
CONTINUOUS
 10
47.227745
 20
90.357430
 40
2.500000
 50
180.000000
 51
270.000000
  0
ARC
  8
0
  6
CONTINUOUS
 10
112.227783
 20
90.357414
 40
2.500000
 50
-90.000000
 51
0.000000
  0
ARC
  8
0
  6
CONTINUOUS
 10
49.727745
 20
152.857422
 40
4.000000
 50
-90.000000
 51
0.000000
  0
ARC
  8
0
  6
CONTINUOUS
 10
109.727783
 20
152.857422
 40
4.000000
 50
180.000000
 51
270.000000
  0
ARC
  8
0
  6
CONTINUOUS
 10
109.727783
 20
92.857430
 40
4.000000
 50
90.000000
 51
180.000000
  0
ARC
  8
0
  6
CONTINUOUS
 10
49.727745
 20
92.857430
 40
4.000000
 50
0.000000
 51
90.000000
  0
LINE
  8
0
  6
CONTINUOUS
 10
109.727783
 20
148.857422
 11
112.227783
 21
148.857422
  0
LINE
  8
0
  6
CONTINUOUS
 10
49.727734
 20
148.857422
 11
47.227734
 21
148.857422
  0
LINE
  8
0
  6
CONTINUOUS
 10
49.727734
 20
96.857430
 11
47.227764
 21
96.857430
  0
LINE
  8
0
  6
CONTINUOUS
 10
109.727783
 20
96.857430
 11
112.227783
 21
96.857430
  0
LINE
  8
0
  6
CONTINUOUS
 10
105.727783
 20
152.857422
 11
105.727783
 21
155.357422
  0
LINE
  8
0
  6
CONTINUOUS
 10
53.727745
 20
152.857422
 11
53.727745
 21
155.357422
  0
LINE
  8
0
  6
CONTINUOUS
 10
53.727745
 20
92.857430
 11
53.727745
 21
90.357414
  0
LINE
  8
0
  6
CONTINUOUS
 10
105.727783
 20
92.857407
 11
105.727783
 21
90.357414
  0
ARC
  8
0
  6
CONTINUOUS
 10
47.227745
 20
146.357422
 40
2.500000
 50
90.000000
 51
180.000000
  0
ARC
  8
0
  6
CONTINUOUS
 10
56.227764
 20
155.357422
 40
2.500000
 50
90.000000
 51
180.000000
  0
ARC
  8
0
  6
CONTINUOUS
 10
103.227783
 20
155.357422
 40
2.500000
 50
0.000000
 51
90.000000
  0
ARC
  8
0
  6
CONTINUOUS
 10
112.227783
 20
146.357422
 40
2.500000
 50
0.000000
 51
90.000000
  0
ARC
  8
0
  6
CONTINUOUS
 10
47.227745
 20
99.357430
 40
2.500000
 50
180.000000
 51
270.000000
  0
ARC
  8
0
  6
CONTINUOUS
 10
56.227745
 20
90.357430
 40
2.500000
 50
180.000000
 51
270.000000
  0
ARC
  8
0
  6
CONTINUOUS
 10
112.227783
 20
99.357414
 40
2.500000
 50
-90.000000
 51
0.000000
  0
ARC
  8
0
  6
CONTINUOUS
 10
103.227783
 20
90.357414
 40
2.500000
 50
-90.000000
 51
0.000000
  0
LINE
  8
0
  6
CONTINUOUS
 10
114.727783
 20
90.357430
 11
114.727783
 21
115.130829
  0
LINE
  8
0
  6
CONTINUOUS
 10
44.727745
 20
90.357430
 11
44.727734
 21
115.130829
  0
LINE
  8
0
  6
CONTINUOUS
 10
16.727785
 20
108.357277
 11
16.727785
 21
137.357376
  0
LINE
  8
0
  6
CONTINUOUS
 10
24.727785
 20
108.357277
 11
24.727785
 21
137.357376
  0
LINE
  8
0
  6
CONTINUOUS
 10
16.727785
 20
108.357277
 11
24.727785
 21
108.357277
  0
LINE
  8
0
  6
CONTINUOUS
 10
16.727785
 20
137.357376
 11
24.727785
 21
137.357376
  0
LINE
  8
0
  6
CONTINUOUS
 10
33.727783
 20
109.857277
 11
33.727783
 21
135.857376
  0
LINE
  8
0
  6
CONTINUOUS
 10
24.727785
 20
109.857277
 11
33.727783
 21
109.857277
  0
LINE
  8
0
  6
CONTINUOUS
 10
24.727785
 20
135.857376
 11
33.727783
 21
135.857376
  0
LINE
  8
0
  6
CONTINUOUS
 10
33.727783
 20
111.357277
 11
38.727783
 21
111.357277
  0
LINE
  8
0
  6
CONTINUOUS
 10
33.727783
 20
134.357376
 11
38.727783
 21
134.357376
  0
LINE
  8
0
  6
CONTINUOUS
 10
38.727783
 20
109.357277
 11
38.727783
 21
136.357376
  0
LINE
  8
0
  6
CONTINUOUS
 10
43.227783
 20
108.357277
 11
43.227783
 21
137.357376
  0
LINE
  8
0
  6
CONTINUOUS
 10
38.727783
 20
109.357277
 11
43.227783
 21
109.357277
  0
LINE
  8
0
  6
CONTINUOUS
 10
38.727783
 20
136.357376
 11
43.227783
 21
136.357376
  0
LINE
  8
0
  6
CONTINUOUS
 10
43.227783
 20
108.357277
 11
44.767086
 21
108.357277
  0
LINE
  8
0
  6
CONTINUOUS
 10
43.227783
 20
137.357376
 11
44.727734
 21
137.357376
  0
LINE
  8
0
  6
CONTINUOUS
 10
16.727785
 20
114.857277
 11
24.727785
 21
114.857277
  0
LINE
  8
0
  6
CONTINUOUS
 10
16.727785
 20
130.857376
 11
24.727785
 21
130.857376
  0
LINE
  8
0
  6
CENTER
 10
79.727737
 20
78.482430
 11
79.727737
 21
169.334824
  0
LINE
  8
0
  6
CONTINUOUS
 10
114.727783
 20
153.357422
 11
140.727737
 21
153.357422
  0
LINE
  8
0
  6
CONTINUOUS
 10
114.727783
 20
155.357422
 11
140.727737
 21
155.357422
  0
LINE
  8
0
  6
CONTINUOUS
 10
43.727734
 20
108.357277
 11
43.727734
 21
73.231911
  0
LINE
  8
0
  6
CONTINUOUS
 10
468.067749
 20
87.857315
 11
468.067749
 21
124.357216
  0
LINE
  8
0
  6
CONTINUOUS
 10
468.067749
 20
157.857315
 11
468.067749
 21
156.357224
  0
LINE
  8
0
  6
CONTINUOUS
 10
508.145905
 20
88.919762
 11
468.067749
 21
87.857315
  0
LINE
  8
0
  6
CONTINUOUS
 10
508.145905
 20
156.794373
 11
468.067749
 21
157.857315
  0
ARC
  8
0
  6
CONTINUOUS
 10
508.067749
 20
91.905418
 40
3.000000
 50
-88.500267
 51
0.000000
  0
ARC
  8
0
  6
CONTINUOUS
 10
508.067749
 20
153.808624
 40
3.000000
 50
58.160950
 51
88.500099
  0
LINE
  8
0
  6
CONTINUOUS
 10
514.610168
 20
97.688171
 11
513.015381
 21
97.646408
  0
LINE
  8
0
  6
CONTINUOUS
 10
511.067749
 20
91.905518
 11
511.067749
 21
109.546043
  0
ARC
  8
0
  6
CONTINUOUS
 10
578.567749
 20
122.857315
 40
68.800003
 50
178.750809
 51
191.155807
  0
LINE
  8
0
  6
CONTINUOUS
 10
462.067749
 20
90.357315
 11
462.067749
 21
124.357216
  0
LINE
  8
0
  6
CONTINUOUS
 10
464.567749
 20
157.857315
 11
467.067749
 21
157.857315
  0
LINE
  8
0
  6
CONTINUOUS
 10
464.567749
 20
87.857315
 11
467.067749
 21
87.857315
  0
LINE
  8
0
  6
CONTINUOUS
 10
467.067749
 20
157.857315
 11
467.067749
 21
156.357224
  0
LINE
  8
0
  6
CONTINUOUS
 10
467.067749
 20
157.857315
 11
468.067749
 21
157.857315
  0
LINE
  8
0
  6
CONTINUOUS
 10
467.067749
 20
87.857315
 11
468.067749
 21
87.857315
  0
LINE
  8
0
  6
CENTER
 10
484.067749
 20
165.314316
 11
484.067749
 21
69.482315
  0
LINE
  8
0
  6
CONTINUOUS
 10
465.067749
 20
96.370255
 11
465.067749
 21
88.857315
  0
ARC
  8
0
  6
CONTINUOUS
 10
466.067749
 20
156.857315
 40
1.000000
 50
90.000000
 51
180.000000
  0
ARC
  8
0
  6
CONTINUOUS
 10
464.567749
 20
155.357315
 40
2.500000
 50
90.000000
 51
156.424316
  0
LINE
  8
0
  6
CONTINUOUS
 10
464.580841
 20
96.870140
 11
463.041534
 21
96.910416
  0
ARC
  8
0
  6
CONTINUOUS
 10
463.067749
 20
97.910049
 40
1.000000
 50
180.000000
 51
268.499603
  0
ARC
  8
0
  6
CONTINUOUS
 10
464.567749
 20
96.370255
 40
0.500000
 50
0.000000
 51
88.499802
  0
ARC
  8
0
  6
CONTINUOUS
 10
466.067749
 20
88.857315
 40
1.000000
 50
180.000000
 51
270.000000
  0
ARC
  8
0
  6
CONTINUOUS
 10
464.567749
 20
90.357315
 40
2.500000
 50
180.000000
 51
270.000000
  0
ARC
  8
0
  6
CONTINUOUS
 10
465.067749
 20
92.857315
 40
3.000000
 50
90.000000
 51
270.000000
  0
LINE
  8
0
  6
CONTINUOUS
 10
464.567749
 20
95.815331
 11
464.567749
 21
89.899307
  0
LINE
  8
0
  6
CONTINUOUS
 10
462.567749
 20
92.857315
 11
462.080933
 21
92.576248
  0
LINE
  8
0
  6
CONTINUOUS
 10
462.567749
 20
92.857315
 11
462.080933
 21
93.138443
  0
ARC
  8
0
  6
CONTINUOUS
 10
513.067749
 20
95.647095
 40
2.000000
 50
91.499916
 51
180.000000
  0
LINE
  8
0
  6
CENTER
 10
654.873413
 20
122.857315
 11
447.608643
 21
122.857315
  0
LINE
  8
0
  6
CONTINUOUS
 10
467.067749
 20
124.357216
 11
467.067749
 21
87.857315
  0
LINE
  8
0
  6
CONTINUOUS
 10
465.067749
 20
156.357224
 11
465.067749
 21
156.857315
  0
ARC
  8
0
  6
CONTINUOUS
 10
332.227783
 20
382.357574
 40
340.000000
 50
170.966705
 51
180.000000
  0
ARC
  8
0
  6
CONTINUOUS
 10
8.295995
 20
433.857361
 40
12.000000
 50
90.000000
 51
170.966904
  0
LINE
  8
0
  6
CONTINUOUS
 10
37.214706
 20
449.841614
 11
18.482210
 21
449.678131
  0
LINE
  8
0
  6
CONTINUOUS
 10
8.295795
 20
445.850952
 11
16.490995
 21
445.850952
  0
LINE
  8
0
  6
CONTINUOUS
 10
38.727795
 20
448.341675
 11
38.727795
 21
382.354828
  0
ARC
  8
0
  6
CONTINUOUS
 10
335.227783
 20
382.354370
 40
325.000000
 50
168.259811
 51
179.999924
  0
LINE
  8
0
  6
CONTINUOUS
 10
38.727795
 20
440.354828
 11
43.727795
 21
440.354828
  0
LINE
  8
0
  6
CONTINUOUS
 10
38.727795
 20
324.354828
 11
43.727795
 21
324.354828
  0
LINE
  8
0
  6
CONTINUOUS
 10
39.227795
 20
375.854828
 11
39.227795
 21
388.854828
  0
LINE
  8
0
  6
CONTINUOUS
 10
38.727795
 20
388.854828
 11
39.227795
 21
388.854828
  0
LINE
  8
0
  6
CONTINUOUS
 10
38.727795
 20
375.854828
 11
39.227795
 21
375.854828
  0
ARC
  8
0
  6
CONTINUOUS
 10
37.227795
 20
448.341675
 40
1.500000
 50
0.000000
 51
90.500000
  0
ARC
  8
0
  6
CONTINUOUS
 10
18.495300
 20
448.178192
 40
1.500000
 50
90.500000
 51
168.259811
  0
ARC
  8
0
  6
CONTINUOUS
 10
332.227783
 20
382.352081
 40
340.000000
 50
-180.000000
 51
-170.966705
  0
ARC
  8
0
  6
CONTINUOUS
 10
8.295995
 20
330.852264
 40
12.000000
 50
-170.966904
 51
-90.000000
  0
LINE
  8
0
  6
CONTINUOUS
 10
37.214706
 20
314.868011
 11
18.482210
 21
315.031494
  0
LINE
  8
0
  6
CONTINUOUS
 10
8.295795
 20
318.858673
 11
16.490995
 21
318.858673
  0
LINE
  8
0
  6
CONTINUOUS
 10
38.727795
 20
316.367950
 11
38.727795
 21
382.354828
  0
ARC
  8
0
  6
CONTINUOUS
 10
335.227783
 20
382.355255
 40
325.000000
 50
-179.999924
 51
-168.259811
  0
ARC
  8
0
  6
CONTINUOUS
 10
37.227795
 20
316.367950
 40
1.500000
 50
-90.500000
 51
0.000000
  0
ARC
  8
0
  6
CONTINUOUS
 10
18.495300
 20
316.531433
 40
1.500000
 50
-168.259811
 51
-90.500000
  0
ARC
  8
0
  6
CONTINUOUS
 10
40.727730
 20
65.815712
 40
8.000000
 50
0.000000
 51
90.000000
  0
ARC
  8
0
  6
CONTINUOUS
 10
40.727730
 20
65.815712
 40
5.000000
 50
0.000000
 51
90.000000
  0
ARC
  8
0
  6
CONTINUOUS
 10
40.727730
 20
65.815712
 40
2.000000
 50
0.000000
 51
90.000000
  0
LINE
  8
0
  6
CONTINUOUS
 10
40.727730
 20
67.815712
 11
38.727730
 21
67.815712
  0
LINE
  8
0
  6
CONTINUOUS
 10
42.727730
 20
65.815712
 11
42.727730
 21
57.101292
  0
LINE
  8
0
  6
CONTINUOUS
 10
45.727730
 20
65.815712
 11
45.727730
 21
55.843292
  0
LINE
  8
0
  6
CONTINUOUS
 10
48.727730
 20
65.815712
 11
48.727730
 21
58.688591
  0
LINE
  8
0
  6
CONTINUOUS
 10
40.727730
 20
70.815712
 11
38.727730
 21
70.815712
  0
LINE
  8
0
  6
CONTINUOUS
 10
42.727730
 20
57.101292
 11
45.727730
 21
55.843292
  0
LINE
  8
0
  6
CONTINUOUS
 10
45.727730
 20
57.555492
 11
48.727730
 21
58.688591
  0
LINE
  8
0
  6
CONTINUOUS
 10
44.227711
 20
56.472130
 11
44.227711
 21
51.170589
  0
LINE
  8
0
  6
CONTINUOUS
 10
47.227730
 20
58.121910
 11
47.227730
 21
52.941292
  0
LINE
  8
0
  6
CONTINUOUS
 10
47.427708
 20
58.197510
 11
47.427708
 21
52.941292
  0
LINE
  8
0
  6
CONTINUOUS
 10
47.027729
 20
58.046391
 11
47.027729
 21
52.941292
  0
LINE
  8
0
  6
CONTINUOUS
 10
47.627728
 20
58.273052
 11
47.627728
 21
52.941292
  0
LINE
  8
0
  6
CONTINUOUS
 10
46.827728
 20
57.970833
 11
46.827728
 21
52.941292
  0
LINE
  8
0
  6
CONTINUOUS
 10
47.827728
 20
58.348610
 11
47.827728
 21
52.941292
  0
LINE
  8
0
  6
CONTINUOUS
 10
46.627728
 20
57.895290
 11
46.627728
 21
52.941292
  0
LINE
  8
0
  6
CONTINUOUS
 10
48.027729
 20
58.424171
 11
48.027729
 21
52.941292
  0
LINE
  8
0
  6
CONTINUOUS
 10
46.427708
 20
57.819733
 11
46.427708
 21
52.941292
  0
LINE
  8
0
  6
CONTINUOUS
 10
48.227711
 20
58.499691
 11
48.227711
 21
52.941292
  0
LINE
  8
0
  6
CONTINUOUS
 10
46.227730
 20
57.744171
 11
46.227730
 21
52.941292
  0
LINE
  8
0
  6
CONTINUOUS
 10
48.427750
 20
58.575291
 11
48.427708
 21
52.941292
  0
LINE
  8
0
  6
CONTINUOUS
 10
46.027710
 20
57.668610
 11
46.027710
 21
52.941292
  0
LINE
  8
0
  6
CONTINUOUS
 10
44.427708
 20
56.388390
 11
44.427708
 21
51.170589
  0
LINE
  8
0
  6
CONTINUOUS
 10
44.027710
 20
56.556190
 11
44.027710
 21
51.170589
  0
LINE
  8
0
  6
CONTINUOUS
 10
44.627689
 20
56.304390
 11
44.627689
 21
51.170589
  0
LINE
  8
0
  6
CONTINUOUS
 10
43.827709
 20
56.639931
 11
43.827709
 21
51.170589
  0
LINE
  8
0
  6
CONTINUOUS
 10
44.827728
 20
56.220612
 11
44.827728
 21
51.170589
  0
LINE
  8
0
  6
CONTINUOUS
 10
43.627728
 20
56.723732
 11
43.627728
 21
51.170589
  0
LINE
  8
0
  6
CONTINUOUS
 10
45.027710
 20
56.136852
 11
45.027710
 21
51.170589
  0
LINE
  8
0
  6
CONTINUOUS
 10
43.427708
 20
56.807713
 11
43.427708
 21
51.170589
  0
LINE
  8
0
  6
CONTINUOUS
 10
45.227730
 20
56.052830
 11
45.227730
 21
51.170589
  0
LINE
  8
0
  6
CONTINUOUS
 10
43.227730
 20
56.891510
 11
43.227730
 21
51.170589
  0
LINE
  8
0
  6
CONTINUOUS
 10
45.427750
 20
55.969051
 11
45.427708
 21
51.170589
  0
LINE
  8
0
  6
CONTINUOUS
 10
43.027729
 20
56.975471
 11
43.027729
 21
51.170589
  0
LINE
  8
0
  6
CONTINUOUS
 10
40.727711
 20
73.815727
 11
38.727730
 21
73.815727
  0
LINE
  8
0
  6
CONTINUOUS
 10
39.227768
 20
186.857269
 11
38.727730
 21
186.857269
  0
LINE
  8
0
  6
CONTINUOUS
 10
39.227768
 20
180.857269
 11
39.227768
 21
186.857269
  0
LINE
  8
0
  6
CONTINUOUS
 10
39.227768
 20
186.857269
 11
38.727730
 21
186.857269
  0
LINE
  8
0
  6
CONTINUOUS
 10
38.727730
 20
180.857269
 11
43.727730
 21
180.857269
  0
LINE
  8
0
  6
CONTINUOUS
 10
38.727730
 20
65.357269
 11
42.727730
 21
65.357269
  0
LINE
  8
0
  6
CONTINUOUS
 10
37.214649
 20
190.195770
 11
12.052749
 21
189.976044
  0
ARC
  8
0
  6
CONTINUOUS
 10
8.296049
 20
174.357452
 40
12.000000
 50
82.994843
 51
170.966507
  0
ARC
  8
0
  6
CONTINUOUS
 10
332.227753
 20
122.857269
 40
340.000000
 50
170.966507
 51
188.814499
  0
ARC
  8
0
  6
CONTINUOUS
 10
9.881449
 20
187.260468
 40
1.000000
 50
262.995300
 51
343.455597
  0
ARC
  8
0
  6
CONTINUOUS
 10
12.065749
 20
188.476395
 40
1.500000
 50
90.500267
 51
191.594803
  0
LINE
  8
0
  6
CONTINUOUS
 10
38.223351
 20
65.361671
 11
2.120037
 21
65.676750
  0
ARC
  8
0
  6
CONTINUOUS
 10
2.172391
 20
71.676491
 40
6.000000
 50
188.814499
 51
269.500000
  0
ARC
  8
0
  6
CONTINUOUS
 10
13.927049
 20
67.073769
 40
1.500000
 50
170.162598
 51
269.500000
  0
ARC
  8
0
  6
CONTINUOUS
 10
37.227730
 20
188.695770
 40
1.500000
 50
0.000000
 51
90.500191
  0
ARC
  8
0
  6
CONTINUOUS
 10
38.227730
 20
65.861671
 40
0.500000
 50
-90.500000
 51
0.000000
  0
LINE
  8
0
  6
CONTINUOUS
 10
38.727730
 20
65.861671
 11
38.727730
 21
188.695770
  0
ARC
  8
0
  6
CONTINUOUS
 10
-307.772247
 20
122.857269
 40
325.000000
 50
350.162567
 51
357.442871
  0
ARC
  8
0
  6
CONTINUOUS
 10
-307.772247
 20
122.857269
 40
325.000000
 50
2.557141
 51
11.594100
  0
ARC
  8
0
  6
CONTINUOUS
 10
578.567749
 20
122.857315
 40
67.500000
 50
-19.127844
 51
23.289549
  0
LINE
  8
0
  6
CONTINUOUS
 10
51.477745
 20
153.257416
 11
51.477745
 21
152.457397
  0
LINE
  8
0
  6
CONTINUOUS
 10
49.327721
 20
154.607422
 11
50.127739
 21
154.607422
  0
LINE
  8
0
  6
CONTINUOUS
 10
49.327721
 20
151.107422
 11
50.127739
 21
151.107422
  0
LINE
  8
0
  6
CONTINUOUS
 10
47.977745
 20
153.257416
 11
47.977745
 21
152.457397
  0
CIRCLE
  8
0
  6
CONTINUOUS
 10
49.727745
 20
152.857422
 40
2.750000
  0
ARC
  8
0
  6
CONTINUOUS
 10
47.977745
 20
154.607422
 40
1.350000
 50
-90.000000
 51
0.000000
  0
ARC
  8
0
  6
CONTINUOUS
 10
47.977745
 20
151.107422
 40
1.350000
 50
0.000000
 51
90.000000
  0
ARC
  8
0
  6
CONTINUOUS
 10
51.477745
 20
154.607422
 40
1.350000
 50
180.000000
 51
270.000000
  0
ARC
  8
0
  6
CONTINUOUS
 10
51.477745
 20
151.107422
 40
1.350000
 50
90.000000
 51
180.000000
  0
LINE
  8
0
  6
CONTINUOUS
 10
111.477783
 20
153.257416
 11
111.477783
 21
152.457397
  0
LINE
  8
0
  6
CONTINUOUS
 10
109.327759
 20
154.607422
 11
110.127777
 21
154.607422
  0
LINE
  8
0
  6
CONTINUOUS
 10
109.327759
 20
151.107422
 11
110.127777
 21
151.107422
  0
LINE
  8
0
  6
CONTINUOUS
 10
107.977783
 20
153.257416
 11
107.977783
 21
152.457397
  0
CIRCLE
  8
0
  6
CONTINUOUS
 10
109.727783
 20
152.857422
 40
2.750000
  0
ARC
  8
0
  6
CONTINUOUS
 10
107.977783
 20
154.607422
 40
1.350000
 50
-90.000000
 51
0.000000
  0
ARC
  8
0
  6
CONTINUOUS
 10
107.977783
 20
151.107422
 40
1.350000
 50
0.000000
 51
90.000000
  0
ARC
  8
0
  6
CONTINUOUS
 10
111.477783
 20
154.607422
 40
1.350000
 50
180.000000
 51
270.000000
  0
ARC
  8
0
  6
CONTINUOUS
 10
111.477783
 20
151.107422
 40
1.350000
 50
90.000000
 51
180.000000
  0
LINE
  8
0
  6
CONTINUOUS
 10
111.477783
 20
93.257423
 11
111.477783
 21
92.457405
  0
LINE
  8
0
  6
CONTINUOUS
 10
109.327759
 20
94.607430
 11
110.127777
 21
94.607430
  0
LINE
  8
0
  6
CONTINUOUS
 10
109.327759
 20
91.107430
 11
110.127777
 21
91.107430
  0
LINE
  8
0
  6
CONTINUOUS
 10
107.977783
 20
93.257423
 11
107.977783
 21
92.457405
  0
CIRCLE
  8
0
  6
CONTINUOUS
 10
109.727783
 20
92.857430
 40
2.750000
  0
ARC
  8
0
  6
CONTINUOUS
 10
107.977783
 20
94.607430
 40
1.350000
 50
-90.000000
 51
0.000000
  0
ARC
  8
0
  6
CONTINUOUS
 10
107.977783
 20
91.107430
 40
1.350000
 50
0.000000
 51
90.000000
  0
ARC
  8
0
  6
CONTINUOUS
 10
111.477783
 20
94.607430
 40
1.350000
 50
180.000000
 51
270.000000
  0
ARC
  8
0
  6
CONTINUOUS
 10
111.477783
 20
91.107430
 40
1.350000
 50
90.000000
 51
180.000000
  0
LINE
  8
0
  6
CONTINUOUS
 10
51.477745
 20
93.257423
 11
51.477745
 21
92.457405
  0
LINE
  8
0
  6
CONTINUOUS
 10
49.327721
 20
94.607430
 11
50.127739
 21
94.607430
  0
LINE
  8
0
  6
CONTINUOUS
 10
49.327721
 20
91.107430
 11
50.127739
 21
91.107430
  0
LINE
  8
0
  6
CONTINUOUS
 10
47.977745
 20
93.257423
 11
47.977745
 21
92.457405
  0
CIRCLE
  8
0
  6
CONTINUOUS
 10
49.727745
 20
92.857430
 40
2.750000
  0
ARC
  8
0
  6
CONTINUOUS
 10
47.977745
 20
94.607430
 40
1.350000
 50
-90.000000
 51
0.000000
  0
ARC
  8
0
  6
CONTINUOUS
 10
47.977745
 20
91.107430
 40
1.350000
 50
0.000000
 51
90.000000
  0
ARC
  8
0
  6
CONTINUOUS
 10
51.477745
 20
94.607430
 40
1.350000
 50
180.000000
 51
270.000000
  0
ARC
  8
0
  6
CONTINUOUS
 10
51.477745
 20
91.107430
 40
1.350000
 50
90.000000
 51
180.000000
  0
TEXT
  8
0
 10
-19.000000
 20
-43.000000
 40
4.000000
 41
1.000000
  1
H2LB-32R-600~1500-T010WA
 50
0.000000
  0
ENDSEC
  0
EOF
