  0
SECTION
  2
HEADER
  9
$CLAYER
  8
1
  9
$LTSCALE
 40
3.0
  0
ENDSEC
  0
SECTION
  2
TABLES
  0
TABLE
  2
LTYPE
 70
     4
  0
LTYPE
  2
CONTINUOUS
  3
solid line
 70
    64
 72
    65
 73
     0
 40
0.0
  0
LTYPE
  2
DASHED
  3
__ __ __ __ __ __ __ __ __ __ __ __ __ __ __
 70
    64
 72
    65
 73
     2
 40
0.75
 49
0.5
 49
-0.25
  0
LTYPE
  2
CENTER
  3
____ _ ____ _ ____ _ ____ _ ____ _ ____ _ ____
 70
    64
 72
    65
 73
     4
 40
2.0
 49
1.25
 49
-0.25
 49
0.25
 49
-0.25
  0
LTYPE
  2
PHANTOM
  3
_____ _ _ _____ _ _ _____ _ _ _____ _ _ ____
 70
    64
 72
    65
 73
     6
 40
2.5
 49
1.25
 49
-0.25
 49
0.25
 49
-0.25
 49
0.25
 49
-0.25
  0
ENDTAB
  0
TABLE
  2
LAYER
 70
     1
  0
LAYER
  2
0
 70
    64
 62
     7
  6
CONTINUOUS
  0
ENDTAB
  0
TABLE
  2
STYLE
 70
     1
  0
STYLE
  2
STANDARD
 70
     0
 40
0.000000
 41
1.000000
 50
0.000000
 71
     0
 42
3.000000
  3
txt
  4
BIGFONT
  0
ENDTAB
  0
ENDSEC
  0
SECTION
  2
BLOCKS
  0
ENDSEC
  0
SECTION
  2
ENTITIES
  0
LINE
  8
0
  6
CONTINUOUS
 10
166.227615
 20
172.857315
 11
166.227615
 21
121.294815
  0
LINE
  8
0
  6
CONTINUOUS
 10
157.727859
 20
175.857315
 11
157.727615
 21
60.857319
  0
LINE
  8
0
  6
CONTINUOUS
 10
188.598480
 20
55.488918
 11
157.727615
 21
60.857319
  0
LINE
  8
0
  6
CONTINUOUS
 10
197.175522
 20
27.133478
 11
207.727631
 21
26.857218
  0
LINE
  8
0
  6
CONTINUOUS
 10
171.096634
 20
155.816742
 11
207.727631
 21
154.857254
  0
ARC
  8
0
  6
CONTINUOUS
 10
171.227493
 20
160.815018
 40
5.000000
 50
180.000000
 51
268.499786
  0
LINE
  8
0
  6
CENTER
 10
-9.328594
 20
118.357315
 11
230.329376
 21
118.357315
  0
LINE
  8
0
  6
CENTER
 10
185.227737
 20
90.857315
 11
207.727631
 21
90.857315
  0
LINE
  8
0
  6
CONTINUOUS
 10
163.227615
 20
175.857315
 11
157.727859
 21
175.857315
  0
ARC
  8
0
  6
CONTINUOUS
 10
163.227631
 20
172.857300
 40
3.000000
 50
0.000000
 51
90.000000
  0
LINE
  8
0
  6
CONTINUOUS
 10
195.227859
 20
29.132797
 11
195.227859
 21
114.169815
  0
ARC
  8
0
  6
CONTINUOUS
 10
197.227829
 20
29.132816
 40
2.000000
 50
180.000000
 51
268.500610
  0
ARC
  8
0
  6
CONTINUOUS
 10
187.227875
 20
47.607178
 40
8.000000
 50
0.000000
 51
80.135094
  0
LINE
  8
0
  6
CONTINUOUS
 10
207.727631
 20
26.857218
 11
207.727631
 21
154.857254
  0
LINE
  8
0
  6
CENTER
 10
207.727631
 20
90.857216
 11
238.849579
 21
90.857216
  0
LINE
  8
0
  6
CENTER
 10
295.727631
 20
223.153397
 11
295.727631
 21
-14.775663
  0
LINE
  8
0
  6
CENTER
 10
231.843079
 20
135.857224
 11
360.171265
 21
135.857224
  0
LINE
  8
0
  6
CENTER
 10
343.227631
 20
21.132656
 11
343.227631
 21
-12.732083
  0
LINE
  8
0
  6
CENTER
 10
248.227631
 20
21.132656
 11
248.227631
 21
-13.024022
  0
LINE
  8
0
  6
CONTINUOUS
 10
219.727631
 20
-4.142783
 11
371.727631
 21
-4.142783
  0
LINE
  8
0
  6
CONTINUOUS
 10
219.727631
 20
13.857217
 11
371.727631
 21
13.857217
  0
LINE
  8
0
  6
CONTINUOUS
 10
371.727600
 20
164.162781
 11
371.727631
 21
-4.142783
  0
LINE
  8
0
  6
CONTINUOUS
 10
219.727631
 20
159.357224
 11
219.727631
 21
164.162781
  0
LINE
  8
0
  6
CONTINUOUS
 10
269.224213
 20
200.857224
 11
322.231049
 21
200.857224
  0
LINE
  8
0
  6
CONTINUOUS
 10
214.727631
 20
154.857254
 11
207.727631
 21
154.857254
  0
LINE
  8
0
  6
CONTINUOUS
 10
214.727631
 20
26.857218
 11
207.727631
 21
26.857218
  0
LINE
  8
0
  6
CONTINUOUS
 10
368.277679
 20
170.742844
 11
326.781097
 21
199.437271
  0
LINE
  8
0
  6
CONTINUOUS
 10
223.177597
 20
170.742844
 11
264.674164
 21
199.437271
  0
ARC
  8
0
  6
CONTINUOUS
 10
322.231079
 20
192.857224
 40
8.000000
 50
55.336689
 51
90.000000
  0
ARC
  8
0
  6
CONTINUOUS
 10
363.727661
 20
164.162735
 40
8.000000
 50
0.000000
 51
55.336739
  0
ARC
  8
0
  6
CONTINUOUS
 10
269.224243
 20
192.857224
 40
8.000000
 50
90.000000
 51
124.663696
  0
ARC
  8
0
  6
CONTINUOUS
 10
227.727661
 20
164.162811
 40
8.000000
 50
124.663803
 51
180.000000
  0
LINE
  8
0
  6
CONTINUOUS
 10
219.727631
 20
22.357218
 11
219.727631
 21
-4.142783
  0
ARC
  8
0
  6
CONTINUOUS
 10
214.727631
 20
159.857254
 40
5.000000
 50
-90.000000
 51
0.000000
  0
LINE
  8
0
  6
CONTINUOUS
 10
219.727631
 20
22.357218
 11
219.727631
 21
159.357224
  0
ARC
  8
0
  6
CONTINUOUS
 10
214.727646
 20
21.857199
 40
5.000000
 50
0.000000
 51
90.000000
  0
LINE
  8
0
  6
DASHED
 10
241.727631
 20
13.857217
 11
241.727631
 21
-4.142783
  0
LINE
  8
0
  6
DASHED
 10
254.727631
 20
13.857217
 11
254.727631
 21
-4.142783
  0
LINE
  8
0
  6
DASHED
 10
336.727631
 20
13.857217
 11
336.727631
 21
-4.142783
  0
LINE
  8
0
  6
DASHED
 10
349.727631
 20
13.857217
 11
349.727631
 21
-4.142783
  0
CIRCLE
  8
0
  6
CONTINUOUS
 10
295.727631
 20
135.857224
 40
39.000000
  0
ARC
  8
0
  6
CONTINUOUS
 10
295.727631
 20
135.857224
 40
44.000000
 50
12.523240
 51
167.476898
  0
ARC
  8
0
  6
CONTINUOUS
 10
270.227631
 20
76.857216
 40
29.000000
 50
167.476898
 51
270.000000
  0
ARC
  8
0
  6
CONTINUOUS
 10
321.227631
 20
76.857216
 40
29.000000
 50
-90.000000
 51
12.523240
  0
ARC
  8
0
  6
CONTINUOUS
 10
270.227631
 20
76.857216
 40
31.900000
 50
167.476898
 51
270.000000
  0
ARC
  8
0
  6
CONTINUOUS
 10
321.227631
 20
76.857216
 40
31.900000
 50
-90.000000
 51
12.523240
  0
ARC
  8
0
  6
CONTINUOUS
 10
295.727631
 20
135.857224
 40
41.099998
 50
-192.523102
 51
12.523240
  0
LINE
  8
0
  6
CONTINUOUS
 10
239.086594
 20
83.774223
 11
252.774460
 21
145.397919
  0
LINE
  8
0
  6
CONTINUOUS
 10
241.917603
 20
83.145401
 11
255.605469
 21
144.769104
  0
LINE
  8
0
  6
CONTINUOUS
 10
270.227631
 20
44.957218
 11
321.227631
 21
44.957218
  0
LINE
  8
0
  6
CONTINUOUS
 10
321.227631
 20
47.857216
 11
270.227631
 21
47.857216
  0
LINE
  8
0
  6
CONTINUOUS
 10
338.680786
 20
145.397995
 11
352.368683
 21
83.774284
  0
LINE
  8
0
  6
CONTINUOUS
 10
335.849762
 20
144.769180
 11
349.537659
 21
83.145454
  0
LINE
  8
0
  6
CONTINUOUS
 10
283.500671
 20
59.857216
 11
278.560242
 21
59.857216
  0
LINE
  8
0
  6
CONTINUOUS
 10
286.227631
 20
68.132622
 11
286.227631
 21
59.857216
  0
LINE
  8
0
  6
CONTINUOUS
 10
290.977631
 20
71.138466
 11
290.977631
 21
74.107216
  0
LINE
  8
0
  6
CONTINUOUS
 10
300.477631
 20
71.138466
 11
300.477631
 21
74.107216
  0
LINE
  8
0
  6
CONTINUOUS
 10
294.799896
 20
72.363075
 11
294.799896
 21
61.415817
  0
LINE
  8
0
  6
CONTINUOUS
 10
296.581146
 20
72.363075
 11
296.581146
 21
61.415817
  0
LINE
  8
0
  6
CONTINUOUS
 10
305.932739
 20
72.363075
 11
305.932739
 21
61.341599
  0
LINE
  8
0
  6
CONTINUOUS
 10
307.565552
 20
66.518356
 11
307.565552
 21
61.341599
  0
LINE
  8
0
  6
CONTINUOUS
 10
283.973694
 20
72.214638
 11
279.395935
 21
72.214638
  0
LINE
  8
0
  6
CONTINUOUS
 10
279.395935
 20
72.214638
 11
278.323334
 21
70.884636
  0
LINE
  8
0
  6
CONTINUOUS
 10
278.452332
 20
74.107216
 11
276.727631
 21
71.898750
  0
LINE
  8
0
  6
CONTINUOUS
 10
278.323334
 20
62.675056
 11
279.413147
 21
61.527138
  0
LINE
  8
0
  6
CONTINUOUS
 10
276.727631
 20
61.706337
 11
278.560242
 21
59.857216
  0
LINE
  8
0
  6
CONTINUOUS
 10
276.727631
 20
71.898750
 11
276.727631
 21
61.706337
  0
LINE
  8
0
  6
CONTINUOUS
 10
278.323334
 20
70.884636
 11
278.323334
 21
62.675056
  0
LINE
  8
0
  6
CONTINUOUS
 10
284.854584
 20
71.363075
 11
283.955719
 21
72.214638
  0
LINE
  8
0
  6
CONTINUOUS
 10
284.840332
 20
74.107216
 11
286.227631
 21
72.567635
  0
LINE
  8
0
  6
CONTINUOUS
 10
284.854584
 20
71.138466
 11
286.227631
 21
71.138466
  0
LINE
  8
0
  6
CONTINUOUS
 10
278.452332
 20
74.107216
 11
284.840332
 21
74.107216
  0
LINE
  8
0
  6
CONTINUOUS
 10
282.368256
 20
68.132622
 11
286.227631
 21
68.132622
  0
LINE
  8
0
  6
CONTINUOUS
 10
284.854584
 20
66.574020
 11
282.368256
 21
66.574020
  0
LINE
  8
0
  6
CONTINUOUS
 10
281.885834
 20
61.527138
 11
279.413147
 21
61.527138
  0
LINE
  8
0
  6
CONTINUOUS
 10
284.854584
 20
65.089638
 11
284.854584
 21
66.277138
  0
ARC
  8
0
  6
CONTINUOUS
 10
281.885834
 20
64.495880
 40
2.968750
 50
-89.999786
 51
0.000109
  0
LINE
  8
0
  6
CONTINUOUS
 10
284.854584
 20
60.993137
 11
284.854584
 21
59.857216
  0
LINE
  8
0
  6
CONTINUOUS
 10
286.227631
 20
72.567635
 11
286.227631
 21
71.138466
  0
LINE
  8
0
  6
CONTINUOUS
 10
284.854584
 20
66.574020
 11
284.854584
 21
64.495880
  0
LINE
  8
0
  6
CONTINUOUS
 10
282.368256
 20
68.132622
 11
282.368256
 21
66.574020
  0
LINE
  8
0
  6
CONTINUOUS
 10
284.854584
 20
59.857216
 11
286.227631
 21
59.857216
  0
LINE
  8
0
  6
CONTINUOUS
 10
284.854584
 20
60.993137
 11
283.500671
 21
59.857216
  0
LINE
  8
0
  6
CONTINUOUS
 10
296.581146
 20
61.415817
 11
297.174896
 21
61.415817
  0
LINE
  8
0
  6
CONTINUOUS
 10
294.094818
 20
61.415817
 11
294.094818
 21
59.857216
  0
LINE
  8
0
  6
CONTINUOUS
 10
297.174896
 20
61.415817
 11
297.174896
 21
59.857216
  0
LINE
  8
0
  6
CONTINUOUS
 10
299.486725
 20
71.138466
 11
300.477631
 21
71.138466
  0
LINE
  8
0
  6
CONTINUOUS
 10
290.977631
 20
71.138466
 11
292.032166
 21
71.138466
  0
LINE
  8
0
  6
CONTINUOUS
 10
290.977631
 20
74.107216
 11
300.477631
 21
74.107216
  0
LINE
  8
0
  6
CONTINUOUS
 10
294.094818
 20
59.857216
 11
297.174896
 21
59.857216
  0
LINE
  8
0
  6
CONTINUOUS
 10
294.094818
 20
61.415817
 11
294.799896
 21
61.415817
  0
ARC
  8
0
  6
CONTINUOUS
 10
310.923920
 20
70.303497
 40
3.803712
 50
-73.981873
 51
90.003510
  0
ARC
  8
0
  6
CONTINUOUS
 10
310.923920
 20
70.303497
 40
2.320524
 50
-82.585274
 51
62.411850
  0
LINE
  8
0
  6
CONTINUOUS
 10
305.227631
 20
74.107216
 11
310.923920
 21
74.107216
  0
LINE
  8
0
  6
CONTINUOUS
 10
311.223389
 20
68.002380
 11
307.565552
 21
68.002380
  0
LINE
  8
0
  6
CONTINUOUS
 10
305.227631
 20
74.107216
 11
305.227631
 21
72.363075
  0
LINE
  8
0
  6
CONTINUOUS
 10
307.565552
 20
72.363075
 11
307.565552
 21
68.002380
  0
LINE
  8
0
  6
CONTINUOUS
 10
311.973511
 20
66.647476
 11
314.327820
 21
61.341599
  0
LINE
  8
0
  6
CONTINUOUS
 10
310.606171
 20
66.518356
 11
312.834137
 21
61.341599
  0
LINE
  8
0
  6
CONTINUOUS
 10
305.227631
 20
61.341599
 11
305.932739
 21
61.341599
  0
LINE
  8
0
  6
CONTINUOUS
 10
307.565552
 20
61.341599
 11
308.214966
 21
61.341599
  0
LINE
  8
0
  6
CONTINUOUS
 10
308.214966
 20
59.857216
 11
305.227631
 21
59.857216
  0
LINE
  8
0
  6
CONTINUOUS
 10
312.538208
 20
61.341599
 11
312.834137
 21
61.341599
  0
LINE
  8
0
  6
CONTINUOUS
 10
314.327820
 20
61.341599
 11
314.727631
 21
61.341599
  0
LINE
  8
0
  6
CONTINUOUS
 10
312.538208
 20
59.857216
 11
314.727631
 21
59.857216
  0
LINE
  8
0
  6
CONTINUOUS
 10
314.727631
 20
61.341599
 11
314.727631
 21
59.857216
  0
LINE
  8
0
  6
CONTINUOUS
 10
312.538208
 20
61.341599
 11
312.538208
 21
59.857216
  0
LINE
  8
0
  6
CONTINUOUS
 10
308.214966
 20
61.341599
 11
308.214966
 21
59.857216
  0
LINE
  8
0
  6
CONTINUOUS
 10
305.227631
 20
61.341599
 11
305.227631
 21
59.857216
  0
LINE
  8
0
  6
CONTINUOUS
 10
292.542419
 20
72.363075
 11
292.032166
 21
71.138466
  0
LINE
  8
0
  6
CONTINUOUS
 10
299.056458
 20
72.363075
 11
299.486725
 21
71.138466
  0
LINE
  8
0
  6
CONTINUOUS
 10
296.581146
 20
72.363075
 11
299.056458
 21
72.363075
  0
LINE
  8
0
  6
CONTINUOUS
 10
294.799896
 20
72.363075
 11
292.542419
 21
72.363075
  0
LINE
  8
0
  6
CONTINUOUS
 10
307.565552
 20
66.518356
 11
310.606171
 21
66.518356
  0
LINE
  8
0
  6
CONTINUOUS
 10
305.227631
 20
72.363075
 11
305.932739
 21
72.363075
  0
LINE
  8
0
  6
CONTINUOUS
 10
307.565552
 20
72.363075
 11
311.998596
 21
72.360191
  0
LINE
  8
0
  6
CONTINUOUS
 10
284.854584
 20
71.363075
 11
284.854584
 21
71.138466
  0
ARC
  8
0
  6
CONTINUOUS
 10
399.436523
 20
90.857216
 40
185.208893
 50
166.001907
 51
193.998093
  0
LINE
  8
0
  6
CONTINUOUS
 10
233.727631
 20
11.790658
 11
233.727631
 21
-4.142783
  0
LINE
  8
0
  6
CONTINUOUS
 10
357.727631
 20
11.790658
 11
357.727631
 21
-4.142783
  0
LINE
  8
0
  6
CONTINUOUS
 10
319.484985
 20
18.857218
 11
271.970276
 21
18.857218
  0
LINE
  8
0
  6
CONTINUOUS
 10
270.727631
 20
17.921337
 11
270.727631
 21
14.857217
  0
LINE
  8
0
  6
CONTINUOUS
 10
321.606323
 20
17.978537
 11
324.263184
 21
15.321677
  0
LINE
  8
0
  6
CONTINUOUS
 10
269.848969
 20
17.978537
 11
267.192139
 21
15.321717
  0
LINE
  8
0
  6
CONTINUOUS
 10
320.727631
 20
17.921337
 11
320.727631
 21
14.857217
  0
ARC
  8
0
  6
CONTINUOUS
 10
263.656586
 20
18.857218
 40
5.000000
 50
270.000000
 51
315.000092
  0
ARC
  8
0
  6
CONTINUOUS
 10
271.970306
 20
15.857217
 40
3.000000
 50
90.000000
 51
135.000305
  0
ARC
  8
0
  6
CONTINUOUS
 10
269.727631
 20
14.857217
 40
1.000000
 50
-90.000000
 51
0.000000
  0
ARC
  8
0
  6
CONTINUOUS
 10
327.798706
 20
18.857218
 40
5.000000
 50
225.000000
 51
270.000000
  0
ARC
  8
0
  6
CONTINUOUS
 10
319.484985
 20
15.857217
 40
3.000000
 50
45.000160
 51
90.000000
  0
ARC
  8
0
  6
CONTINUOUS
 10
321.727631
 20
14.857217
 40
1.000000
 50
180.000000
 51
270.000000
  0
LINE
  8
0
  6
CONTINUOUS
 10
306.727661
 20
130.857254
 11
306.727600
 21
140.857254
  0
LINE
  8
0
  6
CONTINUOUS
 10
314.727661
 20
130.857285
 11
314.727600
 21
140.857285
  0
LINE
  8
0
  6
CONTINUOUS
 10
314.727661
 20
130.857285
 11
306.727661
 21
130.857254
  0
LINE
  8
0
  6
CONTINUOUS
 10
314.727600
 20
140.857285
 11
306.727600
 21
140.857254
  0
ARC
  8
0
  6
CONTINUOUS
 10
295.727631
 20
135.857224
 40
16.000000
 50
18.209900
 51
341.790100
  0
LINE
  8
0
  6
CENTER
 10
587.567749
 20
-10.934256
 11
587.567749
 21
218.500000
  0
LINE
  8
0
  6
CENTER
 10
517.567749
 20
90.857216
 11
657.567749
 21
90.857216
  0
LINE
  8
0
  6
CENTER
 10
454.905243
 20
135.857224
 11
654.288574
 21
135.857224
  0
LINE
  8
0
  6
CENTER
 10
647.567749
 20
22.455957
 11
647.567749
 21
-15.443162
  0
LINE
  8
0
  6
CENTER
 10
527.567749
 20
22.455957
 11
527.567749
 21
-15.443162
  0
LINE
  8
0
  6
CONTINUOUS
 10
512.567749
 20
-4.142783
 11
557.567749
 21
-4.142783
  0
LINE
  8
0
  6
CONTINUOUS
 10
617.567749
 20
-4.142783
 11
662.567749
 21
-4.142783
  0
LINE
  8
0
  6
CONTINUOUS
 10
660.067749
 20
13.857217
 11
636.567749
 21
13.857217
  0
LINE
  8
0
  6
CONTINUOUS
 10
515.067749
 20
13.857217
 11
538.567688
 21
13.857217
  0
LINE
  8
0
  6
CONTINUOUS
 10
632.567749
 20
197.123978
 11
632.567749
 21
-4.142783
  0
LINE
  8
0
  6
CONTINUOUS
 10
542.567749
 20
183.598419
 11
542.567749
 21
197.123505
  0
LINE
  8
0
  6
CONTINUOUS
 10
662.567749
 20
11.739398
 11
662.567749
 21
-4.142783
  0
LINE
  8
0
  6
CONTINUOUS
 10
512.567749
 20
11.739398
 11
512.567749
 21
-4.142783
  0
LINE
  8
0
  6
CONTINUOUS
 10
559.067749
 20
-2.642783
 11
616.067688
 21
-2.642783
  0
LINE
  8
0
  6
CONTINUOUS
 10
629.620056
 20
200.123520
 11
587.567749
 21
200.857224
  0
LINE
  8
0
  6
CONTINUOUS
 10
545.515381
 20
200.123032
 11
587.567749
 21
200.857224
  0
LINE
  8
0
  6
CONTINUOUS
 10
525.567749
 20
100.598412
 11
525.567749
 21
171.116043
  0
LINE
  8
0
  6
CONTINUOUS
 10
649.567749
 20
100.598412
 11
649.567749
 21
171.116043
  0
LINE
  8
0
  6
CONTINUOUS
 10
532.567749
 20
51.613216
 11
532.567749
 21
139.767624
  0
LINE
  8
0
  6
CONTINUOUS
 10
642.567749
 20
51.613239
 11
642.567749
 21
139.767624
  0
LINE
  8
0
  6
DASHED
 10
654.067749
 20
13.857217
 11
654.067749
 21
-4.142783
  0
LINE
  8
0
  6
DASHED
 10
641.067749
 20
13.857217
 11
641.067749
 21
-4.142783
  0
LINE
  8
0
  6
DASHED
 10
534.067749
 20
13.857217
 11
534.067749
 21
-4.142783
  0
LINE
  8
0
  6
DASHED
 10
521.067749
 20
13.857217
 11
521.067749
 21
-4.142783
  0
ARC
  8
0
  6
CONTINUOUS
 10
545.567749
 20
197.123505
 40
3.000000
 50
91.000603
 51
180.000000
  0
ARC
  8
0
  6
CONTINUOUS
 10
629.567749
 20
197.123962
 40
3.000000
 50
0.000000
 51
89.000580
  0
LINE
  8
0
  6
CONTINUOUS
 10
538.978577
 20
178.801575
 11
529.156921
 21
175.912842
  0
LINE
  8
0
  6
CONTINUOUS
 10
529.156921
 20
95.801582
 11
529.696411
 21
95.642914
  0
LINE
  8
0
  6
CONTINUOUS
 10
536.175110
 20
46.811077
 11
538.960327
 21
46.003357
  0
LINE
  8
0
  6
CONTINUOUS
 10
514.656738
 20
14.205378
 11
540.060913
 21
18.439417
  0
LINE
  8
0
  6
CONTINUOUS
 10
660.478760
 20
14.205397
 11
635.074585
 21
18.439438
  0
LINE
  8
0
  6
CONTINUOUS
 10
638.960327
 20
46.811077
 11
636.175110
 21
46.003357
  0
LINE
  8
0
  6
CONTINUOUS
 10
645.978577
 20
95.801582
 11
645.439026
 21
95.642906
  0
LINE
  8
0
  6
CONTINUOUS
 10
645.978577
 20
175.912857
 11
636.156921
 21
178.801575
  0
LINE
  8
0
  6
CONTINUOUS
 10
545.142090
 20
168.357224
 11
629.820312
 21
168.357224
  0
ARC
  8
0
  6
CONTINUOUS
 10
530.567749
 20
171.116058
 40
5.000000
 50
106.389900
 51
180.000000
  0
ARC
  8
0
  6
CONTINUOUS
 10
644.567749
 20
171.116013
 40
5.000000
 50
0.000000
 51
73.610527
  0
ARC
  8
0
  6
CONTINUOUS
 10
530.567688
 20
100.598450
 40
5.000000
 50
180.000000
 51
253.610794
  0
ARC
  8
0
  6
CONTINUOUS
 10
644.567749
 20
100.598404
 40
5.000000
 50
-73.610321
 51
0.000000
  0
ARC
  8
0
  6
CONTINUOUS
 10
637.567749
 20
51.613216
 40
5.000000
 50
-73.827698
 51
0.000000
  0
ARC
  8
0
  6
CONTINUOUS
 10
537.567688
 20
51.613258
 40
5.000000
 50
180.000000
 51
253.828201
  0
LINE
  8
0
  6
CONTINUOUS
 10
542.567749
 20
183.598419
 11
542.567749
 21
-4.142783
  0
ARC
  8
0
  6
CONTINUOUS
 10
537.567749
 20
183.598404
 40
5.000000
 50
-73.610229
 51
0.000000
  0
ARC
  8
0
  6
CONTINUOUS
 10
528.567749
 20
91.805435
 40
4.000000
 50
0.000000
 51
73.610649
  0
ARC
  8
0
  6
CONTINUOUS
 10
537.567749
 20
41.201199
 40
5.000000
 50
0.000000
 51
73.827919
  0
ARC
  8
0
  6
CONTINUOUS
 10
637.567749
 20
41.201237
 40
5.000000
 50
106.172501
 51
180.000000
  0
ARC
  8
0
  6
CONTINUOUS
 10
646.567749
 20
91.805466
 40
4.000000
 50
106.389999
 51
180.000000
  0
ARC
  8
0
  6
CONTINUOUS
 10
637.567688
 20
183.598434
 40
5.000000
 50
180.000000
 51
253.610794
  0
ARC
  8
0
  6
CONTINUOUS
 10
539.567749
 20
21.398598
 40
3.000000
 50
-80.537483
 51
0.000000
  0
ARC
  8
0
  6
CONTINUOUS
 10
538.567749
 20
17.857178
 40
4.000000
 50
-90.000000
 51
0.000000
  0
ARC
  8
0
  6
CONTINUOUS
 10
515.067749
 20
11.357238
 40
2.500000
 50
90.000000
 51
180.000000
  0
LINE
  8
0
  6
CONTINUOUS
 10
557.567749
 20
-4.142783
 11
559.067749
 21
-2.642783
  0
LINE
  8
0
  6
CONTINUOUS
 10
617.567749
 20
-4.142783
 11
616.067688
 21
-2.642783
  0
ARC
  8
0
  6
CONTINUOUS
 10
635.567688
 20
21.398638
 40
3.000000
 50
180.000000
 51
260.537903
  0
ARC
  8
0
  6
CONTINUOUS
 10
636.567749
 20
17.857218
 40
4.000000
 50
180.000000
 51
270.000000
  0
ARC
  8
0
  6
CONTINUOUS
 10
660.067749
 20
11.357217
 40
2.500000
 50
0.000000
 51
90.000000
  0
LINE
  8
0
  6
CONTINUOUS
 10
467.567749
 20
119.857216
 11
467.567749
 21
151.857224
  0
LINE
  8
0
  6
CONTINUOUS
 10
522.567749
 20
151.857224
 11
467.567749
 21
151.857224
  0
LINE
  8
0
  6
CONTINUOUS
 10
522.567749
 20
119.857216
 11
467.567749
 21
119.857216
  0
LINE
  8
0
  6
CONTINUOUS
 10
522.567749
 20
153.357224
 11
522.567749
 21
118.357216
  0
LINE
  8
0
  6
CONTINUOUS
 10
525.567749
 20
153.357224
 11
522.567749
 21
153.357224
  0
LINE
  8
0
  6
CONTINUOUS
 10
525.567749
 20
118.357216
 11
522.567749
 21
118.357216
  0
ARC
  8
0
  6
CONTINUOUS
 10
512.567749
 20
135.857224
 40
5.000000
 50
-90.000000
 51
90.000000
  0
LINE
  8
0
  6
CONTINUOUS
 10
512.567749
 20
140.857224
 11
467.567749
 21
140.857224
  0
LINE
  8
0
  6
CONTINUOUS
 10
512.567749
 20
130.857224
 11
467.567749
 21
130.857224
  0
ARC
  8
0
  6
CONTINUOUS
 10
515.067749
 20
11.739417
 40
2.500000
 50
99.462753
 51
180.000000
  0
ARC
  8
0
  6
CONTINUOUS
 10
660.067749
 20
11.739398
 40
2.500000
 50
0.000000
 51
80.537682
  0
ARC
  8
0
  6
CONTINUOUS
 10
587.567749
 20
90.857216
 40
64.000000
 50
-30.753519
 51
14.361512
  0
ARC
  8
0
  6
CONTINUOUS
 10
587.567749
 20
90.857216
 40
64.000000
 50
165.638489
 51
210.753525
  0
LINE
  8
0
  6
CONTINUOUS
 10
168.320038
 20
140.322342
 11
199.587418
 21
140.322342
  0
LINE
  8
0
  6
CONTINUOUS
 10
168.320038
 20
131.867310
 11
199.587418
 21
131.867310
  0
LINE
  8
0
  6
CONTINUOUS
 10
201.727615
 20
133.367310
 11
201.727615
 21
139.267319
  0
LINE
  8
0
  6
CENTER
 10
295.727631
 20
468.404999
 11
295.727631
 21
252.417313
  0
LINE
  8
0
  6
CONTINUOUS
 10
371.727844
 20
377.854828
 11
370.942352
 21
422.854828
  0
LINE
  8
0
  6
CONTINUOUS
 10
237.277588
 20
452.854828
 11
295.727631
 21
452.854828
  0
LINE
  8
0
  6
CONTINUOUS
 10
361.671234
 20
447.656036
 11
370.942352
 21
422.854828
  0
ARC
  8
0
  6
CONTINUOUS
 10
354.177673
 20
444.854828
 40
8.000000
 50
20.496618
 51
90.000000
  0
LINE
  8
0
  6
CONTINUOUS
 10
371.727844
 20
377.854828
 11
370.942352
 21
332.854828
  0
LINE
  8
0
  6
CONTINUOUS
 10
237.277588
 20
302.854828
 11
279.727631
 21
302.854828
  0
LINE
  8
0
  6
CONTINUOUS
 10
361.671234
 20
308.053589
 11
370.942352
 21
332.854828
  0
ARC
  8
0
  6
CONTINUOUS
 10
354.177673
 20
310.854828
 40
8.000000
 50
-90.000000
 51
-20.496618
  0
LINE
  8
0
  6
CONTINUOUS
 10
229.784042
 20
447.656036
 11
220.729248
 21
423.433533
  0
ARC
  8
0
  6
CONTINUOUS
 10
237.277588
 20
444.854828
 40
8.000000
 50
90.000000
 51
159.503387
  0
LINE
  8
0
  6
CONTINUOUS
 10
229.784042
 20
308.053589
 11
220.729248
 21
332.276093
  0
ARC
  8
0
  6
CONTINUOUS
 10
237.277588
 20
310.854828
 40
8.000000
 50
200.496613
 51
270.000000
  0
LINE
  8
0
  6
CONTINUOUS
 10
223.064270
 20
422.854828
 11
367.994263
 21
422.854828
  0
LINE
  8
0
  6
CONTINUOUS
 10
367.994263
 20
332.854828
 11
223.064270
 21
332.854828
  0
LINE
  8
0
  6
CONTINUOUS
 10
295.727631
 20
439.854828
 11
330.986450
 21
439.854828
  0
ARC
  8
0
  6
CONTINUOUS
 10
367.994263
 20
419.854828
 40
3.000000
 50
1.000000
 51
90.000000
  0
ARC
  8
0
  6
CONTINUOUS
 10
367.994263
 20
335.854828
 40
3.000000
 50
270.000000
 51
359.000000
  0
LINE
  8
0
  6
CONTINUOUS
 10
324.727631
 20
419.854828
 11
324.727631
 21
335.854828
  0
LINE
  8
0
  6
CONTINUOUS
 10
266.727631
 20
419.854828
 11
266.727631
 21
335.854828
  0
LINE
  8
0
  6
CONTINUOUS
 10
207.727631
 20
441.854828
 11
207.727631
 21
313.854828
  0
LINE
  8
0
  6
CONTINUOUS
 10
210.299973
 20
441.854828
 11
207.727631
 21
441.854828
  0
LINE
  8
0
  6
CONTINUOUS
 10
335.783264
 20
436.265656
 11
336.786469
 21
432.854828
  0
ARC
  8
0
  6
CONTINUOUS
 10
330.986450
 20
434.854828
 40
5.000000
 50
16.389540
 51
90.000000
  0
LINE
  8
0
  6
CONTINUOUS
 10
351.273773
 20
429.247437
 11
352.081482
 21
426.462189
  0
LINE
  8
0
  6
CONTINUOUS
 10
346.471619
 20
432.854828
 11
336.786469
 21
432.854828
  0
LINE
  8
0
  6
CONTINUOUS
 10
295.727631
 20
439.854828
 11
260.468811
 21
439.854828
  0
LINE
  8
0
  6
CONTINUOUS
 10
295.727631
 20
315.854828
 11
330.986450
 21
315.854828
  0
LINE
  8
0
  6
CONTINUOUS
 10
295.727631
 20
315.854828
 11
260.468811
 21
315.854828
  0
LINE
  8
0
  6
CONTINUOUS
 10
295.727631
 20
452.854828
 11
354.177673
 21
452.854828
  0
LINE
  8
0
  6
CONTINUOUS
 10
314.727631
 20
257.854828
 11
279.727631
 21
257.854828
  0
LINE
  8
0
  6
CONTINUOUS
 10
279.727631
 20
312.854828
 11
279.727631
 21
257.854828
  0
LINE
  8
0
  6
CONTINUOUS
 10
311.727631
 20
312.854828
 11
311.727631
 21
307.854828
  0
LINE
  8
0
  6
CONTINUOUS
 10
278.227631
 20
312.854828
 11
313.227631
 21
312.854828
  0
LINE
  8
0
  6
CONTINUOUS
 10
278.227631
 20
315.854828
 11
278.227631
 21
312.854828
  0
LINE
  8
0
  6
CONTINUOUS
 10
313.227631
 20
315.854828
 11
313.227631
 21
312.854828
  0
LINE
  8
0
  6
CONTINUOUS
 10
314.727631
 20
257.854828
 11
314.727631
 21
307.854828
  0
LINE
  8
0
  6
CONTINUOUS
 10
310.926331
 20
307.854828
 11
314.727631
 21
307.854828
  0
LINE
  8
0
  6
CONTINUOUS
 10
310.926331
 20
307.854828
 11
310.926331
 21
257.854828
  0
LINE
  8
0
  6
CONTINUOUS
 10
314.727631
 20
302.854828
 11
354.177673
 21
302.854828
  0
LINE
  8
0
  6
CENTER
 10
333.351318
 20
437.854828
 11
352.288818
 21
437.854828
  0
LINE
  8
0
  6
CENTER
 10
343.227631
 20
428.702484
 11
343.227631
 21
448.202484
  0
ARC
  8
0
  6
CONTINUOUS
 10
343.227631
 20
437.854828
 40
6.500000
 50
-51.240688
 51
230.284866
  0
ARC
  8
0
  6
CONTINUOUS
 10
248.227631
 20
437.854828
 40
6.500000
 50
-50.284863
 51
231.240692
  0
LINE
  8
0
  6
CENTER
 10
248.227631
 20
428.702484
 11
248.227631
 21
448.202484
  0
LINE
  8
0
  6
CENTER
 10
258.103943
 20
437.854828
 11
239.166458
 21
437.854828
  0
LINE
  8
0
  6
CENTER
 10
-10.940312
 20
377.854828
 11
383.148651
 21
377.854828
  0
LINE
  8
0
  6
CONTINUOUS
 10
215.129593
 20
438.148926
 11
218.234634
 21
426.560730
  0
ARC
  8
0
  6
CONTINUOUS
 10
223.064270
 20
427.854828
 40
5.000000
 50
195.000000
 51
270.000000
  0
ARC
  8
0
  6
CONTINUOUS
 10
210.299973
 20
436.854828
 40
5.000000
 50
15.000000
 51
90.000000
  0
LINE
  8
0
  6
CONTINUOUS
 10
210.299973
 20
313.854828
 11
207.727631
 21
313.854828
  0
LINE
  8
0
  6
CONTINUOUS
 10
215.129593
 20
317.560730
 11
218.234634
 21
329.148926
  0
ARC
  8
0
  6
CONTINUOUS
 10
210.299973
 20
318.854828
 40
5.000000
 50
-90.000000
 51
-15.000000
  0
ARC
  8
0
  6
CONTINUOUS
 10
223.064270
 20
327.854828
 40
5.000000
 50
-270.000000
 51
-195.000000
  0
LINE
  8
0
  6
CONTINUOUS
 10
219.727432
 20
377.854828
 11
220.461456
 21
419.907166
  0
LINE
  8
0
  6
CONTINUOUS
 10
219.727432
 20
377.854828
 11
220.461456
 21
335.802460
  0
ARC
  8
0
  6
CONTINUOUS
 10
223.460999
 20
419.854828
 40
3.000000
 50
90.000000
 51
179.000000
  0
ARC
  8
0
  6
CONTINUOUS
 10
223.460999
 20
335.854828
 40
3.000000
 50
-179.000000
 51
-90.000000
  0
ARC
  8
0
  6
CONTINUOUS
 10
346.471619
 20
427.854828
 40
5.000000
 50
16.172159
 51
90.000000
  0
ARC
  8
0
  6
CONTINUOUS
 10
356.883636
 20
427.854828
 40
5.000000
 50
196.172165
 51
270.000000
  0
LINE
  8
0
  6
CONTINUOUS
 10
353.127625
 20
422.854828
 11
353.130859
 21
422.843719
  0
ARC
  8
0
  6
CONTINUOUS
 10
260.468811
 20
434.854828
 40
5.000000
 50
90.000000
 51
163.610458
  0
LINE
  8
0
  6
CONTINUOUS
 10
255.671997
 20
436.265656
 11
254.668808
 21
432.854828
  0
LINE
  8
0
  6
CONTINUOUS
 10
240.181488
 20
429.247437
 11
239.373779
 21
426.462189
  0
LINE
  8
0
  6
CONTINUOUS
 10
244.983643
 20
432.854828
 11
254.668808
 21
432.854828
  0
ARC
  8
0
  6
CONTINUOUS
 10
244.983643
 20
427.854828
 40
5.000000
 50
90.000000
 51
163.827835
  0
ARC
  8
0
  6
CONTINUOUS
 10
234.571625
 20
427.854828
 40
5.000000
 50
-90.000000
 51
-16.172159
  0
LINE
  8
0
  6
CONTINUOUS
 10
238.327637
 20
422.854828
 11
238.324417
 21
422.843719
  0
ARC
  8
0
  6
CONTINUOUS
 10
248.227631
 20
317.854828
 40
6.500000
 50
-231.240692
 51
50.284863
  0
LINE
  8
0
  6
CENTER
 10
258.103943
 20
317.854828
 11
239.166458
 21
317.854828
  0
ARC
  8
0
  6
CONTINUOUS
 10
260.468811
 20
320.854828
 40
5.000000
 50
196.389542
 51
270.000000
  0
LINE
  8
0
  6
CONTINUOUS
 10
255.671997
 20
319.444000
 11
254.668808
 21
322.854828
  0
LINE
  8
0
  6
CONTINUOUS
 10
240.181488
 20
326.462189
 11
239.373779
 21
329.247437
  0
LINE
  8
0
  6
CONTINUOUS
 10
244.983643
 20
322.854828
 11
254.668808
 21
322.854828
  0
ARC
  8
0
  6
CONTINUOUS
 10
244.983643
 20
327.854828
 40
5.000000
 50
-163.827835
 51
-90.000000
  0
ARC
  8
0
  6
CONTINUOUS
 10
234.571625
 20
327.854828
 40
5.000000
 50
16.172159
 51
90.000000
  0
LINE
  8
0
  6
CONTINUOUS
 10
238.327637
 20
332.854828
 11
238.324417
 21
332.865906
  0
LINE
  8
0
  6
CENTER
 10
248.227631
 20
327.007172
 11
248.227631
 21
307.507172
  0
LINE
  8
0
  6
CONTINUOUS
 10
335.783264
 20
319.444000
 11
336.786469
 21
322.854828
  0
ARC
  8
0
  6
CONTINUOUS
 10
330.986450
 20
320.854828
 40
5.000000
 50
-90.000000
 51
-16.389540
  0
LINE
  8
0
  6
CONTINUOUS
 10
351.273773
 20
326.462189
 11
352.081482
 21
329.247437
  0
LINE
  8
0
  6
CONTINUOUS
 10
346.471619
 20
322.854828
 11
336.786469
 21
322.854828
  0
LINE
  8
0
  6
CENTER
 10
333.351318
 20
317.854828
 11
352.288818
 21
317.854828
  0
LINE
  8
0
  6
CENTER
 10
343.227631
 20
327.007172
 11
343.227631
 21
307.507172
  0
ARC
  8
0
  6
CONTINUOUS
 10
343.227631
 20
317.854828
 40
6.500000
 50
-230.284866
 51
51.240688
  0
ARC
  8
0
  6
CONTINUOUS
 10
346.471619
 20
327.854828
 40
5.000000
 50
-90.000000
 51
-16.172159
  0
ARC
  8
0
  6
CONTINUOUS
 10
356.883636
 20
327.854828
 40
5.000000
 50
-270.000000
 51
-196.172165
  0
LINE
  8
0
  6
CONTINUOUS
 10
353.127625
 20
332.854828
 11
353.130859
 21
332.865906
  0
LINE
  8
0
  6
CONTINUOUS
 10
207.727631
 20
441.854767
 11
207.727631
 21
313.854889
  0
LINE
  8
0
  6
CONTINUOUS
 10
166.227570
 20
323.499847
 11
166.227631
 21
432.222870
  0
LINE
  8
0
  6
CONTINUOUS
 10
197.175812
 20
314.131104
 11
207.727631
 21
313.854828
  0
LINE
  8
0
  6
CONTINUOUS
 10
163.305878
 20
320.500885
 11
157.727631
 21
320.354828
  0
ARC
  8
0
  6
CONTINUOUS
 10
163.227386
 20
323.499847
 40
3.000000
 50
-88.499977
 51
0.000000
  0
LINE
  8
0
  6
CONTINUOUS
 10
197.175583
 20
441.578552
 11
207.727631
 21
441.854828
  0
ARC
  8
0
  6
CONTINUOUS
 10
197.228119
 20
316.130005
 40
2.000000
 50
180.000000
 51
268.500092
  0
LINE
  8
0
  6
CONTINUOUS
 10
195.227875
 20
439.272186
 11
195.227875
 21
439.579620
  0
ARC
  8
0
  6
CONTINUOUS
 10
197.227921
 20
439.579620
 40
2.000000
 50
91.499924
 51
180.000000
  0
LINE
  8
0
  6
CONTINUOUS
 10
195.227875
 20
436.336792
 11
195.227875
 21
439.579620
  0
LINE
  8
0
  6
CONTINUOUS
 10
207.727631
 20
441.854828
 11
207.727631
 21
313.854828
  0
ARC
  8
0
  6
CONTINUOUS
 10
163.227386
 20
432.209808
 40
3.000000
 50
0.000000
 51
88.499977
  0
LINE
  8
0
  6
CONTINUOUS
 10
163.305878
 20
435.208771
 11
157.727631
 21
435.354828
  0
LINE
  8
0
  6
CONTINUOUS
 10
157.727631
 20
435.354828
 11
195.227875
 21
436.336792
  0
LINE
  8
0
  6
CONTINUOUS
 10
157.727631
 20
320.354828
 11
195.227875
 21
319.372833
  0
LINE
  8
0
  6
CONTINUOUS
 10
195.227875
 20
319.372833
 11
195.227875
 21
316.130005
  0
LINE
  8
0
  6
CONTINUOUS
 10
168.320053
 20
418.424805
 11
199.587448
 21
418.424805
  0
LINE
  8
0
  6
CONTINUOUS
 10
168.320053
 20
427.324829
 11
199.587448
 21
427.324829
  0
LINE
  8
0
  6
CONTINUOUS
 10
201.727631
 20
425.824829
 11
201.727631
 21
419.924805
  0
LINE
  8
0
  6
CONTINUOUS
 10
168.320053
 20
337.284821
 11
199.587448
 21
337.284821
  0
LINE
  8
0
  6
CONTINUOUS
 10
168.320053
 20
328.384827
 11
199.587448
 21
328.384827
  0
LINE
  8
0
  6
CONTINUOUS
 10
201.727631
 20
329.884827
 11
201.727631
 21
335.784821
  0
LINE
  8
0
  6
CONTINUOUS
 10
157.727631
 20
435.354889
 11
157.727753
 21
320.354828
  0
LINE
  8
0
  6
CONTINUOUS
 10
52.727795
 20
435.354828
 11
157.727753
 21
435.354828
  0
LINE
  8
0
  6
CONTINUOUS
 10
52.727795
 20
320.354828
 11
60.727795
 21
320.354828
  0
LINE
  8
0
  6
CONTINUOUS
 10
52.727795
 20
435.854828
 11
52.727795
 21
319.854828
  0
LINE
  8
0
  6
CONTINUOUS
 10
60.727795
 20
435.354828
 11
60.727795
 21
403.854706
  0
LINE
  8
0
  6
CONTINUOUS
 10
60.727795
 20
403.854706
 11
149.727814
 21
403.854706
  0
LINE
  8
0
  6
CONTINUOUS
 10
60.727795
 20
411.625366
 11
149.727814
 21
411.625366
  0
LINE
  8
0
  6
CONTINUOUS
 10
61.727795
 20
414.904785
 11
148.727814
 21
414.904785
  0
LINE
  8
0
  6
CONTINUOUS
 10
60.727795
 20
419.719849
 11
149.727814
 21
419.719849
  0
LINE
  8
0
  6
CONTINUOUS
 10
61.727795
 20
421.707703
 11
148.727814
 21
421.707703
  0
LINE
  8
0
  6
CONTINUOUS
 10
60.727795
 20
425.750427
 11
149.727814
 21
425.750427
  0
LINE
  8
0
  6
CONTINUOUS
 10
60.727795
 20
430.281342
 11
149.727814
 21
430.281342
  0
LINE
  8
0
  6
CONTINUOUS
 10
60.727795
 20
433.158447
 11
149.727814
 21
433.158447
  0
LINE
  8
0
  6
CONTINUOUS
 10
60.727795
 20
434.813782
 11
149.727814
 21
434.813782
  0
LINE
  8
0
  6
CONTINUOUS
 10
149.727814
 20
435.354828
 11
149.727814
 21
403.854706
  0
LINE
  8
0
  6
CONTINUOUS
 10
60.727795
 20
320.354828
 11
60.727795
 21
351.854950
  0
LINE
  8
0
  6
CONTINUOUS
 10
60.727795
 20
351.854950
 11
149.727814
 21
351.854950
  0
LINE
  8
0
  6
CONTINUOUS
 10
60.727795
 20
344.084320
 11
149.727814
 21
344.084320
  0
LINE
  8
0
  6
CONTINUOUS
 10
61.727795
 20
340.804871
 11
148.727814
 21
340.804871
  0
LINE
  8
0
  6
CONTINUOUS
 10
60.727795
 20
335.989807
 11
149.727814
 21
335.989807
  0
LINE
  8
0
  6
CONTINUOUS
 10
61.727795
 20
334.001923
 11
148.727814
 21
334.001923
  0
LINE
  8
0
  6
CONTINUOUS
 10
60.727795
 20
329.959259
 11
149.727814
 21
329.959259
  0
LINE
  8
0
  6
CONTINUOUS
 10
127.727753
 20
325.428345
 11
149.727814
 21
325.428345
  0
LINE
  8
0
  6
CONTINUOUS
 10
127.727753
 20
322.551208
 11
149.727814
 21
322.551208
  0
LINE
  8
0
  6
CONTINUOUS
 10
128.227753
 20
320.895844
 11
149.727814
 21
320.895844
  0
LINE
  8
0
  6
CONTINUOUS
 10
149.727814
 20
320.354828
 11
149.727814
 21
351.854950
  0
LINE
  8
0
  6
CONTINUOUS
 10
61.727795
 20
321.854828
 11
126.727814
 21
321.854828
  0
LINE
  8
0
  6
CONTINUOUS
 10
128.227753
 20
320.354828
 11
157.727753
 21
320.354828
  0
LINE
  8
0
  6
CONTINUOUS
 10
127.727753
 20
320.854858
 11
127.727753
 21
327.053467
  0
ARC
  8
0
  6
CONTINUOUS
 10
128.227753
 20
320.854858
 40
0.500000
 50
-180.000000
 51
-90.000000
  0
ARC
  8
0
  6
CONTINUOUS
 10
128.227753
 20
321.395905
 40
0.500000
 50
-180.000000
 51
-90.000000
  0
LINE
  8
0
  6
CONTINUOUS
 10
60.727795
 20
327.053467
 11
127.727753
 21
327.053467
  0
ARC
  8
0
  6
CONTINUOUS
 10
126.727814
 20
322.854828
 40
1.000000
 50
-90.000000
 51
0.000000
  0
ARC
  8
0
  6
CONTINUOUS
 10
61.727795
 20
322.854828
 40
1.000000
 50
-180.000000
 51
-90.000000
  0
LINE
  8
0
  6
CONTINUOUS
 10
54.790138
 20
307.432983
 11
53.727695
 21
267.354828
  0
LINE
  8
0
  6
CONTINUOUS
 10
122.664742
 20
307.432983
 11
123.727692
 21
267.354828
  0
LINE
  8
0
  6
CONTINUOUS
 10
112.753494
 20
320.354828
 11
64.701797
 21
320.354828
  0
LINE
  8
0
  6
CONTINUOUS
 10
119.678993
 20
310.354828
 11
102.038963
 21
310.354828
  0
ARC
  8
0
  6
CONTINUOUS
 10
57.775795
 20
307.354828
 40
3.000000
 50
90.000000
 51
178.500275
  0
ARC
  8
0
  6
CONTINUOUS
 10
119.678993
 20
307.354828
 40
3.000000
 50
1.499900
 51
90.000000
  0
LINE
  8
0
  6
CONTINUOUS
 10
63.702133
 20
319.380981
 11
63.516788
 21
312.302460
  0
LINE
  8
0
  6
CONTINUOUS
 10
113.753151
 20
319.380981
 11
113.938499
 21
312.302460
  0
ARC
  8
0
  6
CONTINUOUS
 10
112.753494
 20
319.354828
 40
1.000000
 50
1.499300
 51
90.000000
  0
ARC
  8
0
  6
CONTINUOUS
 10
64.701797
 20
319.354828
 40
1.000000
 50
90.000000
 51
178.499405
  0
LINE
  8
0
  6
CONTINUOUS
 10
57.775894
 20
310.354828
 11
75.416420
 21
310.354828
  0
ARC
  8
0
  6
CONTINUOUS
 10
88.727692
 20
377.854828
 40
68.800003
 50
-101.155815
 51
-78.844185
  0
LINE
  8
0
  6
CENTER
 10
88.727692
 20
324.180939
 11
88.727692
 21
248.408127
  0
LINE
  8
0
  6
CONTINUOUS
 10
56.227695
 20
261.354828
 11
121.227692
 21
261.354828
  0
LINE
  8
0
  6
CONTINUOUS
 10
123.727692
 20
263.854828
 11
123.727692
 21
266.354828
  0
LINE
  8
0
  6
CONTINUOUS
 10
53.727695
 20
263.854828
 11
53.727695
 21
266.354828
  0
LINE
  8
0
  6
CONTINUOUS
 10
123.727692
 20
266.354828
 11
53.727695
 21
266.354828
  0
LINE
  8
0
  6
CONTINUOUS
 10
123.727692
 20
267.354828
 11
53.727695
 21
267.354828
  0
LINE
  8
0
  6
CONTINUOUS
 10
123.727692
 20
266.354828
 11
123.727692
 21
267.354828
  0
LINE
  8
0
  6
CONTINUOUS
 10
53.727695
 20
266.354828
 11
53.727695
 21
267.354828
  0
LINE
  8
0
  6
CENTER
 10
58.727695
 20
283.354828
 11
21.808245
 21
283.354828
  0
LINE
  8
0
  6
CONTINUOUS
 10
115.214790
 20
264.354828
 11
122.727692
 21
264.354828
  0
LINE
  8
0
  6
CONTINUOUS
 10
62.240635
 20
264.354828
 11
54.727695
 21
264.354828
  0
LINE
  8
0
  6
CONTINUOUS
 10
114.714996
 20
263.867920
 11
114.674690
 21
262.328613
  0
ARC
  8
0
  6
CONTINUOUS
 10
115.214790
 20
263.854828
 40
0.500000
 50
90.000000
 51
178.500000
  0
ARC
  8
0
  6
CONTINUOUS
 10
113.674995
 20
262.354828
 40
1.000000
 50
-90.000000
 51
-1.499802
  0
ARC
  8
0
  6
CONTINUOUS
 10
122.727692
 20
265.354828
 40
1.000000
 50
-90.000000
 51
0.000000
  0
ARC
  8
0
  6
CONTINUOUS
 10
121.227692
 20
263.854828
 40
2.500000
 50
-90.000000
 51
0.000000
  0
LINE
  8
0
  6
CONTINUOUS
 10
62.740513
 20
263.867920
 11
62.780792
 21
262.328613
  0
ARC
  8
0
  6
CONTINUOUS
 10
63.780422
 20
262.354828
 40
1.000000
 50
-178.499603
 51
-90.000000
  0
ARC
  8
0
  6
CONTINUOUS
 10
62.240635
 20
263.854828
 40
0.500000
 50
1.500198
 51
90.000000
  0
ARC
  8
0
  6
CONTINUOUS
 10
54.727695
 20
265.354828
 40
1.000000
 50
-180.000000
 51
-90.000000
  0
ARC
  8
0
  6
CONTINUOUS
 10
56.227695
 20
263.854828
 40
2.500000
 50
-180.000000
 51
-90.000000
  0
ARC
  8
0
  6
CONTINUOUS
 10
118.727692
 20
264.354828
 40
3.000000
 50
-180.000000
 51
0.000000
  0
LINE
  8
0
  6
CONTINUOUS
 10
121.685692
 20
263.854828
 11
115.769691
 21
263.854828
  0
LINE
  8
0
  6
CONTINUOUS
 10
118.727692
 20
261.854828
 11
118.446594
 21
261.368011
  0
LINE
  8
0
  6
CONTINUOUS
 10
118.727692
 20
261.854828
 11
119.008797
 21
261.368011
  0
ARC
  8
0
  6
CONTINUOUS
 10
58.727695
 20
264.354828
 40
3.000000
 50
-180.000000
 51
0.000000
  0
LINE
  8
0
  6
CONTINUOUS
 10
61.685703
 20
263.854828
 11
55.769684
 21
263.854828
  0
LINE
  8
0
  6
CONTINUOUS
 10
58.727695
 20
261.854828
 11
58.446625
 21
261.368011
  0
LINE
  8
0
  6
CONTINUOUS
 10
58.727695
 20
261.854828
 11
59.008823
 21
261.368011
  0
LINE
  8
0
  6
CONTINUOUS
 10
111.727692
 20
320.354828
 11
111.727692
 21
321.854828
  0
LINE
  8
0
  6
CONTINUOUS
 10
65.727692
 20
320.354828
 11
65.727692
 21
321.854828
  0
LINE
  8
0
  6
CONTINUOUS
 10
25.727743
 20
297.854980
 11
25.727743
 21
268.854858
  0
LINE
  8
0
  6
CONTINUOUS
 10
33.727745
 20
297.854980
 11
33.727745
 21
268.854858
  0
LINE
  8
0
  6
CONTINUOUS
 10
25.727743
 20
297.854980
 11
33.727745
 21
297.854980
  0
LINE
  8
0
  6
CONTINUOUS
 10
25.727743
 20
268.854858
 11
33.727745
 21
268.854858
  0
LINE
  8
0
  6
CONTINUOUS
 10
42.727745
 20
296.354980
 11
42.727745
 21
270.354858
  0
LINE
  8
0
  6
CONTINUOUS
 10
33.727745
 20
296.354980
 11
42.727745
 21
296.354980
  0
LINE
  8
0
  6
CONTINUOUS
 10
33.727745
 20
270.354858
 11
42.727745
 21
270.354858
  0
LINE
  8
0
  6
CONTINUOUS
 10
42.727745
 20
294.854980
 11
47.727745
 21
294.854980
  0
LINE
  8
0
  6
CONTINUOUS
 10
42.727745
 20
271.854858
 11
47.727745
 21
271.854858
  0
LINE
  8
0
  6
CONTINUOUS
 10
47.727745
 20
296.854980
 11
47.727745
 21
269.854858
  0
LINE
  8
0
  6
CONTINUOUS
 10
52.227745
 20
297.854980
 11
52.227745
 21
268.854858
  0
LINE
  8
0
  6
CONTINUOUS
 10
47.727745
 20
296.854980
 11
52.227745
 21
296.854980
  0
LINE
  8
0
  6
CONTINUOUS
 10
47.727745
 20
269.854858
 11
52.227745
 21
269.854858
  0
LINE
  8
0
  6
CONTINUOUS
 10
52.227745
 20
297.854980
 11
54.536236
 21
297.854980
  0
LINE
  8
0
  6
CONTINUOUS
 10
52.227745
 20
268.854858
 11
53.767460
 21
268.854858
  0
LINE
  8
0
  6
CONTINUOUS
 10
25.727743
 20
291.354980
 11
33.727745
 21
291.354980
  0
LINE
  8
0
  6
CONTINUOUS
 10
25.727743
 20
275.354858
 11
33.727745
 21
275.354858
  0
ARC
  8
0
  6
CONTINUOUS
 10
61.517471
 20
312.354828
 40
2.000000
 50
-90.000000
 51
-1.499917
  0
ARC
  8
0
  6
CONTINUOUS
 10
115.937820
 20
312.354828
 40
2.000000
 50
-178.500046
 51
-90.000000
  0
LINE
  8
0
  6
CONTINUOUS
 10
157.727737
 20
175.857422
 11
157.727737
 21
60.857430
  0
LINE
  8
0
  6
CONTINUOUS
 10
157.727737
 20
175.857422
 11
157.727737
 21
60.857430
  0
LINE
  8
0
  6
CONTINUOUS
 10
157.727737
 20
175.857315
 11
157.727737
 21
60.857307
  0
LINE
  8
0
  6
CONTINUOUS
 10
52.727734
 20
176.357269
 11
52.727734
 21
132.857376
  0
LINE
  8
0
  6
CONTINUOUS
 10
52.727734
 20
175.857422
 11
157.727737
 21
175.857422
  0
LINE
  8
0
  6
CONTINUOUS
 10
52.727734
 20
60.857430
 11
74.227783
 21
60.857430
  0
LINE
  8
0
  6
CONTINUOUS
 10
60.727734
 20
169.643433
 11
60.727734
 21
165.357422
  0
LINE
  8
0
  6
CONTINUOUS
 10
149.727737
 20
169.643433
 11
149.727737
 21
165.357422
  0
LINE
  8
0
  6
CONTINUOUS
 10
125.727737
 20
145.357422
 11
123.727783
 21
145.357422
  0
LINE
  8
0
  6
CONTINUOUS
 10
125.727737
 20
91.357430
 11
123.727783
 21
91.357430
  0
LINE
  8
0
  6
CONTINUOUS
 10
127.727737
 20
93.357430
 11
127.727737
 21
143.357422
  0
LINE
  8
0
  6
CONTINUOUS
 10
127.727737
 20
125.157425
 11
149.727737
 21
125.157425
  0
LINE
  8
0
  6
CONTINUOUS
 10
127.727737
 20
111.557426
 11
149.727737
 21
111.557426
  0
LINE
  8
0
  6
CONTINUOUS
 10
127.727737
 20
127.157425
 11
149.727737
 21
127.157425
  0
LINE
  8
0
  6
CONTINUOUS
 10
127.727737
 20
109.557426
 11
149.727737
 21
109.557426
  0
LINE
  8
0
  6
CONTINUOUS
 10
127.727737
 20
132.957428
 11
149.727737
 21
132.957428
  0
LINE
  8
0
  6
CONTINUOUS
 10
127.727737
 20
134.957428
 11
149.727737
 21
134.957428
  0
LINE
  8
0
  6
CONTINUOUS
 10
127.727737
 20
103.757431
 11
149.727737
 21
103.757431
  0
LINE
  8
0
  6
CONTINUOUS
 10
127.727737
 20
101.757431
 11
149.727737
 21
101.757431
  0
LINE
  8
0
  6
CONTINUOUS
 10
127.727737
 20
140.757431
 11
149.727737
 21
140.757431
  0
LINE
  8
0
  6
CONTINUOUS
 10
127.727737
 20
95.957428
 11
149.727737
 21
95.957428
  0
LINE
  8
0
  6
CONTINUOUS
 10
127.727737
 20
142.757431
 11
149.727737
 21
142.757431
  0
LINE
  8
0
  6
CONTINUOUS
 10
127.727737
 20
93.957428
 11
149.727737
 21
93.957428
  0
LINE
  8
0
  6
CONTINUOUS
 10
60.727734
 20
156.357422
 11
149.727737
 21
156.357422
  0
LINE
  8
0
  6
CONTINUOUS
 10
60.727734
 20
80.357430
 11
86.227753
 21
80.357430
  0
LINE
  8
0
  6
CONTINUOUS
 10
60.727734
 20
158.357422
 11
149.727737
 21
158.357422
  0
LINE
  8
0
  6
CONTINUOUS
 10
60.727734
 20
78.357430
 11
75.227783
 21
78.357430
  0
LINE
  8
0
  6
CONTINUOUS
 10
60.727734
 20
163.357422
 11
149.727737
 21
163.357422
  0
LINE
  8
0
  6
CONTINUOUS
 10
60.727734
 20
73.357430
 11
84.911957
 21
73.357430
  0
LINE
  8
0
  6
CONTINUOUS
 10
60.727734
 20
165.357422
 11
149.727737
 21
165.357422
  0
LINE
  8
0
  6
CONTINUOUS
 10
60.727734
 20
71.357430
 11
75.727783
 21
71.357430
  0
LINE
  8
0
  6
CONTINUOUS
 10
60.727734
 20
169.643433
 11
149.727737
 21
169.643433
  0
LINE
  8
0
  6
CONTINUOUS
 10
86.155800
 20
67.071426
 11
101.727882
 21
67.071426
  0
LINE
  8
0
  6
CONTINUOUS
 10
60.727734
 20
68.315712
 11
60.727734
 21
71.357430
  0
LINE
  8
0
  6
CONTINUOUS
 10
60.727734
 20
163.357422
 11
60.727734
 21
158.357422
  0
LINE
  8
0
  6
CONTINUOUS
 10
60.727734
 20
156.357422
 11
60.727734
 21
153.357422
  0
LINE
  8
0
  6
CONTINUOUS
 10
60.727734
 20
83.357430
 11
60.727734
 21
80.357430
  0
LINE
  8
0
  6
CONTINUOUS
 10
60.727734
 20
78.357430
 11
60.727734
 21
73.357430
  0
LINE
  8
0
  6
CONTINUOUS
 10
149.727737
 20
67.071426
 11
149.727737
 21
71.357430
  0
LINE
  8
0
  6
CONTINUOUS
 10
149.727737
 20
73.357430
 11
149.727737
 21
78.357430
  0
LINE
  8
0
  6
CONTINUOUS
 10
149.727737
 20
80.357430
 11
149.727737
 21
85.857430
  0
LINE
  8
0
  6
CONTINUOUS
 10
149.727737
 20
87.857430
 11
149.727737
 21
93.957428
  0
LINE
  8
0
  6
CONTINUOUS
 10
149.727737
 20
95.957428
 11
149.727737
 21
101.757416
  0
LINE
  8
0
  6
CONTINUOUS
 10
149.727737
 20
103.757423
 11
149.727737
 21
109.557434
  0
LINE
  8
0
  6
CONTINUOUS
 10
127.727737
 20
119.357430
 11
149.727737
 21
119.357430
  0
LINE
  8
0
  6
CONTINUOUS
 10
127.727737
 20
117.357430
 11
149.727737
 21
117.357430
  0
LINE
  8
0
  6
CONTINUOUS
 10
149.727737
 20
111.557434
 11
149.727737
 21
117.357430
  0
LINE
  8
0
  6
CONTINUOUS
 10
149.727737
 20
119.357430
 11
149.727737
 21
125.157433
  0
LINE
  8
0
  6
CONTINUOUS
 10
149.727737
 20
127.157425
 11
149.727737
 21
132.957428
  0
LINE
  8
0
  6
CONTINUOUS
 10
149.727737
 20
134.957428
 11
149.727737
 21
140.757431
  0
LINE
  8
0
  6
CONTINUOUS
 10
149.727737
 20
142.757431
 11
149.727737
 21
148.857422
  0
LINE
  8
0
  6
CONTINUOUS
 10
149.727737
 20
150.857422
 11
149.727737
 21
156.357422
  0
LINE
  8
0
  6
CONTINUOUS
 10
149.727737
 20
158.357422
 11
149.727737
 21
163.357422
  0
ARC
  8
0
  6
CONTINUOUS
 10
125.727737
 20
143.357422
 40
2.000000
 50
0.000000
 51
90.000000
  0
ARC
  8
0
  6
CONTINUOUS
 10
125.727737
 20
93.357430
 40
2.000000
 50
-90.000000
 51
0.000000
  0
LINE
  8
0
  6
CONTINUOUS
 10
149.727737
 20
87.857430
 11
123.727783
 21
87.857430
  0
LINE
  8
0
  6
CONTINUOUS
 10
149.727737
 20
85.857430
 11
123.727783
 21
85.857430
  0
LINE
  8
0
  6
CONTINUOUS
 10
149.727737
 20
80.357430
 11
102.227882
 21
80.357430
  0
LINE
  8
0
  6
CONTINUOUS
 10
149.727737
 20
78.357430
 11
91.227753
 21
78.357292
  0
LINE
  8
0
  6
CONTINUOUS
 10
149.727737
 20
73.357430
 11
100.227882
 21
73.357430
  0
LINE
  8
0
  6
CONTINUOUS
 10
149.727737
 20
71.357430
 11
89.516182
 21
71.357430
  0
LINE
  8
0
  6
CONTINUOUS
 10
149.727737
 20
67.071426
 11
101.727882
 21
67.071426
  0
LINE
  8
0
  6
CONTINUOUS
 10
157.727737
 20
60.857430
 11
74.227783
 21
60.857430
  0
LINE
  8
0
  6
CONTINUOUS
 10
56.227745
 20
153.357422
 11
121.227684
 21
153.357422
  0
LINE
  8
0
  6
CONTINUOUS
 10
121.227783
 20
83.357430
 11
56.227734
 21
83.357430
  0
LINE
  8
0
  6
CONTINUOUS
 10
53.727734
 20
110.630829
 11
53.727734
 21
150.857422
  0
LINE
  8
0
  6
CONTINUOUS
 10
123.727783
 20
110.630829
 11
123.727783
 21
150.857422
  0
ARC
  8
0
  6
CONTINUOUS
 10
121.227783
 20
150.857422
 40
2.500000
 50
0.000000
 51
90.000000
  0
ARC
  8
0
  6
CONTINUOUS
 10
56.227764
 20
150.857422
 40
2.500000
 50
90.000000
 51
180.000000
  0
ARC
  8
0
  6
CONTINUOUS
 10
56.227745
 20
85.857430
 40
2.500000
 50
180.000000
 51
270.000000
  0
ARC
  8
0
  6
CONTINUOUS
 10
121.227783
 20
85.857414
 40
2.500000
 50
-90.000000
 51
0.000000
  0
ARC
  8
0
  6
CONTINUOUS
 10
58.727745
 20
148.357422
 40
4.000000
 50
-90.000000
 51
0.000000
  0
ARC
  8
0
  6
CONTINUOUS
 10
118.727783
 20
148.357422
 40
4.000000
 50
180.000000
 51
270.000000
  0
ARC
  8
0
  6
CONTINUOUS
 10
118.727783
 20
88.357430
 40
4.000000
 50
90.000000
 51
180.000000
  0
ARC
  8
0
  6
CONTINUOUS
 10
58.727745
 20
88.357430
 40
4.000000
 50
0.000000
 51
90.000000
  0
LINE
  8
0
  6
CONTINUOUS
 10
118.727783
 20
144.357422
 11
121.227783
 21
144.357422
  0
LINE
  8
0
  6
CONTINUOUS
 10
58.727734
 20
144.357422
 11
56.227734
 21
144.357422
  0
LINE
  8
0
  6
CONTINUOUS
 10
58.727734
 20
92.357430
 11
56.227764
 21
92.357430
  0
LINE
  8
0
  6
CONTINUOUS
 10
118.727783
 20
92.357430
 11
121.227783
 21
92.357430
  0
LINE
  8
0
  6
CONTINUOUS
 10
114.727783
 20
148.357422
 11
114.727783
 21
150.857422
  0
LINE
  8
0
  6
CONTINUOUS
 10
62.727745
 20
148.357422
 11
62.727745
 21
150.857422
  0
LINE
  8
0
  6
CONTINUOUS
 10
62.727745
 20
88.357430
 11
62.727745
 21
85.857414
  0
LINE
  8
0
  6
CONTINUOUS
 10
114.727783
 20
88.357407
 11
114.727783
 21
85.857414
  0
ARC
  8
0
  6
CONTINUOUS
 10
56.227745
 20
141.857422
 40
2.500000
 50
90.000000
 51
180.000000
  0
ARC
  8
0
  6
CONTINUOUS
 10
65.227768
 20
150.857422
 40
2.500000
 50
90.000000
 51
180.000000
  0
ARC
  8
0
  6
CONTINUOUS
 10
112.227783
 20
150.857422
 40
2.500000
 50
0.000000
 51
90.000000
  0
ARC
  8
0
  6
CONTINUOUS
 10
121.227783
 20
141.857422
 40
2.500000
 50
0.000000
 51
90.000000
  0
ARC
  8
0
  6
CONTINUOUS
 10
56.227745
 20
94.857430
 40
2.500000
 50
180.000000
 51
270.000000
  0
ARC
  8
0
  6
CONTINUOUS
 10
65.227745
 20
85.857430
 40
2.500000
 50
180.000000
 51
270.000000
  0
ARC
  8
0
  6
CONTINUOUS
 10
121.227783
 20
94.857414
 40
2.500000
 50
-90.000000
 51
0.000000
  0
ARC
  8
0
  6
CONTINUOUS
 10
112.227783
 20
85.857414
 40
2.500000
 50
-90.000000
 51
0.000000
  0
LINE
  8
0
  6
CONTINUOUS
 10
123.727783
 20
85.857430
 11
123.727783
 21
110.630829
  0
LINE
  8
0
  6
CONTINUOUS
 10
53.727745
 20
85.857430
 11
53.727734
 21
110.630829
  0
LINE
  8
0
  6
CONTINUOUS
 10
25.727785
 20
103.857277
 11
25.727785
 21
132.857376
  0
LINE
  8
0
  6
CONTINUOUS
 10
33.727783
 20
103.857277
 11
33.727783
 21
132.857376
  0
LINE
  8
0
  6
CONTINUOUS
 10
25.727785
 20
103.857277
 11
33.727783
 21
103.857277
  0
LINE
  8
0
  6
CONTINUOUS
 10
25.727785
 20
132.857376
 11
33.727783
 21
132.857376
  0
LINE
  8
0
  6
CONTINUOUS
 10
42.727783
 20
105.357277
 11
42.727783
 21
131.357376
  0
LINE
  8
0
  6
CONTINUOUS
 10
33.727783
 20
105.357277
 11
42.727783
 21
105.357277
  0
LINE
  8
0
  6
CONTINUOUS
 10
33.727783
 20
131.357376
 11
42.727783
 21
131.357376
  0
LINE
  8
0
  6
CONTINUOUS
 10
42.727783
 20
106.857277
 11
47.727783
 21
106.857277
  0
LINE
  8
0
  6
CONTINUOUS
 10
42.727783
 20
129.857376
 11
47.727783
 21
129.857376
  0
LINE
  8
0
  6
CONTINUOUS
 10
47.727783
 20
104.857277
 11
47.727783
 21
131.857376
  0
LINE
  8
0
  6
CONTINUOUS
 10
52.227783
 20
103.857277
 11
52.227783
 21
132.857376
  0
LINE
  8
0
  6
CONTINUOUS
 10
47.727783
 20
104.857277
 11
52.227783
 21
104.857277
  0
LINE
  8
0
  6
CONTINUOUS
 10
47.727783
 20
131.857376
 11
52.227783
 21
131.857376
  0
LINE
  8
0
  6
CONTINUOUS
 10
52.227783
 20
103.857277
 11
53.767086
 21
103.857277
  0
LINE
  8
0
  6
CONTINUOUS
 10
52.227783
 20
132.857376
 11
53.727734
 21
132.857376
  0
LINE
  8
0
  6
CONTINUOUS
 10
25.727785
 20
110.357277
 11
33.727783
 21
110.357277
  0
LINE
  8
0
  6
CONTINUOUS
 10
25.727785
 20
126.357376
 11
33.727783
 21
126.357376
  0
LINE
  8
0
  6
CENTER
 10
88.727737
 20
73.982430
 11
88.727737
 21
164.834824
  0
LINE
  8
0
  6
CONTINUOUS
 10
123.727783
 20
148.857422
 11
149.727737
 21
148.857422
  0
LINE
  8
0
  6
CONTINUOUS
 10
123.727783
 20
150.857422
 11
149.727737
 21
150.857422
  0
LINE
  8
0
  6
CONTINUOUS
 10
52.727734
 20
103.857277
 11
52.727734
 21
68.315712
  0
LINE
  8
0
  6
CONTINUOUS
 10
477.067749
 20
83.357315
 11
477.067749
 21
119.857216
  0
LINE
  8
0
  6
CONTINUOUS
 10
477.067749
 20
153.357315
 11
477.067749
 21
151.857224
  0
LINE
  8
0
  6
CONTINUOUS
 10
517.145874
 20
84.419762
 11
477.067749
 21
83.357315
  0
LINE
  8
0
  6
CONTINUOUS
 10
517.145935
 20
152.294373
 11
477.067749
 21
153.357315
  0
ARC
  8
0
  6
CONTINUOUS
 10
517.067749
 20
87.405418
 40
3.000000
 50
-88.500267
 51
0.000000
  0
ARC
  8
0
  6
CONTINUOUS
 10
517.067749
 20
149.308624
 40
3.000000
 50
58.160950
 51
88.500099
  0
LINE
  8
0
  6
CONTINUOUS
 10
523.610168
 20
93.188171
 11
522.015381
 21
93.146408
  0
LINE
  8
0
  6
CONTINUOUS
 10
520.067749
 20
87.405518
 11
520.067749
 21
105.046043
  0
ARC
  8
0
  6
CONTINUOUS
 10
587.567749
 20
118.357315
 40
68.800003
 50
178.750809
 51
191.155807
  0
LINE
  8
0
  6
CONTINUOUS
 10
471.067749
 20
85.857315
 11
471.067749
 21
119.857216
  0
LINE
  8
0
  6
CONTINUOUS
 10
473.567749
 20
153.357315
 11
476.067749
 21
153.357315
  0
LINE
  8
0
  6
CONTINUOUS
 10
473.567749
 20
83.357315
 11
476.067749
 21
83.357315
  0
LINE
  8
0
  6
CONTINUOUS
 10
476.067749
 20
153.357315
 11
476.067749
 21
151.857224
  0
LINE
  8
0
  6
CONTINUOUS
 10
476.067749
 20
153.357315
 11
477.067749
 21
153.357315
  0
LINE
  8
0
  6
CONTINUOUS
 10
476.067749
 20
83.357315
 11
477.067749
 21
83.357315
  0
LINE
  8
0
  6
CENTER
 10
493.067749
 20
160.814316
 11
493.067749
 21
64.982315
  0
LINE
  8
0
  6
CONTINUOUS
 10
474.067749
 20
91.870255
 11
474.067749
 21
84.357315
  0
ARC
  8
0
  6
CONTINUOUS
 10
475.067749
 20
152.357315
 40
1.000000
 50
90.000000
 51
180.000000
  0
ARC
  8
0
  6
CONTINUOUS
 10
473.567749
 20
150.857315
 40
2.500000
 50
90.000000
 51
156.424316
  0
LINE
  8
0
  6
CONTINUOUS
 10
473.580841
 20
92.370140
 11
472.041534
 21
92.410416
  0
ARC
  8
0
  6
CONTINUOUS
 10
472.067749
 20
93.410049
 40
1.000000
 50
180.000000
 51
268.499603
  0
ARC
  8
0
  6
CONTINUOUS
 10
473.567749
 20
91.870255
 40
0.500000
 50
0.000000
 51
88.499802
  0
ARC
  8
0
  6
CONTINUOUS
 10
475.067749
 20
84.357315
 40
1.000000
 50
180.000000
 51
270.000000
  0
ARC
  8
0
  6
CONTINUOUS
 10
473.567749
 20
85.857315
 40
2.500000
 50
180.000000
 51
270.000000
  0
ARC
  8
0
  6
CONTINUOUS
 10
474.067749
 20
88.357315
 40
3.000000
 50
90.000000
 51
270.000000
  0
LINE
  8
0
  6
CONTINUOUS
 10
473.567749
 20
91.315331
 11
473.567749
 21
85.399307
  0
LINE
  8
0
  6
CONTINUOUS
 10
471.567749
 20
88.357315
 11
471.080933
 21
88.076248
  0
LINE
  8
0
  6
CONTINUOUS
 10
471.567749
 20
88.357315
 11
471.080933
 21
88.638443
  0
ARC
  8
0
  6
CONTINUOUS
 10
522.067749
 20
91.147095
 40
2.000000
 50
91.499916
 51
180.000000
  0
LINE
  8
0
  6
CENTER
 10
663.873413
 20
118.357315
 11
456.608643
 21
118.357315
  0
LINE
  8
0
  6
CONTINUOUS
 10
476.067749
 20
119.857216
 11
476.067749
 21
83.357315
  0
LINE
  8
0
  6
CONTINUOUS
 10
474.067749
 20
151.857224
 11
474.067749
 21
152.357315
  0
ARC
  8
0
  6
CONTINUOUS
 10
341.227783
 20
377.857574
 40
340.000000
 50
170.966705
 51
180.000000
  0
ARC
  8
0
  6
CONTINUOUS
 10
17.295996
 20
429.357361
 40
12.000000
 50
90.000000
 51
170.966904
  0
LINE
  8
0
  6
CONTINUOUS
 10
46.214706
 20
445.341614
 11
27.482210
 21
445.178131
  0
LINE
  8
0
  6
CONTINUOUS
 10
17.295795
 20
441.350952
 11
25.490995
 21
441.350952
  0
LINE
  8
0
  6
CONTINUOUS
 10
47.727795
 20
443.841675
 11
47.727795
 21
377.854828
  0
ARC
  8
0
  6
CONTINUOUS
 10
344.227783
 20
377.854370
 40
325.000000
 50
168.259811
 51
179.999924
  0
LINE
  8
0
  6
CONTINUOUS
 10
47.727795
 20
435.854828
 11
52.727795
 21
435.854828
  0
LINE
  8
0
  6
CONTINUOUS
 10
47.727795
 20
319.854828
 11
52.727795
 21
319.854828
  0
LINE
  8
0
  6
CONTINUOUS
 10
48.227795
 20
371.354828
 11
48.227795
 21
384.354828
  0
LINE
  8
0
  6
CONTINUOUS
 10
47.727795
 20
384.354828
 11
48.227795
 21
384.354828
  0
LINE
  8
0
  6
CONTINUOUS
 10
47.727795
 20
371.354828
 11
48.227795
 21
371.354828
  0
ARC
  8
0
  6
CONTINUOUS
 10
46.227795
 20
443.841675
 40
1.500000
 50
0.000000
 51
90.500000
  0
ARC
  8
0
  6
CONTINUOUS
 10
27.495300
 20
443.678192
 40
1.500000
 50
90.500000
 51
168.259811
  0
ARC
  8
0
  6
CONTINUOUS
 10
341.227783
 20
377.852081
 40
340.000000
 50
-180.000000
 51
-170.966705
  0
ARC
  8
0
  6
CONTINUOUS
 10
17.295996
 20
326.352264
 40
12.000000
 50
-170.966904
 51
-90.000000
  0
LINE
  8
0
  6
CONTINUOUS
 10
46.214706
 20
310.368011
 11
27.482210
 21
310.531494
  0
LINE
  8
0
  6
CONTINUOUS
 10
17.295795
 20
314.358673
 11
25.490995
 21
314.358673
  0
LINE
  8
0
  6
CONTINUOUS
 10
47.727795
 20
311.867950
 11
47.727795
 21
377.854828
  0
ARC
  8
0
  6
CONTINUOUS
 10
344.227783
 20
377.855255
 40
325.000000
 50
-179.999924
 51
-168.259811
  0
ARC
  8
0
  6
CONTINUOUS
 10
46.227795
 20
311.867950
 40
1.500000
 50
-90.500000
 51
0.000000
  0
ARC
  8
0
  6
CONTINUOUS
 10
27.495300
 20
312.031433
 40
1.500000
 50
-168.259811
 51
-90.500000
  0
LINE
  8
0
  6
CONTINUOUS
 10
48.227768
 20
182.357269
 11
47.727730
 21
182.357269
  0
LINE
  8
0
  6
CONTINUOUS
 10
48.227768
 20
176.357269
 11
48.227768
 21
182.357269
  0
LINE
  8
0
  6
CONTINUOUS
 10
48.227768
 20
182.357269
 11
47.727730
 21
182.357269
  0
LINE
  8
0
  6
CONTINUOUS
 10
47.727730
 20
176.357269
 11
52.727730
 21
176.357269
  0
LINE
  8
0
  6
CONTINUOUS
 10
47.727730
 20
60.857269
 11
52.727734
 21
60.857269
  0
LINE
  8
0
  6
CONTINUOUS
 10
46.214649
 20
185.695770
 11
21.052750
 21
185.476044
  0
ARC
  8
0
  6
CONTINUOUS
 10
17.296049
 20
169.857452
 40
12.000000
 50
82.994843
 51
170.966507
  0
ARC
  8
0
  6
CONTINUOUS
 10
341.227753
 20
118.357269
 40
340.000000
 50
170.966507
 51
188.814499
  0
ARC
  8
0
  6
CONTINUOUS
 10
18.881449
 20
182.760468
 40
1.000000
 50
262.995300
 51
343.455597
  0
ARC
  8
0
  6
CONTINUOUS
 10
21.065748
 20
183.976395
 40
1.500000
 50
90.500267
 51
191.594803
  0
LINE
  8
0
  6
CONTINUOUS
 10
47.223351
 20
60.861671
 11
11.120037
 21
61.176750
  0
ARC
  8
0
  6
CONTINUOUS
 10
11.172391
 20
67.176491
 40
6.000000
 50
188.814499
 51
269.500000
  0
ARC
  8
0
  6
CONTINUOUS
 10
22.927050
 20
62.573772
 40
1.500000
 50
170.162598
 51
269.500000
  0
ARC
  8
0
  6
CONTINUOUS
 10
46.227730
 20
184.195770
 40
1.500000
 50
0.000000
 51
90.500191
  0
ARC
  8
0
  6
CONTINUOUS
 10
47.227730
 20
61.361671
 40
0.500000
 50
-90.500000
 51
0.000000
  0
LINE
  8
0
  6
CONTINUOUS
 10
47.727730
 20
61.361671
 11
47.727730
 21
184.195770
  0
ARC
  8
0
  6
CONTINUOUS
 10
-298.772247
 20
118.357269
 40
325.000000
 50
350.162567
 51
357.442871
  0
ARC
  8
0
  6
CONTINUOUS
 10
-298.772247
 20
118.357269
 40
325.000000
 50
2.557141
 51
11.594100
  0
ARC
  8
0
  6
CONTINUOUS
 10
587.567749
 20
118.357315
 40
67.500000
 50
-19.127844
 51
23.289549
  0
LINE
  8
0
  6
CONTINUOUS
 10
60.477745
 20
148.757416
 11
60.477745
 21
147.957397
  0
LINE
  8
0
  6
CONTINUOUS
 10
58.327721
 20
150.107422
 11
59.127739
 21
150.107422
  0
LINE
  8
0
  6
CONTINUOUS
 10
58.327721
 20
146.607422
 11
59.127739
 21
146.607422
  0
LINE
  8
0
  6
CONTINUOUS
 10
56.977745
 20
148.757416
 11
56.977745
 21
147.957397
  0
CIRCLE
  8
0
  6
CONTINUOUS
 10
58.727745
 20
148.357422
 40
2.750000
  0
ARC
  8
0
  6
CONTINUOUS
 10
56.977745
 20
150.107422
 40
1.350000
 50
-90.000000
 51
0.000000
  0
ARC
  8
0
  6
CONTINUOUS
 10
56.977745
 20
146.607422
 40
1.350000
 50
0.000000
 51
90.000000
  0
ARC
  8
0
  6
CONTINUOUS
 10
60.477745
 20
150.107422
 40
1.350000
 50
180.000000
 51
270.000000
  0
ARC
  8
0
  6
CONTINUOUS
 10
60.477745
 20
146.607422
 40
1.350000
 50
90.000000
 51
180.000000
  0
LINE
  8
0
  6
CONTINUOUS
 10
120.477783
 20
148.757416
 11
120.477783
 21
147.957397
  0
LINE
  8
0
  6
CONTINUOUS
 10
118.327759
 20
150.107422
 11
119.127777
 21
150.107422
  0
LINE
  8
0
  6
CONTINUOUS
 10
118.327759
 20
146.607422
 11
119.127777
 21
146.607422
  0
LINE
  8
0
  6
CONTINUOUS
 10
116.977783
 20
148.757416
 11
116.977783
 21
147.957397
  0
CIRCLE
  8
0
  6
CONTINUOUS
 10
118.727783
 20
148.357422
 40
2.750000
  0
ARC
  8
0
  6
CONTINUOUS
 10
116.977783
 20
150.107422
 40
1.350000
 50
-90.000000
 51
0.000000
  0
ARC
  8
0
  6
CONTINUOUS
 10
116.977783
 20
146.607422
 40
1.350000
 50
0.000000
 51
90.000000
  0
ARC
  8
0
  6
CONTINUOUS
 10
120.477783
 20
150.107422
 40
1.350000
 50
180.000000
 51
270.000000
  0
ARC
  8
0
  6
CONTINUOUS
 10
120.477783
 20
146.607422
 40
1.350000
 50
90.000000
 51
180.000000
  0
LINE
  8
0
  6
CONTINUOUS
 10
120.477783
 20
88.757423
 11
120.477783
 21
87.957405
  0
LINE
  8
0
  6
CONTINUOUS
 10
118.327759
 20
90.107430
 11
119.127777
 21
90.107430
  0
LINE
  8
0
  6
CONTINUOUS
 10
118.327759
 20
86.607430
 11
119.127777
 21
86.607430
  0
LINE
  8
0
  6
CONTINUOUS
 10
116.977783
 20
88.757423
 11
116.977783
 21
87.957405
  0
CIRCLE
  8
0
  6
CONTINUOUS
 10
118.727783
 20
88.357430
 40
2.750000
  0
ARC
  8
0
  6
CONTINUOUS
 10
116.977783
 20
90.107430
 40
1.350000
 50
-90.000000
 51
0.000000
  0
ARC
  8
0
  6
CONTINUOUS
 10
116.977783
 20
86.607430
 40
1.350000
 50
0.000000
 51
90.000000
  0
ARC
  8
0
  6
CONTINUOUS
 10
120.477783
 20
90.107430
 40
1.350000
 50
180.000000
 51
270.000000
  0
ARC
  8
0
  6
CONTINUOUS
 10
120.477783
 20
86.607430
 40
1.350000
 50
90.000000
 51
180.000000
  0
LINE
  8
0
  6
CONTINUOUS
 10
60.477745
 20
88.757423
 11
60.477745
 21
87.957405
  0
LINE
  8
0
  6
CONTINUOUS
 10
58.327721
 20
90.107430
 11
59.127739
 21
90.107430
  0
LINE
  8
0
  6
CONTINUOUS
 10
58.327721
 20
86.607430
 11
59.127739
 21
86.607430
  0
LINE
  8
0
  6
CONTINUOUS
 10
56.977745
 20
88.757423
 11
56.977745
 21
87.957405
  0
CIRCLE
  8
0
  6
CONTINUOUS
 10
58.727745
 20
88.357430
 40
2.750000
  0
ARC
  8
0
  6
CONTINUOUS
 10
56.977745
 20
90.107430
 40
1.350000
 50
-90.000000
 51
0.000000
  0
ARC
  8
0
  6
CONTINUOUS
 10
56.977745
 20
86.607430
 40
1.350000
 50
0.000000
 51
90.000000
  0
ARC
  8
0
  6
CONTINUOUS
 10
60.477745
 20
90.107430
 40
1.350000
 50
180.000000
 51
270.000000
  0
ARC
  8
0
  6
CONTINUOUS
 10
60.477745
 20
86.607430
 40
1.350000
 50
90.000000
 51
180.000000
  0
LINE
  8
0
  6
CONTINUOUS
 10
521.067749
 20
92.879143
 11
521.067749
 21
84.315742
  0
ARC
  8
0
  6
CONTINUOUS
 10
542.067749
 20
84.315742
 40
21.000000
 50
180.000000
 51
225.177582
  0
LINE
  8
0
  6
CONTINUOUS
 10
91.227753
 20
78.357292
 11
91.227753
 21
83.357285
  0
LINE
  8
0
  6
CONTINUOUS
 10
86.227753
 20
78.315712
 11
86.227753
 21
83.357285
  0
ARC
  8
0
  6
CONTINUOUS
 10
76.227753
 20
78.315712
 40
10.000000
 50
-90.000000
 51
0.000000
  0
ARC
  8
0
  6
CONTINUOUS
 10
76.227753
 20
78.315712
 40
15.000000
 50
-90.000000
 51
0.158824
  0
LINE
  8
0
  6
CONTINUOUS
 10
76.227753
 20
68.315712
 11
47.727749
 21
68.315712
  0
LINE
  8
0
  6
CONTINUOUS
 10
76.227753
 20
63.315708
 11
47.727749
 21
63.315708
  0
LINE
  8
0
  6
CONTINUOUS
 10
91.227753
 20
80.357430
 11
102.227882
 21
80.357430
  0
LINE
  8
0
  6
CONTINUOUS
 10
86.227753
 20
78.357430
 11
75.227783
 21
78.357430
  0
LINE
  8
0
  6
CONTINUOUS
 10
90.384567
 20
73.357430
 11
100.227882
 21
73.357430
  0
LINE
  8
0
  6
CONTINUOUS
 10
83.409836
 20
71.357430
 11
75.727783
 21
71.357430
  0
LINE
  8
0
  6
CONTINUOUS
 10
52.727734
 20
63.315708
 11
52.727734
 21
60.857269
  0
TEXT
  8
0
 10
-10.000000
 20
-48.000000
 40
4.000000
 41
1.000000
  1
H2LB-32R-600~1500-T010WZ
 50
0.000000
  0
ENDSEC
  0
EOF
