  0
SECTION
  2
HEADER
  9
$ACADVER
  1
AC1015
  9
$ACADMAINTVER
 70
    20
  9
$DWGCODEPAGE
  3
ANSI_932
  9
$INSBASE
 10
0.0
 20
0.0
 30
0.0
  9
$EXTMIN
 10
70.37667544119074
 20
83.5150229230801
 30
0.0
  9
$EXTMAX
 10
885.6985058066587
 20
661.5106160030675
 30
0.0
  9
$LIMMIN
 10
0.0
 20
0.0
  9
$LIMMAX
 10
297.0
 20
210.0
  9
$ORTHOMODE
 70
     0
  9
$REGENMODE
 70
     1
  9
$FILLMODE
 70
     1
  9
$QTEXTMODE
 70
     0
  9
$MIRRTEXT
 70
     0
  9
$LTSCALE
 40
4.0
  9
$ATTMODE
 70
     1
  9
$TEXTSIZE
 40
2.0
  9
$TRACEWID
 40
1.0
  9
$TEXTSTYLE
  7
STANDARD
  9
$CLAYER
  8
0
  9
$CELTYPE
  6
BYLAYER
  9
$CECOLOR
 62
   256
  9
$CELTSCALE
 40
1.0
  9
$DISPSILH
 70
     0
  9
$DIMSCALE
 40
4.0
  9
$DIMASZ
 40
1.8
  9
$DIMEXO
 40
0.625
  9
$DIMDLI
 40
3.75
  9
$DIMRND
 40
0.0
  9
$DIMDLE
 40
0.0
  9
$DIMEXE
 40
0.8
  9
$DIMTP
 40
0.0
  9
$DIMTM
 40
0.0
  9
$DIMTXT
 40
1.8
  9
$DIMCEN
 40
2.5
  9
$DIMTSZ
 40
0.0
  9
$DIMTOL
 70
     0
  9
$DIMLIM
 70
     0
  9
$DIMTIH
 70
     0
  9
$DIMTOH
 70
     0
  9
$DIMSE1
 70
     0
  9
$DIMSE2
 70
     0
  9
$DIMTAD
 70
     1
  9
$DIMZIN
 70
     8
  9
$DIMBLK
  1

  9
$DIMASO
 70
     1
  9
$DIMSHO
 70
     1
  9
$DIMPOST
  1

  9
$DIMAPOST
  1

  9
$DIMALT
 70
     0
  9
$DIMALTD
 70
     4
  9
$DIMALTF
 40
0.0394
  9
$DIMLFAC
 40
1.0
  9
$DIMTOFL
 70
     1
  9
$DIMTVP
 40
0.0
  9
$DIMTIX
 70
     0
  9
$DIMSOXD
 70
     0
  9
$DIMSAH
 70
     0
  9
$DIMBLK1
  1

  9
$DIMBLK2
  1

  9
$DIMSTYLE
  2
STANDARD
  9
$DIMCLRD
 70
     0
  9
$DIMCLRE
 70
     0
  9
$DIMCLRT
 70
     0
  9
$DIMTFAC
 40
1.0
  9
$DIMGAP
 40
0.75
  9
$DIMJUST
 70
     0
  9
$DIMSD1
 70
     0
  9
$DIMSD2
 70
     0
  9
$DIMTOLJ
 70
     1
  9
$DIMTZIN
 70
     0
  9
$DIMALTZ
 70
     0
  9
$DIMALTTZ
 70
     0
  9
$DIMUPT
 70
     0
  9
$DIMDEC
 70
     2
  9
$DIMTDEC
 70
     2
  9
$DIMALTU
 70
     8
  9
$DIMALTTD
 70
     4
  9
$DIMTXSTY
  7
STANDARD
  9
$DIMAUNIT
 70
     0
  9
$DIMADEC
 70
     2
  9
$DIMALTRND
 40
0.0
  9
$DIMAZIN
 70
     0
  9
$DIMDSEP
 70
    46
  9
$DIMATFIT
 70
     3
  9
$DIMFRAC
 70
     0
  9
$DIMLDRBLK
  1

  9
$DIMLUNIT
 70
     6
  9
$DIMLWD
 70
    -2
  9
$DIMLWE
 70
    -2
  9
$DIMTMOVE
 70
     0
  9
$LUNITS
 70
     2
  9
$LUPREC
 70
     3
  9
$SKETCHINC
 40
1.0
  9
$FILLETRAD
 40
10.0
  9
$AUNITS
 70
     0
  9
$AUPREC
 70
     2
  9
$MENU
  1
.
  9
$ELEVATION
 40
0.0
  9
$PELEVATION
 40
0.0
  9
$THICKNESS
 40
0.0
  9
$LIMCHECK
 70
     0
  9
$CHAMFERA
 40
0.0
  9
$CHAMFERB
 40
0.0
  9
$CHAMFERC
 40
20.0
  9
$CHAMFERD
 40
0.0
  9
$SKPOLY
 70
     0
  9
$TDCREATE
 40
2453868.452706887
  9
$TDUCREATE
 40
2453868.077706887
  9
$TDUPDATE
 40
2457926.691167755
  9
$TDUUPDATE
 40
2457926.316167755
  9
$TDINDWG
 40
0.4308061458
  9
$TDUSRTIMER
 40
0.4308061458
  9
$USRTIMER
 70
     1
  9
$ANGBASE
 50
0.0
  9
$ANGDIR
 70
     0
  9
$PDMODE
 70
     0
  9
$PDSIZE
 40
-10.0
  9
$PLINEWID
 40
0.0
  9
$SPLFRAME
 70
     0
  9
$SPLINETYPE
 70
     6
  9
$SPLINESEGS
 70
     8
  9
$HANDSEED
  5
2183
  9
$SURFTAB1
 70
     6
  9
$SURFTAB2
 70
     6
  9
$SURFTYPE
 70
     6
  9
$SURFU
 70
     6
  9
$SURFV
 70
     6
  9
$UCSBASE
  2

  9
$UCSNAME
  2

  9
$UCSORG
 10
0.0
 20
0.0
 30
0.0
  9
$UCSXDIR
 10
1.0
 20
0.0
 30
0.0
  9
$UCSYDIR
 10
0.0
 20
1.0
 30
0.0
  9
$UCSORTHOREF
  2

  9
$UCSORTHOVIEW
 70
     0
  9
$UCSORGTOP
 10
0.0
 20
0.0
 30
0.0
  9
$UCSORGBOTTOM
 10
0.0
 20
0.0
 30
0.0
  9
$UCSORGLEFT
 10
0.0
 20
0.0
 30
0.0
  9
$UCSORGRIGHT
 10
0.0
 20
0.0
 30
0.0
  9
$UCSORGFRONT
 10
0.0
 20
0.0
 30
0.0
  9
$UCSORGBACK
 10
0.0
 20
0.0
 30
0.0
  9
$PUCSBASE
  2

  9
$PUCSNAME
  2

  9
$PUCSORG
 10
0.0
 20
0.0
 30
0.0
  9
$PUCSXDIR
 10
1.0
 20
0.0
 30
0.0
  9
$PUCSYDIR
 10
0.0
 20
1.0
 30
0.0
  9
$PUCSORTHOREF
  2

  9
$PUCSORTHOVIEW
 70
     0
  9
$PUCSORGTOP
 10
0.0
 20
0.0
 30
0.0
  9
$PUCSORGBOTTOM
 10
0.0
 20
0.0
 30
0.0
  9
$PUCSORGLEFT
 10
0.0
 20
0.0
 30
0.0
  9
$PUCSORGRIGHT
 10
0.0
 20
0.0
 30
0.0
  9
$PUCSORGFRONT
 10
0.0
 20
0.0
 30
0.0
  9
$PUCSORGBACK
 10
0.0
 20
0.0
 30
0.0
  9
$USERI1
 70
     0
  9
$USERI2
 70
     0
  9
$USERI3
 70
     0
  9
$USERI4
 70
     0
  9
$USERI5
 70
     0
  9
$USERR1
 40
0.0
  9
$USERR2
 40
0.0
  9
$USERR3
 40
0.0
  9
$USERR4
 40
0.0
  9
$USERR5
 40
0.0
  9
$WORLDVIEW
 70
     1
  9
$SHADEDGE
 70
     3
  9
$SHADEDIF
 70
    70
  9
$TILEMODE
 70
     1
  9
$MAXACTVP
 70
    48
  9
$PINSBASE
 10
0.0
 20
0.0
 30
0.0
  9
$PLIMCHECK
 70
     0
  9
$PEXTMIN
 10
0.0
 20
0.0
 30
0.0
  9
$PEXTMAX
 10
0.0
 20
0.0
 30
0.0
  9
$PLIMMIN
 10
0.0
 20
0.0
  9
$PLIMMAX
 10
12.0
 20
9.0
  9
$UNITMODE
 70
     0
  9
$VISRETAIN
 70
     1
  9
$PLINEGEN
 70
     0
  9
$PSLTSCALE
 70
     1
  9
$TREEDEPTH
 70
  3020
  9
$CMLSTYLE
  2
STANDARD
  9
$CMLJUST
 70
     0
  9
$CMLSCALE
 40
1.0
  9
$PROXYGRAPHICS
 70
     1
  9
$MEASUREMENT
 70
     0
  9
$CELWEIGHT
370
    -1
  9
$ENDCAPS
280
     0
  9
$JOINSTYLE
280
     0
  9
$LWDISPLAY
290
     0
  9
$INSUNITS
 70
     0
  9
$HYPERLINKBASE
  1

  9
$STYLESHEET
  1
Sekkei.ctb
  9
$XEDIT
290
     1
  9
$CEPSNTYPE
380
     0
  9
$PSTYLEMODE
290
     1
  9
$FINGERPRINTGUID
  2
{6385560B-F4B1-4644-A7C2-A3E32AC3D232}
  9
$VERSIONGUID
  2
{F6D97EC5-4145-4C83-818E-941CE2A523A4}
  9
$EXTNAMES
290
     1
  9
$PSVPSCALE
 40
0.0
  9
$OLESTARTUP
290
     0
  0
ENDSEC
  0
SECTION
  2
CLASSES
  0
CLASS
  1
DICTIONARYVAR
  2
AcDbDictionaryVar
  3
ObjectDBX Classes
 90
        0
280
     0
281
     0
  0
CLASS
  1
ACDBDICTIONARYWDFLT
  2
AcDbDictionaryWithDefault
  3
ObjectDBX Classes
 90
        0
280
     0
281
     0
  0
CLASS
  1
ACDBPLACEHOLDER
  2
AcDbPlaceHolder
  3
ObjectDBX Classes
 90
        0
280
     0
281
     0
  0
CLASS
  1
LAYOUT
  2
AcDbLayout
  3
ObjectDBX Classes
 90
        0
280
     0
281
     0
  0
CLASS
  1
MATERIAL
  2
AcDbMaterial
  3
ObjectDBX Classes
 90
     1153
280
     0
281
     0
  0
CLASS
  1
VISUALSTYLE
  2
AcDbVisualStyle
  3
ObjectDBX Classes
 90
     4095
280
     0
281
     0
  0
CLASS
  1
TABLESTYLE
  2
AcDbTableStyle
  3
ObjectDBX Classes
 90
     4095
280
     0
281
     0
  0
CLASS
  1
SCALE
  2
AcDbScale
  3
ObjectDBX Classes
 90
     1153
280
     0
281
     0
  0
CLASS
  1
MLEADERSTYLE
  2
AcDbMLeaderStyle
  3
ACDB_MLEADERSTYLE_CLASS
 90
     4095
280
     0
281
     0
  0
CLASS
  1
CELLSTYLEMAP
  2
AcDbCellStyleMap
  3
ObjectDBX Classes
 90
     1152
280
     0
281
     0
  0
CLASS
  1
SORTENTSTABLE
  2
AcDbSortentsTable
  3
ObjectDBX Classes
 90
    32768
280
     0
281
     0
  0
CLASS
  1
ACDBSECTIONVIEWSTYLE
  2
AcDbSectionViewStyle
  3
ObjectDBX Classes
 90
     1025
280
     0
281
     0
  0
CLASS
  1
ACDBDETAILVIEWSTYLE
  2
AcDbDetailViewStyle
  3
ObjectDBX Classes
 90
     1025
280
     0
281
     0
  0
CLASS
  1
ACAD_EVALUATION_GRAPH
  2
AcDbEvalGraph
  3
ObjectDBX Classes
 90
     1153
280
     0
281
     0
  0
CLASS
  1
BLOCKVISIBILITYPARAMETER
  2
AcDbBlockVisibilityParameter
  3
ObjectDBX Classes
 90
     1153
280
     0
281
     0
  0
CLASS
  1
BLOCKVISIBILITYGRIP
  2
AcDbBlockVisibilityGrip
  3
ObjectDBX Classes
 90
     1153
280
     0
281
     0
  0
CLASS
  1
BLOCKGRIPLOCATIONCOMPONENT
  2
AcDbBlockGripExpr
  3
ObjectDBX Classes
 90
     1153
280
     0
281
     0
  0
CLASS
  1
ACDB_DYNAMICBLOCKPURGEPREVENTER_VERSION
  2
AcDbDynamicBlockPurgePreventer
  3
ObjectDBX Classes
 90
     1153
280
     0
281
     0
  0
ENDSEC
  0
SECTION
  2
TABLES
  0
TABLE
  2
VPORT
  5
6E
102
{ACAD_XDICTIONARY
360
165B
102
}
330
0
100
AcDbSymbolTable
 70
     1
  0
VPORT
  5
15CD
330
6E
100
AcDbSymbolTableRecord
100
AcDbViewportTableRecord
  2
*Active
 70
     0
 10
0.0
 20
0.0
 11
1.0
 21
1.0
 12
464.1757582465966
 22
775.1124593435009
 13
0.0
 23
0.0
 14
10.0
 24
10.0
 15
10.0
 25
10.0
 16
0.0
 26
0.0
 36
1.0
 17
0.0
 27
0.0
 37
0.0
 40
1479.996543092618
 41
0.7571157495256166
 42
50.0
 43
0.0
 44
0.0
 50
0.0
 51
0.0
 71
     0
 72
   100
 73
     1
 74
     3
 75
     0
 76
     0
 77
     0
 78
     0
281
     0
 65
     1
110
0.0
120
0.0
130
0.0
111
1.0
121
0.0
131
0.0
112
0.0
122
1.0
132
0.0
 79
     0
146
0.0
1001
ACAD_NAV_VCDISPLAY
1070
     3
  0
ENDTAB
  0
TABLE
  2
LTYPE
  5
69
330
0
100
AcDbSymbolTable
 70
     5
  0
LTYPE
  5
6A
330
69
100
AcDbSymbolTableRecord
100
AcDbLinetypeTableRecord
  2
BYBLOCK
 70
     0
  3

 72
    65
 73
     0
 40
0.0
  0
LTYPE
  5
6B
330
69
100
AcDbSymbolTableRecord
100
AcDbLinetypeTableRecord
  2
BYLAYER
 70
     0
  3

 72
    65
 73
     0
 40
0.0
  0
LTYPE
  5
8
330
69
100
AcDbSymbolTableRecord
100
AcDbLinetypeTableRecord
  2
CONTINUOUS
 70
     0
  3
Solid line
 72
    65
 73
     0
 40
0.0
  0
LTYPE
  5
27C
330
69
100
AcDbSymbolTableRecord
100
AcDbLinetypeTableRecord
  2
sekkei(A2)
 70
     0
  3
center(A2)  ____ _ ____ _ ____ _ ____ _ ____ _ 
 72
    65
 73
     4
 40
14.2875
 49
9.525
 74
     0
 49
-1.587499999999999
 74
     0
 49
1.587499999999999
 74
     0
 49
-1.587499999999999
 74
     0
  0
LTYPE
  5
2B4
330
69
100
AcDbSymbolTableRecord
100
AcDbLinetypeTableRecord
  2
HIDDEN2
 70
     0
  3
Hidden (.5x) _ _ _ _ _ _ _ _ _ _ _ _ _ _ _ _ _
 72
    65
 73
     2
 40
4.762499999999999
 49
3.174999999999999
 74
     0
 49
-1.587499999999999
 74
     0
  0
LTYPE
  5
48F
330
69
100
AcDbSymbolTableRecord
100
AcDbLinetypeTableRecord
  2
sekkei_H
 70
     0
  3
Hidden-S _ _ _ _ _ _ _ _ _ _ _ _ _ _ _ _ _
 72
    65
 73
     2
 40
2.381249999999999
 49
1.587499999999999
 74
     0
 49
-0.79375
 74
     0
  0
LTYPE
  5
1FCB
330
69
100
AcDbSymbolTableRecord
100
AcDbLinetypeTableRecord
  2
CENTER(0.5x)
 70
     0
  3
Center (0.5)  _______  __  ________  __  _____
 72
    65
 73
     4
 40
8.8
 49
5.5
 74
     0
 49
-1.1
 74
     0
 49
1.1
 74
     0
 49
-1.1
 74
     0
  0
ENDTAB
  0
TABLE
  2
LAYER
  5
66
102
{ACAD_XDICTIONARY
360
1628
102
}
330
0
100
AcDbSymbolTable
 70
     9
  0
LAYER
  5
5E
102
{ACAD_XDICTIONARY
360
1644
102
}
330
66
100
AcDbSymbolTableRecord
100
AcDbLayerTableRecord
  2
0
 70
     0
 62
     7
  6
CONTINUOUS
370
    -3
390
5
  0
LAYER
  5
3E
102
{ACAD_XDICTIONARY
360
1646
102
}
330
66
100
AcDbSymbolTableRecord
100
AcDbLayerTableRecord
  2
CENTER
 70
     0
 62
     3
  6
sekkei(A2)
370
    -3
390
5
  0
LAYER
  5
2B5
102
{ACAD_XDICTIONARY
360
164C
102
}
330
66
100
AcDbSymbolTableRecord
100
AcDbLayerTableRecord
  2
HIDS
 70
     0
 62
     1
  6
HIDDEN2
370
    -3
390
5
  0
LAYER
  5
2BA
102
{ACAD_XDICTIONARY
360
164E
102
}
330
66
100
AcDbSymbolTableRecord
100
AcDbLayerTableRecord
  2
HOJO
 70
     0
 62
     4
  6
CONTINUOUS
370
    -3
390
5
  0
LAYER
  5
3FA
102
{ACAD_XDICTIONARY
360
1652
102
}
330
66
100
AcDbSymbolTableRecord
100
AcDbLayerTableRecord
  2
TITLE
 70
     0
 62
     4
  6
CONTINUOUS
290
     0
370
    -3
390
5
  0
ENDTAB
  0
TABLE
  2
STYLE
  5
67
330
0
100
AcDbSymbolTable
 70
     1
  0
STYLE
  5
16
330
67
100
AcDbSymbolTableRecord
100
AcDbTextStyleTableRecord
  2
STANDARD
 70
     0
 40
0.0
 41
1.0
 50
0.0
 71
     0
 42
2.0
  3
simplex.shx
  4
extfont.shx
  0
ENDTAB
  0
TABLE
  2
VIEW
  5
6C
330
0
100
AcDbSymbolTable
 70
     0
  0
ENDTAB
  0
TABLE
  2
UCS
  5
6D
330
0
100
AcDbSymbolTable
 70
     0
  0
ENDTAB
  0
TABLE
  2
APPID
  5
70
330
0
100
AcDbSymbolTable
 70
    24
  0
APPID
  5
71
330
70
100
AcDbSymbolTableRecord
100
AcDbRegAppTableRecord
  2
ACAD
 70
     0
  0
APPID
  5
168D
330
70
100
AcDbSymbolTableRecord
100
AcDbRegAppTableRecord
  2
ACAD_MLEADERVER
 70
     0
  0
APPID
  5
16A8
330
70
100
AcDbSymbolTableRecord
100
AcDbRegAppTableRecord
  2
AcAecLayerStandard
 70
     0
  0
APPID
  5
16B1
330
70
100
AcDbSymbolTableRecord
100
AcDbRegAppTableRecord
  2
ACAD_EXEMPT_FROM_CAD_STANDARDS
 70
     0
  0
APPID
  5
19FF
330
70
100
AcDbSymbolTableRecord
100
AcDbRegAppTableRecord
  2
CONTENTBLOCKICON
 70
     0
  0
APPID
  5
1A00
330
70
100
AcDbSymbolTableRecord
100
AcDbRegAppTableRecord
  2
CONTENTBLOCKDESCRIPTION
 70
     0
  0
APPID
  5
1A01
330
70
100
AcDbSymbolTableRecord
100
AcDbRegAppTableRecord
  2
AcadAnnotative
 70
     0
  0
APPID
  5
1A02
330
70
100
AcDbSymbolTableRecord
100
AcDbRegAppTableRecord
  2
ACAD_PSEXT
 70
     0
  0
APPID
  5
1A03
330
70
100
AcDbSymbolTableRecord
100
AcDbRegAppTableRecord
  2
AcDbDynamicBlockGUID
 70
     0
  0
APPID
  5
1A04
330
70
100
AcDbSymbolTableRecord
100
AcDbRegAppTableRecord
  2
AcDbBlockRepETag
 70
     0
  0
APPID
  5
1A05
330
70
100
AcDbSymbolTableRecord
100
AcDbRegAppTableRecord
  2
AcadAnnoPO
 70
     0
  0
APPID
  5
1A06
330
70
100
AcDbSymbolTableRecord
100
AcDbRegAppTableRecord
  2
AcDbAttr
 70
     0
  0
APPID
  5
1A07
330
70
100
AcDbSymbolTableRecord
100
AcDbRegAppTableRecord
  2
ACAD_NAV_VCDISPLAY
 70
     0
  0
APPID
  5
1A08
330
70
100
AcDbSymbolTableRecord
100
AcDbRegAppTableRecord
  2
ACAD_DSTYLE_DIMJAG
 70
     0
  0
APPID
  5
1A09
330
70
100
AcDbSymbolTableRecord
100
AcDbRegAppTableRecord
  2
ACAD_DSTYLE_DIMTALN
 70
     0
  0
APPID
  5
1A0A
330
70
100
AcDbSymbolTableRecord
100
AcDbRegAppTableRecord
  2
ACAD_DSTYLE_DIMBREAK
 70
     0
  0
APPID
  5
1A0B
330
70
100
AcDbSymbolTableRecord
100
AcDbRegAppTableRecord
  2
ACAUTHENVIRON
 70
     0
  0
APPID
  5
1A0C
330
70
100
AcDbSymbolTableRecord
100
AcDbRegAppTableRecord
  2
AcDbDynamicBlockTrueName
 70
     0
  0
APPID
  5
1A0D
330
70
100
AcDbSymbolTableRecord
100
AcDbRegAppTableRecord
  2
ACAD_DSTYLE_DIMRADIAL_EXTENSION
 70
     0
  0
APPID
  5
1A0E
330
70
100
AcDbSymbolTableRecord
100
AcDbRegAppTableRecord
  2
AcDbBlockRepBTag
 70
     0
  0
APPID
  5
1A0F
330
70
100
AcDbSymbolTableRecord
100
AcDbRegAppTableRecord
  2
HATCHBACKGROUNDCOLOR
 70
     0
  0
APPID
  5
1A10
330
70
100
AcDbSymbolTableRecord
100
AcDbRegAppTableRecord
  2
GradientColor1ACI
 70
     0
  0
APPID
  5
1A11
330
70
100
AcDbSymbolTableRecord
100
AcDbRegAppTableRecord
  2
GradientColor2ACI
 70
     0
  0
APPID
  5
1A12
330
70
100
AcDbSymbolTableRecord
100
AcDbRegAppTableRecord
  2
AcCmTransparency
 70
     0
  0
ENDTAB
  0
TABLE
  2
DIMSTYLE
  5
72
330
0
100
AcDbSymbolTable
 70
     1
100
AcDbDimStyleTable
 71
     1
340
73
  0
DIMSTYLE
105
73
102
{ACAD_REACTORS
330
888
330
900
102
}
330
72
100
AcDbSymbolTableRecord
100
AcDbDimStyleTableRecord
  2
STANDARD
 70
     0
 40
4.0
 41
1.8
 42
0.625
 43
3.75
 44
0.8
 73
     0
 74
     0
 77
     1
 78
     8
140
1.8
141
2.5
143
0.0394
147
0.75
171
     4
172
     1
179
     2
271
     2
272
     2
273
     8
274
     4
277
     6
340
16
  0
ENDTAB
  0
TABLE
  2
BLOCK_RECORD
  5
1
330
0
100
AcDbSymbolTable
 70
    51
  0
BLOCK_RECORD
  5
2
330
1
100
AcDbSymbolTableRecord
100
AcDbBlockTableRecord
  2
*MODEL_SPACE
340
60
  0
BLOCK_RECORD
  5
216F
330
1
100
AcDbSymbolTableRecord
100
AcDbBlockTableRecord
  2
*Paper_Space
340
2170
  0
ENDTAB
  0
ENDSEC
  0
SECTION
  2
BLOCKS
  0
BLOCK
  5
5D
330
2
100
AcDbEntity
  8
0
100
AcDbBlockBegin
  2
*MODEL_SPACE
 70
     0
 10
0.0
 20
0.0
 30
0.0
  3
*MODEL_SPACE
  1

  0
ENDBLK
  5
5F
330
2
100
AcDbEntity
  8
0
100
AcDbBlockEnd
  0
BLOCK
  5
2171
330
216F
100
AcDbEntity
 67
     1
  8
0
100
AcDbBlockBegin
  2
*Paper_Space
 70
     0
 10
0.0
 20
0.0
 30
0.0
  3
*Paper_Space
  1

  0
ENDBLK
  5
2172
330
216F
100
AcDbEntity
 67
     1
  8
0
100
AcDbBlockEnd
  0
ENDSEC
  0
SECTION
  2
ENTITIES
  0
LINE
  5
88B
330
2
100
AcDbEntity
  8
CENTER
100
AcDbLine
 10
70.37667544119074
 20
230.515022923081
 30
0.0
 11
302.804060101112
 21
230.515022923081
 31
0.0
  0
LINE
  5
88C
330
2
100
AcDbEntity
  8
CENTER
100
AcDbLine
 10
70.37667544119074
 20
571.5106160030675
 30
0.0
 11
512.8766754368966
 21
571.5106160030675
 31
0.0
  0
LINE
  5
8F8
330
2
100
AcDbEntity
  8
CENTER
100
AcDbLine
 10
713.6985058066588
 20
196.5150229230801
 30
0.0
 11
885.6985058066587
 21
196.5150229230801
 31
0.0
  0
LINE
  5
8F9
330
2
100
AcDbEntity
  8
CENTER
100
AcDbLine
 10
664.6985058066596
 20
238.5150229230801
 30
0.0
 11
876.6985058066593
 21
238.515022923081
 31
0.0
  0
TEXT
  5
8FA
330
2
100
AcDbEntity
  8
TITLE
100
AcDbText
 10
659.824729810124
 20
532.0015948467401
 30
0.0
 40
10.0
  1
H2LB-32R-300~450-T020W
100
AcDbText
  0
LINE
  5
8FB
330
2
100
AcDbEntity
  8
0
100
AcDbLine
 10
771.1985058066592
 20
100.0150229230796
 30
0.0
 11
828.1985058066592
 21
100.0150229230796
 31
0.0
  0
LINE
  5
8FC
330
2
100
AcDbEntity
  8
0
100
AcDbLine
 10
757.2728468066587
 20
271.0150229230801
 30
0.0
 11
841.9510688066592
 21
271.0150229230801
 31
0.0
  0
LINE
  5
8FD
330
2
100
AcDbEntity
  8
0
100
AcDbLine
 10
841.750873806658
 20
302.7813799230787
 30
0.0
 11
799.6985058066592
 21
303.5150229230801
 31
0.0
  0
LINE
  5
906
330
2
100
AcDbEntity
  8
0
100
AcDbLine
 10
487.8202794368961
 20
501.7093460030675
 30
0.0
 11
497.0913974368967
 21
526.5106160030675
 31
0.0
  0
LINE
  5
907
330
2
100
AcDbEntity
  8
0
100
AcDbLine
 10
487.8202794368961
 20
641.3116410030681
 30
0.0
 11
497.0913974368967
 21
616.5106160030675
 31
0.0
  0
LINE
  5
908
330
2
100
AcDbEntity
  8
0
100
AcDbLine
 10
494.4267244368973
 20
273.4005209230797
 30
0.0
 11
452.9301424368958
 21
302.0951009230791
 31
0.0
  0
LINE
  5
909
330
2
100
AcDbEntity
  8
0
100
AcDbLine
 10
345.8766754368961
 20
116.5150229230796
 30
0.0
 11
497.8766754368961
 21
116.5150229230796
 31
0.0
  0
LINE
  5
90A
330
2
100
AcDbEntity
  8
0
100
AcDbLine
 10
345.8766754368961
 20
98.51502292307964
 30
0.0
 11
497.8766754368961
 21
98.51502292307964
 31
0.0
  0
LINE
  5
90B
330
2
100
AcDbEntity
  8
0
100
AcDbLine
 10
494.1432774368958
 20
526.5106160030675
 30
0.0
 11
349.6100734368964
 21
526.5106160030675
 31
0.0
  0
LINE
  5
90C
330
2
100
AcDbEntity
  8
0
100
AcDbLine
 10
349.6100734368964
 20
616.5106160030675
 30
0.0
 11
494.1432774368958
 21
616.5106160030675
 31
0.0
  0
LINE
  5
90D
330
2
100
AcDbEntity
  8
CENTER
100
AcDbLine
 10
421.876675436897
 20
661.5106160030675
 30
0.0
 11
421.8766754368956
 21
436.5106160030675
 31
0.0
  0
ARC
  5
90E
330
2
100
AcDbEntity
  8
0
100
AcDbCircle
 10
483.0326814368971
 20
521.5106160030675
 30
0.0
 40
5.0
100
AcDbArc
 50
90.0
 51
163.8278350000388
  0
ARC
  5
90F
330
2
100
AcDbEntity
  8
0
100
AcDbCircle
 10
360.7206694368969
 20
521.5106160030675
 30
0.0
 40
5.0
100
AcDbArc
 50
16.1721589999832
 51
90.0
  0
ARC
  5
910
330
2
100
AcDbEntity
  8
0
100
AcDbCircle
 10
350.0154694368965
 20
518.5106160030675
 30
0.0
 40
8.0
100
AcDbArc
 50
90.0
 51
165.0000000000055
  0
LINE
  5
911
330
2
100
AcDbEntity
  8
0
100
AcDbLine
 10
355.9330724368964
 20
501.7093460030675
 30
0.0
 11
346.8982824368967
 21
525.8782920030655
 31
0.0
  0
LINE
  5
912
330
2
100
AcDbEntity
  8
0
100
AcDbLine
 10
323.3769194368969
 20
642.5106160030675
 30
0.0
 11
323.3769194368969
 21
500.5106160030675
 31
0.0
  0
LINE
  5
913
330
2
100
AcDbEntity
  8
0
100
AcDbLine
 10
264.8769194368969
 20
629.0106160030675
 30
0.0
 11
264.8769194368969
 21
514.0106160030675
 31
0.0
  0
LINE
  5
914
330
2
100
AcDbEntity
  8
0
100
AcDbLine
 10
273.3769194368969
 20
626.1536820030681
 30
0.0
 11
273.3766754368961
 21
516.8675490030666
 31
0.0
  0
LINE
  5
918
330
2
100
AcDbEntity
  8
CENTER
100
AcDbLine
 10
357.2252472327776
 20
196.515022923081
 30
0.0
 11
298.2444101070099
 21
196.515022923081
 31
0.0
  0
LINE
  5
919
330
2
100
AcDbEntity
  8
0
100
AcDbLine
 10
323.3769194368969
 20
500.5106160030675
 30
0.0
 11
315.2984284368967
 21
500.7220420030655
 31
0.0
  0
LINE
  5
91A
330
2
100
AcDbEntity
  8
0
100
AcDbLine
 10
323.3766754368961
 20
267.5150229230801
 30
0.0
 11
278.2458164368971
 21
268.697151923079
 31
0.0
  0
LINE
  5
91B
330
2
100
AcDbEntity
  8
0
100
AcDbLine
 10
315.2980624368964
 20
125.7264489230776
 30
0.0
 11
323.3766754368961
 21
125.5150229230796
 31
0.0
  0
LINE
  5
991
330
2
100
AcDbEntity
  8
0
100
AcDbLine
 10
264.8766754368961
 20
288.0150229230801
 30
0.0
 11
264.8766754368961
 21
173.0150229230796
 31
0.0
  0
LINE
  5
992
330
2
100
AcDbEntity
  8
0
100
AcDbLine
 10
264.8766754368961
 20
288.0150229230801
 30
0.0
 11
264.8766754368961
 21
173.0150229230796
 31
0.0
  0
LINE
  5
993
330
2
100
AcDbEntity
  8
0
100
AcDbLine
 10
312.3766754368961
 20
236.2650229230801
 30
0.0
 11
312.3766754368961
 21
128.7254719230779
 31
0.0
  0
LINE
  5
994
330
2
100
AcDbEntity
  8
0
100
AcDbLine
 10
312.3766754368961
 20
140.5150229230796
 30
0.0
 11
269.2476474368967
 21
173.0150229230796
 31
0.0
  0
LINE
  5
995
330
2
100
AcDbEntity
  8
0
100
AcDbLine
 10
264.8766754368961
 20
173.0150229230796
 30
0.0
 11
269.2476474368967
 21
173.0150229230796
 31
0.0
  0
ARC
  5
999
330
2
100
AcDbEntity
  8
0
100
AcDbCircle
 10
315.3766754368961
 20
128.7254719230779
 30
0.0
 40
3.0
100
AcDbArc
 50
180.0
 51
268.5004880000192
  0
LINE
  5
99A
330
2
100
AcDbEntity
  8
0
100
AcDbLine
 10
273.3766754368961
 20
285.0150229230801
 30
0.0
 11
273.3766754368961
 21
242.7650229230801
 31
0.0
  0
LINE
  5
99B
330
2
100
AcDbEntity
  8
0
100
AcDbLine
 10
270.3766754368961
 20
288.0150229230801
 30
0.0
 11
264.8766754368961
 21
288.0150229230801
 31
0.0
  0
ARC
  5
99C
330
2
100
AcDbEntity
  8
0
100
AcDbCircle
 10
278.3766754368961
 20
273.6954429230807
 30
0.0
 40
5.0
100
AcDbArc
 50
180.0
 51
268.4999080000101
  0
ARC
  5
99D
330
2
100
AcDbEntity
  8
0
100
AcDbCircle
 10
270.3766754368961
 20
285.0147789230775
 30
0.0
 40
3.0
100
AcDbArc
 50
0.0
 51
90.0
  0
LINE
  5
9C6
330
2
100
AcDbEntity
  8
0
100
AcDbLine
 10
264.8769194368969
 20
514.0106160030675
 30
0.0
 11
312.3765534368966
 21
512.7667190030672
 31
0.0
  0
ARC
  5
9C7
330
2
100
AcDbEntity
  8
0
100
AcDbCircle
 10
270.3769194368969
 20
516.8675490030666
 30
0.0
 40
3.0
100
AcDbArc
 50
268.5001220000228
 51
0.0
  0
LINE
  5
9C8
330
2
100
AcDbEntity
  8
0
100
AcDbLine
 10
312.3765534368966
 20
512.7667190030672
 30
0.0
 11
312.3765534368966
 21
503.7210650030658
 31
0.0
  0
ARC
  5
9C9
330
2
100
AcDbEntity
  8
0
100
AcDbCircle
 10
315.3769194368968
 20
503.7210650030658
 30
0.0
 40
3.0
100
AcDbArc
 50
180.0
 51
268.5003049999765
  0
LINE
  5
9CC
330
2
100
AcDbEntity
  8
CENTER
100
AcDbLine
 10
421.8766754368965
 20
318.515022923081
 30
0.0
 11
421.8766754368947
 21
83.51502292308101
 31
0.0
  0
LINE
  5
9CD
330
2
100
AcDbEntity
  8
CENTER
100
AcDbLine
 10
361.8040844836527
 20
238.515022923081
 30
0.0
 11
481.9490392067558
 21
238.5150229230792
 31
0.0
  0
LINE
  5
9CE
330
2
100
AcDbEntity
  8
0
100
AcDbLine
 10
408.0348784368969
 20
164.1849449230769
 30
0.0
 11
405.5623444368965
 21
164.1849449230769
 31
0.0
  0
LINE
  5
9CF
330
2
100
AcDbEntity
  8
0
100
AcDbLine
 10
404.6015294368961
 20
176.7650229230796
 30
0.0
 11
410.9894684368963
 21
176.7650229230796
 31
0.0
  0
LINE
  5
9D0
330
2
100
AcDbEntity
  8
0
100
AcDbLine
 10
410.1226474368967
 20
174.8724449230769
 30
0.0
 11
405.5451324368958
 21
174.8724449230769
 31
0.0
  0
LINE
  5
9D1
330
2
100
AcDbEntity
  8
0
100
AcDbLine
 10
409.6497464368956
 20
162.5150229230796
 30
0.0
 11
404.7093174368972
 21
162.5150229230796
 31
0.0
  0
CIRCLE
  5
9D2
330
2
100
AcDbEntity
  8
0
100
AcDbCircle
 10
421.8766754368961
 20
238.5150229230801
 30
0.0
 40
39.0
  0
ARC
  5
9D3
330
2
100
AcDbEntity
  8
0
100
AcDbCircle
 10
421.8766754368961
 20
238.5150229230801
 30
0.0
 40
41.09999799999999
100
AcDbArc
 50
167.4768980000393
 51
12.52323999997061
  0
ARC
  5
9D4
330
2
100
AcDbEntity
  8
0
100
AcDbCircle
 10
421.8766754368961
 20
238.5150229230801
 30
0.0
 40
44.0
100
AcDbArc
 50
12.52323999997061
 51
167.4768980000393
  0
LINE
  5
9D5
330
2
100
AcDbEntity
  8
0
100
AcDbLine
 10
397.7077304368967
 20
119.5150229230796
 30
0.0
 11
446.0457424368968
 21
119.5150229230796
 31
0.0
  0
LINE
  5
9D6
330
2
100
AcDbEntity
  8
0
100
AcDbLine
 10
447.3766754368961
 20
150.5150229230796
 30
0.0
 11
396.3766754368961
 21
150.5150229230796
 31
0.0
  0
ARC
  5
9D7
330
2
100
AcDbEntity
  8
0
100
AcDbCircle
 10
421.8766754368961
 20
238.5150229230801
 30
0.0
 40
16.0
100
AcDbArc
 50
18.20990000000291
 51
341.7900999999971
  0
LINE
  5
9D8
330
2
100
AcDbEntity
  8
0
100
AcDbLine
 10
395.3732574368959
 20
303.5150229230801
 30
0.0
 11
448.3800934368963
 21
303.5150229230801
 31
0.0
  0
LINE
  5
9D9
330
2
100
AcDbEntity
  8
0
100
AcDbLine
 10
396.3766754368961
 20
147.6151199230782
 30
0.0
 11
447.3766754368961
 21
147.6151199230782
 31
0.0
  0
LINE
  5
9DB
330
2
100
AcDbEntity
  8
0
100
AcDbLine
 10
368.0667394368965
 20
185.8031089230783
 30
0.0
 11
381.7544834368972
 21
247.4268879230783
 31
0.0
  0
LINE
  5
9DC
330
2
100
AcDbEntity
  8
0
100
AcDbLine
 10
365.2356844368959
 20
186.4320149230787
 30
0.0
 11
378.9235504368961
 21
248.0555499230793
 31
0.0
  0
LINE
  5
9DD
330
2
100
AcDbEntity
  8
0
100
AcDbLine
 10
345.8766754368961
 20
266.8204429230807
 30
0.0
 11
345.8766754368961
 21
98.51502292307964
 31
0.0
  0
LINE
  5
9DE
330
2
100
AcDbEntity
  8
0
100
AcDbLine
 10
323.3766754368961
 20
267.5150229230801
 30
0.0
 11
323.3766754368961
 21
125.5150229230796
 31
0.0
  0
LINE
  5
9DF
330
2
100
AcDbEntity
  8
0
100
AcDbLine
 10
323.3766754368961
 20
267.5150229230801
 30
0.0
 11
323.3766754368961
 21
125.5150229230796
 31
0.0
  0
ARC
  5
9E0
330
2
100
AcDbEntity
  8
0
100
AcDbCircle
 10
508.9440584368975
 20
196.5150229230801
 30
0.0
 40
172.067474
100
AcDbArc
 50
161.3867950000338
 51
198.6132049999661
  0
ARC
  5
9E1
330
2
100
AcDbEntity
  8
0
100
AcDbCircle
 10
396.3766754368961
 20
179.5150229230796
 30
0.0
 40
31.9
100
AcDbArc
 50
167.4768980000393
 51
270.0
  0
ARC
  5
9E2
330
2
100
AcDbEntity
  8
0
100
AcDbCircle
 10
396.3766754368961
 20
179.5150229230796
 30
0.0
 40
29.0
100
AcDbArc
 50
167.4768980000393
 51
270.0
  0
LINE
  5
9E3
330
2
100
AcDbEntity
  8
0
100
AcDbLine
 10
359.8766754368961
 20
114.4486159230776
 30
0.0
 11
359.8766754368961
 21
98.51502292307964
 31
0.0
  0
ARC
  5
9E4
330
2
100
AcDbEntity
  8
0
100
AcDbCircle
 10
340.8766754368961
 20
120.5150229230796
 30
0.0
 40
5.0
100
AcDbArc
 50
0.0
 51
90.0
  0
LINE
  5
9E5
330
2
100
AcDbEntity
  8
0
100
AcDbLine
 10
323.3766754368961
 20
125.5150229230796
 30
0.0
 11
340.8766754368961
 21
125.5150229230796
 31
0.0
  0
LINE
  5
9E6
330
2
100
AcDbEntity
  8
CENTER
100
AcDbLine
 10
374.3766754368948
 20
123.515022923081
 30
0.0
 11
374.3766754368948
 21
91.515022923081
 31
0.0
  0
LINE
  5
9E7
330
2
100
AcDbEntity
  8
0
100
AcDbLine
 10
404.4725004368964
 20
173.5423659230775
 30
0.0
 11
404.4725004368964
 21
165.3328939230789
 31
0.0
  0
LINE
  5
9E8
330
2
100
AcDbEntity
  8
0
100
AcDbLine
 10
402.8766754368961
 20
174.5565269230785
 30
0.0
 11
402.8766754368961
 21
164.3641439230789
 31
0.0
  0
LINE
  5
9E9
330
2
100
AcDbEntity
  8
0
100
AcDbLine
 10
402.8766754368961
 20
164.3641439230789
 30
0.0
 11
404.7093174368972
 21
162.5150229230796
 31
0.0
  0
LINE
  5
9EA
330
2
100
AcDbEntity
  8
0
100
AcDbLine
 10
404.4725004368964
 20
165.3328939230789
 30
0.0
 11
405.5623444368965
 21
164.1849449230769
 31
0.0
  0
LINE
  5
9EB
330
2
100
AcDbEntity
  8
0
100
AcDbLine
 10
404.6015294368961
 20
176.7650229230796
 30
0.0
 11
402.8766754368961
 21
174.5565269230785
 31
0.0
  0
LINE
  5
9EC
330
2
100
AcDbEntity
  8
0
100
AcDbLine
 10
405.5451324368958
 20
174.8724449230769
 30
0.0
 11
404.4725004368964
 21
173.5423659230775
 31
0.0
  0
LINE
  5
9ED
330
2
100
AcDbEntity
  8
0
100
AcDbLine
 10
396.1641514368975
 20
119.0872879230785
 30
0.0
 11
393.0644194368968
 21
117.2274249230788
 31
0.0
  0
LINE
  5
9EE
330
2
100
AcDbEntity
  8
0
100
AcDbLine
 10
396.8766754368961
 20
119.1151199230783
 30
0.0
 11
396.8766754368961
 21
117.5150229230796
 31
0.0
  0
ARC
  5
9EF
330
2
100
AcDbEntity
  8
0
100
AcDbCircle
 10
397.7077304368967
 20
116.5150229230796
 30
0.0
 40
3.0
100
AcDbArc
 50
90.0
 51
120.964530999984
  0
ARC
  5
9F0
330
2
100
AcDbEntity
  8
0
100
AcDbCircle
 10
395.8766754368961
 20
117.5150229230796
 30
0.0
 40
1.0
100
AcDbArc
 50
270.0
 51
0.0
  0
LINE
  5
9F1
330
2
100
AcDbEntity
  8
HIDS
  6
sekkei_H
100
AcDbLine
 10
380.8766754368961
 20
116.5150229230796
 30
0.0
 11
380.8766754368961
 21
98.51502292307964
 31
0.0
  0
ARC
  5
9F2
330
2
100
AcDbEntity
  8
0
100
AcDbCircle
 10
390.4919094368969
 20
121.5150229230796
 30
0.0
 40
5.0
100
AcDbArc
 50
270.0
 51
300.964538999999
  0
LINE
  5
9F3
330
2
100
AcDbEntity
  8
HIDS
  6
sekkei_H
100
AcDbLine
 10
367.8766754368961
 20
116.5150229230796
 30
0.0
 11
367.8766754368961
 21
98.51502292307964
 31
0.0
  0
LINE
  5
9F4
330
2
100
AcDbEntity
  8
0
100
AcDbLine
 10
349.3267484368961
 20
273.4005209230797
 30
0.0
 11
390.8233304368959
 21
302.0951009230791
 31
0.0
  0
ARC
  5
9F5
330
2
100
AcDbEntity
  8
0
100
AcDbCircle
 10
342.1902744368971
 20
272.5150229230801
 30
0.0
 40
5.0
100
AcDbArc
 50
270.0
 51
334.0216059999925
  0
ARC
  5
9F6
330
2
100
AcDbEntity
  8
0
100
AcDbCircle
 10
353.8766754368961
 20
266.8204429230807
 30
0.0
 40
8.0
100
AcDbArc
 50
124.6638030000168
 51
180.0
  0
LINE
  5
9F7
330
2
100
AcDbEntity
  8
0
100
AcDbLine
 10
323.3766754368961
 20
267.5150229230801
 30
0.0
 11
342.1902744368971
 21
267.5150229230801
 31
0.0
  0
ARC
  5
9F8
330
2
100
AcDbEntity
  8
0
100
AcDbCircle
 10
395.3732574368959
 20
295.5150229230801
 30
0.0
 40
8.0
100
AcDbArc
 50
90.0
 51
124.6636960000083
  0
LINE
  5
9F9
330
2
100
AcDbEntity
  8
0
100
AcDbLine
 10
461.9988674368967
 20
247.4268879230783
 30
0.0
 11
475.6867344368955
 21
185.8031089230783
 31
0.0
  0
LINE
  5
9FA
330
2
100
AcDbEntity
  8
0
100
AcDbLine
 10
464.8299224368973
 20
248.05579392308
 30
0.0
 11
478.5176664368963
 21
186.4320149230787
 31
0.0
  0
ARC
  5
9FB
330
2
100
AcDbEntity
  8
0
100
AcDbCircle
 10
447.3766754368961
 20
179.5150229230796
 30
0.0
 40
31.9
100
AcDbArc
 50
270.0
 51
12.52323999997061
  0
ARC
  5
9FC
330
2
100
AcDbEntity
  8
0
100
AcDbCircle
 10
447.3766754368961
 20
179.5150229230796
 30
0.0
 40
29.0
100
AcDbArc
 50
270.0
 51
12.52323999997061
  0
LINE
  5
9FD
330
2
100
AcDbEntity
  8
0
100
AcDbLine
 10
447.5891994368965
 20
119.0872879230785
 30
0.0
 11
450.6889314368971
 21
117.2274249230788
 31
0.0
  0
LINE
  5
9FE
330
2
100
AcDbEntity
  8
0
100
AcDbLine
 10
434.3641024368961
 20
162.5150229230796
 30
0.0
 11
431.3766754368961
 21
162.5150229230796
 31
0.0
  0
LINE
  5
9FF
330
2
100
AcDbEntity
  8
0
100
AcDbLine
 10
431.3766754368961
 20
176.7650229230796
 30
0.0
 11
437.0729644368956
 21
176.7650229230796
 31
0.0
  0
LINE
  5
A00
330
2
100
AcDbEntity
  8
0
100
AcDbLine
 10
431.3766754368961
 20
175.0208819230786
 30
0.0
 11
432.0817534368969
 21
175.0208819230786
 31
0.0
  0
LINE
  5
A01
330
2
100
AcDbEntity
  8
0
100
AcDbLine
 10
431.3766754368961
 20
163.9993979230796
 30
0.0
 11
431.3766754368961
 21
162.5150229230796
 31
0.0
  0
LINE
  5
A02
330
2
100
AcDbEntity
  8
0
100
AcDbLine
 10
431.3766754368961
 20
163.9993979230796
 30
0.0
 11
432.0817534368969
 21
163.9993979230796
 31
0.0
  0
LINE
  5
A03
330
2
100
AcDbEntity
  8
0
100
AcDbLine
 10
431.3766754368961
 20
176.7650229230796
 30
0.0
 11
431.3766754368961
 21
175.0208819230786
 31
0.0
  0
LINE
  5
A04
330
2
100
AcDbEntity
  8
0
100
AcDbLine
 10
432.0817534368969
 20
175.0208819230786
 30
0.0
 11
432.0817534368969
 21
163.9993979230796
 31
0.0
  0
LINE
  5
A05
330
2
100
AcDbEntity
  8
0
100
AcDbLine
 10
438.6873444368965
 20
163.9993979230796
 30
0.0
 11
438.6873444368965
 21
162.5150229230796
 31
0.0
  0
LINE
  5
A06
330
2
100
AcDbEntity
  8
0
100
AcDbLine
 10
440.8766754368961
 20
163.9993979230796
 30
0.0
 11
440.8766754368961
 21
162.5150229230796
 31
0.0
  0
LINE
  5
A07
330
2
100
AcDbEntity
  8
0
100
AcDbLine
 10
438.6873444368965
 20
162.5150229230796
 30
0.0
 11
440.8766754368961
 21
162.5150229230796
 31
0.0
  0
LINE
  5
A08
330
2
100
AcDbEntity
  8
0
100
AcDbLine
 10
440.4768954368964
 20
163.9993979230796
 30
0.0
 11
440.8766754368961
 21
163.9993979230796
 31
0.0
  0
LINE
  5
A09
330
2
100
AcDbEntity
  8
0
100
AcDbLine
 10
438.6873444368965
 20
163.9993979230796
 30
0.0
 11
438.9833654368966
 21
163.9993979230796
 31
0.0
  0
LINE
  5
A0A
330
2
100
AcDbEntity
  8
0
100
AcDbLine
 10
438.1225254368954
 20
169.3053059230781
 30
0.0
 11
440.4768954368964
 21
163.9993979230796
 31
0.0
  0
ARC
  5
A0B
330
2
100
AcDbEntity
  8
0
100
AcDbCircle
 10
437.0729644368956
 20
172.9613119230791
 30
0.0
 40
2.320524
100
AcDbArc
 50
277.4147340000119
 51
62.41184999996817
  0
LINE
  5
A0C
330
2
100
AcDbEntity
  8
0
100
AcDbLine
 10
433.7146884368966
 20
169.1761559230774
 30
0.0
 11
436.7553374368952
 21
169.1761559230774
 31
0.0
  0
LINE
  5
A0D
330
2
100
AcDbEntity
  8
0
100
AcDbLine
 10
434.3641024368961
 20
163.9993979230796
 30
0.0
 11
434.3641024368961
 21
162.5150229230796
 31
0.0
  0
LINE
  5
A0E
330
2
100
AcDbEntity
  8
0
100
AcDbLine
 10
433.7146884368966
 20
163.9993979230796
 30
0.0
 11
434.3641024368961
 21
163.9993979230796
 31
0.0
  0
LINE
  5
A0F
330
2
100
AcDbEntity
  8
0
100
AcDbLine
 10
433.7146884368966
 20
175.0208819230786
 30
0.0
 11
433.7146884368966
 21
170.6600419230792
 31
0.0
  0
LINE
  5
A10
330
2
100
AcDbEntity
  8
0
100
AcDbLine
 10
433.7146884368966
 20
169.1761559230774
 30
0.0
 11
433.7146884368966
 21
163.9993979230796
 31
0.0
  0
LINE
  5
A11
330
2
100
AcDbEntity
  8
0
100
AcDbLine
 10
433.7146884368966
 20
175.0208819230786
 30
0.0
 11
438.1476714368954
 21
175.017951923078
 31
0.0
  0
LINE
  5
A12
330
2
100
AcDbEntity
  8
0
100
AcDbLine
 10
436.7553374368952
 20
169.1761559230774
 30
0.0
 11
438.9833654368966
 21
163.9993979230796
 31
0.0
  0
LINE
  5
A13
330
2
100
AcDbEntity
  8
0
100
AcDbLine
 10
437.3725254368954
 20
170.6600419230792
 30
0.0
 11
433.7146884368966
 21
170.6600419230792
 31
0.0
  0
ARC
  5
A14
330
2
100
AcDbEntity
  8
0
100
AcDbCircle
 10
437.0729644368956
 20
172.9613119230791
 30
0.0
 40
3.803712
100
AcDbArc
 50
286.0181270000165
 51
90.00350999999067
  0
LINE
  5
A15
330
2
100
AcDbEntity
  8
0
100
AcDbLine
 10
420.9489414368971
 20
175.0208819230786
 30
0.0
 11
418.6914944368953
 21
175.0208819230786
 31
0.0
  0
LINE
  5
A16
330
2
100
AcDbEntity
  8
0
100
AcDbLine
 10
422.7303134368965
 20
175.0208819230786
 30
0.0
 11
425.2055324368965
 21
175.0208819230786
 31
0.0
  0
LINE
  5
A17
330
2
100
AcDbEntity
  8
0
100
AcDbLine
 10
425.2055324368965
 20
175.0208819230786
 30
0.0
 11
425.6357084368963
 21
173.7962729230796
 31
0.0
  0
LINE
  5
A18
330
2
100
AcDbEntity
  8
0
100
AcDbLine
 10
418.6914944368953
 20
175.0208819230786
 30
0.0
 11
418.1813634368962
 21
173.7962729230796
 31
0.0
  0
LINE
  5
A19
330
2
100
AcDbEntity
  8
0
100
AcDbLine
 10
420.2438634368962
 20
164.0736159230775
 30
0.0
 11
420.9489414368971
 21
164.0736159230775
 31
0.0
  0
LINE
  5
A1A
330
2
100
AcDbEntity
  8
0
100
AcDbLine
 10
420.2438634368962
 20
162.5150229230796
 30
0.0
 11
423.3239414368971
 21
162.5150229230796
 31
0.0
  0
LINE
  5
A1B
330
2
100
AcDbEntity
  8
0
100
AcDbLine
 10
417.1266754368961
 20
176.7650229230796
 30
0.0
 11
426.626675436896
 21
176.7650229230796
 31
0.0
  0
LINE
  5
A1C
330
2
100
AcDbEntity
  8
0
100
AcDbLine
 10
417.1266754368961
 20
173.7962729230796
 30
0.0
 11
418.1813634368962
 21
173.7962729230796
 31
0.0
  0
LINE
  5
A1D
330
2
100
AcDbEntity
  8
0
100
AcDbLine
 10
425.6357084368963
 20
173.7962729230796
 30
0.0
 11
426.626675436896
 21
173.7962729230796
 31
0.0
  0
LINE
  5
A1E
330
2
100
AcDbEntity
  8
0
100
AcDbLine
 10
423.3239414368971
 20
164.0736159230775
 30
0.0
 11
423.3239414368971
 21
162.5150229230796
 31
0.0
  0
LINE
  5
A1F
330
2
100
AcDbEntity
  8
0
100
AcDbLine
 10
420.2438634368962
 20
164.0736159230775
 30
0.0
 11
420.2438634368962
 21
162.5150229230796
 31
0.0
  0
LINE
  5
A20
330
2
100
AcDbEntity
  8
0
100
AcDbLine
 10
422.7303134368965
 20
164.0736159230775
 30
0.0
 11
423.3239414368971
 21
164.0736159230775
 31
0.0
  0
LINE
  5
A21
330
2
100
AcDbEntity
  8
0
100
AcDbLine
 10
422.7303134368965
 20
175.0208819230786
 30
0.0
 11
422.7303134368965
 21
164.0736159230775
 31
0.0
  0
LINE
  5
A22
330
2
100
AcDbEntity
  8
0
100
AcDbLine
 10
420.9489414368971
 20
175.0208819230786
 30
0.0
 11
420.9489414368971
 21
164.0736159230775
 31
0.0
  0
LINE
  5
A23
330
2
100
AcDbEntity
  8
0
100
AcDbLine
 10
426.626675436896
 20
173.7962729230796
 30
0.0
 11
426.626675436896
 21
176.7650229230796
 31
0.0
  0
LINE
  5
A24
330
2
100
AcDbEntity
  8
0
100
AcDbLine
 10
417.1266754368961
 20
173.7962729230796
 30
0.0
 11
417.1266754368961
 21
176.7650229230796
 31
0.0
  0
LINE
  5
A25
330
2
100
AcDbEntity
  8
0
100
AcDbLine
 10
446.8766754368961
 20
119.1151199230783
 30
0.0
 11
446.8766754368961
 21
117.5150229230796
 31
0.0
  0
ARC
  5
A26
330
2
100
AcDbEntity
  8
0
100
AcDbCircle
 10
446.0457424368968
 20
116.5150229230796
 30
0.0
 40
3.0
100
AcDbArc
 50
59.03546500000868
 51
90.0
  0
ARC
  5
A27
330
2
100
AcDbEntity
  8
0
100
AcDbCircle
 10
447.8766754368961
 20
117.5150229230796
 30
0.0
 40
1.0
100
AcDbArc
 50
180.0
 51
270.0
  0
LINE
  5
A28
330
2
100
AcDbEntity
  8
0
100
AcDbLine
 10
411.0037504368964
 20
174.0208819230786
 30
0.0
 11
411.0037504368964
 21
173.7962729230796
 31
0.0
  0
LINE
  5
A29
330
2
100
AcDbEntity
  8
0
100
AcDbLine
 10
411.0037504368964
 20
163.6507649230782
 30
0.0
 11
409.6497464368956
 21
162.5150229230796
 31
0.0
  0
LINE
  5
A2A
330
2
100
AcDbEntity
  8
0
100
AcDbLine
 10
411.0037504368964
 20
162.5150229230796
 30
0.0
 11
412.376675436896
 21
162.5150229230796
 31
0.0
  0
LINE
  5
A2B
330
2
100
AcDbEntity
  8
0
100
AcDbLine
 10
408.5173004368961
 20
170.7904129230785
 30
0.0
 11
408.5173004368961
 21
169.2318199230769
 31
0.0
  0
LINE
  5
A2C
330
2
100
AcDbEntity
  8
0
100
AcDbLine
 10
411.0037504368964
 20
169.2318199230769
 30
0.0
 11
411.0037504368964
 21
167.1536949230769
 31
0.0
  0
LINE
  5
A2D
330
2
100
AcDbEntity
  8
0
100
AcDbLine
 10
412.376675436896
 20
175.225471923078
 30
0.0
 11
412.376675436896
 21
173.7962729230796
 31
0.0
  0
LINE
  5
A2E
330
2
100
AcDbEntity
  8
0
100
AcDbLine
 10
411.0037504368964
 20
163.6507649230782
 30
0.0
 11
411.0037504368964
 21
162.5150229230796
 31
0.0
  0
LINE
  5
A2F
330
2
100
AcDbEntity
  8
0
100
AcDbLine
 10
411.0037504368964
 20
167.7474449230769
 30
0.0
 11
411.0037504368964
 21
168.9349449230769
 31
0.0
  0
LINE
  5
A30
330
2
100
AcDbEntity
  8
0
100
AcDbLine
 10
411.0037504368964
 20
169.2318199230769
 30
0.0
 11
408.5173004368961
 21
169.2318199230769
 31
0.0
  0
LINE
  5
A31
330
2
100
AcDbEntity
  8
0
100
AcDbLine
 10
408.5173004368961
 20
170.7904129230785
 30
0.0
 11
412.376675436896
 21
170.7904129230785
 31
0.0
  0
LINE
  5
A32
330
2
100
AcDbEntity
  8
0
100
AcDbLine
 10
411.0037504368964
 20
173.7962729230796
 30
0.0
 11
412.376675436896
 21
173.7962729230796
 31
0.0
  0
LINE
  5
A33
330
2
100
AcDbEntity
  8
0
100
AcDbLine
 10
410.9894684368963
 20
176.7650229230796
 30
0.0
 11
412.376675436896
 21
175.225471923078
 31
0.0
  0
LINE
  5
A34
330
2
100
AcDbEntity
  8
0
100
AcDbLine
 10
411.0037504368964
 20
174.0208819230786
 30
0.0
 11
410.1047024368971
 21
174.8724449230769
 31
0.0
  0
LINE
  5
A35
330
2
100
AcDbEntity
  8
0
100
AcDbLine
 10
412.376675436896
 20
170.7904129230785
 30
0.0
 11
412.376675436896
 21
162.5150229230796
 31
0.0
  0
ARC
  5
A36
330
2
100
AcDbEntity
  8
0
100
AcDbCircle
 10
408.0348784368969
 20
167.1536949230769
 30
0.0
 40
2.96875
100
AcDbArc
 50
270.0002140000007
 51
0.000108999964071
  0
LINE
  5
A37
330
2
100
AcDbEntity
  8
CENTER
100
AcDbLine
 10
469.3766754368929
 20
123.515022923081
 30
0.0
 11
469.3766754368965
 21
91.515022923081
 31
0.0
  0
LINE
  5
A38
330
2
100
AcDbEntity
  8
HIDS
  6
sekkei_H
100
AcDbLine
 10
475.8766754368961
 20
116.5150229230796
 30
0.0
 11
475.8766754368961
 21
98.51502292307964
 31
0.0
  0
LINE
  5
A39
330
2
100
AcDbEntity
  8
0
100
AcDbLine
 10
483.876675436896
 20
114.4486159230776
 30
0.0
 11
483.876675436896
 21
98.51502292307964
 31
0.0
  0
LINE
  5
A3A
330
2
100
AcDbEntity
  8
HIDS
  6
sekkei_H
100
AcDbLine
 10
462.876675436896
 20
116.5150229230796
 30
0.0
 11
462.876675436896
 21
98.51502292307964
 31
0.0
  0
ARC
  5
A3B
330
2
100
AcDbEntity
  8
0
100
AcDbCircle
 10
453.2615634368966
 20
121.5150229230796
 30
0.0
 40
5.0
100
AcDbArc
 50
239.035461000001
 51
270.0
  0
LINE
  5
A3C
330
2
100
AcDbEntity
  8
0
100
AcDbLine
 10
440.8766754368961
 20
233.5150229230801
 30
0.0
 11
440.8766754368961
 21
243.5150229230801
 31
0.0
  0
LINE
  5
A3D
330
2
100
AcDbEntity
  8
0
100
AcDbLine
 10
432.876675436896
 20
233.5150229230801
 30
0.0
 11
432.876675436896
 21
243.5150229230801
 31
0.0
  0
LINE
  5
A3E
330
2
100
AcDbEntity
  8
0
100
AcDbLine
 10
440.8766754368961
 20
243.5150229230801
 30
0.0
 11
432.876675436896
 21
243.5150229230801
 31
0.0
  0
LINE
  5
A3F
330
2
100
AcDbEntity
  8
0
100
AcDbLine
 10
440.8766754368961
 20
233.5150229230801
 30
0.0
 11
432.876675436896
 21
233.5150229230801
 31
0.0
  0
ARC
  5
A40
330
2
100
AcDbEntity
  8
0
100
AcDbCircle
 10
448.3800934368963
 20
295.5150229230801
 30
0.0
 40
8.0
100
AcDbArc
 50
55.33668899997294
 51
90.0
  0
LINE
  5
A41
330
2
100
AcDbEntity
  8
0
100
AcDbLine
 10
440.8766754368961
 20
451.5106160030675
 30
0.0
 11
405.8766754368961
 21
451.5106160030675
 31
0.0
  0
LINE
  5
A42
330
2
100
AcDbEntity
  8
0
100
AcDbLine
 10
457.1354644368956
 20
509.5106160030675
 30
0.0
 11
386.6178864368966
 21
509.5106160030675
 31
0.0
  0
LINE
  5
A43
330
2
100
AcDbEntity
  8
0
100
AcDbLine
 10
404.376675436896
 20
506.5106160030675
 30
0.0
 11
439.3766754368961
 21
506.5106160030675
 31
0.0
  0
LINE
  5
A44
330
2
100
AcDbEntity
  8
CENTER
100
AcDbLine
 10
364.0290204368952
 20
511.5106160030675
 30
0.0
 11
384.7243324368987
 21
511.5106160030675
 31
0.0
  0
LINE
  5
A45
330
2
100
AcDbEntity
  8
0
100
AcDbLine
 10
363.4266024368961
 20
496.5106160030675
 30
0.0
 11
405.8766754368961
 21
496.5106160030675
 31
0.0
  0
ARC
  5
A46
330
2
100
AcDbEntity
  8
0
100
AcDbCircle
 10
363.4266024368961
 20
504.5106160030675
 30
0.0
 40
8.0
100
AcDbArc
 50
200.4966130000106
 51
270.0
  0
LINE
  5
A47
330
2
100
AcDbEntity
  8
0
100
AcDbLine
 10
330.7715734368966
 20
500.5106160030675
 30
0.0
 11
323.3769194368969
 21
500.5106160030675
 31
0.0
  0
LINE
  5
A48
330
2
100
AcDbEntity
  8
0
100
AcDbLine
 10
338.4989904368966
 20
506.4400590030684
 30
0.0
 11
342.2881744368959
 21
520.5811720030663
 31
0.0
  0
ARC
  5
A49
330
2
100
AcDbEntity
  8
0
100
AcDbCircle
 10
330.7715734368966
 20
508.5106160030675
 30
0.0
 40
8.0
100
AcDbArc
 50
270.0
 51
345.0000000000056
  0
LINE
  5
A4A
330
2
100
AcDbEntity
  8
CENTER
100
AcDbLine
 10
374.3766764368969
 20
501.1629600030658
 30
0.0
 11
374.3766764368969
 21
521.8582720030692
 31
0.0
  0
LINE
  5
A4B
330
2
100
AcDbEntity
  8
0
100
AcDbLine
 10
404.376675436896
 20
509.5106160030675
 30
0.0
 11
404.376675436896
 21
506.5106160030675
 31
0.0
  0
LINE
  5
A4C
330
2
100
AcDbEntity
  8
0
100
AcDbLine
 10
381.8210114368966
 20
513.0997270030686
 30
0.0
 11
380.8178374368953
 21
516.5106160030675
 31
0.0
  0
ARC
  5
A4D
330
2
100
AcDbEntity
  8
0
100
AcDbCircle
 10
386.6178864368966
 20
514.5106160030675
 30
0.0
 40
5.0
100
AcDbArc
 50
196.3895419999754
 51
270.0
  0
LINE
  5
A4E
330
2
100
AcDbEntity
  8
0
100
AcDbLine
 10
366.3305324368965
 20
520.1177940030659
 30
0.0
 11
365.5227934368967
 21
522.9031940030665
 31
0.0
  0
ARC
  5
A4F
330
2
100
AcDbEntity
  8
0
100
AcDbCircle
 10
371.1326564368964
 20
521.5106160030675
 30
0.0
 40
5.0
100
AcDbArc
 50
196.1721649999612
 51
270.0
  0
LINE
  5
A50
330
2
100
AcDbEntity
  8
0
100
AcDbLine
 10
371.1326564368964
 20
516.5106160030675
 30
0.0
 11
380.8178374368953
 21
516.5106160030675
 31
0.0
  0
ARC
  5
A51
330
2
100
AcDbEntity
  8
0
100
AcDbCircle
 10
374.3766754368961
 20
511.5106160030675
 30
0.0
 40
6.5
100
AcDbArc
 50
128.7593079999983
 51
50.28486299995563
  0
LINE
  5
A52
330
2
100
AcDbEntity
  8
0
100
AcDbLine
 10
405.8766754368961
 20
506.5106160030675
 30
0.0
 11
405.8766754368961
 21
451.5106160030675
 31
0.0
  0
LINE
  5
A53
330
2
100
AcDbEntity
  8
0
100
AcDbLine
 10
440.8766754368961
 20
496.5106160030675
 30
0.0
 11
480.326748436896
 21
496.5106160030675
 31
0.0
  0
LINE
  5
A54
330
2
100
AcDbEntity
  8
0
100
AcDbLine
 10
439.3766754368961
 20
509.5106160030675
 30
0.0
 11
439.3766754368961
 21
506.5106160030675
 31
0.0
  0
LINE
  5
A55
330
2
100
AcDbEntity
  8
0
100
AcDbLine
 10
437.876675436896
 20
506.5106160030675
 30
0.0
 11
437.876675436896
 21
501.5106160030675
 31
0.0
  0
LINE
  5
A56
330
2
100
AcDbEntity
  8
0
100
AcDbLine
 10
437.0754064368965
 20
501.5106160030675
 30
0.0
 11
440.8766754368961
 21
501.5106160030675
 31
0.0
  0
LINE
  5
A57
330
2
100
AcDbEntity
  8
0
100
AcDbLine
 10
440.8766754368961
 20
451.5106160030675
 30
0.0
 11
440.8766754368961
 21
501.5106160030675
 31
0.0
  0
LINE
  5
A58
330
2
100
AcDbEntity
  8
0
100
AcDbLine
 10
437.0754064368965
 20
501.5106160030675
 30
0.0
 11
437.0754064368965
 21
451.5106160030675
 31
0.0
  0
LINE
  5
A59
330
2
100
AcDbEntity
  8
CENTER
100
AcDbLine
 10
469.3766754368965
 20
501.1629600030658
 30
0.0
 11
469.3766754368965
 21
521.8582720030692
 31
0.0
  0
LINE
  5
A5A
330
2
100
AcDbEntity
  8
CENTER
100
AcDbLine
 10
459.0290194368948
 20
511.5106160030675
 30
0.0
 11
479.7243314368983
 21
511.5106160030675
 31
0.0
  0
LINE
  5
A5B
330
2
100
AcDbEntity
  8
0
100
AcDbLine
 10
477.4228184368957
 20
520.1177940030659
 30
0.0
 11
478.2305574368955
 21
522.9031940030665
 31
0.0
  0
ARC
  5
A5C
330
2
100
AcDbEntity
  8
0
100
AcDbCircle
 10
480.326748436896
 20
504.5106160030675
 30
0.0
 40
8.0
100
AcDbArc
 50
270.0
 51
339.5033869999894
  0
ARC
  5
A5D
330
2
100
AcDbEntity
  8
0
100
AcDbCircle
 10
472.6206944368958
 20
521.5106160030675
 30
0.0
 40
5.0
100
AcDbArc
 50
270.0
 51
343.8278499999861
  0
LINE
  5
A5E
330
2
100
AcDbEntity
  8
0
100
AcDbLine
 10
461.9323394368956
 20
513.0997270030686
 30
0.0
 11
462.9355134368969
 21
516.5106160030675
 31
0.0
  0
ARC
  5
A5F
330
2
100
AcDbEntity
  8
0
100
AcDbCircle
 10
457.1354644368956
 20
514.5106160030675
 30
0.0
 40
5.0
100
AcDbArc
 50
270.0
 51
343.6104739999657
  0
LINE
  5
A60
330
2
100
AcDbEntity
  8
0
100
AcDbLine
 10
472.6206944368958
 20
516.5106160030675
 30
0.0
 11
462.9355134368969
 21
516.5106160030675
 31
0.0
  0
ARC
  5
A61
330
2
100
AcDbEntity
  8
0
100
AcDbCircle
 10
469.3766754368961
 20
511.5106160030675
 30
0.0
 40
6.5
100
AcDbArc
 50
129.7151340000195
 51
51.24068799995801
  0
LINE
  5
A62
330
2
100
AcDbEntity
  8
0
100
AcDbLine
 10
323.3769194368969
 20
642.5103720030667
 30
0.0
 11
315.4552884368958
 21
642.7178910030682
 31
0.0
  0
ARC
  5
A63
330
2
100
AcDbEntity
  8
0
100
AcDbCircle
 10
315.3767974368974
 20
639.7188680030678
 30
0.0
 40
3.0
100
AcDbArc
 50
88.50013699997852
 51
180.0
  0
LINE
  5
A64
330
2
100
AcDbEntity
  8
0
100
AcDbLine
 10
264.8769194368969
 20
629.0106160030675
 30
0.0
 11
312.3767974368974
 21
630.2547560030664
 31
0.0
  0
ARC
  5
A65
330
2
100
AcDbEntity
  8
0
100
AcDbCircle
 10
270.3769194368969
 20
626.1536820030681
 30
0.0
 40
3.0
100
AcDbArc
 50
0.0
 51
91.50055700001834
  0
LINE
  5
A67
330
2
100
AcDbEntity
  8
0
100
AcDbLine
 10
312.3767974368974
 20
639.7188680030678
 30
0.0
 11
312.3767974368974
 21
630.2547560030664
 31
0.0
  0
LINE
  5
A68
330
2
100
AcDbEntity
  8
0
100
AcDbLine
 10
363.4266024368961
 20
646.5106160030675
 30
0.0
 11
480.326748436896
 21
646.5106160030675
 31
0.0
  0
LINE
  5
A69
330
2
100
AcDbEntity
  8
0
100
AcDbLine
 10
457.1354644368956
 20
633.5106160030675
 30
0.0
 11
386.6178864368966
 21
633.5106160030675
 31
0.0
  0
ARC
  5
A6A
330
2
100
AcDbEntity
  8
0
100
AcDbCircle
 10
363.4266024368961
 20
638.5106160030675
 30
0.0
 40
8.0
100
AcDbArc
 50
90.0
 51
159.5033869999894
  0
ARC
  5
A6B
330
2
100
AcDbEntity
  8
0
100
AcDbCircle
 10
330.7715734368966
 20
634.5106160030675
 30
0.0
 40
8.0
100
AcDbArc
 50
14.99999999999445
 51
90.0
  0
LINE
  5
A6C
330
2
100
AcDbEntity
  8
CENTER
100
AcDbLine
 10
364.0290204368952
 20
631.5106160030675
 30
0.0
 11
384.7243324368987
 21
631.5106160030675
 31
0.0
  0
ARC
  5
A6D
330
2
100
AcDbEntity
  8
0
100
AcDbCircle
 10
360.7206694368969
 20
621.5106160030675
 30
0.0
 40
5.0
100
AcDbArc
 50
270.0
 51
343.8278499999861
  0
LINE
  5
A6E
330
2
100
AcDbEntity
  8
0
100
AcDbLine
 10
364.4766514368975
 20
526.5106160030675
 30
0.0
 11
364.4734774368961
 21
526.5216020030687
 31
0.0
  0
LINE
  5
A6F
330
2
100
AcDbEntity
  8
0
100
AcDbLine
 10
364.4766514368975
 20
616.5106160030675
 30
0.0
 11
364.4734774368961
 21
616.4993850030671
 31
0.0
  0
LINE
  5
A70
330
2
100
AcDbEntity
  8
0
100
AcDbLine
 10
345.8765534368966
 20
571.5106160030675
 30
0.0
 11
346.6105624368964
 21
613.5628620030668
 31
0.0
  0
LINE
  5
A71
330
2
100
AcDbEntity
  8
0
100
AcDbLine
 10
345.8765534368966
 20
571.5106160030675
 30
0.0
 11
346.6105624368964
 21
529.4581260030675
 31
0.0
  0
ARC
  5
A72
330
2
100
AcDbEntity
  8
0
100
AcDbCircle
 10
349.6100734368964
 20
529.5106160030675
 30
0.0
 40
3.0
100
AcDbArc
 50
180.9999999999757
 51
270.0
  0
ARC
  5
A73
330
2
100
AcDbEntity
  8
0
100
AcDbCircle
 10
350.0154694368965
 20
624.5106160030675
 30
0.0
 40
8.0
100
AcDbArc
 50
194.9999999999944
 51
270.0
  0
ARC
  5
A74
330
2
100
AcDbEntity
  8
0
100
AcDbCircle
 10
349.6100734368964
 20
613.5106160030675
 30
0.0
 40
3.0
100
AcDbArc
 50
90.0
 51
179.0000000000242
  0
LINE
  5
A75
330
2
100
AcDbEntity
  8
0
100
AcDbLine
 10
355.9330724368964
 20
641.3116410030681
 30
0.0
 11
346.8982824368967
 21
617.1426960030669
 31
0.0
  0
LINE
  5
A76
330
2
100
AcDbEntity
  8
0
100
AcDbLine
 10
330.7715734368966
 20
642.5106160030675
 30
0.0
 11
323.3769194368969
 21
642.5106160030675
 31
0.0
  0
LINE
  5
A77
330
2
100
AcDbEntity
  8
0
100
AcDbLine
 10
338.4989904368966
 20
636.5811720030663
 30
0.0
 11
342.2881744368959
 21
622.4400590030684
 31
0.0
  0
LINE
  5
A78
330
2
100
AcDbEntity
  8
CENTER
100
AcDbLine
 10
374.3766764368969
 20
621.1629600030658
 30
0.0
 11
374.3766764368969
 21
641.8582720030692
 31
0.0
  0
LINE
  5
A79
330
2
100
AcDbEntity
  8
0
100
AcDbLine
 10
392.8766754368961
 20
613.5106160030675
 30
0.0
 11
392.8766754368961
 21
529.5106160030675
 31
0.0
  0
LINE
  5
A7A
330
2
100
AcDbEntity
  8
0
100
AcDbLine
 10
381.8210114368966
 20
629.9212600030671
 30
0.0
 11
380.8178374368953
 21
626.5106160030675
 31
0.0
  0
ARC
  5
A7B
330
2
100
AcDbEntity
  8
0
100
AcDbCircle
 10
386.6178864368966
 20
628.5106160030675
 30
0.0
 40
5.0
100
AcDbArc
 50
90.0
 51
163.6104580000246
  0
LINE
  5
A7C
330
2
100
AcDbEntity
  8
0
100
AcDbLine
 10
366.3305324368965
 20
622.9031940030665
 30
0.0
 11
365.5227934368967
 21
620.1177940030659
 31
0.0
  0
ARC
  5
A7D
330
2
100
AcDbEntity
  8
0
100
AcDbCircle
 10
371.1326564368964
 20
621.5106160030675
 30
0.0
 40
5.0
100
AcDbArc
 50
90.0
 51
163.8278350000388
  0
LINE
  5
A7E
330
2
100
AcDbEntity
  8
0
100
AcDbLine
 10
371.1326564368964
 20
626.5106160030675
 30
0.0
 11
380.8178374368953
 21
626.5106160030675
 31
0.0
  0
ARC
  5
A7F
330
2
100
AcDbEntity
  8
0
100
AcDbCircle
 10
374.3766754368961
 20
631.5106160030675
 30
0.0
 40
6.5
100
AcDbArc
 50
309.7151490000032
 51
231.2406920000017
  0
ARC
  5
A80
330
2
100
AcDbEntity
  8
0
100
AcDbCircle
 10
480.326748436896
 20
638.5106160030675
 30
0.0
 40
8.0
100
AcDbArc
 50
20.49661799999935
 51
90.0
  0
LINE
  5
A81
330
2
100
AcDbEntity
  8
CENTER
100
AcDbLine
 10
469.3766754368965
 20
621.1629600030658
 30
0.0
 11
469.3766754368965
 21
641.8582720030692
 31
0.0
  0
LINE
  5
A82
330
2
100
AcDbEntity
  8
CENTER
100
AcDbLine
 10
459.0290194368948
 20
631.5106160030675
 30
0.0
 11
479.7243314368983
 21
631.5106160030675
 31
0.0
  0
LINE
  5
A83
330
2
100
AcDbEntity
  8
0
100
AcDbLine
 10
479.2766994368966
 20
526.5106160030675
 30
0.0
 11
479.279873436896
 21
526.5216020030687
 31
0.0
  0
LINE
  5
A84
330
2
100
AcDbEntity
  8
0
100
AcDbLine
 10
479.2766994368966
 20
616.5106160030675
 30
0.0
 11
479.279873436896
 21
616.4993850030671
 31
0.0
  0
LINE
  5
A85
330
2
100
AcDbEntity
  8
0
100
AcDbLine
 10
477.4228184368957
 20
622.9031940030665
 30
0.0
 11
478.2305574368955
 21
620.1177940030659
 31
0.0
  0
ARC
  5
A86
330
2
100
AcDbEntity
  8
0
100
AcDbCircle
 10
483.0326814368971
 20
621.5106160030675
 30
0.0
 40
5.0
100
AcDbArc
 50
196.1721649999612
 51
270.0
  0
ARC
  5
A87
330
2
100
AcDbEntity
  8
0
100
AcDbCircle
 10
472.6206944368958
 20
621.5106160030675
 30
0.0
 40
5.0
100
AcDbArc
 50
16.1721589999832
 51
90.0
  0
LINE
  5
A88
330
2
100
AcDbEntity
  8
0
100
AcDbLine
 10
461.9323394368956
 20
629.9212600030671
 30
0.0
 11
462.9355134368969
 21
626.5106160030675
 31
0.0
  0
ARC
  5
A89
330
2
100
AcDbEntity
  8
0
100
AcDbCircle
 10
457.1354644368956
 20
628.5106160030675
 30
0.0
 40
5.0
100
AcDbArc
 50
16.38954000000823
 51
90.0
  0
LINE
  5
A8A
330
2
100
AcDbEntity
  8
0
100
AcDbLine
 10
472.6206944368958
 20
626.5106160030675
 30
0.0
 11
462.9355134368969
 21
626.5106160030675
 31
0.0
  0
ARC
  5
A8B
330
2
100
AcDbEntity
  8
0
100
AcDbCircle
 10
469.3766754368961
 20
631.5106160030675
 30
0.0
 40
6.5
100
AcDbArc
 50
308.7593079999984
 51
230.2848659999805
  0
LINE
  5
A8C
330
2
100
AcDbEntity
  8
0
100
AcDbLine
 10
450.8766754368961
 20
613.5106160030675
 30
0.0
 11
450.8766754368961
 21
529.5106160030675
 31
0.0
  0
LINE
  5
A90
330
2
100
AcDbEntity
  8
0
100
AcDbLine
 10
497.8766754368961
 20
266.8204429230807
 30
0.0
 11
497.8766754368961
 21
98.51502292307964
 31
0.0
  0
ARC
  5
A91
330
2
100
AcDbEntity
  8
0
100
AcDbCircle
 10
489.8766754368961
 20
266.8204429230807
 30
0.0
 40
8.0
100
AcDbArc
 50
0.0
 51
55.33673900002956
  0
LINE
  5
A94
330
2
100
AcDbEntity
  8
CENTER
100
AcDbLine
 10
799.6985058066587
 20
83.5150229230801
 30
0.0
 11
799.6985058066597
 21
318.5155119230801
 31
0.0
  0
ARC
  5
A95
330
2
100
AcDbEntity
  8
0
100
AcDbCircle
 10
742.6985058066592
 20
203.2562339230787
 30
0.0
 40
5.0
100
AcDbArc
 50
180.0
 51
253.6107940000155
  0
ARC
  5
A96
330
2
100
AcDbEntity
  8
0
100
AcDbCircle
 10
742.6985058066592
 20
273.7738119230796
 30
0.0
 40
5.0
100
AcDbArc
 50
106.389899999988
 51
180.0
  0
LINE
  5
A97
330
2
100
AcDbEntity
  8
0
100
AcDbLine
 10
726.9497258066593
 20
116.7401199230783
 30
0.0
 11
751.9969678066598
 21
119.2450029230797
 31
0.0
  0
LINE
  5
A98
330
2
100
AcDbEntity
  8
0
100
AcDbLine
 10
727.1985058066592
 20
116.5150229230796
 30
0.0
 11
750.6985058066592
 21
116.5150229230796
 31
0.0
  0
LINE
  5
A99
330
2
100
AcDbEntity
  8
0
100
AcDbLine
 10
724.6985058066591
 20
98.51502292307964
 30
0.0
 11
769.6985058066592
 21
98.51502292307964
 31
0.0
  0
ARC
  5
A9A
330
2
100
AcDbEntity
  8
0
100
AcDbCircle
 10
799.6985058066592
 20
196.5150229230801
 30
0.0
 40
71.0
100
AcDbArc
 50
158.5187069999619
 51
230.6687010000038
  0
LINE
  5
A9B
330
2
100
AcDbEntity
  8
CENTER
100
AcDbLine
 10
739.6985058066605
 20
123.5150229230819
 30
0.0
 11
739.6985058066569
 21
91.51502292308009
 31
0.0
  0
ARC
  5
A9C
330
2
100
AcDbEntity
  8
0
100
AcDbCircle
 10
727.1985058066592
 20
114.252326923078
 30
0.0
 40
2.5
100
AcDbArc
 50
95.71064799998202
 51
180.0
  0
ARC
  5
A9D
330
2
100
AcDbEntity
  8
0
100
AcDbCircle
 10
727.1985058066592
 20
114.0150229230796
 30
0.0
 40
2.5
100
AcDbArc
 50
90.0
 51
180.0
  0
LINE
  5
A9E
330
2
100
AcDbEntity
  8
0
100
AcDbLine
 10
724.6985058066591
 20
114.252326923078
 30
0.0
 11
724.6985058066591
 21
98.51502292307964
 31
0.0
  0
LINE
  5
A9F
330
2
100
AcDbEntity
  8
HIDS
  6
sekkei_H
100
AcDbLine
 10
733.1985058066592
 20
116.5150229230796
 30
0.0
 11
733.1985058066592
 21
98.51502292307964
 31
0.0
  0
LINE
  5
AA1
330
2
100
AcDbEntity
  8
0
100
AcDbLine
 10
734.6985058066592
 20
222.5150229230801
 30
0.0
 11
679.6983838066597
 21
222.5150229230801
 31
0.0
  0
LINE
  5
AA2
330
2
100
AcDbEntity
  8
0
100
AcDbLine
 10
734.6985058066592
 20
254.5150229230801
 30
0.0
 11
679.6983838066597
 21
254.5150229230801
 31
0.0
  0
LINE
  5
AA3
330
2
100
AcDbEntity
  8
0
100
AcDbLine
 10
724.6985058066591
 20
233.5150229230801
 30
0.0
 11
679.6983838066597
 21
233.5150229230801
 31
0.0
  0
LINE
  5
AA4
330
2
100
AcDbEntity
  8
0
100
AcDbLine
 10
724.6985058066591
 20
243.5150229230801
 30
0.0
 11
679.6983838066597
 21
243.5150229230801
 31
0.0
  0
LINE
  5
AA5
330
2
100
AcDbEntity
  8
0
100
AcDbLine
 10
679.6983838066597
 20
222.5150229230801
 30
0.0
 11
679.6983838066597
 21
254.5150229230801
 31
0.0
  0
ARC
  5
AA6
330
2
100
AcDbEntity
  8
0
100
AcDbCircle
 10
724.6985058066591
 20
238.5150229230801
 30
0.0
 40
5.0
100
AcDbArc
 50
270.0
 51
90.0
  0
LINE
  5
AA7
330
2
100
AcDbEntity
  8
0
100
AcDbLine
 10
737.6985058066592
 20
203.255989923078
 30
0.0
 11
737.6985058066592
 21
273.7738119230796
 31
0.0
  0
LINE
  5
AA8
330
2
100
AcDbEntity
  8
0
100
AcDbLine
 10
737.6985058066592
 20
221.0150229230801
 30
0.0
 11
734.6985058066592
 21
221.0150229230801
 31
0.0
  0
LINE
  5
AA9
330
2
100
AcDbEntity
  8
0
100
AcDbLine
 10
737.6985058066592
 20
256.0150229230801
 30
0.0
 11
734.6985058066592
 21
256.0150229230801
 31
0.0
  0
LINE
  5
AAA
330
2
100
AcDbEntity
  8
0
100
AcDbLine
 10
734.6985058066592
 20
256.0150229230801
 30
0.0
 11
734.6985058066592
 21
221.0150229230801
 31
0.0
  0
ARC
  5
AAB
330
2
100
AcDbEntity
  8
0
100
AcDbCircle
 10
799.6985058066592
 20
230.5150229230801
 30
0.0
 40
67.5
100
AcDbArc
 50
186.8066099999795
 51
188.4091950000421
  0
ARC
  5
AAC
330
2
100
AcDbEntity
  8
0
100
AcDbCircle
 10
799.6985058066592
 20
230.5150229230801
 30
0.0
 40
67.5
100
AcDbArc
 50
156.7104490000207
 51
157.8038940000123
  0
LINE
  5
AAD
330
2
100
AcDbEntity
  8
0
100
AcDbLine
 10
754.6985058066592
 20
299.781135923078
 30
0.0
 11
754.6985058066592
 21
98.51502292307964
 31
0.0
  0
LINE
  5
AAE
330
2
100
AcDbEntity
  8
0
100
AcDbLine
 10
744.6985058066592
 20
154.2708819230786
 30
0.0
 11
744.6985058066592
 21
242.4254229230789
 31
0.0
  0
LINE
  5
AAF
330
2
100
AcDbEntity
  8
0
100
AcDbLine
 10
748.3058058066589
 20
149.4686359230775
 30
0.0
 11
751.0910838066583
 21
148.6610189230789
 31
0.0
  0
ARC
  5
AB0
330
2
100
AcDbEntity
  8
0
100
AcDbCircle
 10
749.6985058066591
 20
143.8587729230796
 30
0.0
 40
5.0
100
AcDbArc
 50
0.0
 51
73.82791900000649
  0
LINE
  5
AB1
330
2
100
AcDbEntity
  8
HIDS
  6
sekkei_H
100
AcDbLine
 10
746.1985058066592
 20
116.5150229230796
 30
0.0
 11
746.1985058066592
 21
98.51502292307964
 31
0.0
  0
LINE
  5
AB2
330
2
100
AcDbEntity
  8
0
100
AcDbLine
 10
769.6985058066592
 20
98.51502292307964
 30
0.0
 11
771.1985058066592
 21
100.0150229230796
 31
0.0
  0
ARC
  5
AB3
330
2
100
AcDbEntity
  8
0
100
AcDbCircle
 10
751.6985058066592
 20
122.2298659230775
 30
0.0
 40
3.0
100
AcDbArc
 50
275.7106629999896
 51
0.0
  0
ARC
  5
AB4
330
2
100
AcDbEntity
  8
0
100
AcDbCircle
 10
750.6985058066592
 20
120.5150229230796
 30
0.0
 40
4.0
100
AcDbArc
 50
270.0
 51
0.0
  0
LINE
  5
AB5
330
2
100
AcDbEntity
  8
0
100
AcDbLine
 10
741.2876168066585
 20
198.4593589230787
 30
0.0
 11
741.8272898066578
 21
198.3006669230796
 31
0.0
  0
ARC
  5
AB6
330
2
100
AcDbEntity
  8
0
100
AcDbCircle
 10
740.6985058066592
 20
194.4630209230797
 30
0.0
 40
4.0
100
AcDbArc
 50
0.0
 51
73.61064900000385
  0
ARC
  5
AB7
330
2
100
AcDbEntity
  8
0
100
AcDbCircle
 10
749.6985058066591
 20
154.2708819230786
 30
0.0
 40
5.0
100
AcDbArc
 50
180.0
 51
253.8282009999817
  0
LINE
  5
AB8
330
2
100
AcDbEntity
  8
0
100
AcDbLine
 10
757.6460148066588
 20
302.7806479230801
 30
0.0
 11
799.6985058066592
 21
303.5150229230801
 31
0.0
  0
ARC
  5
AB9
330
2
100
AcDbEntity
  8
0
100
AcDbCircle
 10
757.6985058066592
 20
299.781135923078
 30
0.0
 40
3.0
100
AcDbArc
 50
91.00060299999357
 51
180.0
  0
ARC
  5
ABA
330
2
100
AcDbEntity
  8
0
100
AcDbCircle
 10
749.6985058066591
 20
286.2562339230787
 30
0.0
 40
5.0
100
AcDbArc
 50
286.3897710000147
 51
0.0
  0
LINE
  5
ABB
330
2
100
AcDbEntity
  8
0
100
AcDbLine
 10
751.1092718066582
 20
281.4593589230788
 30
0.0
 11
741.2876168066585
 21
278.5704429230807
 31
0.0
  0
LINE
  5
ABC
330
2
100
AcDbEntity
  8
0
100
AcDbLine
 10
497.8769194368968
 20
571.5106160030675
 30
0.0
 11
497.0913974368967
 21
616.5106160030675
 31
0.0
  0
LINE
  5
ABD
330
2
100
AcDbEntity
  8
0
100
AcDbLine
 10
497.8769194368968
 20
571.5106160030675
 30
0.0
 11
497.0913974368967
 21
526.5106160030675
 31
0.0
  0
ARC
  5
ABE
330
2
100
AcDbEntity
  8
0
100
AcDbCircle
 10
494.1432774368958
 20
529.5106160030675
 30
0.0
 40
3.0
100
AcDbArc
 50
270.0
 51
359.0000000000243
  0
ARC
  5
ABF
330
2
100
AcDbEntity
  8
0
100
AcDbCircle
 10
494.1432774368958
 20
613.5106160030675
 30
0.0
 40
3.0
100
AcDbArc
 50
0.9999999999757104
 51
90.0
  0
LINE
  5
AC0
330
2
100
AcDbEntity
  8
0
100
AcDbLine
 10
854.6985058066592
 20
154.2708819230786
 30
0.0
 11
854.6985058066592
 21
242.4254229230789
 31
0.0
  0
ARC
  5
AC1
330
2
100
AcDbEntity
  8
0
100
AcDbCircle
 10
856.6985058066592
 20
203.255989923078
 30
0.0
 40
5.0
100
AcDbArc
 50
286.3896789999901
 51
0.0
  0
ARC
  5
AC2
330
2
100
AcDbEntity
  8
0
100
AcDbCircle
 10
799.6985058066592
 20
196.5150229230801
 30
0.0
 40
71.0
100
AcDbArc
 50
309.3312989999962
 51
29.16270600002217
  0
LINE
  5
AC3
330
2
100
AcDbEntity
  8
0
100
AcDbLine
 10
844.6985058066593
 20
299.7816239230795
 30
0.0
 11
844.6985058066593
 21
98.51502292307964
 31
0.0
  0
LINE
  5
AC4
330
2
100
AcDbEntity
  8
0
100
AcDbLine
 10
872.4471628066593
 20
116.7401199230783
 30
0.0
 11
847.3999218066591
 21
119.2450029230797
 31
0.0
  0
LINE
  5
AC5
330
2
100
AcDbEntity
  8
0
100
AcDbLine
 10
872.1985058066591
 20
116.5150229230796
 30
0.0
 11
848.6985058066592
 21
116.5150229230796
 31
0.0
  0
LINE
  5
AC6
330
2
100
AcDbEntity
  8
0
100
AcDbLine
 10
829.6985058066592
 20
98.51502292307964
 30
0.0
 11
874.6985058066591
 21
98.51502292307964
 31
0.0
  0
LINE
  5
AC7
330
2
100
AcDbEntity
  8
CENTER
100
AcDbLine
 10
859.6985058066588
 20
123.5150229230819
 30
0.0
 11
859.6985058066588
 21
91.51502292308009
 31
0.0
  0
LINE
  5
AC8
330
2
100
AcDbEntity
  8
0
100
AcDbLine
 10
858.1092718066583
 20
198.4593589230787
 30
0.0
 11
857.5698438066583
 21
198.3006669230796
 31
0.0
  0
ARC
  5
AC9
330
2
100
AcDbEntity
  8
0
100
AcDbCircle
 10
858.6985058066591
 20
194.4632649230787
 30
0.0
 40
4.0
100
AcDbArc
 50
106.3899990000099
 51
180.0
  0
ARC
  5
ACA
330
2
100
AcDbEntity
  8
0
100
AcDbCircle
 10
849.6985058066591
 20
154.2708819230786
 30
0.0
 40
5.0
100
AcDbArc
 50
286.1723020000212
 51
0.0
  0
LINE
  5
ACB
330
2
100
AcDbEntity
  8
0
100
AcDbLine
 10
851.0910838066601
 20
149.4686359230775
 30
0.0
 11
848.3058058066589
 21
148.6610189230789
 31
0.0
  0
ARC
  5
ACC
330
2
100
AcDbEntity
  8
0
100
AcDbCircle
 10
849.6985058066591
 20
143.8587729230796
 30
0.0
 40
5.0
100
AcDbArc
 50
106.172500999983
 51
180.0
  0
LINE
  5
ACD
330
2
100
AcDbEntity
  8
HIDS
  6
sekkei_H
100
AcDbLine
 10
866.1985058066592
 20
116.5150229230796
 30
0.0
 11
866.1985058066592
 21
98.51502292307964
 31
0.0
  0
LINE
  5
ACE
330
2
100
AcDbEntity
  8
HIDS
  6
sekkei_H
100
AcDbLine
 10
853.1985058066592
 20
116.5150229230796
 30
0.0
 11
853.1985058066592
 21
98.51502292307964
 31
0.0
  0
ARC
  5
ACF
330
2
100
AcDbEntity
  8
0
100
AcDbCircle
 10
847.6985058066592
 20
122.2298659230775
 30
0.0
 40
3.0
100
AcDbArc
 50
180.0
 51
264.2893370000105
  0
ARC
  5
AD0
330
2
100
AcDbEntity
  8
0
100
AcDbCircle
 10
848.6985058066592
 20
120.5150229230796
 30
0.0
 40
4.0
100
AcDbArc
 50
180.0
 51
270.0
  0
LINE
  5
AD1
330
2
100
AcDbEntity
  8
0
100
AcDbLine
 10
829.6985058066592
 20
98.51502292307964
 30
0.0
 11
828.1985058066592
 21
100.0150229230796
 31
0.0
  0
LINE
  5
AD2
330
2
100
AcDbEntity
  8
0
100
AcDbLine
 10
874.6985058066591
 20
114.252326923078
 30
0.0
 11
874.6985058066591
 21
98.51502292307964
 31
0.0
  0
ARC
  5
AD3
330
2
100
AcDbEntity
  8
0
100
AcDbCircle
 10
872.1985058066591
 20
114.252326923078
 30
0.0
 40
2.5
100
AcDbArc
 50
0.0
 51
84.28935200001797
  0
ARC
  5
AD4
330
2
100
AcDbEntity
  8
0
100
AcDbCircle
 10
872.1985058066591
 20
114.0150229230796
 30
0.0
 40
2.5
100
AcDbArc
 50
0.0
 51
90.0
  0
ARC
  5
AD5
330
2
100
AcDbEntity
  8
0
100
AcDbCircle
 10
799.6985058066592
 20
230.5150229230801
 30
0.0
 40
67.5
100
AcDbArc
 50
351.5907899999976
 51
23.28954900000323
  0
LINE
  5
AD6
330
2
100
AcDbEntity
  8
0
100
AcDbLine
 10
861.6985058066592
 20
203.255989923078
 30
0.0
 11
861.6985058066592
 21
273.7738119230796
 31
0.0
  0
LINE
  5
AD7
330
2
100
AcDbEntity
  8
0
100
AcDbLine
 10
858.1092718066583
 20
278.5704429230807
 30
0.0
 11
848.2876168066585
 21
281.4593589230788
 31
0.0
  0
ARC
  5
AD8
330
2
100
AcDbEntity
  8
0
100
AcDbCircle
 10
849.6985058066591
 20
286.2562339230787
 30
0.0
 40
5.0
100
AcDbArc
 50
180.0
 51
253.6107940000155
  0
ARC
  5
AD9
330
2
100
AcDbEntity
  8
0
100
AcDbCircle
 10
841.6985058066591
 20
299.7816239230795
 30
0.0
 40
3.0
100
AcDbArc
 50
0.0
 51
89.00057999998933
  0
ARC
  5
ADA
330
2
100
AcDbEntity
  8
0
100
AcDbCircle
 10
856.6985058066592
 20
273.7738119230796
 30
0.0
 40
5.0
100
AcDbArc
 50
0.0
 51
73.61052700001756
  0
LINE
  5
145E
330
2
100
AcDbEntity
  8
0
100
AcDbLine
 10
140.8766754368961
 20
170.5238119230823
 30
0.0
 11
140.8766754368961
 21
297.015022923081
 31
0.0
  0
LINE
  5
145F
330
2
100
AcDbEntity
  8
0
100
AcDbLine
 10
144.8766754368961
 20
288.015022923081
 30
0.0
 11
144.8766754368961
 21
181.4735189230821
 31
0.0
  0
ARC
  5
1460
330
2
100
AcDbEntity
  8
0
100
AcDbCircle
 10
425.376675436896
 20
230.5140469230817
 30
0.0
 40
340.0
100
AcDbArc
 50
170.9665069999959
 51
189.6212770000034
  0
ARC
  5
1461
330
2
100
AcDbEntity
  8
0
100
AcDbCircle
 10
-214.6233245631039
 20
230.515022923081
 30
0.0
 40
325.0
100
AcDbArc
 50
349.3958739999524
 51
11.66235900001417
  0
LINE
  5
1462
330
2
100
AcDbEntity
  8
0
100
AcDbLine
 10
256.8766754368961
 20
215.9151699230813
 30
0.0
 11
256.8766754368961
 21
221.7152189230808
 31
0.0
  0
LINE
  5
1463
330
2
100
AcDbEntity
  8
0
100
AcDbLine
 10
162.875576436896
 20
230.502754923081
 30
0.0
 11
162.875576436896
 21
211.749825923081
 31
0.0
  0
LINE
  5
1464
330
2
100
AcDbEntity
  8
0
100
AcDbLine
 10
176.877773436896
 20
230.502754923081
 30
0.0
 11
176.877773436896
 21
211.749825923081
 31
0.0
  0
LINE
  5
1465
330
2
100
AcDbEntity
  8
0
100
AcDbLine
 10
219.8766754368961
 20
205.515022923081
 30
0.0
 11
219.8766754368961
 21
255.515022923081
 31
0.0
  0
LINE
  5
1466
330
2
100
AcDbEntity
  8
0
100
AcDbLine
 10
152.8766754368961
 20
255.5152669230817
 30
0.0
 11
152.8766754368961
 21
205.515022923081
 31
0.0
  0
ARC
  5
1467
330
2
100
AcDbEntity
  8
0
100
AcDbCircle
 10
169.8766754368961
 20
230.502754923081
 30
0.0
 40
11.001738
100
AcDbArc
 50
309.521178999998
 51
230.4788059999968
  0
LINE
  5
1468
330
2
100
AcDbEntity
  8
CENTER
100
AcDbLine
 10
169.8766754368961
 20
246.380257923081
 30
0.0
 11
169.8766754368961
 21
202.7727749230811
 31
0.0
  0
LINE
  5
1469
330
2
100
AcDbEntity
  8
0
100
AcDbLine
 10
264.8766754368961
 20
173.015022923081
 30
0.0
 11
176.2097894368961
 21
173.0150229230812
 31
0.0
  0
LINE
  5
146A
330
2
100
AcDbEntity
  8
0
100
AcDbLine
 10
256.8766754368961
 20
179.2291349230806
 30
0.0
 11
176.2097894368961
 21
179.2291349230805
 31
0.0
  0
LINE
  5
146B
330
2
100
AcDbEntity
  8
0
100
AcDbLine
 10
256.8766754368961
 20
183.515022923081
 30
0.0
 11
176.2097894368961
 21
183.5150229230809
 31
0.0
  0
LINE
  5
146C
330
2
100
AcDbEntity
  8
0
100
AcDbLine
 10
256.8766754368961
 20
185.515022923081
 30
0.0
 11
176.2097894368961
 21
185.5150229230811
 31
0.0
  0
LINE
  5
146D
330
2
100
AcDbEntity
  8
0
100
AcDbLine
 10
256.8766754368961
 20
190.515022923081
 30
0.0
 11
176.2097894368961
 21
190.515022923081
 31
0.0
  0
LINE
  5
146E
330
2
100
AcDbEntity
  8
0
100
AcDbLine
 10
256.8766754368961
 20
192.515022923081
 30
0.0
 11
176.2097894368961
 21
192.515022923081
 31
0.0
  0
LINE
  5
146F
330
2
100
AcDbEntity
  8
0
100
AcDbLine
 10
256.8766754368961
 20
198.015022923081
 30
0.0
 11
176.2097894368961
 21
198.015022923081
 31
0.0
  0
LINE
  5
1470
330
2
100
AcDbEntity
  8
0
100
AcDbLine
 10
256.8766754368961
 20
200.015022923081
 30
0.0
 11
176.2097894368961
 21
200.015022923081
 31
0.0
  0
LINE
  5
1471
330
2
100
AcDbEntity
  8
0
100
AcDbLine
 10
217.8766754368961
 20
203.515022923081
 30
0.0
 11
176.2097894368961
 21
203.515022923081
 31
0.0
  0
LINE
  5
1472
330
2
100
AcDbEntity
  8
0
100
AcDbLine
 10
139.8678864368966
 20
169.5238119230823
 30
0.0
 11
95.08883343689637
 21
169.5238119230823
 31
0.0
  0
ARC
  5
1473
330
2
100
AcDbEntity
  8
0
100
AcDbCircle
 10
95.08883343689637
 20
174.5238119230823
 30
0.0
 40
5.0
100
AcDbArc
 50
189.6212770000034
 51
270.0
  0
ARC
  5
1474
330
2
100
AcDbEntity
  8
0
100
AcDbCircle
 10
105.8092924368965
 20
170.5238119230823
 30
0.0
 40
1.0
100
AcDbArc
 50
169.3958739999524
 51
270.0
  0
LINE
  5
1475
330
2
100
AcDbEntity
  8
0
100
AcDbLine
 10
155.8766754368961
 20
173.4735189230821
 30
0.0
 11
155.8766754368961
 21
163.5011069230811
 31
0.0
  0
LINE
  5
1476
330
2
100
AcDbEntity
  8
0
100
AcDbLine
 10
158.8769194368968
 20
173.4735189230821
 30
0.0
 11
158.8769194368968
 21
166.3465659230812
 31
0.0
  0
LINE
  5
1477
330
2
100
AcDbEntity
  8
0
100
AcDbLine
 10
152.8766754368961
 20
173.4735189230821
 30
0.0
 11
152.8766754368961
 21
164.759163923082
 31
0.0
  0
LINE
  5
1478
330
2
100
AcDbEntity
  8
0
100
AcDbLine
 10
165.0609094368959
 20
157.999580923081
 30
0.0
 11
165.0609094368959
 21
205.498848923081
 31
0.0
  0
LINE
  5
1479
330
2
100
AcDbEntity
  8
0
100
AcDbLine
 10
167.691326436896
 20
205.498848923081
 30
0.0
 11
167.691326436896
 21
157.999580923081
 31
0.0
  0
LINE
  5
147A
330
2
100
AcDbEntity
  8
0
100
AcDbLine
 10
172.0620234368961
 20
205.498848923081
 30
0.0
 11
172.0620234368961
 21
157.999580923081
 31
0.0
  0
LINE
  5
147B
330
2
100
AcDbEntity
  8
0
100
AcDbLine
 10
174.6924404368959
 20
157.999580923081
 30
0.0
 11
174.6924404368959
 21
205.498848923081
 31
0.0
  0
LINE
  5
147C
330
2
100
AcDbEntity
  8
0
100
AcDbLine
 10
163.543575436896
 20
205.498848923081
 30
0.0
 11
163.543575436896
 21
166.396980923081
 31
0.0
  0
LINE
  5
147D
330
2
100
AcDbEntity
  8
0
100
AcDbLine
 10
168.5614744368962
 20
205.498848923081
 30
0.0
 11
168.5614744368962
 21
164.000496923081
 31
0.0
  0
LINE
  5
147E
330
2
100
AcDbEntity
  8
0
100
AcDbLine
 10
176.2097894368961
 20
205.498848923081
 30
0.0
 11
176.2097894368961
 21
166.396980923081
 31
0.0
  0
LINE
  5
147F
330
2
100
AcDbEntity
  8
0
100
AcDbLine
 10
171.191891436896
 20
164.000496923081
 30
0.0
 11
171.191891436896
 21
205.498848923081
 31
0.0
  0
LINE
  5
1480
330
2
100
AcDbEntity
  8
0
100
AcDbLine
 10
164.5608334368961
 20
157.999580923081
 30
0.0
 11
161.3882564368961
 21
159.478951923081
 31
0.0
  0
LINE
  5
1481
330
2
100
AcDbEntity
  8
0
100
AcDbLine
 10
163.4106254368961
 20
155.225288923081
 30
0.0
 11
160.120205436896
 21
156.7595909230809
 31
0.0
  0
LINE
  5
1482
330
2
100
AcDbEntity
  8
0
100
AcDbLine
 10
160.924572436896
 20
151.0772179230809
 30
0.0
 11
162.9573944368961
 21
155.436592923081
 31
0.0
  0
LINE
  5
1483
330
2
100
AcDbEntity
  8
CENTER
100
AcDbLine
 10
160.562710436896
 20
144.997505923081
 30
0.0
 11
179.0656244368959
 21
144.997505923081
 31
0.0
  0
ARC
  5
1484
330
2
100
AcDbEntity
  8
0
100
AcDbCircle
 10
148.543575436896
 20
166.396980923081
 30
0.0
 40
15.0
100
AcDbArc
 50
335.0001220000047
 51
0.0
  0
LINE
  5
1485
330
2
100
AcDbEntity
  8
CENTER
100
AcDbLine
 10
161.268398436896
 20
154.926582923081
 30
0.0
 11
155.0024534368962
 21
141.489204923081
 31
0.0
  0
LINE
  5
1486
330
2
100
AcDbEntity
  8
0
100
AcDbLine
 10
158.540515209101
 20
152.1886681499212
 30
0.0
 11
160.5734214368962
 21
156.5482869230809
 31
0.0
  0
LINE
  5
1487
330
2
100
AcDbEntity
  8
CENTER
100
AcDbLine
 10
161.8102384368961
 20
144.9359829230809
 30
0.0
 11
151.827633436896
 21
149.590950923081
 31
0.0
  0
ARC
  5
1488
330
2
100
AcDbEntity
  8
0
100
AcDbCircle
 10
155.821587693286
 20
153.4565140253113
 30
0.0
 40
3.0
100
AcDbArc
 50
284.7348068271714
 51
335.0001877564395
  0
LINE
  5
1489
330
2
100
AcDbEntity
  8
0
100
AcDbLine
 10
158.7981534368961
 20
152.741158923081
 30
0.0
 11
161.1821104368961
 21
151.629524923081
 31
0.0
  0
ARC
  5
148A
330
2
100
AcDbEntity
  8
0
100
AcDbCircle
 10
157.5385704368961
 20
146.927925923081
 30
0.0
 40
2.150338
100
AcDbArc
 50
234.2391050000035
 51
75.76090199999943
  0
ARC
  5
148B
330
2
100
AcDbEntity
  8
0
100
AcDbCircle
 10
157.5385704368961
 20
146.927925923081
 30
0.0
 40
2.150338
100
AcDbArc
 50
54.23909800000271
 51
255.7608949999989
  0
ARC
  5
148C
330
2
100
AcDbEntity
  8
0
100
AcDbCircle
 10
157.5385704368961
 20
146.927925923081
 30
0.0
 40
3.750591999999999
100
AcDbArc
 50
104.7348068271714
 51
25.26337099999638
  0
ARC
  5
148D
330
2
100
AcDbEntity
  8
0
100
AcDbCircle
 10
163.643917436896
 20
149.809151923081
 30
0.0
 40
3.000475999999999
100
AcDbArc
 50
155.000000000001
 51
205.2633059999954
  0
LINE
  5
148E
330
2
100
AcDbEntity
  8
0
100
AcDbLine
 10
152.8766754368961
 20
164.759163923082
 30
0.0
 11
155.8766754368961
 21
163.5011069230811
 31
0.0
  0
LINE
  5
148F
330
2
100
AcDbEntity
  8
0
100
AcDbLine
 10
153.5768714368959
 20
164.4654629230815
 30
0.0
 11
153.5768714368959
 21
158.8284999230825
 31
0.0
  0
LINE
  5
1490
330
2
100
AcDbEntity
  8
0
100
AcDbLine
 10
153.3766754368961
 20
164.5494469230823
 30
0.0
 11
153.3766754368961
 21
158.8284999230825
 31
0.0
  0
LINE
  5
1491
330
2
100
AcDbEntity
  8
0
100
AcDbLine
 10
153.1767244368965
 20
164.6334319230816
 30
0.0
 11
153.1767244368965
 21
158.8284999230825
 31
0.0
  0
LINE
  5
1492
330
2
100
AcDbEntity
  8
0
100
AcDbLine
 10
155.8766754368961
 20
165.2132659230817
 30
0.0
 11
158.8769194368968
 21
166.3465659230812
 31
0.0
  0
LINE
  5
1493
330
2
100
AcDbEntity
  8
0
100
AcDbLine
 10
161.782558436896
 20
159.295113923081
 30
0.0
 11
162.1381954368961
 21
160.057747923081
 31
0.0
  0
LINE
  5
1494
330
2
100
AcDbEntity
  8
0
100
AcDbLine
 10
161.3882564368961
 20
159.478951923081
 30
0.0
 11
160.120205436896
 21
156.7595909230809
 31
0.0
  0
LINE
  5
1495
330
2
100
AcDbEntity
  8
0
100
AcDbLine
 10
154.3766754368961
 20
164.1300139230813
 30
0.0
 11
154.3766754368961
 21
158.8284999230825
 31
0.0
  0
LINE
  5
1496
330
2
100
AcDbEntity
  8
0
100
AcDbLine
 10
154.5768714368959
 20
164.046272923081
 30
0.0
 11
154.5768714368959
 21
158.8284999230825
 31
0.0
  0
LINE
  5
1497
330
2
100
AcDbEntity
  8
0
100
AcDbLine
 10
154.1767244368965
 20
164.2139979230821
 30
0.0
 11
154.1767244368965
 21
158.8284999230825
 31
0.0
  0
LINE
  5
1498
330
2
100
AcDbEntity
  8
0
100
AcDbLine
 10
154.7768224368964
 20
163.962288923082
 30
0.0
 11
154.7768224368964
 21
158.8284999230825
 31
0.0
  0
LINE
  5
1499
330
2
100
AcDbEntity
  8
0
100
AcDbLine
 10
153.9767734368969
 20
164.2977379230822
 30
0.0
 11
153.9767734368969
 21
158.8284999230825
 31
0.0
  0
LINE
  5
149A
330
2
100
AcDbEntity
  8
0
100
AcDbLine
 10
154.9767734368969
 20
163.878548923082
 30
0.0
 11
154.9767734368969
 21
158.8284999230825
 31
0.0
  0
LINE
  5
149B
330
2
100
AcDbEntity
  8
0
100
AcDbLine
 10
153.7768224368964
 20
164.3814779230822
 30
0.0
 11
153.7768224368964
 21
158.8284999230825
 31
0.0
  0
LINE
  5
149C
330
2
100
AcDbEntity
  8
0
100
AcDbLine
 10
155.1767244368965
 20
163.7948079230816
 30
0.0
 11
155.1767244368965
 21
158.8284999230825
 31
0.0
  0
LINE
  5
149D
330
2
100
AcDbEntity
  8
0
100
AcDbLine
 10
155.3766754368961
 20
163.7108239230808
 30
0.0
 11
155.3766754368961
 21
158.8284999230825
 31
0.0
  0
LINE
  5
149E
330
2
100
AcDbEntity
  8
0
100
AcDbLine
 10
155.5768714368959
 20
163.6268399230819
 30
0.0
 11
155.5768714368959
 21
158.8284999230825
 31
0.0
  0
LINE
  5
149F
330
2
100
AcDbEntity
  8
0
100
AcDbLine
 10
157.3766754368961
 20
165.7799159230824
 30
0.0
 11
157.3766754368961
 21
160.599251923081
 31
0.0
  0
LINE
  5
14A0
330
2
100
AcDbEntity
  8
0
100
AcDbLine
 10
157.5768714368959
 20
165.8553549230826
 30
0.0
 11
157.5768714368959
 21
160.599251923081
 31
0.0
  0
LINE
  5
14A1
330
2
100
AcDbEntity
  8
0
100
AcDbLine
 10
157.1767244368965
 20
165.7042319230811
 30
0.0
 11
157.1767244368965
 21
160.599251923081
 31
0.0
  0
LINE
  5
14A2
330
2
100
AcDbEntity
  8
0
100
AcDbLine
 10
156.9767734368969
 20
165.6287929230809
 30
0.0
 11
156.9767734368969
 21
160.599251923081
 31
0.0
  0
LINE
  5
14A3
330
2
100
AcDbEntity
  8
0
100
AcDbLine
 10
156.7768224368964
 20
165.5531089230815
 30
0.0
 11
156.7768224368964
 21
160.599251923081
 31
0.0
  0
LINE
  5
14A4
330
2
100
AcDbEntity
  8
0
100
AcDbLine
 10
156.5768714368959
 20
165.4776699230813
 30
0.0
 11
156.5768714368959
 21
160.599251923081
 31
0.0
  0
LINE
  5
14A5
330
2
100
AcDbEntity
  8
0
100
AcDbLine
 10
156.3769194368968
 20
165.4019859230818
 30
0.0
 11
156.3769194368968
 21
160.599251923081
 31
0.0
  0
LINE
  5
14A6
330
2
100
AcDbEntity
  8
0
100
AcDbLine
 10
156.1767244368965
 20
165.3265469230816
 30
0.0
 11
156.1767244368965
 21
160.599251923081
 31
0.0
  0
LINE
  5
14A7
330
2
100
AcDbEntity
  8
0
100
AcDbLine
 10
157.7768224368964
 20
165.931038923082
 30
0.0
 11
157.7768224368964
 21
160.599251923081
 31
0.0
  0
LINE
  5
14A8
330
2
100
AcDbEntity
  8
0
100
AcDbLine
 10
157.9767734368969
 20
166.0064779230822
 30
0.0
 11
157.9767734368969
 21
160.599251923081
 31
0.0
  0
LINE
  5
14A9
330
2
100
AcDbEntity
  8
0
100
AcDbLine
 10
158.1767244368965
 20
166.0819179230809
 30
0.0
 11
158.1767244368965
 21
160.599251923081
 31
0.0
  0
LINE
  5
14AA
330
2
100
AcDbEntity
  8
0
100
AcDbLine
 10
158.3766754368961
 20
166.1576009230818
 30
0.0
 11
158.3766754368961
 21
160.599251923081
 31
0.0
  0
LINE
  5
14AB
330
2
100
AcDbEntity
  8
0
100
AcDbLine
 10
158.5768714368959
 20
166.2330409230824
 30
0.0
 11
158.5768714368959
 21
160.599251923081
 31
0.0
  0
LINE
  5
14AC
330
2
100
AcDbEntity
  8
CENTER
100
AcDbLine
 10
166.3761254368961
 20
148.623055923081
 30
0.0
 11
166.3761254368961
 21
138.9965909230809
 31
0.0
  0
ARC
  5
14AD
330
2
100
AcDbEntity
  8
0
100
AcDbCircle
 10
173.377224436896
 20
144.997505923081
 30
0.0
 40
3.750591999999999
100
AcDbArc
 50
201.031799000002
 51
50.26337099999886
  0
LINE
  5
14AE
330
2
100
AcDbEntity
  8
CENTER
100
AcDbLine
 10
178.4849664368961
 20
154.926582923081
 30
0.0
 11
184.7508964368961
 21
141.489204923081
 31
0.0
  0
LINE
  5
14AF
330
2
100
AcDbEntity
  8
CENTER
100
AcDbLine
 10
173.377224436896
 20
138.9965909230809
 30
0.0
 11
173.377224436896
 21
158.749702923081
 31
0.0
  0
LINE
  5
14B0
330
2
100
AcDbEntity
  8
CENTER
100
AcDbLine
 10
169.8766754368961
 20
140.996895923081
 30
0.0
 11
169.8766754368961
 21
158.749702923081
 31
0.0
  0
ARC
  5
14B1
330
2
100
AcDbEntity
  8
0
100
AcDbCircle
 10
166.3761254368961
 20
144.997505923081
 30
0.0
 40
3.750591999999999
100
AcDbArc
 50
129.736892999997
 51
37.58772999999721
  0
LINE
  5
14B2
330
2
100
AcDbEntity
  8
0
100
AcDbLine
 10
180.955196436896
 20
152.741158923081
 30
0.0
 11
178.571239436896
 21
151.629524923081
 31
0.0
  0
LINE
  5
14B3
330
2
100
AcDbEntity
  8
0
100
AcDbLine
 10
181.2128325680504
 20
152.1886726462197
 30
0.0
 11
179.1799284368961
 21
156.5482869230809
 31
0.0
  0
LINE
  5
14B4
330
2
100
AcDbEntity
  8
0
100
AcDbLine
 10
176.342739436896
 20
155.225288923081
 30
0.0
 11
179.6331594368961
 21
156.7595909230809
 31
0.0
  0
LINE
  5
14B5
330
2
100
AcDbEntity
  8
0
100
AcDbLine
 10
178.3651084368961
 20
159.478951923081
 30
0.0
 11
179.6331594368961
 21
156.7595909230809
 31
0.0
  0
LINE
  5
14B6
330
2
100
AcDbEntity
  8
CENTER
100
AcDbLine
 10
177.9431114368962
 20
144.9359829230809
 30
0.0
 11
187.925732436896
 21
149.590950923081
 31
0.0
  0
ARC
  5
14B7
330
2
100
AcDbEntity
  8
0
100
AcDbCircle
 10
182.2147944368961
 20
146.927925923081
 30
0.0
 40
3.750591999999999
100
AcDbArc
 50
154.7366329999998
 51
75.26534321522531
  0
ARC
  5
14B8
330
2
100
AcDbEntity
  8
0
100
AcDbCircle
 10
174.1923644368961
 20
156.189949923081
 30
0.0
 40
3.000475999999999
100
AcDbArc
 50
180.0
 51
230.2633060000017
  0
ARC
  5
14B9
330
2
100
AcDbEntity
  8
0
100
AcDbCircle
 10
165.5609854368962
 20
156.189949923081
 30
0.0
 40
3.000475999999999
100
AcDbArc
 50
309.7363890000027
 51
0.0
  0
LINE
  5
14BA
330
2
100
AcDbEntity
  8
0
100
AcDbLine
 10
175.1925164368962
 20
154.999092923081
 30
0.0
 11
175.1925164368962
 21
157.999580923081
 31
0.0
  0
LINE
  5
14BB
330
2
100
AcDbEntity
  8
0
100
AcDbLine
 10
171.5619314368961
 20
157.999580923081
 30
0.0
 11
171.5619314368961
 21
154.999092923081
 31
0.0
  0
LINE
  5
14BC
330
2
100
AcDbEntity
  8
0
100
AcDbLine
 10
168.191402436896
 20
157.999580923081
 30
0.0
 11
168.191402436896
 21
154.999092923081
 31
0.0
  0
LINE
  5
14BD
330
2
100
AcDbEntity
  8
0
100
AcDbLine
 10
175.1925164368962
 20
157.691902923081
 30
0.0
 11
176.342739436896
 21
155.225288923081
 31
0.0
  0
LINE
  5
14BE
330
2
100
AcDbEntity
  8
0
100
AcDbLine
 10
164.5608334368961
 20
157.999580923081
 30
0.0
 11
164.5608334368961
 21
154.999092923081
 31
0.0
  0
LINE
  5
14BF
330
2
100
AcDbEntity
  8
0
100
AcDbLine
 10
164.5608334368961
 20
157.691902923081
 30
0.0
 11
163.4106254368961
 21
155.225288923081
 31
0.0
  0
CIRCLE
  5
14C0
330
2
100
AcDbEntity
  8
0
100
AcDbCircle
 10
169.8766754368961
 20
150.9984829230809
 30
0.0
 40
2.150338
  0
ARC
  5
14C1
330
2
100
AcDbEntity
  8
0
100
AcDbCircle
 10
169.8766754368961
 20
150.9984829230809
 30
0.0
 40
3.750591999999999
100
AcDbArc
 50
129.736892999997
 51
50.26337099999886
  0
LINE
  5
14C2
330
2
100
AcDbEntity
  8
CENTER
100
AcDbLine
 10
163.5006674368961
 20
150.9984829230809
 30
0.0
 11
176.377697436896
 21
150.9984829230809
 31
0.0
  0
LINE
  5
14C3
330
2
100
AcDbEntity
  8
0
100
AcDbLine
 10
167.691326436896
 20
154.0770349230809
 30
0.0
 11
167.691326436896
 21
154.999092923081
 31
0.0
  0
ARC
  5
14C4
330
2
100
AcDbEntity
  8
0
100
AcDbCircle
 10
173.377224436896
 20
144.997505923081
 30
0.0
 40
3.750591999999999
100
AcDbArc
 50
142.4118039999976
 51
158.9676969999987
  0
LINE
  5
14C5
330
2
100
AcDbEntity
  8
0
100
AcDbLine
 10
165.0609094368959
 20
150.189034923081
 30
0.0
 11
165.0609094368959
 21
154.999092923081
 31
0.0
  0
LINE
  5
14C6
330
2
100
AcDbEntity
  8
0
100
AcDbLine
 10
165.0609094368959
 20
150.798409923081
 30
0.0
 11
166.126079436896
 21
150.798409923081
 31
0.0
  0
ARC
  5
14C7
330
2
100
AcDbEntity
  8
0
100
AcDbCircle
 10
162.0604364368961
 20
150.189034923081
 30
0.0
 40
3.000475999999999
100
AcDbArc
 50
309.7363890000027
 51
0.0
  0
CIRCLE
  5
14C8
330
2
100
AcDbEntity
  8
0
100
AcDbCircle
 10
166.3761254368961
 20
144.997505923081
 30
0.0
 40
2.150338
  0
LINE
  5
14C9
330
2
100
AcDbEntity
  8
0
100
AcDbLine
 10
164.5608334368961
 20
154.999092923081
 30
0.0
 11
168.191402436896
 21
154.999092923081
 31
0.0
  0
LINE
  5
14CA
330
2
100
AcDbEntity
  8
0
100
AcDbLine
 10
173.621929436896
 20
150.798409923081
 30
0.0
 11
174.6924404368959
 21
150.798409923081
 31
0.0
  0
LINE
  5
14CB
330
2
100
AcDbEntity
  8
0
100
AcDbLine
 10
172.0620234368961
 20
154.0770349230809
 30
0.0
 11
172.0620234368961
 21
154.999092923081
 31
0.0
  0
LINE
  5
14CC
330
2
100
AcDbEntity
  8
0
100
AcDbLine
 10
171.5619314368961
 20
154.999092923081
 30
0.0
 11
175.1925164368962
 21
154.999092923081
 31
0.0
  0
LINE
  5
14CD
330
2
100
AcDbEntity
  8
0
100
AcDbLine
 10
178.8287924368961
 20
151.0772179230809
 30
0.0
 11
176.795956436896
 21
155.436592923081
 31
0.0
  0
LINE
  5
14CE
330
2
100
AcDbEntity
  8
0
100
AcDbLine
 10
174.6924404368959
 20
150.189034923081
 30
0.0
 11
174.6924404368959
 21
154.999092923081
 31
0.0
  0
CIRCLE
  5
14CF
330
2
100
AcDbEntity
  8
0
100
AcDbCircle
 10
173.377224436896
 20
144.997505923081
 30
0.0
 40
2.150338
  0
ARC
  5
14D0
330
2
100
AcDbEntity
  8
0
100
AcDbCircle
 10
176.1094324368961
 20
149.809151923081
 30
0.0
 40
3.000475999999999
100
AcDbArc
 50
334.7366940000047
 51
24.99999999999899
  0
ARC
  5
14D1
330
2
100
AcDbEntity
  8
0
100
AcDbCircle
 10
177.692913436896
 20
150.189034923081
 30
0.0
 40
3.000475999999999
100
AcDbArc
 50
180.0
 51
230.2633060000017
  0
LINE
  5
14D2
330
2
100
AcDbEntity
  8
0
100
AcDbLine
 10
168.061382436896
 20
164.000496923081
 30
0.0
 11
171.6919674368961
 21
164.000496923081
 31
0.0
  0
LINE
  5
14D3
330
2
100
AcDbEntity
  8
0
100
AcDbLine
 10
168.061382436896
 20
161.000008923081
 30
0.0
 11
171.6919674368961
 21
161.000008923081
 31
0.0
  0
LINE
  5
14D4
330
2
100
AcDbEntity
  8
0
100
AcDbLine
 10
168.561458436896
 20
156.799385923081
 30
0.0
 11
171.1918754368961
 21
156.799385923081
 31
0.0
  0
LINE
  5
14D5
330
2
100
AcDbEntity
  8
0
100
AcDbLine
 10
168.561458436896
 20
156.189949923081
 30
0.0
 11
168.561458436896
 21
161.000008923081
 31
0.0
  0
ARC
  5
14D6
330
2
100
AcDbEntity
  8
0
100
AcDbCircle
 10
148.543575436896
 20
166.396980923081
 30
0.0
 40
17.630417
100
AcDbArc
 50
335.0001220000047
 51
339.5317689999941
  0
LINE
  5
14D7
330
2
100
AcDbEntity
  8
0
100
AcDbLine
 10
164.5221674368962
 20
158.946114923081
 30
0.0
 11
164.1665304368961
 21
158.183418923081
 31
0.0
  0
LINE
  5
14D8
330
2
100
AcDbEntity
  8
0
100
AcDbLine
 10
164.5608334368961
 20
157.999580923081
 30
0.0
 11
168.191402436896
 21
157.999580923081
 31
0.0
  0
LINE
  5
14D9
330
2
100
AcDbEntity
  8
0
100
AcDbLine
 10
168.061382436896
 20
164.000496923081
 30
0.0
 11
168.061382436896
 21
161.000008923081
 31
0.0
  0
ARC
  5
14DA
330
2
100
AcDbEntity
  8
0
100
AcDbCircle
 10
191.2097894368961
 20
166.396980923081
 30
0.0
 40
17.630417
100
AcDbArc
 50
200.4681550000053
 51
204.9998930000036
  0
LINE
  5
14DB
330
2
100
AcDbEntity
  8
0
100
AcDbLine
 10
171.5619314368961
 20
157.999580923081
 30
0.0
 11
175.1925164368962
 21
157.999580923081
 31
0.0
  0
LINE
  5
14DC
330
2
100
AcDbEntity
  8
0
100
AcDbLine
 10
171.1918754368961
 20
156.189949923081
 30
0.0
 11
171.1918754368961
 21
161.000008923081
 31
0.0
  0
LINE
  5
14DD
330
2
100
AcDbEntity
  8
0
100
AcDbLine
 10
177.9707914368961
 20
159.295113923081
 30
0.0
 11
177.6151544368962
 21
160.057747923081
 31
0.0
  0
LINE
  5
14DE
330
2
100
AcDbEntity
  8
0
100
AcDbLine
 10
175.2311824368961
 20
158.946114923081
 30
0.0
 11
175.5868344368961
 21
158.183418923081
 31
0.0
  0
LINE
  5
14DF
330
2
100
AcDbEntity
  8
0
100
AcDbLine
 10
175.1925164368962
 20
157.999580923081
 30
0.0
 11
178.3651084368961
 21
159.478951923081
 31
0.0
  0
LINE
  5
14E0
330
2
100
AcDbEntity
  8
0
100
AcDbLine
 10
171.6919674368961
 20
164.000496923081
 30
0.0
 11
171.6919674368961
 21
161.000008923081
 31
0.0
  0
ARC
  5
14E1
330
2
100
AcDbEntity
  8
0
100
AcDbCircle
 10
191.2097894368961
 20
166.396980923081
 30
0.0
 40
15.0
100
AcDbArc
 50
180.0
 51
204.9998930000036
  0
ARC
  5
14E2
330
2
100
AcDbEntity
  8
0
100
AcDbCircle
 10
183.9317600838657
 20
153.4565185216098
 30
0.0
 40
3.0
100
AcDbArc
 50
204.9998122435605
 51
255.2653432152253
  0
ARC
  5
14E3
330
2
100
AcDbEntity
  8
0
100
AcDbCircle
 10
182.2147944368961
 20
146.927925923081
 30
0.0
 40
2.150338
100
AcDbArc
 50
284.2391050000011
 51
125.7609019999973
  0
ARC
  5
14E4
330
2
100
AcDbEntity
  8
0
100
AcDbCircle
 10
182.2147944368961
 20
146.927925923081
 30
0.0
 40
2.150338
100
AcDbArc
 50
104.2390980000005
 51
305.7608949999965
  0
LINE
  5
14E5
330
2
100
AcDbEntity
  8
0
100
AcDbLine
 10
163.543575436896
 20
185.5150229230808
 30
0.0
 11
152.8766754368961
 21
185.5150229230808
 31
0.0
  0
LINE
  5
14E6
330
2
100
AcDbEntity
  8
0
100
AcDbLine
 10
163.5435754368963
 20
183.5150229230809
 30
0.0
 11
152.8766754368961
 21
183.5150229230809
 31
0.0
  0
LINE
  5
14E7
330
2
100
AcDbEntity
  8
0
100
AcDbLine
 10
163.5435754368963
 20
179.2291349230806
 30
0.0
 11
156.4330127611196
 21
179.2291349230806
 31
0.0
  0
LINE
  5
14E8
330
2
100
AcDbEntity
  8
0
100
AcDbLine
 10
163.5435754368963
 20
173.0150229230811
 30
0.0
 11
158.876919436897
 21
173.0150229230811
 31
0.0
  0
LINE
  5
14E9
330
2
100
AcDbEntity
  8
0
100
AcDbLine
 10
163.5435754368963
 20
203.515022923081
 30
0.0
 11
152.8766754368961
 21
203.515022923081
 31
0.0
  0
LINE
  5
14EA
330
2
100
AcDbEntity
  8
0
100
AcDbLine
 10
163.5435754368963
 20
200.015022923081
 30
0.0
 11
152.8766754368961
 21
200.015022923081
 31
0.0
  0
LINE
  5
14EB
330
2
100
AcDbEntity
  8
0
100
AcDbLine
 10
163.5435754368963
 20
198.015022923081
 30
0.0
 11
152.8766754368961
 21
198.015022923081
 31
0.0
  0
LINE
  5
14EC
330
2
100
AcDbEntity
  8
0
100
AcDbLine
 10
163.5435754368963
 20
192.515022923081
 30
0.0
 11
152.8766754368961
 21
192.5150229230811
 31
0.0
  0
LINE
  5
14ED
330
2
100
AcDbEntity
  8
0
100
AcDbLine
 10
163.543575436896
 20
190.515022923081
 30
0.0
 11
152.8766754368961
 21
190.515022923081
 31
0.0
  0
LINE
  5
14EE
330
2
100
AcDbEntity
  8
0
100
AcDbLine
 10
161.875408436896
 20
211.749825923081
 30
0.0
 11
177.8779414368961
 21
211.749825923081
 31
0.0
  0
LINE
  5
14EF
330
2
100
AcDbEntity
  8
0
100
AcDbLine
 10
161.875408436896
 20
209.249397923081
 30
0.0
 11
177.8779414368961
 21
209.249397923081
 31
0.0
  0
LINE
  5
14F0
330
2
100
AcDbEntity
  8
0
100
AcDbLine
 10
152.8766754368961
 20
198.015022923081
 30
0.0
 11
152.8766754368961
 21
192.515022923081
 31
0.0
  0
LINE
  5
14F1
330
2
100
AcDbEntity
  8
0
100
AcDbLine
 10
150.8766754368961
 20
175.4735189230821
 30
0.0
 11
140.8766754368961
 21
175.4735189230821
 31
0.0
  0
LINE
  5
14F2
330
2
100
AcDbEntity
  8
0
100
AcDbLine
 10
150.8766754368961
 20
178.4735189230821
 30
0.0
 11
140.8766754368961
 21
178.4735189230821
 31
0.0
  0
LINE
  5
14F3
330
2
100
AcDbEntity
  8
0
100
AcDbLine
 10
150.8766754368961
 20
181.4735189230821
 30
0.0
 11
140.8766754368961
 21
181.4735189230821
 31
0.0
  0
LINE
  5
14F4
330
2
100
AcDbEntity
  8
0
100
AcDbLine
 10
140.8766754368961
 20
173.015022923081
 30
0.0
 11
152.8766754368961
 21
173.015022923081
 31
0.0
  0
ARC
  5
14F5
330
2
100
AcDbEntity
  8
0
100
AcDbCircle
 10
139.8766754368961
 20
170.5238119230823
 30
0.0
 40
1.0
100
AcDbArc
 50
269.5000000000085
 51
0.0
  0
LINE
  5
14F6
330
2
100
AcDbEntity
  8
0
100
AcDbLine
 10
144.8766754368961
 20
175.4735189230821
 30
0.0
 11
144.8766754368961
 21
173.015022923081
 31
0.0
  0
LINE
  5
14F7
330
2
100
AcDbEntity
  8
0
100
AcDbLine
 10
152.8766754368961
 20
181.2196129230822
 30
0.0
 11
152.8766754368961
 21
183.515022923081
 31
0.0
  0
ARC
  5
14F8
330
2
100
AcDbEntity
  8
0
100
AcDbCircle
 10
150.8766754368961
 20
173.4735189230821
 30
0.0
 40
8.0
100
AcDbArc
 50
0.0
 51
90.0
  0
ARC
  5
14F9
330
2
100
AcDbEntity
  8
0
100
AcDbCircle
 10
150.8766754368961
 20
173.4735189230821
 30
0.0
 40
5.0
100
AcDbArc
 50
0.0
 51
90.0
  0
ARC
  5
14FA
330
2
100
AcDbEntity
  8
0
100
AcDbCircle
 10
150.8766754368961
 20
173.4735189230821
 30
0.0
 40
2.0
100
AcDbArc
 50
0.0
 51
90.0
  0
LINE
  5
14FB
330
2
100
AcDbEntity
  8
0
100
AcDbLine
 10
152.8766754368961
 20
190.515022923081
 30
0.0
 11
152.8766754368961
 21
185.515022923081
 31
0.0
  0
ARC
  5
14FC
330
2
100
AcDbEntity
  8
0
100
AcDbCircle
 10
154.8766754368961
 20
205.515022923081
 30
0.0
 40
2.0
100
AcDbArc
 50
180.0
 51
270.0
  0
LINE
  5
14FD
330
2
100
AcDbEntity
  8
0
100
AcDbLine
 10
152.8766754368961
 20
200.015022923081
 30
0.0
 11
152.8766754368961
 21
203.515022923081
 31
0.0
  0
LINE
  5
14FE
330
2
100
AcDbEntity
  8
0
100
AcDbLine
 10
158.8749354368959
 20
212.499947923081
 30
0.0
 11
161.875408436896
 21
212.499947923081
 31
0.0
  0
LINE
  5
14FF
330
2
100
AcDbEntity
  8
0
100
AcDbLine
 10
158.8749354368959
 20
208.4992759230811
 30
0.0
 11
161.875408436896
 21
208.4992759230811
 31
0.0
  0
LINE
  5
1500
330
2
100
AcDbEntity
  8
0
100
AcDbLine
 10
161.875408436896
 20
212.499947923081
 30
0.0
 11
161.875408436896
 21
208.4992759230811
 31
0.0
  0
LINE
  5
1501
330
2
100
AcDbEntity
  8
0
100
AcDbLine
 10
158.8749354368959
 20
212.499947923081
 30
0.0
 11
158.8749354368959
 21
208.4992759230811
 31
0.0
  0
LINE
  5
1502
330
2
100
AcDbEntity
  8
0
100
AcDbLine
 10
168.5614744368962
 20
179.2291349230805
 30
0.0
 11
167.6913264368958
 21
179.2291349230805
 31
0.0
  0
LINE
  5
1503
330
2
100
AcDbEntity
  8
0
100
AcDbLine
 10
168.5614744368962
 20
173.0150229230811
 30
0.0
 11
167.6913264368958
 21
173.0150229230811
 31
0.0
  0
LINE
  5
1504
330
2
100
AcDbEntity
  8
0
100
AcDbLine
 10
172.0620234368961
 20
179.2291349230805
 30
0.0
 11
171.191891436896
 21
179.2291349230805
 31
0.0
  0
LINE
  5
1505
330
2
100
AcDbEntity
  8
0
100
AcDbLine
 10
172.0620234368961
 20
173.0150229230811
 30
0.0
 11
171.191891436896
 21
173.0150229230811
 31
0.0
  0
LINE
  5
1506
330
2
100
AcDbEntity
  8
0
100
AcDbLine
 10
168.5614744368962
 20
185.5150229230811
 30
0.0
 11
167.6913264368958
 21
185.515022923081
 31
0.0
  0
LINE
  5
1507
330
2
100
AcDbEntity
  8
0
100
AcDbLine
 10
168.5614744368962
 20
183.5150229230809
 30
0.0
 11
167.691326436896
 21
183.5150229230809
 31
0.0
  0
LINE
  5
1508
330
2
100
AcDbEntity
  8
0
100
AcDbLine
 10
168.5614744368962
 20
192.5150229230812
 30
0.0
 11
167.691326436896
 21
192.5150229230811
 31
0.0
  0
LINE
  5
1509
330
2
100
AcDbEntity
  8
0
100
AcDbLine
 10
168.5614744368962
 20
190.5150229230811
 30
0.0
 11
167.6913264368958
 21
190.515022923081
 31
0.0
  0
LINE
  5
150A
330
2
100
AcDbEntity
  8
0
100
AcDbLine
 10
172.0620234368961
 20
185.5150229230811
 30
0.0
 11
171.191891436896
 21
185.5150229230811
 31
0.0
  0
LINE
  5
150B
330
2
100
AcDbEntity
  8
0
100
AcDbLine
 10
172.0620234368961
 20
183.5150229230809
 30
0.0
 11
171.191891436896
 21
183.5150229230809
 31
0.0
  0
LINE
  5
150C
330
2
100
AcDbEntity
  8
0
100
AcDbLine
 10
172.0620234368961
 20
192.5150229230811
 30
0.0
 11
171.191891436896
 21
192.5150229230812
 31
0.0
  0
LINE
  5
150D
330
2
100
AcDbEntity
  8
0
100
AcDbLine
 10
172.0620234368961
 20
190.5150229230811
 30
0.0
 11
171.191891436896
 21
190.5150229230812
 31
0.0
  0
LINE
  5
150E
330
2
100
AcDbEntity
  8
0
100
AcDbLine
 10
176.877773436896
 20
209.249397923081
 30
0.0
 11
176.877773436896
 21
205.498848923081
 31
0.0
  0
LINE
  5
150F
330
2
100
AcDbEntity
  8
0
100
AcDbLine
 10
162.875576436896
 20
209.249397923081
 30
0.0
 11
162.875576436896
 21
205.498848923081
 31
0.0
  0
LINE
  5
1510
330
2
100
AcDbEntity
  8
0
100
AcDbLine
 10
162.875576436896
 20
205.498848923081
 30
0.0
 11
176.877773436896
 21
205.498848923081
 31
0.0
  0
LINE
  5
1511
330
2
100
AcDbEntity
  8
0
100
AcDbLine
 10
168.5614744368962
 20
203.515022923081
 30
0.0
 11
167.6913264368958
 21
203.515022923081
 31
0.0
  0
LINE
  5
1512
330
2
100
AcDbEntity
  8
0
100
AcDbLine
 10
168.5614744368962
 20
200.0150229230811
 30
0.0
 11
167.691326436896
 21
200.015022923081
 31
0.0
  0
LINE
  5
1513
330
2
100
AcDbEntity
  8
0
100
AcDbLine
 10
168.5614744368962
 20
198.0150229230811
 30
0.0
 11
167.691326436896
 21
198.015022923081
 31
0.0
  0
LINE
  5
1514
330
2
100
AcDbEntity
  8
0
100
AcDbLine
 10
172.0620234368961
 20
203.515022923081
 30
0.0
 11
171.191891436896
 21
203.515022923081
 31
0.0
  0
LINE
  5
1515
330
2
100
AcDbEntity
  8
0
100
AcDbLine
 10
172.0620234368961
 20
200.015022923081
 30
0.0
 11
171.191891436896
 21
200.0150229230811
 31
0.0
  0
LINE
  5
1516
330
2
100
AcDbEntity
  8
0
100
AcDbLine
 10
172.0620234368961
 20
198.015022923081
 30
0.0
 11
171.191891436896
 21
198.0150229230811
 31
0.0
  0
LINE
  5
1517
330
2
100
AcDbEntity
  8
0
100
AcDbLine
 10
177.8779414368961
 20
211.749825923081
 30
0.0
 11
177.8779414368961
 21
209.249397923081
 31
0.0
  0
LINE
  5
1518
330
2
100
AcDbEntity
  8
0
100
AcDbLine
 10
219.8766754368961
 20
215.9151699230813
 30
0.0
 11
256.8766754368961
 21
215.9151699230813
 31
0.0
  0
LINE
  5
1519
330
2
100
AcDbEntity
  8
0
100
AcDbLine
 10
219.8766754368961
 20
213.9151699230813
 30
0.0
 11
256.8766754368961
 21
213.9151699230813
 31
0.0
  0
LINE
  5
151A
330
2
100
AcDbEntity
  8
0
100
AcDbLine
 10
219.8766754368961
 20
208.1151209230818
 30
0.0
 11
256.8766754368961
 21
208.1151209230818
 31
0.0
  0
LINE
  5
151B
330
2
100
AcDbEntity
  8
0
100
AcDbLine
 10
219.8766754368961
 20
206.1151209230818
 30
0.0
 11
256.8766754368961
 21
206.1151209230818
 31
0.0
  0
ARC
  5
151C
330
2
100
AcDbEntity
  8
0
100
AcDbCircle
 10
217.8766754368961
 20
205.515022923081
 30
0.0
 40
2.0
100
AcDbArc
 50
270.0
 51
0.0
  0
LINE
  5
151D
330
2
100
AcDbEntity
  8
0
100
AcDbLine
 10
256.8766754368961
 20
192.515022923081
 30
0.0
 11
256.8766754368961
 21
198.015022923081
 31
0.0
  0
LINE
  5
151E
330
2
100
AcDbEntity
  8
0
100
AcDbLine
 10
256.8766754368961
 20
179.2291349230806
 30
0.0
 11
256.8766754368961
 21
183.515022923081
 31
0.0
  0
LINE
  5
151F
330
2
100
AcDbEntity
  8
0
100
AcDbLine
 10
256.8766754368961
 20
185.515022923081
 30
0.0
 11
256.8766754368961
 21
190.515022923081
 31
0.0
  0
LINE
  5
1520
330
2
100
AcDbEntity
  8
0
100
AcDbLine
 10
256.8766754368961
 20
200.015022923081
 30
0.0
 11
256.8766754368961
 21
206.1151209230818
 31
0.0
  0
LINE
  5
1521
330
2
100
AcDbEntity
  8
0
100
AcDbLine
 10
256.8766754368961
 20
208.1151209230818
 30
0.0
 11
256.8766754368961
 21
213.9151699230813
 31
0.0
  0
LINE
  5
1522
330
2
100
AcDbEntity
  8
0
100
AcDbLine
 10
140.8766754368961
 20
288.015022923081
 30
0.0
 11
264.8766754368961
 21
288.015022923081
 31
0.0
  0
LINE
  5
1523
330
2
100
AcDbEntity
  8
0
100
AcDbLine
 10
152.8766754368961
 20
261.015022923081
 30
0.0
 11
256.8766754368961
 21
261.015022923081
 31
0.0
  0
LINE
  5
1524
330
2
100
AcDbEntity
  8
0
100
AcDbLine
 10
152.8766754368961
 20
263.015022923081
 30
0.0
 11
256.8766754368961
 21
263.015022923081
 31
0.0
  0
LINE
  5
1525
330
2
100
AcDbEntity
  8
0
100
AcDbLine
 10
152.8766754368961
 20
268.515022923081
 30
0.0
 11
256.8766754368961
 21
268.515022923081
 31
0.0
  0
LINE
  5
1526
330
2
100
AcDbEntity
  8
0
100
AcDbLine
 10
152.8766754368961
 20
270.515022923081
 30
0.0
 11
256.8766754368961
 21
270.515022923081
 31
0.0
  0
LINE
  5
1527
330
2
100
AcDbEntity
  8
0
100
AcDbLine
 10
152.8766754368961
 20
275.515022923081
 30
0.0
 11
256.8766754368961
 21
275.515022923081
 31
0.0
  0
LINE
  5
1528
330
2
100
AcDbEntity
  8
0
100
AcDbLine
 10
152.8766754368961
 20
277.515022923081
 30
0.0
 11
256.8766754368961
 21
277.515022923081
 31
0.0
  0
LINE
  5
1529
330
2
100
AcDbEntity
  8
0
100
AcDbLine
 10
152.8766754368961
 20
281.8011559230825
 30
0.0
 11
256.8766754368961
 21
281.8011559230825
 31
0.0
  0
LINE
  5
152A
330
2
100
AcDbEntity
  8
0
100
AcDbLine
 10
217.8766754368961
 20
257.515022923081
 30
0.0
 11
152.8766754368961
 21
257.515022923081
 31
0.0
  0
LINE
  5
152B
330
2
100
AcDbEntity
  8
0
100
AcDbLine
 10
139.8766754368961
 20
298.015022923081
 30
0.0
 11
105.1364414368962
 21
298.015022923081
 31
0.0
  0
ARC
  5
152C
330
2
100
AcDbEntity
  8
0
100
AcDbCircle
 10
101.4450354368963
 20
282.0140469230817
 30
0.0
 40
12.0
100
AcDbArc
 50
90.0
 51
170.9665069999959
  0
ARC
  5
152D
330
2
100
AcDbEntity
  8
0
100
AcDbCircle
 10
105.1364414368962
 20
296.515022923081
 30
0.0
 40
1.5
100
AcDbArc
 50
90.0
 51
191.6623539999967
  0
LINE
  5
152E
330
2
100
AcDbEntity
  8
0
100
AcDbLine
 10
101.4450354368963
 20
294.0140469230816
 30
0.0
 11
102.8918124368964
 21
294.0140469230816
 31
0.0
  0
ARC
  5
152F
330
2
100
AcDbEntity
  8
0
100
AcDbCircle
 10
102.8918124368964
 20
295.0140469230817
 30
0.0
 40
1.0
100
AcDbArc
 50
270.0
 51
11.48264200000019
  0
LINE
  5
1530
330
2
100
AcDbEntity
  8
0
100
AcDbLine
 10
152.8766754368961
 20
275.515022923081
 30
0.0
 11
152.8766754368961
 21
270.515022923081
 31
0.0
  0
LINE
  5
1531
330
2
100
AcDbEntity
  8
0
100
AcDbLine
 10
152.8766754368961
 20
261.015022923081
 30
0.0
 11
152.8766754368961
 21
257.515022923081
 31
0.0
  0
ARC
  5
1532
330
2
100
AcDbEntity
  8
0
100
AcDbCircle
 10
154.8766754368961
 20
255.515022923081
 30
0.0
 40
2.0
100
AcDbArc
 50
90.0
 51
180.0
  0
LINE
  5
1533
330
2
100
AcDbEntity
  8
0
100
AcDbLine
 10
152.8766754368961
 20
268.515022923081
 30
0.0
 11
152.8766754368961
 21
263.015022923081
 31
0.0
  0
ARC
  5
1534
330
2
100
AcDbEntity
  8
0
100
AcDbCircle
 10
169.8766754368961
 20
230.502754923081
 30
0.0
 40
7.001103999999999
100
AcDbArc
 50
0.0
 51
180.0
  0
ARC
  5
1535
330
2
100
AcDbEntity
  8
0
100
AcDbCircle
 10
139.8766754368961
 20
297.015022923081
 30
0.0
 40
1.0
100
AcDbArc
 50
0.0
 51
90.0
  0
LINE
  5
1536
330
2
100
AcDbEntity
  8
0
100
AcDbLine
 10
152.8766754368961
 20
281.8011559230825
 30
0.0
 11
152.8766754368961
 21
277.515022923081
 31
0.0
  0
LINE
  5
1537
330
2
100
AcDbEntity
  8
0
100
AcDbLine
 10
256.8766754368961
 20
270.515022923081
 30
0.0
 11
256.8766754368961
 21
275.515022923081
 31
0.0
  0
LINE
  5
1538
330
2
100
AcDbEntity
  8
0
100
AcDbLine
 10
219.8766754368961
 20
237.3150719230823
 30
0.0
 11
256.8766754368961
 21
237.3150719230823
 31
0.0
  0
LINE
  5
1539
330
2
100
AcDbEntity
  8
0
100
AcDbLine
 10
219.8766754368961
 20
239.3150719230823
 30
0.0
 11
256.8766754368961
 21
239.3150719230823
 31
0.0
  0
LINE
  5
153A
330
2
100
AcDbEntity
  8
0
100
AcDbLine
 10
219.8766754368961
 20
245.1151209230818
 30
0.0
 11
256.8766754368961
 21
245.1151209230818
 31
0.0
  0
LINE
  5
153B
330
2
100
AcDbEntity
  8
0
100
AcDbLine
 10
219.8766754368961
 20
247.1151209230818
 30
0.0
 11
256.8766754368961
 21
247.1151209230818
 31
0.0
  0
LINE
  5
153C
330
2
100
AcDbEntity
  8
0
100
AcDbLine
 10
219.8766754368961
 20
252.9151699230813
 30
0.0
 11
256.8766754368961
 21
252.9151699230813
 31
0.0
  0
LINE
  5
153D
330
2
100
AcDbEntity
  8
0
100
AcDbLine
 10
219.8766754368961
 20
254.9151699230813
 30
0.0
 11
256.8766754368961
 21
254.9151699230813
 31
0.0
  0
LINE
  5
153E
330
2
100
AcDbEntity
  8
0
100
AcDbLine
 10
219.8766754368961
 20
223.7152189230808
 30
0.0
 11
256.8766754368961
 21
223.7152189230808
 31
0.0
  0
LINE
  5
153F
330
2
100
AcDbEntity
  8
0
100
AcDbLine
 10
219.8766754368961
 20
221.7152189230808
 30
0.0
 11
256.8766754368961
 21
221.7152189230808
 31
0.0
  0
LINE
  5
1540
330
2
100
AcDbEntity
  8
0
100
AcDbLine
 10
219.8766754368961
 20
231.515022923081
 30
0.0
 11
256.8766754368961
 21
231.515022923081
 31
0.0
  0
LINE
  5
1541
330
2
100
AcDbEntity
  8
0
100
AcDbLine
 10
219.8766754368961
 20
229.515022923081
 30
0.0
 11
256.8766754368961
 21
229.515022923081
 31
0.0
  0
ARC
  5
1542
330
2
100
AcDbEntity
  8
0
100
AcDbCircle
 10
217.8766754368961
 20
255.515022923081
 30
0.0
 40
2.0
100
AcDbArc
 50
0.0
 51
90.0
  0
LINE
  5
1543
330
2
100
AcDbEntity
  8
0
100
AcDbLine
 10
256.8766754368961
 20
231.515022923081
 30
0.0
 11
256.8766754368961
 21
237.3150719230823
 31
0.0
  0
LINE
  5
1544
330
2
100
AcDbEntity
  8
0
100
AcDbLine
 10
256.8766754368961
 20
223.7152189230808
 30
0.0
 11
256.8766754368961
 21
229.515022923081
 31
0.0
  0
LINE
  5
1545
330
2
100
AcDbEntity
  8
0
100
AcDbLine
 10
256.8766754368961
 20
239.3150719230823
 30
0.0
 11
256.8766754368961
 21
245.1151209230818
 31
0.0
  0
LINE
  5
1546
330
2
100
AcDbEntity
  8
0
100
AcDbLine
 10
256.8766754368961
 20
254.9151699230813
 30
0.0
 11
256.8766754368961
 21
261.015022923081
 31
0.0
  0
LINE
  5
1547
330
2
100
AcDbEntity
  8
0
100
AcDbLine
 10
256.8766754368961
 20
247.1151209230818
 30
0.0
 11
256.8766754368961
 21
252.9151699230813
 31
0.0
  0
LINE
  5
1548
330
2
100
AcDbEntity
  8
0
100
AcDbLine
 10
256.8766754368961
 20
263.015022923081
 30
0.0
 11
256.8766754368961
 21
268.515022923081
 31
0.0
  0
LINE
  5
1549
330
2
100
AcDbEntity
  8
0
100
AcDbLine
 10
256.8766754368961
 20
281.8011559230825
 30
0.0
 11
256.8766754368961
 21
277.515022923081
 31
0.0
  0
LINE
  5
154B
330
2
100
AcDbEntity
  8
0
100
AcDbLine
 10
140.876675436897
 20
629.0106160030677
 30
0.0
 11
264.8769194368969
 21
629.0106160030677
 31
0.0
  0
LINE
  5
154C
330
2
100
AcDbEntity
  8
0
100
AcDbLine
 10
152.8769194368968
 20
605.2806360030676
 30
0.0
 11
256.8507964368972
 21
605.2806360030676
 31
0.0
  0
LINE
  5
154D
330
2
100
AcDbEntity
  8
0
100
AcDbLine
 10
152.8769194368968
 20
613.3749960030668
 30
0.0
 11
256.8507964368972
 21
613.3749960030668
 31
0.0
  0
LINE
  5
154E
330
2
100
AcDbEntity
  8
0
100
AcDbLine
 10
152.8769194368968
 20
619.4053920030669
 30
0.0
 11
256.8507964368972
 21
619.4053920030669
 31
0.0
  0
LINE
  5
154F
330
2
100
AcDbEntity
  8
0
100
AcDbLine
 10
152.8769194368968
 20
623.9362760030685
 30
0.0
 11
256.8507964368972
 21
623.9362760030685
 31
0.0
  0
LINE
  5
1550
330
2
100
AcDbEntity
  8
0
100
AcDbLine
 10
152.8769194368968
 20
626.813351003067
 30
0.0
 11
256.8507964368972
 21
626.813351003067
 31
0.0
  0
LINE
  5
1551
330
2
100
AcDbEntity
  8
0
100
AcDbLine
 10
152.8769194368968
 20
628.4686240030673
 30
0.0
 11
256.8507964368972
 21
628.4686240030673
 31
0.0
  0
LINE
  5
1552
330
2
100
AcDbEntity
  8
0
100
AcDbLine
 10
153.8769194368968
 20
608.5599330030667
 30
0.0
 11
255.8507964368972
 21
608.5599330030667
 31
0.0
  0
LINE
  5
1553
330
2
100
AcDbEntity
  8
0
100
AcDbLine
 10
153.8769194368968
 20
615.362789003067
 30
0.0
 11
255.8507964368972
 21
615.362789003067
 31
0.0
  0
LINE
  5
1554
330
2
100
AcDbEntity
  8
0
100
AcDbLine
 10
152.8769194368968
 20
597.510128003068
 30
0.0
 11
256.8507964368972
 21
597.510128003068
 31
0.0
  0
LINE
  5
1555
330
2
100
AcDbEntity
  8
0
100
AcDbLine
 10
152.8769194368968
 20
545.5111050030675
 30
0.0
 11
256.8507964368972
 21
545.5111050030675
 31
0.0
  0
LINE
  5
1556
330
2
100
AcDbEntity
  8
0
100
AcDbLine
 10
152.8769194368968
 20
537.7405970030679
 30
0.0
 11
256.8507964368972
 21
537.7405970030679
 31
0.0
  0
LINE
  5
1557
330
2
100
AcDbEntity
  8
0
100
AcDbLine
 10
152.8769194368968
 20
529.6461150030674
 30
0.0
 11
256.8507964368972
 21
529.6461150030674
 31
0.0
  0
LINE
  5
1558
330
2
100
AcDbEntity
  8
0
100
AcDbLine
 10
152.8769194368968
 20
523.6158410030668
 30
0.0
 11
256.8507964368972
 21
523.6158410030668
 31
0.0
  0
LINE
  5
1559
330
2
100
AcDbEntity
  8
0
100
AcDbLine
 10
152.8769194368968
 20
520.7100790030684
 30
0.0
 11
219.8512854368972
 21
520.7100790030684
 31
0.0
  0
LINE
  5
155A
330
2
100
AcDbEntity
  8
0
100
AcDbLine
 10
153.8769194368968
 20
534.4613000030669
 30
0.0
 11
255.8507964368972
 21
534.4613000030669
 31
0.0
  0
LINE
  5
155B
330
2
100
AcDbEntity
  8
0
100
AcDbLine
 10
153.8769194368968
 20
527.6583220030672
 30
0.0
 11
255.8507964368972
 21
527.6583220030672
 31
0.0
  0
LINE
  5
155C
330
2
100
AcDbEntity
  8
0
100
AcDbLine
 10
153.8769194368968
 20
515.5113490030682
 30
0.0
 11
218.8512854368972
 21
515.5113490030673
 31
0.0
  0
ARC
  5
155D
330
2
100
AcDbEntity
  8
0
100
AcDbCircle
 10
425.376675436897
 20
571.5087850030679
 30
0.0
 40
340.0
100
AcDbArc
 50
170.9665069999959
 51
189.033493000004
  0
ARC
  5
155E
330
2
100
AcDbEntity
  8
0
100
AcDbCircle
 10
428.3569004368972
 20
571.5078090030667
 30
0.0
 40
325.0
100
AcDbArc
 50
168.2279510000248
 51
191.7720489999752
  0
LINE
  5
155F
330
2
100
AcDbEntity
  8
0
100
AcDbLine
 10
140.876675436897
 20
638.007809003067
 30
0.0
 11
140.876675436897
 21
505.007931003068
 31
0.0
  0
LINE
  5
1560
330
2
100
AcDbEntity
  8
0
100
AcDbLine
 10
144.8769194368968
 20
629.0106160030677
 30
0.0
 11
144.8769194368968
 21
514.0106160030675
 31
0.0
  0
LINE
  5
1561
330
2
100
AcDbEntity
  8
0
100
AcDbLine
 10
139.876675436897
 20
504.007931003068
 30
0.0
 11
111.6608554368966
 21
504.007931003068
 31
0.0
  0
ARC
  5
1562
330
2
100
AcDbEntity
  8
0
100
AcDbCircle
 10
101.4450354368972
 20
520.0089070030673
 30
0.0
 40
12.0
100
AcDbArc
 50
189.033493000004
 51
270.0
  0
ARC
  5
1563
330
2
100
AcDbEntity
  8
0
100
AcDbCircle
 10
111.6608554368966
 20
505.507931003068
 30
0.0
 40
1.5
100
AcDbArc
 50
191.7720489999752
 51
270.0
  0
LINE
  5
1564
330
2
100
AcDbEntity
  8
0
100
AcDbLine
 10
101.4450354368972
 20
508.0089070030673
 30
0.0
 11
108.800992436897
 21
508.0089070030673
 31
0.0
  0
ARC
  5
1565
330
2
100
AcDbEntity
  8
0
100
AcDbCircle
 10
108.800992436897
 20
507.0089070030673
 30
0.0
 40
1.0
100
AcDbArc
 50
11.41125500000289
 51
90.0
  0
LINE
  5
1566
330
2
100
AcDbEntity
  8
0
100
AcDbLine
 10
152.8769194368968
 20
514.0106160030675
 30
0.0
 11
152.8769194368968
 21
545.5107390030673
 31
0.0
  0
LINE
  5
1567
330
2
100
AcDbEntity
  8
0
100
AcDbLine
 10
179.3769194368968
 20
514.0113640030679
 30
0.0
 11
160.3769194368968
 21
514.0113640030679
 31
0.0
  0
LINE
  5
1568
330
2
100
AcDbEntity
  8
0
100
AcDbLine
 10
152.8769194368968
 20
514.0106160030675
 30
0.0
 11
140.876675436897
 21
514.0106160030675
 31
0.0
  0
ARC
  5
1569
330
2
100
AcDbEntity
  8
0
100
AcDbCircle
 10
139.876675436897
 20
505.007931003068
 30
0.0
 40
1.0
100
AcDbArc
 50
270.0
 51
0.0
  0
ARC
  5
156A
330
2
100
AcDbEntity
  8
0
100
AcDbCircle
 10
153.8769194368968
 20
516.5113490030683
 30
0.0
 40
1.0
100
AcDbArc
 50
180.0
 51
270.0
  0
ARC
  5
156B
330
2
100
AcDbEntity
  8
0
100
AcDbCircle
 10
160.3769194368968
 20
515.5113640030679
 30
0.0
 40
1.5
100
AcDbArc
 50
180.0
 51
270.0
  0
ARC
  5
156C
330
2
100
AcDbEntity
  8
0
100
AcDbCircle
 10
179.3769194368968
 20
515.5113640030679
 30
0.0
 40
1.5
100
AcDbArc
 50
270.0
 51
0.0
  0
LINE
  5
156D
330
2
100
AcDbEntity
  8
CENTER
100
AcDbLine
 10
169.8769194368968
 20
494.327466003068
 30
0.0
 11
169.8769194368968
 21
518.3676880030677
 31
0.0
  0
LINE
  5
156E
330
2
100
AcDbEntity
  8
0
100
AcDbLine
 10
162.8758214368969
 20
514.0113640030679
 30
0.0
 11
162.8758214368969
 21
500.395764003068
 31
0.0
  0
LINE
  5
156F
330
2
100
AcDbEntity
  8
0
100
AcDbLine
 10
176.8780184368969
 20
514.0113640030679
 30
0.0
 11
176.8780184368969
 21
500.4004030030679
 31
0.0
  0
LINE
  5
1570
330
2
100
AcDbEntity
  8
HOJO
100
AcDbLine
 10
170.3508574368969
 20
500.6192140030679
 30
0.0
 11
172.0392124368967
 21
501.2409180030679
 31
0.0
  0
ARC
  5
1571
330
2
100
AcDbEntity
  8
HOJO
100
AcDbCircle
 10
169.314175436897
 20
503.4343990030679
 30
0.0
 40
3.0
100
AcDbArc
 50
246.3815839999993
 51
290.2151719999999
  0
LINE
  5
1572
330
2
100
AcDbEntity
  8
HOJO
100
AcDbLine
 10
167.1624424368968
 20
501.101025003068
 30
0.0
 11
168.112271436897
 21
500.6856810030679
 31
0.0
  0
LINE
  5
1573
330
2
100
AcDbEntity
  8
HOJO
100
AcDbLine
 10
162.8758214368969
 20
500.395764003068
 30
0.0
 11
164.9024934368968
 21
501.159558003068
 31
0.0
  0
ARC
  5
1574
330
2
100
AcDbEntity
  8
HOJO
100
AcDbCircle
 10
165.9605384368968
 20
498.3523070030679
 30
0.0
 40
3.0
100
AcDbArc
 50
66.38159200000115
 51
110.6507259999995
  0
LINE
  5
1575
330
2
100
AcDbEntity
  8
HOJO
100
AcDbLine
 10
173.9529084368968
 20
501.2946290030679
 30
0.0
 11
176.8780184368969
 21
500.4004030030679
 31
0.0
  0
ARC
  5
1576
330
2
100
AcDbEntity
  8
HOJO
100
AcDbCircle
 10
173.0758334368969
 20
498.4257320030678
 30
0.0
 40
3.0
100
AcDbArc
 50
73.00071699999816
 51
110.2151789999999
  0
LINE
  5
1577
330
2
100
AcDbEntity
  8
0
100
AcDbLine
 10
139.876675436897
 20
639.0078090030669
 30
0.0
 11
111.6608554368966
 21
639.0078090030669
 31
0.0
  0
ARC
  5
1578
330
2
100
AcDbEntity
  8
0
100
AcDbCircle
 10
101.4450354368972
 20
623.0068320030673
 30
0.0
 40
12.0
100
AcDbArc
 50
90.0
 51
170.9665069999959
  0
ARC
  5
1579
330
2
100
AcDbEntity
  8
0
100
AcDbCircle
 10
111.6608554368966
 20
637.507809003067
 30
0.0
 40
1.5
100
AcDbArc
 50
90.0
 51
168.2279510000248
  0
ARC
  5
157A
330
2
100
AcDbEntity
  8
0
100
AcDbCircle
 10
108.800992436897
 20
636.0068320030673
 30
0.0
 40
1.0
100
AcDbArc
 50
270.0
 51
348.5887449999971
  0
LINE
  5
157B
330
2
100
AcDbEntity
  8
0
100
AcDbLine
 10
101.4450354368972
 20
635.0068320030673
 30
0.0
 11
108.800992436897
 21
635.0068320030673
 31
0.0
  0
LINE
  5
157C
330
2
100
AcDbEntity
  8
0
100
AcDbLine
 10
152.8769194368968
 20
629.0106160030677
 30
0.0
 11
152.8769194368968
 21
597.5104940030682
 31
0.0
  0
ARC
  5
157D
330
2
100
AcDbEntity
  8
0
100
AcDbCircle
 10
139.876675436897
 20
638.007809003067
 30
0.0
 40
1.0
100
AcDbArc
 50
0.0
 51
90.0
  0
LINE
  5
157E
330
2
100
AcDbEntity
  8
0
100
AcDbLine
 10
256.8507964368972
 20
514.0106160030675
 30
0.0
 11
256.8507964368972
 21
545.5111050030675
 31
0.0
  0
LINE
  5
157F
330
2
100
AcDbEntity
  8
0
100
AcDbLine
 10
264.8769194368969
 20
514.0106160030675
 30
0.0
 11
220.3512854368972
 21
514.0106160030675
 31
0.0
  0
LINE
  5
1580
330
2
100
AcDbEntity
  8
0
100
AcDbLine
 10
219.8512854368972
 20
519.0848350030676
 30
0.0
 11
256.8507964368972
 21
519.0848350030676
 31
0.0
  0
LINE
  5
1581
330
2
100
AcDbEntity
  8
0
100
AcDbLine
 10
219.8512854368972
 20
516.2078820030667
 30
0.0
 11
256.8507964368972
 21
516.2078820030667
 31
0.0
  0
LINE
  5
1582
330
2
100
AcDbEntity
  8
0
100
AcDbLine
 10
220.3512854368972
 20
514.5526090030664
 30
0.0
 11
256.8507964368972
 21
514.5526090030664
 31
0.0
  0
LINE
  5
1583
330
2
100
AcDbEntity
  8
0
100
AcDbLine
 10
219.8512854368972
 20
514.5106160030675
 30
0.0
 11
219.8512854368972
 21
520.7100790030684
 31
0.0
  0
ARC
  5
1584
330
2
100
AcDbEntity
  8
0
100
AcDbCircle
 10
220.3512854368972
 20
515.0526090030664
 30
0.0
 40
0.499992
100
AcDbArc
 50
180.0
 51
270.0
  0
ARC
  5
1585
330
2
100
AcDbEntity
  8
0
100
AcDbCircle
 10
220.3512854368972
 20
514.5106160030675
 30
0.0
 40
0.5
100
AcDbArc
 50
180.0
 51
270.0
  0
ARC
  5
1586
330
2
100
AcDbEntity
  8
0
100
AcDbCircle
 10
218.8512854368972
 20
516.5113490030673
 30
0.0
 40
1.0
100
AcDbArc
 50
270.0
 51
0.0
  0
LINE
  5
1587
330
2
100
AcDbEntity
  8
0
100
AcDbLine
 10
256.8507964368972
 20
629.0106160030677
 30
0.0
 11
256.8507964368972
 21
597.510128003068
 31
0.0
  0
ARC
  5
1FE1
330
2
100
AcDbEntity
  8
0
100
AcDbCircle
 10
179.3769194368968
 20
515.5113640030679
 30
0.0
 40
1.5
100
AcDbArc
 50
270.0
 51
0.0
  0
ARC
  5
1FE2
330
2
100
AcDbEntity
  8
0
100
AcDbCircle
 10
179.3769194368968
 20
515.5113640030679
 30
0.0
 40
1.5
100
AcDbArc
 50
270.0
 51
0.0
  0
ARC
  5
1FE3
330
2
100
AcDbEntity
  8
0
100
AcDbCircle
 10
179.3769194368968
 20
515.511349003068
 30
0.0
 40
1.5
100
AcDbArc
 50
270.0
 51
0.0
  0
ARC
  5
1FE4
330
2
100
AcDbEntity
  8
0
100
AcDbCircle
 10
179.3769194368968
 20
515.511349003068
 30
0.0
 40
1.5
100
AcDbArc
 50
270.0
 51
0.0
  0
LINE
  5
1FE5
330
2
100
AcDbEntity
  8
CENTER
  6
CENTER(0.5x)
100
AcDbLine
 10
177.892742436897
 20
507.4859336928755
 30
0.0
 11
177.892742436897
 21
523.5396943132639
 31
0.0
  0
ARC
  5
1FE6
330
2
100
AcDbEntity
  8
HIDS
100
AcDbCircle
 10
177.892742436897
 20
520.9113490030798
 30
0.0
 40
9.000000000010642
100
AcDbArc
 50
257.3231615211085
 51
263.5264485045035
  0
ARC
  5
1FE7
330
2
100
AcDbEntity
  8
0
100
AcDbCircle
 10
177.892742436897
 20
520.9113490030798
 30
0.0
 40
9.000000000010642
100
AcDbArc
 50
263.5264485045035
 51
282.676838478871
  0
ARC
  5
1FE8
330
2
100
AcDbEntity
  8
HIDS
100
AcDbCircle
 10
176.2687988828254
 20
513.6917363172535
 30
0.0
 40
1.59999999999961
100
AcDbArc
 50
195.0000000000011
 51
257.3231615211085
  0
LINE
  5
1FE9
330
2
100
AcDbEntity
  8
HIDS
100
AcDbLine
 10
174.3927424368995
 20
514.511349003068
 30
0.0
 11
174.7233175607633
 21
513.2776258450896
 31
0.0
  0
ARC
  5
1FEA
330
2
100
AcDbEntity
  8
0
100
AcDbCircle
 10
179.5166859909672
 20
513.691736317249
 30
0.0
 40
1.59999999999961
100
AcDbArc
 50
282.676838478871
 51
344.9999999999989
  0
LINE
  5
1FEB
330
2
100
AcDbEntity
  8
0
100
AcDbLine
 10
181.0621673130294
 20
513.2776258450851
 30
0.0
 11
181.3927424368945
 21
514.511349003068
 31
0.0
  0
LINE
  5
1FEC
330
2
100
AcDbEntity
  8
HIDS
100
AcDbLine
 10
174.0927424368968
 20
514.511349003068
 30
0.0
 11
180.4949534256467
 21
514.511349003068
 31
0.0
  0
LINE
  5
1FED
330
2
100
AcDbEntity
  8
0
100
AcDbLine
 10
180.4949534256467
 20
514.511349003068
 30
0.0
 11
181.6927424368971
 21
514.511349003068
 31
0.0
  0
LINE
  5
1FEE
330
2
100
AcDbEntity
  8
HIDS
100
AcDbLine
 10
174.0927424368968
 20
514.511349003068
 30
0.0
 11
174.0927424368968
 21
515.511349003068
 31
0.0
  0
LINE
  5
1FEF
330
2
100
AcDbEntity
  8
HIDS
100
AcDbLine
 10
177.8196617970306
 20
515.511349003068
 30
0.0
 11
177.5517126045997
 21
514.511349003068
 31
0.0
  0
LINE
  5
1FF0
330
2
100
AcDbEntity
  8
HIDS
100
AcDbLine
 10
178.2337722691948
 20
515.511349003068
 30
0.0
 11
177.9658230767634
 21
514.511349003068
 31
0.0
  0
LINE
  5
1FF1
330
2
100
AcDbEntity
  8
0
100
AcDbLine
 10
181.6927424368971
 20
514.511349003068
 30
0.0
 11
181.6927424368971
 21
515.511349003068
 31
0.0
  0
LINE
  5
2015
330
2
100
AcDbEntity
  8
0
100
AcDbLine
 10
194.3859732729967
 20
219.5028290997409
 30
0.0
 11
194.3859732729967
 21
209.5028290997408
 31
0.0
  0
LINE
  5
2016
330
2
100
AcDbEntity
  8
0
100
AcDbLine
 10
184.3859732729967
 20
219.5028290997409
 30
0.0
 11
184.3859732729967
 21
209.5028290997408
 31
0.0
  0
LINE
  5
2017
330
2
100
AcDbEntity
  8
0
100
AcDbLine
 10
184.3859732729967
 20
209.5028290997408
 30
0.0
 11
194.3859732729967
 21
209.5028290997408
 31
0.0
  0
LINE
  5
2018
330
2
100
AcDbEntity
  8
0
100
AcDbLine
 10
186.5401772729966
 20
213.0028290997408
 30
0.0
 11
192.2139752729966
 21
213.0028290997408
 31
0.0
  0
LINE
  5
2019
330
2
100
AcDbEntity
  8
0
100
AcDbLine
 10
187.8133092729966
 20
211.5169290997408
 30
0.0
 11
191.0335552729967
 21
211.5169290997408
 31
0.0
  0
LINE
  5
201A
330
2
100
AcDbEntity
  8
0
100
AcDbLine
 10
185.1921552729967
 20
214.5028290997408
 30
0.0
 11
193.7295692729966
 21
214.5028290997408
 31
0.0
  0
LINE
  5
201B
330
2
100
AcDbEntity
  8
0
100
AcDbLine
 10
189.3859732729967
 20
214.5028290997408
 30
0.0
 11
189.3859732729967
 21
218.0975550997409
 31
0.0
  0
LINE
  5
201C
330
2
100
AcDbEntity
  8
CENTER
100
AcDbLine
 10
177.8766754368961
 20
219.5117016011622
 30
0.0
 11
177.8766754368961
 21
209.4939565983195
 31
0.0
  0
ARC
  5
201D
330
2
100
AcDbEntity
  8
0
100
AcDbCircle
 10
177.8766754368961
 20
214.5028290997408
 30
0.0
 40
3.499999999999148
100
AcDbArc
 50
270.0
 51
106.5829137118473
  0
ARC
  5
201E
330
2
100
AcDbEntity
  8
0
100
AcDbCircle
 10
177.8766754368961
 20
214.5028290997408
 30
0.0
 40
3.799999999999998
100
AcDbArc
 50
270.0
 51
105.2404730648806
  0
LINE
  5
201F
330
2
100
AcDbEntity
  8
0
100
AcDbLine
 10
177.3994027096233
 20
212.4028290997409
 30
0.0
 11
177.3994027096233
 21
212.6891927361045
 31
0.0
  0
LINE
  5
2020
330
2
100
AcDbEntity
  8
0
100
AcDbLine
 10
178.3539481641688
 20
212.6891927361045
 30
0.0
 11
178.3539481641688
 21
212.4028290997408
 31
0.0
  0
LINE
  5
2021
330
2
100
AcDbEntity
  8
0
100
AcDbLine
 10
177.8766754368961
 20
212.4028290997409
 30
0.0
 11
177.3994027096233
 21
212.4028290997409
 31
0.0
  0
LINE
  5
2022
330
2
100
AcDbEntity
  8
0
100
AcDbLine
 10
178.3539481641688
 20
212.4028290997408
 30
0.0
 11
177.8766754368961
 21
212.4028290997408
 31
0.0
  0
ARC
  5
2023
330
2
100
AcDbEntity
  8
0
100
AcDbCircle
 10
179.6903118005324
 20
216.3164654633771
 30
0.0
 40
1.336363636363619
100
AcDbArc
 50
180.0
 51
270.0
  0
ARC
  5
2024
330
2
100
AcDbEntity
  8
0
100
AcDbCircle
 10
179.6903118005324
 20
212.6891927361045
 30
0.0
 40
1.336363636363619
100
AcDbArc
 50
90.0
 51
180.0
  0
ARC
  5
2025
330
2
100
AcDbEntity
  8
0
100
AcDbCircle
 10
176.0630390732598
 20
216.3164654633771
 30
0.0
 40
1.336363636363619
100
AcDbArc
 50
307.5649178928717
 51
0.0
  0
ARC
  5
2026
330
2
100
AcDbEntity
  8
0
100
AcDbCircle
 10
176.0630390732598
 20
212.6891927361045
 30
0.0
 40
1.336363636363619
100
AcDbArc
 50
0.0
 51
52.43508210712834
  0
LINE
  5
2027
330
2
100
AcDbEntity
  8
0
100
AcDbLine
 10
177.3994027096233
 20
216.6028290997409
 30
0.0
 11
177.8766754368961
 21
216.6028290997409
 31
0.0
  0
LINE
  5
2028
330
2
100
AcDbEntity
  8
0
100
AcDbLine
 10
177.3994027096233
 20
216.3164654633771
 30
0.0
 11
177.3994027096233
 21
216.6028290997409
 31
0.0
  0
LINE
  5
2029
330
2
100
AcDbEntity
  8
0
100
AcDbLine
 10
178.3539481641688
 20
216.6028290997409
 30
0.0
 11
178.3539481641688
 21
216.3164654633773
 31
0.0
  0
LINE
  5
202A
330
2
100
AcDbEntity
  8
0
100
AcDbLine
 10
177.8766754368961
 20
216.6028290997409
 30
0.0
 11
178.3539481641688
 21
216.6028290997409
 31
0.0
  0
LINE
  5
202B
330
2
100
AcDbEntity
  8
0
100
AcDbLine
 10
179.9766754368961
 20
214.5028290997408
 30
0.0
 11
179.9766754368961
 21
214.0255563724681
 31
0.0
  0
LINE
  5
202C
330
2
100
AcDbEntity
  8
0
100
AcDbLine
 10
179.9766754368961
 20
214.0255563724681
 30
0.0
 11
179.6903118005324
 21
214.0255563724681
 31
0.0
  0
LINE
  5
202D
330
2
100
AcDbEntity
  8
0
100
AcDbLine
 10
179.9766754368961
 20
214.9801018270136
 30
0.0
 11
179.9766754368961
 21
214.5028290997408
 31
0.0
  0
LINE
  5
202E
330
2
100
AcDbEntity
  8
0
100
AcDbLine
 10
179.6903118005324
 20
214.9801018270136
 30
0.0
 11
179.9766754368961
 21
214.9801018270136
 31
0.0
  0
LINE
  5
202F
330
2
100
AcDbEntity
  8
CENTER
100
AcDbLine
 10
172.8678029354747
 20
214.5028290997408
 30
0.0
 11
182.8855479383175
 21
214.5028290997408
 31
0.0
  0
ARC
  5
2030
330
2
100
AcDbEntity
  8
0
100
AcDbCircle
 10
177.8766754368961
 20
214.5028290997408
 30
0.0
 40
4.5
100
AcDbArc
 50
270.0
 51
102.8253415286127
  0
LINE
  5
2031
330
2
100
AcDbEntity
  8
0
100
AcDbLine
 10
184.3859732729967
 20
219.5028290997409
 30
0.0
 11
194.3859732729967
 21
219.5028290997409
 31
0.0
  0
ENDSEC
  0
SECTION
  2
OBJECTS
  0
DICTIONARY
  5
7
330
0
100
AcDbDictionary
281
     1
  3
ACAD_CIP_PREVIOUS_PRODUCT_INFO
350
1E65
  3
ACAD_COLOR
350
15FC
  3
ACAD_DETAILVIEWSTYLE
350
19FB
  3
ACAD_GROUP
350
75
  3
ACAD_LAYOUT
350
61
  3
ACAD_MATERIAL
350
15CF
  3
ACAD_MLEADERSTYLE
350
1621
  3
ACAD_MLINESTYLE
350
76
  3
ACAD_PLOTSETTINGS
350
77
  3
ACAD_PLOTSTYLENAME
350
6
  3
ACAD_SCALELIST
350
15FF
  3
ACAD_SECTIONVIEWSTYLE
350
19F9
  3
ACAD_TABLESTYLE
350
15FD
  3
ACAD_VISUALSTYLE
350
15E8
  3
AcadDim
350
480
  3
ACDB_RECOMPOSE_DATA
350
2176
  3
AcDbVariableDictionary
350
102
  3
DWGPROPS
350
2177
  0
DICTIONARY
  5
165B
330
6E
100
AcDbDictionary
280
     1
281
     1
  0
DICTIONARY
  5
1628
330
66
100
AcDbDictionary
280
     1
281
     1
  3
ACAD_LAYERSTATES
360
1629
  0
DICTIONARY
  5
1644
330
5E
100
AcDbDictionary
280
     1
281
     1
  3
ADSK_XREC_LAYER_RECONCILED
360
1645
  0
DICTIONARY
  5
1646
330
3E
100
AcDbDictionary
280
     1
281
     1
  3
ADSK_XREC_LAYER_RECONCILED
360
1647
  0
DICTIONARY
  5
164C
330
2B5
100
AcDbDictionary
280
     1
281
     1
  3
ADSK_XREC_LAYER_RECONCILED
360
164D
  0
DICTIONARY
  5
164E
330
2BA
100
AcDbDictionary
280
     1
281
     1
  3
ADSK_XREC_LAYER_RECONCILED
360
164F
  0
DICTIONARY
  5
1652
330
3FA
100
AcDbDictionary
280
     1
281
     1
  3
ADSK_XREC_LAYER_RECONCILED
360
1653
  0
XRECORD
  5
1E65
102
{ACAD_REACTORS
330
7
102
}
330
7
100
AcDbXrecord
280
     1
300
ACD
300
2015
300
86295ACD_2015_0F
  0
DICTIONARY
  5
15FC
102
{ACAD_REACTORS
330
7
102
}
330
7
100
AcDbDictionary
281
     1
  0
DICTIONARY
  5
19FB
102
{ACAD_REACTORS
330
7
102
}
330
7
100
AcDbDictionary
281
     1
  3
Imperial24
350
19FC
  3
Metric50
350
1A14
  0
DICTIONARY
  5
75
102
{ACAD_REACTORS
330
7
102
}
330
7
100
AcDbDictionary
281
     1
  0
DICTIONARY
  5
61
102
{ACAD_REACTORS
330
7
102
}
330
7
100
AcDbDictionary
281
     1
  3
Model
350
60
  3
レイアウト1
350
2170
  0
DICTIONARY
  5
15CF
102
{ACAD_REACTORS
330
7
102
}
330
7
100
AcDbDictionary
281
     1
  3
ByBlock
350
15D8
  3
ByLayer
350
15D0
  3
Global
350
15E0
  0
DICTIONARY
  5
1621
102
{ACAD_REACTORS
330
7
102
}
330
7
100
AcDbDictionary
281
     1
  3
Standard
350
1622
  0
DICTIONARY
  5
76
102
{ACAD_REACTORS
330
7
102
}
330
7
100
AcDbDictionary
281
     1
  3
STANDARD
350
78
  0
DICTIONARY
  5
77
102
{ACAD_REACTORS
330
7
102
}
330
7
100
AcDbDictionary
281
     1
  0
ACDBDICTIONARYWDFLT
  5
6
102
{ACAD_REACTORS
330
7
102
}
330
7
100
AcDbDictionary
281
     1
  3
Normal
350
5
100
AcDbDictionaryWithDefault
340
5
  0
DICTIONARY
  5
15FF
102
{ACAD_REACTORS
330
7
102
}
330
7
100
AcDbDictionary
281
     1
  3
A0
350
1600
  3
A1
350
1601
  3
A2
350
1602
  3
A3
350
1603
  3
A4
350
1604
  3
A5
350
1605
  3
A6
350
1606
  3
A7
350
1607
  3
A8
350
1608
  3
A9
350
1609
  3
B0
350
160A
  3
B1
350
160B
  3
B2
350
160C
  3
B3
350
160D
  3
B4
350
160E
  3
B5
350
160F
  3
B6
350
1610
  3
B7
350
1611
  3
B8
350
1612
  3
B9
350
1613
  3
C0
350
1614
  3
C1
350
1615
  3
C2
350
1616
  3
C3
350
1617
  3
C4
350
1618
  3
C5
350
1619
  3
C6
350
161A
  3
C7
350
161B
  3
C8
350
161C
  3
C9
350
161D
  3
D0
350
161E
  3
D1
350
161F
  3
D2
350
1620
  0
DICTIONARY
  5
19F9
102
{ACAD_REACTORS
330
7
102
}
330
7
100
AcDbDictionary
281
     1
  3
Imperial24
350
19FA
  3
Metric50
350
1A13
  0
DICTIONARY
  5
15FD
102
{ACAD_REACTORS
330
7
102
}
330
7
100
AcDbDictionary
281
     1
  3
Standard
350
15FE
  0
DICTIONARY
  5
15E8
102
{ACAD_REACTORS
330
7
102
}
330
7
100
AcDbDictionary
281
     1
  3
2dWireframe
350
15EE
  3
3D Hidden
350
15F0
  3
3dWireframe
350
15EF
  3
Basic
350
15ED
  3
Brighten
350
15F4
  3
ColorChange
350
15F8
  3
Conceptual
350
15F1
  3
Dim
350
15F3
  3
EdgeColorOff
350
15FB
  3
Facepattern
350
15F7
  3
Flat
350
15E9
  3
FlatWithEdges
350
15EA
  3
Gouraud
350
15EB
  3
GouraudWithEdges
350
15EC
  3
Hidden
350
19F3
  3
JitterOff
350
15F9
  3
Linepattern
350
15F6
  3
OverhangOff
350
15FA
  3
Realistic
350
15F2
  3
Shaded
350
19F8
  3
Shaded with edges
350
19F7
  3
Shades of Gray
350
19F4
  3
Sketchy
350
19F5
  3
Thicken
350
15F5
  3
Wireframe
350
19F2
  3
X-Ray
350
19F6
  0
XRECORD
  5
480
102
{ACAD_REACTORS
330
7
102
}
330
7
100
AcDbXrecord
280
     1
 90
   990106
  3

 60
     0
 61
     0
 62
     1
 63
     3
 64
     1
 65
     0
 66
     0
 67
     3
 68
     1
 69
     0
 70
     0
 71
     0
 72
     0
 40
0.0
170
     2
340
0
  0
XRECORD
  5
2176
102
{ACAD_REACTORS
330
7
102
}
330
7
100
AcDbXrecord
280
     1
 90
        1
330
15FE
  0
DICTIONARY
  5
102
102
{ACAD_REACTORS
330
7
102
}
330
7
100
AcDbDictionary
281
     1
  3
CANNOSCALE
350
1696
  3
CMLEADERSTYLE
350
1695
  3
CTABLESTYLE
350
1694
  3
CVIEWDETAILSTYLE
350
1ADA
  3
CVIEWSECTIONSTYLE
350
1ADB
  3
DIMASSOC
350
103
  3
INDEXCTL
350
1698
  3
LAYEREVAL
350
1ADE
  3
LAYERNOTIFY
350
1ADF
  3
LIGHTINGUNITS
350
1ADD
  3
MSLTSCALE
350
1ADC
  3
SOLIDHIST
350
2124
  3
SORTENTS
350
1697
  3
XCLIPFRAME
350
2174
  0
XRECORD
  5
2177
102
{ACAD_REACTORS
330
7
102
}
330
7
100
AcDbXrecord
280
     1
  1
DWGPROPS COOKIE
  2

  3

  4

  6

  7

  8
ykitaga
  9

300
=
301
=
302
=
303
=
304
=
305
=
306
=
307
=
308
=
309
=
 40
0.4308057870370371
 41
2453868.452706887
 42
2457926.691167755
  1

 90
        0
  0
DICTIONARY
  5
1629
102
{ACAD_REACTORS
330
1628
102
}
330
1628
100
AcDbDictionary
281
     1
  0
XRECORD
  5
1645
102
{ACAD_REACTORS
330
1644
102
}
330
1644
100
AcDbXrecord
280
     1
290
     1
  0
XRECORD
  5
1647
102
{ACAD_REACTORS
330
1646
102
}
330
1646
100
AcDbXrecord
280
     1
290
     1
  0
XRECORD
  5
164D
102
{ACAD_REACTORS
330
164C
102
}
330
164C
100
AcDbXrecord
280
     1
290
     1
  0
XRECORD
  5
164F
102
{ACAD_REACTORS
330
164E
102
}
330
164E
100
AcDbXrecord
280
     1
290
     1
  0
XRECORD
  5
1653
102
{ACAD_REACTORS
330
1652
102
}
330
1652
100
AcDbXrecord
280
     1
290
     1
  0
ACAD_PROXY_OBJECT
  5
19FC
102
{ACAD_XDICTIONARY
360
2107
102
}
102
{ACAD_REACTORS
330
19FB
102
}
330
19FB
100
AcDbProxyObject
 90
      499
 91
      512
 95
  3276827
 70
     0
 93
     2314
310
9207000000180005C0F42F5A8DC671F815AF46E07A15AE7E07000000180005C0F42F5A8DC671FA3300000018001000000180005C0F42F5A8DC671FA02000000000000741FA028CC00000060002330000001800000852480368038003280390034803080360019001A004AD12801E002E00208031802B003080390010002B00
310
348032803B802A003C803800328010002E0033001000110012803A003180188011001F001280100012801E002E00208031802B003080390010002B00348032803B80220032803A00308034803600248032001F0012802E00280029802180208026002280100012801E002E00208031802B003080390010002B00348032803B
310
802980318030803600328010002E0033001000110012803980370011001F0012802B034C
340
16
340
0
340
8
340
16
340
8
340
8
 94
        0
1001
ACAD
1000
AcRTDxfName
1000
ACDBDETAILVIEWSTYLE
1000
AcRTDxfName
1000
ACDBDETAILVIEWSTYLE
  0
ACAD_PROXY_OBJECT
  5
1A14
102
{ACAD_XDICTIONARY
360
210B
102
}
102
{ACAD_REACTORS
330
19FB
102
}
330
19FB
100
AcDbProxyObject
 90
      499
 91
      512
 95
  3276827
 70
     0
 93
     1650
310
9207000000180000000000000000A20403000000180000000000000000A2023300000018001000000180000000000000000A20400000000000017202028CC0000006000233000000180000084268032803A003900348031801A80180049B92801E002E00208031802B003080390010002B00348032803B80220032803A0030
310
8034803600248032001F0012801000140012801E002E00208031802B003080390010002B00348032803B802980318030803600328010002E0033001000110012803980370011001F001280148003024C
340
16
340
0
340
8
340
16
340
8
340
8
 94
        0
1001
ACAD
1000
AcRTDxfName
1000
ACDBDETAILVIEWSTYLE
1000
AcRTDxfName
1000
ACDBDETAILVIEWSTYLE
  0
LAYOUT
  5
60
102
{ACAD_XDICTIONARY
360
162E
102
}
102
{ACAD_REACTORS
330
61
102
}
330
61
100
AcDbPlotSettings
  1

  2
Canon LBP-1420
  4
A4
  6

 40
5.873749732971191
 41
5.873747825622558
 42
5.873748779296875
 43
5.873748779296875
 44
209.9733276367187
 45
296.9259948730469
 46
0.0
 47
5.37
 48
0.0
 49
0.0
140
0.0
141
0.0
142
1.0
143
0.0880999410370753
 70
 11956
 72
     1
 73
     1
 74
     1
  7
Sekkei.ctb
 75
     0
147
11.35074539470086
148
-88.97401507731297
149
-101.3630682338996
100
AcDbLayout
  1
Model
 70
     1
 71
     0
 10
0.0
 20
0.0
 11
12.0
 21
9.0
 12
0.0
 22
0.0
 32
0.0
 14
0.0
 24
0.0
 34
0.0
 15
0.0
 25
0.0
 35
0.0
146
0.0
 13
0.0
 23
0.0
 33
0.0
 16
1.0
 26
0.0
 36
0.0
 17
0.0
 27
1.0
 37
0.0
 76
     0
330
2
331
15CD
  0
LAYOUT
  5
2170
102
{ACAD_XDICTIONARY
360
2181
102
}
102
{ACAD_REACTORS
330
61
102
}
330
61
100
AcDbPlotSettings
  1

  2
Canon LBP8630/8620/8610 LIPSLX
  4

  6

 40
0.0
 41
0.0
 42
0.0
 43
0.0
 44
0.0
 45
0.0
 46
0.0
 47
0.0
 48
0.0
 49
0.0
140
0.0
141
0.0
142
1.0
143
1.0
 70
   688
 72
     0
 73
     0
 74
     5
  7

 75
    16
147
1.0
148
0.0
149
0.0
100
AcDbLayout
  1
レイアウト1
 70
     1
 71
     1
 10
0.0
 20
0.0
 11
12.0
 21
9.0
 12
0.0
 22
0.0
 32
0.0
 14
0.0
 24
0.0
 34
0.0
 15
0.0
 25
0.0
 35
0.0
146
0.0
 13
0.0
 23
0.0
 33
0.0
 16
1.0
 26
0.0
 36
0.0
 17
0.0
 27
1.0
 37
0.0
 76
     0
330
216F
  0
MATERIAL
  5
15D8
102
{ACAD_XDICTIONARY
360
15D9
102
}
102
{ACAD_REACTORS
330
15CF
102
}
330
15CF
100
AcDbMaterial
  1
ByBlock
 72
     0
 43
0.0208333333333333
 43
0.0
 43
0.0
 43
0.0
 43
0.0
 43
0.0208333333333333
 43
0.0
 43
0.0
 43
0.0
 43
0.0
 43
1.0
 43
0.0
 43
0.0
 43
0.0
 43
0.0
 43
1.0
 77
     0
 47
0.0208333333333333
 47
0.0
 47
0.0
 47
0.0
 47
0.0
 47
0.0208333333333333
 47
0.0
 47
0.0
 47
0.0
 47
0.0
 47
1.0
 47
0.0
 47
0.0
 47
0.0
 47
0.0
 47
1.0
171
     0
 49
0.0208333333333333
 49
0.0
 49
0.0
 49
0.0
 49
0.0
 49
0.0208333333333333
 49
0.0
 49
0.0
 49
0.0
 49
0.0
 49
1.0
 49
0.0
 49
0.0
 49
0.0
 49
0.0
 49
1.0
175
     0
142
0.0208333333333333
142
0.0
142
0.0
142
0.0
142
0.0
142
0.0208333333333333
142
0.0
142
0.0
142
0.0
142
0.0
142
1.0
142
0.0
142
0.0
142
0.0
142
0.0
142
1.0
179
     0
144
0.0208333333333333
144
0.0
144
0.0
144
0.0
144
0.0
144
0.0208333333333333
144
0.0
144
0.0
144
0.0
144
0.0
144
1.0
144
0.0
144
0.0
144
0.0
144
0.0
144
1.0
147
0.0208333333333333
147
0.0
147
0.0
147
0.0
147
0.0
147
0.0208333333333333
147
0.0
147
0.0
147
0.0
147
0.0
147
1.0
147
0.0
147
0.0
147
0.0
147
0.0
147
1.0
  0
MATERIAL
  5
15D0
102
{ACAD_XDICTIONARY
360
15D1
102
}
102
{ACAD_REACTORS
330
15CF
102
}
330
15CF
100
AcDbMaterial
  1
ByLayer
 72
     0
 43
0.0208333333333333
 43
0.0
 43
0.0
 43
0.0
 43
0.0
 43
0.0208333333333333
 43
0.0
 43
0.0
 43
0.0
 43
0.0
 43
1.0
 43
0.0
 43
0.0
 43
0.0
 43
0.0
 43
1.0
 77
     0
 47
0.0208333333333333
 47
0.0
 47
0.0
 47
0.0
 47
0.0
 47
0.0208333333333333
 47
0.0
 47
0.0
 47
0.0
 47
0.0
 47
1.0
 47
0.0
 47
0.0
 47
0.0
 47
0.0
 47
1.0
171
     0
 49
0.0208333333333333
 49
0.0
 49
0.0
 49
0.0
 49
0.0
 49
0.0208333333333333
 49
0.0
 49
0.0
 49
0.0
 49
0.0
 49
1.0
 49
0.0
 49
0.0
 49
0.0
 49
0.0
 49
1.0
175
     0
142
0.0208333333333333
142
0.0
142
0.0
142
0.0
142
0.0
142
0.0208333333333333
142
0.0
142
0.0
142
0.0
142
0.0
142
1.0
142
0.0
142
0.0
142
0.0
142
0.0
142
1.0
179
     0
144
0.0208333333333333
144
0.0
144
0.0
144
0.0
144
0.0
144
0.0208333333333333
144
0.0
144
0.0
144
0.0
144
0.0
144
1.0
144
0.0
144
0.0
144
0.0
144
0.0
144
1.0
147
0.0208333333333333
147
0.0
147
0.0
147
0.0
147
0.0
147
0.0208333333333333
147
0.0
147
0.0
147
0.0
147
0.0
147
1.0
147
0.0
147
0.0
147
0.0
147
0.0
147
1.0
  0
MATERIAL
  5
15E0
102
{ACAD_XDICTIONARY
360
15E1
102
}
102
{ACAD_REACTORS
330
15CF
102
}
330
15CF
100
AcDbMaterial
  1
Global
 72
     0
 43
0.0208333333333333
 43
0.0
 43
0.0
 43
0.0
 43
0.0
 43
0.0208333333333333
 43
0.0
 43
0.0
 43
0.0
 43
0.0
 43
1.0
 43
0.0
 43
0.0
 43
0.0
 43
0.0
 43
1.0
 77
     0
 47
0.0208333333333333
 47
0.0
 47
0.0
 47
0.0
 47
0.0
 47
0.0208333333333333
 47
0.0
 47
0.0
 47
0.0
 47
0.0
 47
1.0
 47
0.0
 47
0.0
 47
0.0
 47
0.0
 47
1.0
171
     0
 49
0.0208333333333333
 49
0.0
 49
0.0
 49
0.0
 49
0.0
 49
0.0208333333333333
 49
0.0
 49
0.0
 49
0.0
 49
0.0
 49
1.0
 49
0.0
 49
0.0
 49
0.0
 49
0.0
 49
1.0
175
     0
142
0.0208333333333333
142
0.0
142
0.0
142
0.0
142
0.0
142
0.0208333333333333
142
0.0
142
0.0
142
0.0
142
0.0
142
1.0
142
0.0
142
0.0
142
0.0
142
0.0
142
1.0
179
     0
144
0.0208333333333333
144
0.0
144
0.0
144
0.0
144
0.0
144
0.0208333333333333
144
0.0
144
0.0
144
0.0
144
0.0
144
1.0
144
0.0
144
0.0
144
0.0
144
0.0
144
1.0
147
0.0208333333333333
147
0.0
147
0.0
147
0.0
147
0.0
147
0.0208333333333333
147
0.0
147
0.0
147
0.0
147
0.0
147
1.0
147
0.0
147
0.0
147
0.0
147
0.0
147
1.0
  0
MLEADERSTYLE
  5
1622
102
{ACAD_XDICTIONARY
360
2071
102
}
102
{ACAD_REACTORS
330
1621
102
}
330
1621
100
AcDbMLeaderStyle
170
     2
171
     1
172
     0
 90
        2
 40
0.0
 41
0.0
173
     1
 91
-1056964608
340
6A
 92
       -2
290
     1
 42
0.09
291
     1
 43
0.36
  3
Standard
 44
0.18
300

342
16
174
     1
178
     6
175
     1
176
     0
 93
-1056964608
 45
0.18
292
     0
297
     0
 46
0.18
 94
-1056964608
 47
1.0
 49
1.0
140
1.0
293
     1
141
0.0
294
     1
177
     0
142
1.0
295
     0
296
     0
143
0.125
1001
ACAD_MLEADERVER
1070
     2
  0
MLINESTYLE
  5
78
102
{ACAD_REACTORS
330
76
102
}
330
76
100
AcDbMlineStyle
  2
STANDARD
 70
     0
  3

 62
     0
 51
90.0
 52
90.0
 71
     2
 49
0.5
 62
   256
  6
BYLAYER
 49
-0.5
 62
   256
  6
BYLAYER
  0
ACDBPLACEHOLDER
  5
5
102
{ACAD_REACTORS
330
6
102
}
330
6
  0
SCALE
  5
1600
102
{ACAD_REACTORS
330
15FF
102
}
330
15FF
100
AcDbScale
 70
     0
300
1:1
140
1.0
141
1.0
290
     1
  0
SCALE
  5
1601
102
{ACAD_REACTORS
330
15FF
102
}
330
15FF
100
AcDbScale
 70
     0
300
1:2
140
1.0
141
2.0
290
     0
  0
SCALE
  5
1602
102
{ACAD_REACTORS
330
15FF
102
}
330
15FF
100
AcDbScale
 70
     0
300
1:4
140
1.0
141
4.0
290
     0
  0
SCALE
  5
1603
102
{ACAD_REACTORS
330
15FF
102
}
330
15FF
100
AcDbScale
 70
     0
300
1:5
140
1.0
141
5.0
290
     0
  0
SCALE
  5
1604
102
{ACAD_REACTORS
330
15FF
102
}
330
15FF
100
AcDbScale
 70
     0
300
1:8
140
1.0
141
8.0
290
     0
  0
SCALE
  5
1605
102
{ACAD_REACTORS
330
15FF
102
}
330
15FF
100
AcDbScale
 70
     0
300
1:10
140
1.0
141
10.0
290
     0
  0
SCALE
  5
1606
102
{ACAD_REACTORS
330
15FF
102
}
330
15FF
100
AcDbScale
 70
     0
300
1:16
140
1.0
141
16.0
290
     0
  0
SCALE
  5
1607
102
{ACAD_REACTORS
330
15FF
102
}
330
15FF
100
AcDbScale
 70
     0
300
1:20
140
1.0
141
20.0
290
     0
  0
SCALE
  5
1608
102
{ACAD_REACTORS
330
15FF
102
}
330
15FF
100
AcDbScale
 70
     0
300
1:30
140
1.0
141
30.0
290
     0
  0
SCALE
  5
1609
102
{ACAD_REACTORS
330
15FF
102
}
330
15FF
100
AcDbScale
 70
     0
300
1:40
140
1.0
141
40.0
290
     0
  0
SCALE
  5
160A
102
{ACAD_REACTORS
330
15FF
102
}
330
15FF
100
AcDbScale
 70
     0
300
1:50
140
1.0
141
50.0
290
     0
  0
SCALE
  5
160B
102
{ACAD_REACTORS
330
15FF
102
}
330
15FF
100
AcDbScale
 70
     0
300
1:100
140
1.0
141
100.0
290
     0
  0
SCALE
  5
160C
102
{ACAD_REACTORS
330
15FF
102
}
330
15FF
100
AcDbScale
 70
     0
300
2:1
140
2.0
141
1.0
290
     0
  0
SCALE
  5
160D
102
{ACAD_REACTORS
330
15FF
102
}
330
15FF
100
AcDbScale
 70
     0
300
4:1
140
4.0
141
1.0
290
     0
  0
SCALE
  5
160E
102
{ACAD_REACTORS
330
15FF
102
}
330
15FF
100
AcDbScale
 70
     0
300
8:1
140
8.0
141
1.0
290
     0
  0
SCALE
  5
160F
102
{ACAD_REACTORS
330
15FF
102
}
330
15FF
100
AcDbScale
 70
     0
300
10:1
140
10.0
141
1.0
290
     0
  0
SCALE
  5
1610
102
{ACAD_REACTORS
330
15FF
102
}
330
15FF
100
AcDbScale
 70
     0
300
100:1
140
100.0
141
1.0
290
     0
  0
SCALE
  5
1611
102
{ACAD_REACTORS
330
15FF
102
}
330
15FF
100
AcDbScale
 70
     0
300
1/128" = 1'-0"
140
0.0078125
141
12.0
290
     0
  0
SCALE
  5
1612
102
{ACAD_REACTORS
330
15FF
102
}
330
15FF
100
AcDbScale
 70
     0
300
1/64" = 1'-0"
140
0.015625
141
12.0
290
     0
  0
SCALE
  5
1613
102
{ACAD_REACTORS
330
15FF
102
}
330
15FF
100
AcDbScale
 70
     0
300
1/32" = 1'-0"
140
0.03125
141
12.0
290
     0
  0
SCALE
  5
1614
102
{ACAD_REACTORS
330
15FF
102
}
330
15FF
100
AcDbScale
 70
     0
300
1/16" = 1'-0"
140
0.0625
141
12.0
290
     0
  0
SCALE
  5
1615
102
{ACAD_REACTORS
330
15FF
102
}
330
15FF
100
AcDbScale
 70
     0
300
3/32" = 1'-0"
140
0.09375
141
12.0
290
     0
  0
SCALE
  5
1616
102
{ACAD_REACTORS
330
15FF
102
}
330
15FF
100
AcDbScale
 70
     0
300
1/8" = 1'-0"
140
0.125
141
12.0
290
     0
  0
SCALE
  5
1617
102
{ACAD_REACTORS
330
15FF
102
}
330
15FF
100
AcDbScale
 70
     0
300
3/16" = 1'-0"
140
0.1875
141
12.0
290
     0
  0
SCALE
  5
1618
102
{ACAD_REACTORS
330
15FF
102
}
330
15FF
100
AcDbScale
 70
     0
300
1/4" = 1'-0"
140
0.25
141
12.0
290
     0
  0
SCALE
  5
1619
102
{ACAD_REACTORS
330
15FF
102
}
330
15FF
100
AcDbScale
 70
     0
300
3/8" = 1'-0"
140
0.375
141
12.0
290
     0
  0
SCALE
  5
161A
102
{ACAD_REACTORS
330
15FF
102
}
330
15FF
100
AcDbScale
 70
     0
300
1/2" = 1'-0"
140
0.5
141
12.0
290
     0
  0
SCALE
  5
161B
102
{ACAD_REACTORS
330
15FF
102
}
330
15FF
100
AcDbScale
 70
     0
300
3/4" = 1'-0"
140
0.75
141
12.0
290
     0
  0
SCALE
  5
161C
102
{ACAD_REACTORS
330
15FF
102
}
330
15FF
100
AcDbScale
 70
     0
300
1" = 1'-0"
140
1.0
141
12.0
290
     0
  0
SCALE
  5
161D
102
{ACAD_REACTORS
330
15FF
102
}
330
15FF
100
AcDbScale
 70
     0
300
1-1/2" = 1'-0"
140
1.5
141
12.0
290
     0
  0
SCALE
  5
161E
102
{ACAD_REACTORS
330
15FF
102
}
330
15FF
100
AcDbScale
 70
     0
300
3" = 1'-0"
140
3.0
141
12.0
290
     0
  0
SCALE
  5
161F
102
{ACAD_REACTORS
330
15FF
102
}
330
15FF
100
AcDbScale
 70
     0
300
6" = 1'-0"
140
6.0
141
12.0
290
     0
  0
SCALE
  5
1620
102
{ACAD_REACTORS
330
15FF
102
}
330
15FF
100
AcDbScale
 70
     0
300
1'-0" = 1'-0"
140
12.0
141
12.0
290
     0
  0
ACAD_PROXY_OBJECT
  5
19FA
102
{ACAD_XDICTIONARY
360
2105
102
}
102
{ACAD_REACTORS
330
19F9
102
}
330
19F9
100
AcDbProxyObject
 90
      499
 91
      511
 95
  3276827
 70
     0
 93
     3294
310
92CD000000180000000000000000A2040000006000000000000000028800000000000001220233000000180009940000006000000000000000028800000000000000A20400000060000000000000000288100000000000005C8080C0000006000400000064003100000000000000881000000000000008808340C16A22A7D9
310
0FC9F8CAE65A70A583A07E1FE81C635378FA1F8CAE65A70A583A17E7944A7F127A97E9FA149200DA00E000CA00E400D200C200D80064006800882480160010002780160010002880160010002980160010002C00160010002D002B24A007800B8008200C600AC00C200E4004000AC00D200CA00EE00A600CA00C600E800D20
310
0DE00DC00A600E800C200E400E8009200C8007C004A005A004A007800B8008200C600AC00C200E4004000AC00D200CA00EE00A600CA00C600E800D200DE00DC008A00DC00C8009200C8007C004A00400050004A007800B8008200C600AC00C200E4004000AC00D200CA00EE00A600C600C200D800CA004000B800CC0040004
310
4004A00E600DC0044007C004A005200832080270029802480198018805C03C
340
16
340
0
340
0
340
8
340
8
340
16
 94
        0
1001
ACAD
1000
AcRTDxfName
1000
ACDBSECTIONVIEWSTYLE
1000
AcRTDxfName
1000
ACDBSECTIONVIEWSTYLE
  0
ACAD_PROXY_OBJECT
  5
1A13
102
{ACAD_XDICTIONARY
360
2109
102
}
102
{ACAD_REACTORS
330
19F9
102
}
330
19F9
100
AcDbProxyObject
 90
      499
 91
      511
 95
  3276827
 70
     0
 93
     3262
310
92CD000000180000000000000000A2040000006000000000000000028800000000000001220233000000180009940000006000000000000000028800000000000000A20400000060000000000000000288100000000000005C8080C0000006000400000064003100000000000000881000000000000008808340C16A22A7D9
310
0FC9F8CAE65A70A583A07E1FE81C635378FA1F8CAE65A70A583A17E7944A7F127A97E9FA109A00CA00E800E400D200C6006A006000882480160010002780160010002880160010002980160010002C00160010002D002B24A007800B8008200C600AC00C200E4004000AC00D200CA00EE00A600CA00C600E800D200DE00DC0
310
0A600E800C200E400E8009200C8007C004A005A004A007800B8008200C600AC00C200E4004000AC00D200CA00EE00A600CA00C600E800D200DE00DC008A00DC00C8009200C8007C004A00400050004A007800B8008200C600AC00C200E4004000AC00D200CA00EE00A600C600C200D800CA004000B800CC00400044004A00E
310
600DC0044007C004A005200832080270029802480198018804C03C
340
16
340
0
340
0
340
8
340
8
340
16
 94
        0
1001
ACAD
1000
AcRTDxfName
1000
ACDBSECTIONVIEWSTYLE
1000
AcRTDxfName
1000
ACDBSECTIONVIEWSTYLE
  0
TABLESTYLE
  5
15FE
102
{ACAD_XDICTIONARY
360
1654
102
}
102
{ACAD_REACTORS
330
15FD
102
}
330
15FD
100
AcDbTableStyle
  3
Standard
 70
     0
 71
     0
 40
0.06
 41
0.06
280
     0
281
     0
  7
STANDARD
140
0.18
170
     2
 62
     0
 63
     7
283
     0
274
    -2
284
     1
 64
     0
275
    -2
285
     1
 65
     0
276
    -2
286
     1
 66
     0
277
    -2
287
     1
 67
     0
278
    -2
288
     1
 68
     0
279
    -2
289
     1
 69
     0
  7
STANDARD
140
0.25
170
     5
 62
     0
 63
     7
283
     0
274
    -2
284
     1
 64
     0
275
    -2
285
     1
 65
     0
276
    -2
286
     1
 66
     0
277
    -2
287
     1
 67
     0
278
    -2
288
     1
 68
     0
279
    -2
289
     1
 69
     0
  7
STANDARD
140
0.18
170
     5
 62
     0
 63
     7
283
     0
274
    -2
284
     1
 64
     0
275
    -2
285
     1
 65
     0
276
    -2
286
     1
 66
     0
277
    -2
287
     1
 67
     0
278
    -2
288
     1
 68
     0
279
    -2
289
     1
 69
     0
  0
VISUALSTYLE
  5
15EE
102
{ACAD_XDICTIONARY
360
20DB
102
}
102
{ACAD_REACTORS
330
15E8
102
}
330
15E8
100
AcDbVisualStyle
  2
2dWireframe
 70
     4
 71
     0
 72
     2
 73
     0
 90
        0
 40
-0.6
 41
-30.0
 62
     5
 63
     7
 74
     1
 91
        4
 64
     7
 65
   257
 75
     1
175
     1
 42
1.0
 92
        0
 66
   257
 43
1.0
 76
     1
 77
     6
 78
     2
 67
     7
 79
     5
170
     0
171
     0
290
     0
174
     0
 93
        1
 44
0.0
173
     0
291
     0
 45
0.0
1001
ACAD
1000
AcDbSavedByObjectVersion
1070
     0
  0
VISUALSTYLE
  5
15F0
102
{ACAD_XDICTIONARY
360
20DF
102
}
102
{ACAD_REACTORS
330
15E8
102
}
330
15E8
100
AcDbVisualStyle
  2
3D Hidden
 70
     6
 71
     1
 72
     2
 73
     2
 90
        0
 40
-0.6
 41
-30.0
 62
     5
 63
     7
 74
     2
 91
        2
 64
     7
 65
   257
 75
     2
175
     1
 42
179.0
 92
        0
 66
   257
 43
1.0
 76
     1
 77
     6
 78
     2
 67
     7
 79
     3
170
     0
171
     0
290
     0
174
     0
 93
        1
 44
0.0
173
     0
291
     0
 45
0.0
1001
ACAD
1000
AcDbSavedByObjectVersion
1070
     0
  0
VISUALSTYLE
  5
15EF
102
{ACAD_XDICTIONARY
360
20DD
102
}
102
{ACAD_REACTORS
330
15E8
102
}
330
15E8
100
AcDbVisualStyle
  2
3dWireframe
 70
     5
 71
     0
 72
     2
 73
     0
 90
        0
 40
-0.6
 41
-30.0
 62
     5
 63
     7
 74
     1
 91
        4
 64
     7
 65
   257
 75
     1
175
     1
 42
1.0
 92
        0
 66
   257
 43
1.0
 76
     1
 77
     6
 78
     2
 67
     7
 79
     5
170
     0
171
     0
290
     0
174
     0
 93
        1
 44
0.0
173
     0
291
     0
 45
0.0
1001
ACAD
1000
AcDbSavedByObjectVersion
1070
     0
  0
VISUALSTYLE
  5
15ED
102
{ACAD_XDICTIONARY
360
20D9
102
}
102
{ACAD_REACTORS
330
15E8
102
}
330
15E8
100
AcDbVisualStyle
  2
Basic
 70
     7
 71
     1
 72
     0
 73
     1
 90
        0
 40
-0.6
 41
-30.0
 62
     5
 63
     7
 74
     0
 91
        4
 64
     7
 65
   257
 75
     1
175
     1
 42
1.0
 92
        8
 66
     7
 43
1.0
 76
     1
 77
     6
 78
     2
 67
     7
 79
     5
170
     0
171
     0
290
     0
174
     0
 93
        1
 44
0.0
173
     0
291
     1
 45
0.0
1001
ACAD
1000
AcDbSavedByObjectVersion
1070
     0
  0
VISUALSTYLE
  5
15F4
102
{ACAD_XDICTIONARY
360
20E7
102
}
102
{ACAD_REACTORS
330
15E8
102
}
330
15E8
100
AcDbVisualStyle
  2
Brighten
 70
    12
 71
     2
 72
     2
 73
     0
 90
        0
 40
-0.6
 41
-30.0
 62
     5
 63
     7
 74
     1
 91
        4
 64
     7
 65
   257
 75
     1
175
     1
 42
1.0
 92
        8
 66
     7
 43
1.0
 76
     1
 77
     6
 78
     2
 67
     7
 79
     5
170
     0
171
     0
290
     0
174
     0
 93
        1
 44
50.0
173
     0
291
     1
 45
0.0
1001
ACAD
1000
AcDbSavedByObjectVersion
1070
     0
  0
VISUALSTYLE
  5
15F8
102
{ACAD_XDICTIONARY
360
20EF
102
}
102
{ACAD_REACTORS
330
15E8
102
}
330
15E8
100
AcDbVisualStyle
  2
ColorChange
 70
    16
 71
     2
 72
     2
 73
     3
 90
        0
 40
-0.6
 41
-30.0
 62
     5
 63
     8
 74
     1
 91
        4
 64
     7
 65
   257
 75
     1
175
     1
 42
1.0
 92
        8
 66
     8
 43
1.0
 76
     1
 77
     6
 78
     2
 67
     7
 79
     5
170
     0
171
     0
290
     0
174
     0
 93
        1
 44
0.0
173
     0
291
     1
 45
0.0
1001
ACAD
1000
AcDbSavedByObjectVersion
1070
     0
  0
VISUALSTYLE
  5
15F1
102
{ACAD_XDICTIONARY
360
20E1
102
}
102
{ACAD_REACTORS
330
15E8
102
}
330
15E8
100
AcDbVisualStyle
  2
Conceptual
 70
     9
 71
     3
 72
     2
 73
     0
 90
        0
 40
-0.6
 41
-30.0
 62
     5
 63
     7
 74
     2
 91
        2
 64
     7
 65
   257
 75
     1
175
     1
 42
179.0
 92
        8
 66
     7
 43
1.0
 76
     1
 77
     6
 78
     2
 67
     7
 79
     3
170
     0
171
     0
290
     0
174
     0
 93
        1
 44
0.0
173
     0
291
     0
 45
0.0
1001
ACAD
1000
AcDbSavedByObjectVersion
1070
     0
  0
VISUALSTYLE
  5
15F3
102
{ACAD_XDICTIONARY
360
20E5
102
}
102
{ACAD_REACTORS
330
15E8
102
}
330
15E8
100
AcDbVisualStyle
  2
Dim
 70
    11
 71
     2
 72
     2
 73
     0
 90
        0
 40
-0.6
 41
-30.0
 62
     5
 63
     7
 74
     1
 91
        4
 64
     7
 65
   257
 75
     1
175
     1
 42
1.0
 92
        8
 66
     7
 43
1.0
 76
     1
 77
     6
 78
     2
 67
     7
 79
     5
170
     0
171
     0
290
     0
174
     0
 93
        1
 44
-50.0
173
     0
291
     1
 45
0.0
1001
ACAD
1000
AcDbSavedByObjectVersion
1070
     0
  0
VISUALSTYLE
  5
15FB
102
{ACAD_XDICTIONARY
360
20F5
102
}
102
{ACAD_REACTORS
330
15E8
102
}
330
15E8
100
AcDbVisualStyle
  2
EdgeColorOff
 70
    22
 71
     2
 72
     2
 73
     0
 90
        0
 40
-0.6
 41
-30.0
 62
     5
 63
     7
 74
     1
 91
        4
 64
     7
 65
   257
 75
     1
175
     1
 42
1.0
 92
        8
 66
     7
 43
1.0
 76
     1
 77
     6
 78
     2
 67
     7
 79
     5
170
     0
171
     0
290
     0
174
     0
 93
        1
 44
0.0
173
     0
291
     1
 45
0.0
1001
ACAD
1000
AcDbSavedByObjectVersion
1070
     0
  0
VISUALSTYLE
  5
15F7
102
{ACAD_XDICTIONARY
360
20ED
102
}
102
{ACAD_REACTORS
330
15E8
102
}
330
15E8
100
AcDbVisualStyle
  2
Facepattern
 70
    15
 71
     2
 72
     2
 73
     0
 90
        0
 40
-0.6
 41
-30.0
 62
     5
 63
     7
 74
     1
 91
        4
 64
     7
 65
   257
 75
     1
175
     1
 42
1.0
 92
        8
 66
     7
 43
1.0
 76
     1
 77
     6
 78
     2
 67
     7
 79
     5
170
     0
171
     0
290
     0
174
     0
 93
        1
 44
0.0
173
     0
291
     1
 45
0.0
1001
ACAD
1000
AcDbSavedByObjectVersion
1070
     0
  0
VISUALSTYLE
  5
15E9
102
{ACAD_XDICTIONARY
360
20D1
102
}
102
{ACAD_REACTORS
330
15E8
102
}
330
15E8
100
AcDbVisualStyle
  2
Flat
 70
     0
 71
     2
 72
     1
 73
     1
 90
        2
 40
-0.6
 41
30.0
 62
     5
 63
     7
 74
     0
 91
        4
 64
     7
 65
   257
 75
     1
175
     1
 42
1.0
 92
        8
 66
     7
 43
1.0
 76
     1
 77
     6
 78
     2
 67
     7
 79
     5
170
     0
171
     0
290
     0
174
     0
 93
       13
 44
0.0
173
     0
291
     1
 45
0.0
1001
ACAD
1000
AcDbSavedByObjectVersion
1070
     0
  0
VISUALSTYLE
  5
15EA
102
{ACAD_XDICTIONARY
360
20D3
102
}
102
{ACAD_REACTORS
330
15E8
102
}
330
15E8
100
AcDbVisualStyle
  2
FlatWithEdges
 70
     1
 71
     2
 72
     1
 73
     1
 90
        2
 40
-0.6
 41
30.0
 62
     5
 63
     7
 74
     1
 91
        4
 64
     7
 65
   257
 75
     1
175
     1
 42
1.0
 92
        0
 66
   257
 43
1.0
 76
     1
 77
     6
 78
     2
 67
     7
 79
     5
170
     0
171
     0
290
     0
174
     0
 93
       13
 44
0.0
173
     0
291
     1
 45
0.0
1001
ACAD
1000
AcDbSavedByObjectVersion
1070
     0
  0
VISUALSTYLE
  5
15EB
102
{ACAD_XDICTIONARY
360
20D5
102
}
102
{ACAD_REACTORS
330
15E8
102
}
330
15E8
100
AcDbVisualStyle
  2
Gouraud
 70
     2
 71
     2
 72
     2
 73
     1
 90
        2
 40
-0.6
 41
30.0
 62
     5
 63
     7
 74
     0
 91
        4
 64
     7
 65
   257
 75
     1
175
     1
 42
1.0
 92
        0
 66
     7
 43
1.0
 76
     1
 77
     6
 78
     2
 67
     7
 79
     5
170
     0
171
     0
290
     0
174
     0
 93
       13
 44
0.0
173
     0
291
     1
 45
0.0
1001
ACAD
1000
AcDbSavedByObjectVersion
1070
     0
  0
VISUALSTYLE
  5
15EC
102
{ACAD_XDICTIONARY
360
20D7
102
}
102
{ACAD_REACTORS
330
15E8
102
}
330
15E8
100
AcDbVisualStyle
  2
GouraudWithEdges
 70
     3
 71
     2
 72
     2
 73
     1
 90
        2
 40
-0.6
 41
30.0
 62
     5
 63
     7
 74
     1
 91
        4
 64
     7
 65
   257
 75
     1
175
     1
 42
1.0
 92
        0
 66
   257
 43
1.0
 76
     1
 77
     6
 78
     2
 67
     7
 79
     5
170
     0
171
     0
290
     0
174
     0
 93
       13
 44
0.0
173
     0
291
     1
 45
0.0
1001
ACAD
1000
AcDbSavedByObjectVersion
1070
     0
  0
VISUALSTYLE
  5
19F3
102
{ACAD_XDICTIONARY
360
20F9
102
}
102
{ACAD_REACTORS
330
15E8
102
}
330
15E8
100
AcDbVisualStyle
  2
Hidden
 70
     6
 71
     1
 72
     2
 73
     2
 90
        0
 40
-0.6
 41
-30.0
 62
     5
 63
     7
 74
     2
 91
        2
 64
     7
 65
   257
 75
     2
175
     1
 42
40.0
 92
        0
 66
   257
 43
1.0
 76
     1
 77
     6
 78
     2
 67
     7
 79
     3
170
     0
171
     0
290
     0
174
     0
 93
        1
 44
0.0
173
     0
291
     0
 45
0.0
1001
ACAD
1000
AcDbSavedByObjectVersion
1070
     0
  0
VISUALSTYLE
  5
15F9
102
{ACAD_XDICTIONARY
360
20F1
102
}
102
{ACAD_REACTORS
330
15E8
102
}
330
15E8
100
AcDbVisualStyle
  2
JitterOff
 70
    20
 71
     2
 72
     2
 73
     0
 90
        0
 40
-0.6
 41
-30.0
 62
     5
 63
     7
 74
     1
 91
        4
 64
     7
 65
   257
 75
     1
175
     1
 42
1.0
 92
       10
 66
     7
 43
1.0
 76
     1
 77
     6
 78
     2
 67
     7
 79
     5
170
     0
171
     0
290
     0
174
     0
 93
        1
 44
0.0
173
     0
291
     1
 45
0.0
1001
ACAD
1000
AcDbSavedByObjectVersion
1070
     0
  0
VISUALSTYLE
  5
15F6
102
{ACAD_XDICTIONARY
360
20EB
102
}
102
{ACAD_REACTORS
330
15E8
102
}
330
15E8
100
AcDbVisualStyle
  2
Linepattern
 70
    14
 71
     2
 72
     2
 73
     0
 90
        0
 40
-0.6
 41
-30.0
 62
     5
 63
     7
 74
     1
 91
        4
 64
     7
 65
   257
 75
     7
175
     7
 42
1.0
 92
        8
 66
     7
 43
1.0
 76
     1
 77
     6
 78
     2
 67
     7
 79
     5
170
     0
171
     0
290
     0
174
     0
 93
        1
 44
0.0
173
     0
291
     1
 45
0.0
1001
ACAD
1000
AcDbSavedByObjectVersion
1070
     0
  0
VISUALSTYLE
  5
15FA
102
{ACAD_XDICTIONARY
360
20F3
102
}
102
{ACAD_REACTORS
330
15E8
102
}
330
15E8
100
AcDbVisualStyle
  2
OverhangOff
 70
    21
 71
     2
 72
     2
 73
     0
 90
        0
 40
-0.6
 41
-30.0
 62
     5
 63
     7
 74
     1
 91
        4
 64
     7
 65
   257
 75
     1
175
     1
 42
1.0
 92
        9
 66
     7
 43
1.0
 76
     1
 77
     6
 78
     2
 67
     7
 79
     5
170
     0
171
     0
290
     0
174
     0
 93
        1
 44
0.0
173
     0
291
     1
 45
0.0
1001
ACAD
1000
AcDbSavedByObjectVersion
1070
     0
  0
VISUALSTYLE
  5
15F2
102
{ACAD_XDICTIONARY
360
20E3
102
}
102
{ACAD_REACTORS
330
15E8
102
}
330
15E8
100
AcDbVisualStyle
  2
Realistic
 70
     8
 71
     2
 72
     2
 73
     0
 90
        0
 40
-0.6
 41
-30.0
 62
     5
 63
     7
 74
     1
 91
        0
 64
     7
 65
   257
 75
     1
175
     1
 42
1.0
 92
        8
 66
     8
 43
1.0
 76
     1
 77
     6
 78
     2
 67
     7
 79
     5
170
     0
171
     0
290
     0
174
     0
 93
       13
 44
0.0
173
     0
291
     0
 45
0.0
1001
ACAD
1000
AcDbSavedByObjectVersion
1070
     0
  0
VISUALSTYLE
  5
19F8
102
{ACAD_XDICTIONARY
360
2103
102
}
102
{ACAD_REACTORS
330
15E8
102
}
330
15E8
100
AcDbVisualStyle
  2
Shaded
 70
    27
 71
     2
 72
     2
 73
     1
 90
        2
 40
-0.6
 41
30.0
 62
     5
 63
     7
 74
     0
 91
        4
 64
     7
 65
   257
 75
     1
175
     1
 42
1.0
 92
        8
 66
   257
 43
1.0
 76
     1
 77
     6
 78
     2
 67
     8
 79
     3
170
     0
171
     0
290
     0
174
     0
 93
        5
 44
0.0
173
     0
291
     0
 45
0.0
1001
ACAD
1000
AcDbSavedByObjectVersion
1070
     0
  0
VISUALSTYLE
  5
19F7
102
{ACAD_XDICTIONARY
360
2101
102
}
102
{ACAD_REACTORS
330
15E8
102
}
330
15E8
100
AcDbVisualStyle
  2
Shaded with edges
 70
    26
 71
     2
 72
     2
 73
     1
 90
        2
 40
-0.6
 41
30.0
 62
     5
 63
     7
 74
     1
 91
       10
 64
     7
 65
   257
 75
     2
175
     1
 42
1.0
 92
        8
 66
   257
 43
1.0
 76
     1
 77
     6
 78
     2
 67
     7
 79
     3
170
     0
171
     0
290
     0
174
     0
 93
        5
 44
0.0
173
     0
291
     0
 45
0.0
1001
ACAD
1000
AcDbSavedByObjectVersion
1070
     0
  0
VISUALSTYLE
  5
19F4
102
{ACAD_XDICTIONARY
360
20FB
102
}
102
{ACAD_REACTORS
330
15E8
102
}
330
15E8
100
AcDbVisualStyle
  2
Shades of Gray
 70
    23
 71
     2
 72
     2
 73
     3
 90
        0
 40
-0.6
 41
-30.0
 62
     5
 63
     7
 74
     2
 91
        2
 64
     7
 65
     7
 75
     1
175
     1
 42
40.0
 92
        8
 66
     7
 43
1.0
 76
     1
 77
     6
 78
     2
 67
     7
 79
     3
170
     0
171
     0
290
     0
174
     0
 93
        1
 44
0.0
173
     0
291
     0
 45
0.0
1001
ACAD
1000
AcDbSavedByObjectVersion
1070
     0
  0
VISUALSTYLE
  5
19F5
102
{ACAD_XDICTIONARY
360
20FD
102
}
102
{ACAD_REACTORS
330
15E8
102
}
330
15E8
100
AcDbVisualStyle
  2
Sketchy
 70
    24
 71
     1
 72
     2
 73
     2
 90
        0
 40
-0.6
 41
-30.0
 62
     5
 63
     7
 74
     2
 91
        2
 64
     7
 65
     7
 75
     1
175
     1
 42
40.0
 92
       11
 66
     7
 43
1.0
 76
     1
 77
     6
 78
     2
 67
     7
 79
     6
170
     0
171
     0
290
     0
174
     0
 93
        1
 44
0.0
173
     0
291
     0
 45
0.0
1001
ACAD
1000
AcDbSavedByObjectVersion
1070
     0
  0
VISUALSTYLE
  5
15F5
102
{ACAD_XDICTIONARY
360
20E9
102
}
102
{ACAD_REACTORS
330
15E8
102
}
330
15E8
100
AcDbVisualStyle
  2
Thicken
 70
    13
 71
     2
 72
     2
 73
     0
 90
        0
 40
-0.6
 41
-30.0
 62
     5
 63
     7
 74
     1
 91
        4
 64
     7
 65
   257
 75
     1
175
     1
 42
1.0
 92
       12
 66
     7
 43
1.0
 76
     1
 77
     6
 78
     2
 67
     7
 79
     5
170
     0
171
     0
290
     0
174
     0
 93
        1
 44
0.0
173
     0
291
     1
 45
0.0
1001
ACAD
1000
AcDbSavedByObjectVersion
1070
     0
  0
VISUALSTYLE
  5
19F2
102
{ACAD_XDICTIONARY
360
20F7
102
}
102
{ACAD_REACTORS
330
15E8
102
}
330
15E8
100
AcDbVisualStyle
  2
Wireframe
 70
     5
 71
     0
 72
     2
 73
     0
 90
        0
 40
-0.6
 41
-30.0
 62
     5
 63
     7
 74
     1
 91
        4
 64
     7
 65
   257
 75
     1
175
     1
 42
1.0
 92
        0
 66
   257
 43
1.0
 76
     1
 77
     6
 78
     2
 67
     7
 79
     3
170
     0
171
     0
290
     0
174
     0
 93
        1
 44
0.0
173
     0
291
     0
 45
0.0
1001
ACAD
1000
AcDbSavedByObjectVersion
1070
     0
  0
VISUALSTYLE
  5
19F6
102
{ACAD_XDICTIONARY
360
20FF
102
}
102
{ACAD_REACTORS
330
15E8
102
}
330
15E8
100
AcDbVisualStyle
  2
X-Ray
 70
    25
 71
     2
 72
     2
 73
     1
 90
        1
 40
0.5
 41
-30.0
 62
     5
 63
     7
 74
     1
 91
        0
 64
     7
 65
   257
 75
     1
175
     1
 42
1.0
 92
        8
 66
     7
 43
1.0
 76
     1
 77
     6
 78
     2
 67
     7
 79
     3
170
     0
171
     0
290
     0
174
     0
 93
       13
 44
0.0
173
     0
291
     0
 45
0.0
1001
ACAD
1000
AcDbSavedByObjectVersion
1070
     0
  0
DICTIONARYVAR
  5
1696
102
{ACAD_REACTORS
330
102
102
}
330
102
100
DictionaryVariables
280
     0
  1
1:1
  0
DICTIONARYVAR
  5
1695
102
{ACAD_REACTORS
330
102
102
}
330
102
100
DictionaryVariables
280
     0
  1
STANDARD
  0
DICTIONARYVAR
  5
1694
102
{ACAD_REACTORS
330
102
102
}
330
102
100
DictionaryVariables
280
     0
  1
STANDARD
  0
DICTIONARYVAR
  5
1ADA
102
{ACAD_REACTORS
330
102
102
}
330
102
100
DictionaryVariables
280
     0
  1
Imperial24
  0
DICTIONARYVAR
  5
1ADB
102
{ACAD_REACTORS
330
102
102
}
330
102
100
DictionaryVariables
280
     0
  1
Imperial24
  0
DICTIONARYVAR
  5
103
102
{ACAD_REACTORS
330
102
102
}
330
102
100
DictionaryVariables
280
     0
  1
1
  0
DICTIONARYVAR
  5
1698
102
{ACAD_REACTORS
330
102
102
}
330
102
100
DictionaryVariables
280
     0
  1
0
  0
DICTIONARYVAR
  5
1ADE
102
{ACAD_REACTORS
330
102
102
}
330
102
100
DictionaryVariables
280
     0
  1
1
  0
DICTIONARYVAR
  5
1ADF
102
{ACAD_REACTORS
330
102
102
}
330
102
100
DictionaryVariables
280
     0
  1
15
  0
DICTIONARYVAR
  5
1ADD
102
{ACAD_REACTORS
330
102
102
}
330
102
100
DictionaryVariables
280
     0
  1
0
  0
DICTIONARYVAR
  5
1ADC
102
{ACAD_REACTORS
330
102
102
}
330
102
100
DictionaryVariables
280
     0
  1
0
  0
DICTIONARYVAR
  5
2124
102
{ACAD_REACTORS
330
102
102
}
330
102
100
DictionaryVariables
280
     0
  1
0
  0
DICTIONARYVAR
  5
1697
102
{ACAD_REACTORS
330
102
102
}
330
102
100
DictionaryVariables
280
     0
  1
127
  0
DICTIONARYVAR
  5
2174
102
{ACAD_REACTORS
330
102
102
}
330
102
100
DictionaryVariables
280
     0
  1
2
  0
DICTIONARY
  5
2107
330
19FC
100
AcDbDictionary
280
     1
281
     1
  3
ACAD_XREC_ROUNDTRIP
360
2108
  0
DICTIONARY
  5
210B
330
1A14
100
AcDbDictionary
280
     1
281
     1
  3
ACAD_XREC_ROUNDTRIP
360
210C
  0
DICTIONARY
  5
162E
330
60
100
AcDbDictionary
280
     1
281
     1
  3
ACAD_XREC_ROUNDTRIP
360
2178
  3
ADSK_XREC_LAYOUTTHUMBNAIL
360
162F
  0
DICTIONARY
  5
2181
330
2170
100
AcDbDictionary
280
     1
281
     1
  3
ACAD_XREC_ROUNDTRIP
360
2182
  0
DICTIONARY
  5
15D9
330
15D8
100
AcDbDictionary
280
     1
281
     1
  3
ACAD_XREC_ROUNDTRIP
360
217E
  3
BUMPTILE
360
15DB
  3
DIFFUSETILE
360
15DA
  3
OPACITYTILE
360
15DE
  3
REFLECTIONTILE
360
15DD
  3
REFRACTIONTILE
360
15DF
  3
SPECULARTILE
360
15DC
  0
DICTIONARY
  5
15D1
330
15D0
100
AcDbDictionary
280
     1
281
     1
  3
ACAD_XREC_ROUNDTRIP
360
217D
  3
BUMPTILE
360
15D3
  3
DIFFUSETILE
360
15D2
  3
OPACITYTILE
360
15D6
  3
REFLECTIONTILE
360
15D5
  3
REFRACTIONTILE
360
15D7
  3
SPECULARTILE
360
15D4
  0
DICTIONARY
  5
15E1
330
15E0
100
AcDbDictionary
280
     1
281
     1
  3
ACAD_XREC_ROUNDTRIP
360
217F
  3
BUMPTILE
360
15E3
  3
DIFFUSETILE
360
15E2
  3
OPACITYTILE
360
15E6
  3
REFLECTIONTILE
360
15E5
  3
REFRACTIONTILE
360
15E7
  3
SPECULARTILE
360
15E4
  0
DICTIONARY
  5
2071
330
1622
100
AcDbDictionary
280
     1
281
     1
  3
ACAD_XREC_ROUNDTRIP
360
2072
  0
DICTIONARY
  5
2105
330
19FA
100
AcDbDictionary
280
     1
281
     1
  3
ACAD_XREC_ROUNDTRIP
360
2106
  0
DICTIONARY
  5
2109
330
1A13
100
AcDbDictionary
280
     1
281
     1
  3
ACAD_XREC_ROUNDTRIP
360
210A
  0
DICTIONARY
  5
1654
330
15FE
100
AcDbDictionary
280
     1
281
     1
  3
ACAD_ROUNDTRIP_2008_TABLESTYLE_CELLSTYLEMAP
360
2175
  3
ACAD_XREC_ROUNDTRIP
360
2180
  0
DICTIONARY
  5
20DB
330
15EE
100
AcDbDictionary
280
     1
281
     1
  3
ACAD_XREC_ROUNDTRIP
360
20DC
  0
DICTIONARY
  5
20DF
330
15F0
100
AcDbDictionary
280
     1
281
     1
  3
ACAD_XREC_ROUNDTRIP
360
20E0
  0
DICTIONARY
  5
20DD
330
15EF
100
AcDbDictionary
280
     1
281
     1
  3
ACAD_XREC_ROUNDTRIP
360
20DE
  0
DICTIONARY
  5
20D9
330
15ED
100
AcDbDictionary
280
     1
281
     1
  3
ACAD_XREC_ROUNDTRIP
360
20DA
  0
DICTIONARY
  5
20E7
330
15F4
100
AcDbDictionary
280
     1
281
     1
  3
ACAD_XREC_ROUNDTRIP
360
20E8
  0
DICTIONARY
  5
20EF
330
15F8
100
AcDbDictionary
280
     1
281
     1
  3
ACAD_XREC_ROUNDTRIP
360
20F0
  0
DICTIONARY
  5
20E1
330
15F1
100
AcDbDictionary
280
     1
281
     1
  3
ACAD_XREC_ROUNDTRIP
360
20E2
  0
DICTIONARY
  5
20E5
330
15F3
100
AcDbDictionary
280
     1
281
     1
  3
ACAD_XREC_ROUNDTRIP
360
20E6
  0
DICTIONARY
  5
20F5
330
15FB
100
AcDbDictionary
280
     1
281
     1
  3
ACAD_XREC_ROUNDTRIP
360
20F6
  0
DICTIONARY
  5
20ED
330
15F7
100
AcDbDictionary
280
     1
281
     1
  3
ACAD_XREC_ROUNDTRIP
360
20EE
  0
DICTIONARY
  5
20D1
330
15E9
100
AcDbDictionary
280
     1
281
     1
  3
ACAD_XREC_ROUNDTRIP
360
20D2
  0
DICTIONARY
  5
20D3
330
15EA
100
AcDbDictionary
280
     1
281
     1
  3
ACAD_XREC_ROUNDTRIP
360
20D4
  0
DICTIONARY
  5
20D5
330
15EB
100
AcDbDictionary
280
     1
281
     1
  3
ACAD_XREC_ROUNDTRIP
360
20D6
  0
DICTIONARY
  5
20D7
330
15EC
100
AcDbDictionary
280
     1
281
     1
  3
ACAD_XREC_ROUNDTRIP
360
20D8
  0
DICTIONARY
  5
20F9
330
19F3
100
AcDbDictionary
280
     1
281
     1
  3
ACAD_XREC_ROUNDTRIP
360
20FA
  0
DICTIONARY
  5
20F1
330
15F9
100
AcDbDictionary
280
     1
281
     1
  3
ACAD_XREC_ROUNDTRIP
360
20F2
  0
DICTIONARY
  5
20EB
330
15F6
100
AcDbDictionary
280
     1
281
     1
  3
ACAD_XREC_ROUNDTRIP
360
20EC
  0
DICTIONARY
  5
20F3
330
15FA
100
AcDbDictionary
280
     1
281
     1
  3
ACAD_XREC_ROUNDTRIP
360
20F4
  0
DICTIONARY
  5
20E3
330
15F2
100
AcDbDictionary
280
     1
281
     1
  3
ACAD_XREC_ROUNDTRIP
360
20E4
  0
DICTIONARY
  5
2103
330
19F8
100
AcDbDictionary
280
     1
281
     1
  3
ACAD_XREC_ROUNDTRIP
360
2104
  0
DICTIONARY
  5
2101
330
19F7
100
AcDbDictionary
280
     1
281
     1
  3
ACAD_XREC_ROUNDTRIP
360
2102
  0
DICTIONARY
  5
20FB
330
19F4
100
AcDbDictionary
280
     1
281
     1
  3
ACAD_XREC_ROUNDTRIP
360
20FC
  0
DICTIONARY
  5
20FD
330
19F5
100
AcDbDictionary
280
     1
281
     1
  3
ACAD_XREC_ROUNDTRIP
360
20FE
  0
DICTIONARY
  5
20E9
330
15F5
100
AcDbDictionary
280
     1
281
     1
  3
ACAD_XREC_ROUNDTRIP
360
20EA
  0
DICTIONARY
  5
20F7
330
19F2
100
AcDbDictionary
280
     1
281
     1
  3
ACAD_XREC_ROUNDTRIP
360
20F8
  0
DICTIONARY
  5
20FF
330
19F6
100
AcDbDictionary
280
     1
281
     1
  3
ACAD_XREC_ROUNDTRIP
360
2100
  0
XRECORD
  5
2108
102
{ACAD_REACTORS
330
2107
102
}
330
2107
100
AcDbXrecord
280
     1
102
DISPLAYNAME
  1
Imperial24
102
FLAGS
 90
        0
  0
XRECORD
  5
210C
102
{ACAD_REACTORS
330
210B
102
}
330
210B
100
AcDbXrecord
280
     1
102
DISPLAYNAME
  1
Metric50
102
FLAGS
 90
        0
  0
XRECORD
  5
2178
102
{ACAD_REACTORS
330
162E
102
}
330
162E
100
AcDbXrecord
280
     1
102
SHADEPLOT
 70
     0
102
SHADEPLOTRESLEVEL
 70
     2
102
SHADEPLOTCUSTOMDPI
 70
   300
  0
XRECORD
  5
162F
102
{ACAD_REACTORS
330
162E
102
}
330
162E
100
AcDbXrecord
280
     1
310
28000000000100008C0000000100080000000000008C000001000000010000000001000000000000000000FF000000FFC8C8C8FF000000FF000000FF000000FF000000FF000000FF000000FF000000FF000000FF330000FF660000FF990000FFCC0000FFFF0000FF003300FF333300FF663300FF993300FFCC3300FFFF3300
310
FF006600FF336600FF666600FF996600FFCC6600FFFF6600FF009900FF339900FF669900FF999900FFCC9900FFFF9900FF00CC00FF33CC00FF66CC00FF99CC00FFCCCC00FFFFCC00FF00FF00FF33FF00FF66FF00FF99FF00FFCCFF00FFFFFF00FF000033FF330033FF660033FF990033FFCC0033FFFF0033FF003333FF3333
310
33FF663333FF993333FFCC3333FFFF3333FF006633FF336633FF666633FF996633FFCC6633FFFF6633FF009933FF339933FF669933FF999933FFCC9933FFFF9933FF00CC33FF33CC33FF66CC33FF99CC33FFCCCC33FFFFCC33FF00FF33FF33FF33FF66FF33FF99FF33FFCCFF33FFFFFF33FF000066FF330066FF660066FF99
310
0066FFCC0066FFFF0066FF003366FF333366FF663366FF993366FFCC3366FFFF3366FF006666FF336666FF666666FF996666FFCC6666FFFF6666FF009966FF339966FF669966FF999966FFCC9966FFFF9966FF00CC66FF33CC66FF66CC66FF99CC66FFCCCC66FFFFCC66FF00FF66FF33FF66FF66FF66FF99FF66FFCCFF66FF
310
FFFF66FF000099FF330099FF660099FF990099FFCC0099FFFF0099FF003399FF333399FF663399FF993399FFCC3399FFFF3399FF006699FF336699FF666699FF996699FFCC6699FFFF6699FF009999FF339999FF669999FF999999FFCC9999FFFF9999FF00CC99FF33CC99FF66CC99FF99CC99FFCCCC99FFFFCC99FF00FF99
310
FF33FF99FF66FF99FF99FF99FFCCFF99FFFFFF99FF0000CCFF3300CCFF6600CCFF9900CCFFCC00CCFFFF00CCFF0033CCFF3333CCFF6633CCFF9933CCFFCC33CCFFFF33CCFF0066CCFF3366CCFF6666CCFF9966CCFFCC66CCFFFF66CCFF0099CCFF3399CCFF6699CCFF9999CCFFCC99CCFFFF99CCFF00CCCCFF33CCCCFF66CC
310
CCFF99CCCCFFCCCCCCFFFFCCCCFF00FFCCFF33FFCCFF66FFCCFF99FFCCFFCCFFCCFFFFFFCCFF0000FFFF3300FFFF6600FFFF9900FFFFCC00FFFFFF00FFFF0033FFFF3333FFFF6633FFFF9933FFFFCC33FFFFFF33FFFF0066FFFF3366FFFF6666FFFF9966FFFFCC66FFFFFF66FFFF0099FFFF3399FFFF6699FFFF9999FFFFCC
310
99FFFFFF99FFFF00CCFFFF33CCFFFF66CCFFFF99CCFFFFCCCCFFFFFFCCFFFF00FFFFFF33FFFFFF66FFFFFF99FFFFFFCCFFFFFFFFFFFFFF000000FF0D0D0DFF1A1A1AFF282828FF353535FF434343FF505050FF5D5D5DFF6B6B6BFF787878FF868686FF939393FFA1A1A1FFAEAEAEFFBBBBBBFFC9C9C9FFD6D6D6FFE4E4E4FF
310
F1F1F1FFFFFFFFFF000000FF000000FF000000FF000000FF000000FF000000FF000000FF000000FF000000FF0000000000000000000000000000000000000000000000000000000000000000000000000000000000000000000000000000000000000000000000000000000000000000000000000000000000000000000000
310
0000000000000000000000000000002D000000000000000000000000002D2D2D2D000000000000000000000000002D0000000000000000000000000000000000000000000000000000000000000000000000000000000000000000002D000000000000000000000000002D2D2D2D0000000000000000000000002D00000000
310
00000000000000000000000000000000000000000000000000000000000000000000000000000000000000000000000000000000000000000000000000000000000000000000000000000000000000000000000000000000000000000000000000000000000000000000000000000000000000000000000000000000000000
310
00000000000000000000000000000000002D0000000000000000000000002D2D2D2D2D000000000000000000000000002D0000000000000000000000000000000000000000000000000000000000000000000000000000000000000000002D0000000000000000000000002D2D2D2D2D0000000000000000000000002D0000
310
00000000000000000000000000000000000000000000000000000000000000000000000000000000000000000000000000000000000000000000000000000000000000000000000000000000000000000000000000000000000000000000000000000000000000000000000000000000000000000000000000000000000000
310
000000000000000000000000000000000000002D0000000000000000000000000000000000000000000000000000000000002D002D2D2D2D2D2D2D2D2D00000000000000000000000000000000000000000000000000000000000000000000002D00000000000000000000000000000000000000000000000000000000002D
310
0000000000000000000000000000000000000000000000000000000000000000000000000000000000000000000000000000000000000000000000000000000000000000000000000000000000000000000000000000000000000000000000000000000000002D2D2D2D2D2D2D2D2D2D2D2D2D2D2D2D2D2D2D2D2D2D2D2D00
310
0000000000000000000000000000000000000000002D00000000002D2D0000000000000000000000000000002D002D00000000002D2D2D2D2D2D2D2D2D2D0000000000000000000000000000000000000000000000000000002D2D000000000000002D2D002D2D0000000000000000000000000000000000000000002D2D00
310
002D0000000000000000000000000000000000000000000000000000000000000000000000000000000000000000000000000000000000000000000000000000000000000000000000000000000000000000000000000000000000000000000000000000000000002D002D2D2D2D2D2D2D2D2D2D2D2D2D2D2D2D2D2D2D2D2D
310
2D000000000000000000000000000000000000000000002D00000000002D2D2D2D2D2D2D2D2D2D2D2D2D2D2D2D2D2D2D2D00000000002D00002D00002D2D2D2D0000000000000000000000000000000000000000000000000000002D2D2D2D2D2D2D2D2D2D2D2D2D2D2D2D2D2D2D2D2D2D2D2D2D2D2D2D2D2D2D2D2D2D2D2D
310
2D00002D000000000000000000000000000000000000000000000000000000000000000000000000000000000000000000000000000000000000000000000000000000000000000000000000000000000000000000000000000000000000000000000000000000000000002D2D2D0000002D002D00002D2D2D2D2D002D2D2D
310
2D2D00000000000000000000000000000000000000000000002D00000000002D000000000000002D2D2D00000000000000002D000000002D2D0000000000000000000000000000000000000000000000000000000000000000000000002D000000002D2D2D002D00002D0000000000000000002D2D2D2D2D00000000000000
310
00002D00002D000000000000000000000000000000000000000000000000000000000000000000000000000000000000000000000000000000000000000000000000000000000000000000000000000000000000000000000000000000000000000000000000000000000000002D0000000000000000000000000000000000
310
0000000000000000000000000000000000000000000000000000002D00000000002D000000000000002D2D2D00000000000000002D0000002D002D0000000000000000000000000000000000000000000000000000000000000000000000002D000000002D2D2D002D00002D000000000000000000002D2D2D2D0000000000
310
000000002D00002D000000000000000000000000000000000000000000000000000000000000000000000000000000000000000000000000000000000000000000000000000000000000000000000000000000000000000000000000000000000000000000000000000000000000002D0000002D2D2D2D2D2D2D2D2D2D2D2D
310
2D2D2D2D2D2D2D2D2D2D2D0000000000000000000000000000000000002D00000000002D0000000000000000280000000000000000002D00002D00002D0000000000000000000000000000000000000000000000000000000000000000000000002D00000000000000002D00002D0000000000000000000000280000000000
310
0000000000002D00002D000000000000000000000000000000000000000000000000000000000000000000000000000000000000000000000000000000000000000000000000000000000000000000000000000000000000000000000000000000000000000000000000000000000000002D0000002D002D2D2D2D2D2D2D00
310
2D2D2D2D2D2D2D002D2D0000000000000000000000000000000000000000002D00000000002D0000000000000000280000000000000000002D002D0000002D00000000000000000000000000000000000000000000000000000000002D0000000000002D00000000000000002D00002D000000000000000000000028000000
310
00000000000000002D00002D00000000000000000000000000000000000000000000000000000000000000000000000000000000000000000000000000000000000000000000000000000000000000000000000000000000000000000000000000000000000000000000000000000000000000002D0000002D2D2D2D2D2D2D
310
2D2D2D2D2D002D2D2D2D2D2D0000000000000000000000000000000000000000002D000000000028000000000000000028000000000000000000282D000000002D000000000000000000000000000000000000000000000000000000002D2D0000000000002D00000000000000002D00002800000000000000000000002800
310
000000000000000000002800002D00000000000000000000000000000000000000000000000000000000000000000000000000000000000000000000000000000000000000000000000000000000000000000000000000000000000000000000000000000000000000000000000000000000000000002D0000002D002D0000
310
2D002D0000002D2D2D2D2D2D2D2D2D2D2D000000000000000000000000000000000000F5F5F5F5BEF528BEF5F5F5F5F5F5F528F5F5F5F5F5F5F5F5BE28BEF5F5F5F5F52D2D2D2D2D2D2D2D2D2D000000000000000000000000002D2D2D2D2D2D2D2D2D2D2D2D2D2D2D2D2D2D2D2D2D2DF5F5BE28BEF5F5F5F5F50000000000
310
280000000000F5F5F5F5F5BE28F5BEF500000000000000000000000000000000000000000000000000000000000000000000000000000000000000000000000000000000000000000000000000000000000000000000000000000000000000000000000000000000000000000000000000000000000000002D0000002D2D2D
310
2D2D2D2D2D2D2D002D2D2D2D2D2D2D2D2D2D2D000000000000000000000000000000000000F50000F5BE0028BE00000000000000280000000000000000BE28BE00F50000F500000000000000002D2D00000000000000000000000000002D00002D002D0000000000002D0000000000000000F500BE28BE00F50000F5F5F5F5
310
F5F528F5F5F5F5F5F50000F500BE2800BEF50000000000000000000000000000000000000000000000000000000000000000000000000000000000000000000000000000000000000000000000000000000000000000000000000000000000000000000000000000000000000000000000000000000000000000002D00002D
310
000000000000000000002D2D2D2D2D2D2D2D2D2D00000000000000000000000000000000000000F50000F5BE0028BE00000000000000280000000000000000BE28BE00F50000F500000000000000002D2D00000000000000000000000000002D00002D2D2D0000000000002D0000000000000000F500BE28BE00F500000000
310
00000000280000000000000000F500BE2800BEF50000000000000000000000000000000000000000000000000000000000000000000000000000000000000000000000000000000000000000000000000000000000000000000000000000000000000000000000000000000000000000000000000000000000000000002D00
310
00002D0000000000000000000000000000000000000000000000000000000000000000000000000000F50000F5BE0028BE00000000000000280000000000000000BE28BE00F50000F500000000000000002D0000000000000000000000000000002D00002D2D2D0000000000002D0000000000000000F500BE28BE00F50000
310
000000000000280000000000000000F500BE2800BEF5000000000000000000000000000000000000000000000000000000000000000000000000000000000000000000000000000000000000000000000000000000000000000000000000000000000000000000000000000000000000000000000000000000000000000000
310
2D0000002D0000000000000000000000000000000000000000000000000000000000000000000000000000F5F5F5F5BEF528BEF5F5F5F5F5F5F528F5F5F5F5F5F5F5F5BE28BEF5F5F5F5F500000000000000002D0000000000000000000000000000002D0000002D2D2D2D2D2D2D2D2D2D2D2D2D2D2D2D2DF5F5BE28BEF5F5
310
0000000000000000280000000000000000F5F5BE28F5BEF500000000000000000000000000000000000000000000000000000000000000000000000000000000000000000000000000000000000000000000000000000000000000000000000000000000000000000000000000000000000000000000000000000000000000
310
0000002D00002D0000000000000000000000000000000000000000000000000000000000000000000000000000F5000000000028000000F5F5F5F5F5F5F5F5F5F5F500000000280000000000F500000000000000002D0000000000000000000000000000002D000000002D0000000000002D000000000000000000000028F5
310
F5F50000000000000000280000000000000000F5F5F52800002D0000000000000000000000000000000000000000000000000000000000000000000000000000000000000000000000000000000000000000000000000000000000000000000000000000000000000000000000000000000000000000000000000000000000
310
00000000002D00002D00000000000000000000000000000000000000000000000000000000000000F5F5F5F5F5F5F5F5000000000028000000000000000028000000000000000000280000000000F500000000000000002D0000000000000000000000000000002D0000002D2D0000000000002D0000000000000000000000
310
280000F50000000000000000280000000000000000F500002800002D000000000000000000000000000000000000000000000000000000000000000000000000000000000000000000000000000000000000000000000000000000000000000000000000000000000000000000000000000000000000000000000000000000
310
000000000000002D0000002D000000000000000000000000000000000000000000000000000000000000F500F500000000F5000000000000000000000000000028000000000000000000000000000000F500000000000000002D0000000000000000000000000000002D000000002D0000000000002D000000000000000000
310
0000000000F50000000000000000280000000000000000F500000000002D00000000000000000000000000000000000000000000000000000000000000000000000000000000000000000000000000000000000000000000000000000000000000000000000000000000000000000000000000000000000000000000000000
310
0000000000000000002D0000002D000000000000000000000000000000000000000000000000000000000000F500F500000000F5000000000000000000000000000028000000000000000000000000000000F500000000000000002D0000000000000000000000000000002D00000000000000000000002D00000000000000
310
00000000000000F50000000000000000280000000000000000F500000000002D0000000000000000000000000000000000000000000000000000000000000000000000000000000000000000000000000000000000000000000000000000000000000000000000000000000000000000000000000000000000000000000000
310
0000000000000000000000002D002800F5F5F5002800000000000000000000000000000000000000000000000000F500F500000000F5000000000000000000000000000028000000000000000000000000000000F500000000000000002D0000000000000000000000000000002D00000000000000000000002D0000000000
310
000000000000000000F50000000000000000280000000000000000F500000000002D000000000000000000000000000000000000000000000000000000000000000000000000000000000000000000000000000000000000000000000000000000000000000000000000000000000000000000000000000000000000000000
310
00000000000000000000000000002D00F5F5F5F5F5F5F5000000000000000000000000000000000000000000000000F5F500F500000000F5000000000000000000F5F5F5F5F5F5F5F5F5F5F500000000000000000000F500000000000000002D0000000000000000000000000000002D00000000000000000000002D000000
310
00000000000000000000F5F50000000000000000280000000000000000F5F5000000002D00000000000000000000000000000000000000000000000000000000000000000000000000000000000000000000000000000000000000000000000000000000000000000000000000000000000000000000000000000000000000
310
000000000000000000000000000000002D28F5F5F528F5F5F528000000000000000000000000000000000000000000F5F500F500F500000000F500000000000000F5F5F5F5F5F5F5F5F5F5F5F5F5F5F50000000000000000F500000000000000002D0000000000000000000000000000002D00000000000000000000002D00
310
0000000000000000000000F5F5F50000000000000000280000000000000000F5F5F50000002D0000000000000000000000000000000000000000000000000000000000000000000000000000000000000000000000000000000000000000000000000000000000000000000000000000000000000000000000000000000000
310
000000000000000000000000000000000000002D00F5F5F5F5F500000000000000000000000000000000000000000000F5000000F500F5000000F5F50000000000F5F5000000000000002800000000000000F5F5000000000000F500000000000000002D0000000000000000000000000000002D0000000000000000000000
310
2D0000000000000000000000F5F500F50000000000000000280000000000000000F500F5F500002D000000000000000000000000000000000000000000000000000000000000000000000000000000000000000000000000000000000000000000000000000000000000000000000000000000000000000000000000000000
310
0000000000000000000000000000000000000000002DF5F5F5F5F5F5000000000000000000000000000000000000000000F500000000F500F5000000F5F500000000F5F50000000000F5F500F5F5F5F5F50000000000F50000000000F500000000000000002D000000000000000000000000002D2D2D000000000000000000
310
00002D0000000000000000000000F5F500F50000000000000000280000000000000000F500F5F500002D00000000000000000000000000000000000000000000000000000000000000000000000000000000000000000000000000000000000000000000000000000000000000000000000000000000000000000000000000
310
000000000000000000000000000000000000000000000000F5F5F5F5F50000000000000000000000000000000000000000F5F50000000000F500F5000000F5F5000000F5F50000000000F5F5F500F5F5F5F5F5000000000000F500000000F500000000000000002D00000000000000000000000000002D2D00000000000000
310
000000002D00000000000000000000F500F500F50000000000000000000000000000000000F500F500F5002D0000000000000000000000000000000000000000000000000000000000000000000000000000000000000000000000000000000000000000000000000000000000000000000000000000000000000000000000
310
00000000000000000000000000F5F5F5F5F5F5F5F5F5F5F5002DF5F5F5F5F500000000000000000000000000000000000000F500000000000000F500F5000000F5F5000000F5F50000000000F5F5F500F500F5F5F5000000000000F5F5000000F500000000000000002D000000000000000000000000002D2D2D0000000000
310
0000000000002D00000000000000000000F52DF500F50000000000000000280000000000000000F500F50000F52D000000000000000000000000000000000000000000000000000000000000000000000000000000000000000000000000000000000000000000000000000000000000000000000000000000000000000000
310
000000000000000000000000000000F50000F5000000000000F5F5F5F5F5F5F5F5F5F5F5F5F5F5F5F5F5F5F5F5F5F5F5F5F5F5F50000000000000000F500F5000000F5F5000000F5000000000000F5F5F5F5F5F5F5F5F5000000000000F5F5000000F500000000000000002D000000000000000000000000002D2D2D000000
310
00000000000000002D000000000000000000F5002DF52DF50000000000000000280000000000000000F500F50000F52D00000000000000000000000000000000000000000000000000000000000000000000000000000000000000000000000000000000000000000000000000000000000000000000000000000000000000
310
0000000000000000000000000000000000F50000F5000000000000F5F5F5F5F5F5F5F5F5F5F5F5F5F5F5F5F5F5F5F5F5F5F5F5F5F5000000000000000000F500F50000F500F5000000F5000000000000000000002800000000000000000000F5F5000000F500000000000000002D0000000000000000000000000000002D00
310
000000000000000000002D000000000000000000F50000F500F52D2D000000000000280000000000000000F500F50000F52D0000000000000000000000000000000000000000000000000000000000000000000000000000000000000000000000000000000000000000000000000000000000000000000000000000000000
310
00000000000000000000000000000000000000F50000F5000000000000F5F500F5F5F5F5F5F5F5F5F5F5F5F5F5F5F5F5F5F5F5F5F5F5F5000000000000000000F500F50000F500F5000000F5000000000000000000002800000000000000000000F5F5000000F500000000000000002D000000000000000000000000000000
310
2D00000000000000000000002D000000000000000000F50000F500F500002D2D2D000000280000000000000000F500F50000F52D000000000000000000000000000000000000000000000000000000000000000000000000000000000000000000000000000000000000000000000000000000000000000000000000000000
310
000000000000000000000000000000000000000000F5000000F50000000000F5F500F5F5F5F5F5F5F5F5F5F5F5F5F5F5F5F5F5F5F5F5F5F5F5000000000000000000F500F50000F500F5000000F5000000000000000000002800000000000000000000F5F5000000F50000000000002D2D2D00000000000000000000000000
310
00002D00000000000000000000002D000000000000000000F50000F500F500000000002D2D00280000000000000000F500F50000F52D00000000000000000000000000000000000000000000000000000000000000000000000000000000000000000000000000000000000000000000000000000000000000000000000000
310
00000000000000000000000000000000000000000000F500000000F50000000000F5F500F500F5F5F5000000000000000000000000002D0000F5F5000000000000282828F528F52828F528F5282D2DF500000000000000000000F500000000000000000000F5F5000000F50000000000002D2D2D0000000000000000000000
310
000000002D00000000000000000000002D000000000000282828F52828F528F52828282828282828282828282828282828F528F52800F5282828280000000000000000000000000000000000000000000000000000000000000000000000000000000000000000000000000000000000000000000000000000000000000000
310
00000000000000000000000000000000002D000000000000F500000000F50000000000F5F500F5F5F5F5F5F5F5F5F5F5F5F5F5F5F5F5F5F5F5F5F5F5F5000000000000000000F500F50000F500F500002D00F500000000000000F5F5F5F5F500000000000000F5F500000000F50000000000002D2D2D000000000000000000
310
0000000000002D00000000000000000000002D000000000000000000F500F5F500F5000000000000000028002D2D0000000000F500F5F500F52D000000000000000000000000000000000000000000000000000000000000000000000000000000000000000000000000000000000000000000000000000000000000000000
310
000000000000000000000000000000000000002D000000000000F500000000F50000000000F5F500F5F5F5F5F5F5F5F5F5F5F5F5F5F5F5F5F5F5F5F5F5F5F5000000000000000000F500F50000F500F5002D2D00F50000000000F5F50000280000F5F50000000000F5F500000000F50000000000002D2D2D00000000000000
310
00000000000000002D00000000000000000000002D000000000000000000F5F500F500F50000000000000000282D2D2D2D2D000000F500F500F5F52D00000000000000000000000000000000000000000000000000000000000000000000000000000000000000000000000000000000000000000000000000000000000000
310
0000000000000000000000000000000000000000002D000000000000F500000000F50000000000F5F500F5F5F5F5F5F500000000000000F5F5F5F5F5F5F5F5F5F5000000000000000000F500F50000F500F5002D2D00F5000000F5F5000000002800000000F5F5000000F5F500000000F50000000000002D2D2D0000000000
310
000000000000000000002D00000000000000000000002D000000000000000000F5F500F500F50000000000000000282D2D2D2D2D2D2D00F500F500F5F52D0000000000000000000000000000000000000000000000000000000000000000000000000000000000000000000000000000000000000000000000000000000000
310
00000000000000000000000000000000000000000000002D000000000000F500000000F50000000000F5F500F5F5F528F50000000000000000F5F5F5F5F5F5F5F5F5F50000000000002D0000F500F50000F500F52D2D2D00F50000F5F5000000000028000000000000F50000F5F500000000F500000000000000002D000000
310
0000000000000000000000002D00000000000000000000002D000000000000000000F5F500F500F500000000000000002800002D2D2D2D0000F500F500F5F52D000000000000000000000000000000000000000000000000000000000000000000000000000000000000000000000000000000000000000000000000000000
310
00000000000000000000000000000000000000000000002D2D2D000000000000F500000000F50000000000F5F500F500F528F50000000000000000F5F5F5F5F5F5F5F5F5F50000000000002D0000F500F5000000F5F52D2D2D0000F500F500000000000028000000000000F5F5F5F50000000000F5000000002D0000002D00
310
00000000000000000000000000002D00000000000000000000002D000000000000000000F5F500F500F5000000000000000028000000002D000000F500F500F5F52D00000000000000000000000000000000000000000000000000000000000000000000000000000000000000000000000000000000000000000000000000
310
000000000000000000000000000000000000000000000000002D2D2D000000000000F500000000F50000000000F5F500F5F5F528F5F500000000000000F5F5F5F5F5F5F5F5F5F50000000000002D2D00F500F5000000F5F500002D0000F5F5F500000000F5F5F5F5F50000000000F5F5F50000000000F50000002D2D000000
310
2D0000000000000000000000000000002D0000002D2D2D2D2D2D2D2DF5F5F5F5F5F5F5F5F5F5F5F500F500F50000000000000000280000000000000000F500F500F5F52D0000000000000000000000000000000000000000000000000000000000000000000000000000000000000000000000000000000000000000000000
310
0000000000000000000000000000000000000000000000000000002D2D2D000000282828F528282828F52828282828F5F528F5F5F528F5F528282828280028F5F5F5F5F5F5F5F5F5F52828002828282D2D00F500F5000000F5F5002D2D0000F5F5F500000000F500280000F500000000F5F5F50000000000F5000000002D00
310
00002D0000000000000000000000000000002D0000002D2D000000000000F500000000000000000000F500F500F50000000000000000280000000000000000F500F500F5F52D000000000000000000000000000000000000000000000000000000000000000000000000000000000000000000000000000000000000000000
310
00000000000000000000000000000000000000000000000000000000002D2D2D000000000000F500000000F50000000000F5F500F5F5F528F5F500000000000000F5000000002D0000F5F50000000000002D0000F500F5000000F5F500002D0000F5F5F5000000F500002800F5F5F52D2D2DF5F5F52D2D2D2D2DF52D2D2D2D
310
2D0000002D0000000000000000000000000000002D000000002D000000000000F5F5F5F5F5F5F5F5F5F5F5F500F500F50000000000000000280000000000000000F500F500F5F52D00000000000000000000000000000000000000000000000000000000000000000000000000000000000000000000000000000000000000
310
000000000000000000000000000000000000000000000000000000000000002D2D2D000000000000F500000000F50000000000F5F500F5F5F5F5F5F500000000000000F5F5F5F5F5F5F5F5F5F50000000000002D2D2D2D2DF52D2D2D2DF52D2D2D282828F500282828F528282828F528F5282828F5F5282828000000F50000
310
00002D0000002D00000000000000000000000000002D2D2D2D2D2D2D2D2D2D2D2828F5282828282828282828F5F528F528F52800282828282828282828282828280028F528F528F5F5282800000000000000000000000000000000000000000000000000000000000000000000000000000000000000000000000000000000
310
000000000000000000000000000000000000000000000000000000000000000000002D2D000000000000F500000000F50000000000F5F500F5000028000000000000000000F5F5F5F5F5F5F5F5F5F500F5000000002D2D000000F500000000F5000000000000F5F5000000F500002800F5F5F52D2D2DF5F52D2D2D2D2D2DF5
310
2D2D2D2D2D0000002D00000000000000000000000000000000000000002D000000000000F5F5F5F5F5F5F5F5F5F52DF500F500F50000000000000000280000000000000000F500F500F5F52D000000000000000000000000000000000000000000000000000000000000000000000000000000000000000000000000000000
310
000000000000000000000000000000000000000000000000000000000000000000000000002D000000000000F500000000F50000000000F5F500F5000000000000000000000000F5F5F5F5F5F5F5F5F5F500F50000002D2D00000000F500000000F5000000000000F5F50000002DF500280000F52D000000F5F50000000000
310
00F50000002D2D0000002D000000000000000000000000000000000000002D2D000000000000F50000000000000000002DF5000000F50000000000000000280000000000000000F5000000F5F52D00000000000000000000000000000000000000000000000000000000000000000000000000000000000000000000000000
310
0000000000000000000000000000000000000000000000000000000000000000000000000000002D000000000000F500000000F50000000000F5F500F5000000000000000000000000F5F5F5F5F5F5F5F5F5F500F50000002D2D00000000F500000000F5000000000000F5F50000002D00F5F5F5F5002D000000F5F5000000
310
000000F5000000002D0000002D000000000000000000000000000000000000002D2D2D2D2D2D2D2DF5F5F5F5F5F5F5F5F5F5F5F5000000F50000000000000000280000000000000000F5000000F5002D0000000000000000000000000000000000000000000000000000000000000000000000000000000000000000000000
310
00000000000000000000000000000000000000000000000000000000000000000000000000000000002D000000000000F500000000F50000000000F5F500F5F5F5F5F5F5F5F5F5F5F5F5F5F5F5F5F5F5F5F5F5F5F500F5000000000000000000F500000000F5000000000000F5F50000002D0000280000002D0000F5F50000
310
0000000000F500002D002D0000002D00000000000000000000000000000000000000002D0000000000002D0000000000000000002DF5000000F50000000000000000280000000000000000F5000000F5002D000000000000000000000000000000000000000000000000000000000000000000000000000000000000000000
310
000000000000000000000000000000000000000000000000000000000000000000000000000000000000002D000000000000F500000000F50000000000F5F500F5F5F5F5F5F5F5F5F5F5F5F5F5F5F5F5F5F5F5F5F5F5F500F5000000000000000000F500000000F500000000000000F5F5F5002D0000280000002D00F500F5
310
00000000000000F500002D2D2D0000002D0000000000000000000000000000000000002D2D2D0000000000002D0000000000000000002DF5000000F50000000000000000280000000000000000F5000000F5002D00000000000000000000000000000000000000000000000000000000000000000000000000000000000000
310
0000000000000000000000000000000000000000000000000000000000000000000000000000000000000000002D0000000000002DF5000000F50000000000F5F500F5F5F5F5F5F5F5F5F5F5F5F5F5F5F5F5F5F5F5F5F5F5F500F5F5F5F5F5F5F5F5F5F5F5F5F5F5F5F50000000000000000F500F52D0000280000002DF500
310
F50000000000000000F500002D2D2D0000002D0000000000000000000000000000000000002D2D2D0000000000002D0000000000000000002DF5000000F5F5F5F5F5F5F5F5F528F5F5F5F5F5F5F5F5F5000000F5002D0000000000000000000000000000000000000000000000000000000000000000000000000000000000
310
00000000000000000000000000000000000000000000000000000000000000000000000000000000000000000000002D0000000000002DF5000000F50000000000F5F500F5F5F5F5F5F5F5F5F5F5F5F5F5F5F5F5F5F5F5F5F5F5F500F50000000000000000002D00000000F5000000000000000000F5F5F5F5002800F5F5F5
310
F5F50000000000000000F52D000000002D0000002D0000000000000000000000000000000000002D2D2D0000000000002D0000000000000000002DF5000000F50000000000000000280000000000000000F5000000F5002D000000000000000000000000000000000000000000000000000000000000000000000000000000
310
000000000000000000000000000000000000000000000000000000000000000000000000000000000000000000000000002D0000000000002DF5000000F50000000000F5F500F5F5F5F5F5F5F5F5F5F5F5F5F5F5F5F5F5F5F5F5F5F5F500F50000000000000000002D0000000000F5F5000000000000000000F5F5F5F5F5F5
310
F5F5000000000000000000F5002D00000000000000002D0000000000000000000000000000000000002D2D2D0000000000002D0000000000000000002D2DF5F5F5F50000000000000000280000000000000000F5F5F5F500002D00000000000000000000000000000000000000000000000000000000000000000000000000
310
0000000000000000000000000000000000000000000000000000000000000000000000000000000000000000000000000000002D0000000000002DF50000F5000000000000F5F500F5F5F5F5F5F5F5F5F5F5F5F5F5F5F5F5F5F5F5F5F5F5F500F50000000000000000002D00000000000000F500000000000000002D00F5F5
310
F500002D00000000000000F5F500002D00000000000000002D0000000000000000000000000000000000002D2D2D0000000000002D0000000000000000002D2D000000F50000000000000000280000000000000000F500000000002D0000000000000000000000000000000000000000000000000000000000000000000000
310
00000000000000000000000000000000000000000000000000000000000000000000000000000000000000000000000000000000002D0000000000002DF50000F5000000000000F5F5F5F5F5F5F5F5F5F5F5F5F5F5F5F5F5F5F5F5F5F5F5F5F5F5F5F50000000000000000002D0000000000000000F5F50000000000002D00
310
00280000002D000000000000F5000000002D00000000000000002D0000000000000000000000000000000000002D2D2D0000000000002D0000000000000000002D2D000000F50000000000000000280000000000000000F500000000002D000000000000000000000000000000000000000000000000000000000000000000
310
000000000000000000000000000000000000000000000000000000000000000000000000000000000000000000000000000000000000002D0000000000002D00F5F5F5000000000000F500000000000000000000000000000000000000002D0000002D00000000000000000000002D00000000000000000000F50000000000
310
2D0000280000002D0000000000F500000000002D00000000000000002D2D00000000000000000000000000000000002D2D2D0000000000002D0000000000000000002D2D000000F50000000000000000280000000000000000F500000000002D00000000000000000000000000000000000000000000000000000000000000
310
0000000000000000000000000000000000000000000000000000000000000000000000000000000000000000000000000000000000000000002D2D2D2D2D2D2D2D2D2D2DF5F5F5F5F5F5F5F50000000000000000000000000000000000002D2D2D0000002D00000000000000000000002D0000000000000000000000F5F500
310
00002D0000280000002D000000F5F50000000000002D00000000000000002D2D000000000000000000000000000000000000002D0000000000002D0000000000000000002D2D000000F50000000000000000280000000000000000F500000000002D0000000000000000000000000000000000000000000000000000000000
310
0000000000000000000000000000000000000000000000000000000000000000000000000000000000000000000000000000000000000000000000000000000000002D00000000000000000000000000000000000000000000000000000000002D2D2D0000002D00000000000000000000002D000000000000000000000000
310
00F5F5F5F5F5F5F5F5F5F5F5F5F5F52D2D2D2D2D2D2D2D2D2D2D2D2D2D2D2D2D2D2D00000000000000000000000000000000000000000000000000002D2D2D2D2D2D2D2D2D2D2D2D000000F5F5F5F5F5F5F5F5F5F5F5F5F5F5F5F5F5F5F500000000002D000000000000000000000000000000000000000000000000000000
310
00000000000000000000000000000000000000000000000000000000000000000000000000000000000000000000000000000000000000000000000000000000000000002D00000000000000000000000000000000000000000000000000000000002D2D2D0000002D00000000000000000000002D00000000000000000000
310
0000000000002D0000280000002D00000000000000000000002D0000000000000000000000000000000000000000000000000000000000000000000000002D0000002D2D2D0000002D2D0000000000000000000000002800000000000000000000000000002D00000000000000000000000000000000000000000000000000
310
000000000000000000000000000000000000000000000000000000000000000000000000000000000000000000000000000000000000000000000000000000000000000000002D00000000000000000000000000000000000000000000000000000000002D2D2D0000002D00000000000000000000002D0000000000000000
310
00000000000000002D0000280000002D00000000000000000000002D0000000000000000000000000000000000000000000000000000000000000000000000002D0000002D2D2D000000002D0000000000000000000000002800000000000000000000000000002D0000000000000000000000000000000000000000000000
310
0000000000000000000000000000000000000000000000000000000000000000000000000000000000000000000000000000000000000000000000000000000000000000000000002D00000000000000000000000000000000000000000000000000000000002D2D2D0000002D00000000000000000000002D000000000000
310
000000000000000000002D0000280000002D00000000000000000000002D0000000000000000000000000000000000000000000000000000000000000000000000002D000000000000000000002D0000000000000000000000002800000000000000000000000000002D000000000000000000000000000000000000000000
310
00000000000000000000000000000000000000000000000000000000000000000000000000000000000000000000000000000000000000000000000000000000000000000000000000002D000000000000000000000000000000000000000000000000000000000000002D0000002D00000000000000000000002D00000000
310
0000000000000000000000002D2D002D00002D2D00000000000000000000002D0000000000000000000000000000000000000000000000000000000000000000000000002D2D000000000000002D002D0000000000000000000000002D00000000000000000000000000002D00000000000000000000000000000000000000
310
000000000000000000000000000000000000000000000000000000000000000000000000000000000000000000000000000000000000000000000000000000000000000000000000000000002D00000000000000000000000000000000000000000000000000000000000000000000002D00000000000000000000002D0000
310
00000000000000000000000000002D2D2D2D2D2D2D2D00000000000000000000002D0000000000000000000000000000000000000000000000000000000000000000000000002D2D2D2D2D2D2D2D2D2D2D2D0000000000000000000000002D00000000000000000000000000002D0000000000000000000000000000000000
310
0000000000000000000000000000000000000000000000000000000000000000000000000000000000000000000000000000000000000000000000000000000000000000000000000000000000002D00000000000000000000000000000000000000000000000000000000000000000000002D00000000000000000000002D
310
000000000000000000000000000000000000002D2D2D2D0000000000000000000000002D0000000000000000000000000000000000000000000000000000000000000000000000002D0000002D2D2D00000000000000000000000000000000002D00000000000000000000000000002D000000000000000000000000000000
310
00000000000000000000000000000000000000000000000000000000000000000000000000000000000000000000000000000000000000000000000000000000000000000000000000000000000000002D00000000000000000000000000000000000000000000000000000000000000000000002D00000000000000000000
310
002D000000000000000000000000000000000000002D2D2D2D0000000000000000000000002D0000000000000000000000000000000000000000000000000000000000000000000000002D0000002D2D2D00000000000000000000000000000000002D00000000000000000000000000002D00000000000000000000000000
310
000000000000000000000000000000000000000000000000000000000000000000000000000000000000000000000000000000000000000000000000000000000000000000000000000000000000000000002D00000000000000000000000000000000000000000000000000000000000000000000002D0000000000000000
310
0000002D000000000000000000000000000000000000002D0000000000000000000000000000002D0000000000000000000000000000000000000000000000000000000000000000000000002D00000000000000000000000000000000000000000000002D00000000000000000000000000002D0000000000000000000000
310
0000000000000000000000000000000000000000000000000000000000000000000000000000000000000000000000000000000000000000000000000000000000000000000000000000000000000000000000002D2D0000000000000000000000000000000000000000000000000000000000000000002D2D002D00000000
310
000000002D2D002D000000000000000000000000000000002D2D002D00000000000000000000002D002D0000000000000000000000000000000000000000000000000000000000000000000000002D2D0000000000000000000000000000000000000000002D2D002D00000000000000000000002D2D000000000000000000
310
00000000000000000000000000000000000000000000000000000000000000000000000000000000000000000000000000000000000000000000000000000000000000000000000000000000000000000000000000002D2D2D2D2D2D2D2D2D2D2D2D2D2D2D2D2D2D2D2D2D2D2D2D2D2D2D2D2D2D2D2D2D2D2D2D2D2D2D2D2D
310
2D2D2D2D2D2D2D2D2D2D2D2D2D2D2D2D2D2D2D2D2D2D2D2D2D2D2D2D2D2D2D2D2D2D2D2D2D2D2D2D2D2D2D2D0000000000000000000000000000000000000000000000000000000000000000000000002D2D2D2D2D2D2D2D2D2D2D2D2D2D2D2D2D2D2D2D2D2D2D2D2D2D2D2D2D2D2D2D2D2D2D2D2D2D2D2D00000000000000
310
000000000000000000000000000000000000000000000000000000000000000000000000000000000000000000000000000000000000000000000000000000000000000000000000000000000000000000000000000000002D00000000000000000000000000002D2D2D2D2D2D2D0000000000000000000000000000000000
310
002D2D2D002D00000000000000000000002D2D2D2D2D0000000000000000000000000000002D2D0000000000002D0000000000000000000000000000000000000000000000000000000000000000000000002D0000000000000000002D2D2D2D2D000000000000000000000000000000002D2D2D00000000002D0000000000
310
0000000000000000000000000000000000000000000000000000000000000000000000000000000000000000000000000000000000000000000000000000000000000000000000000000000000000000000000000000000000002D00000000000000000000000000002D2D2D2D2D2D2D000000000000000000000000000000
310
0000002D2D2D002D00000000000000000000002D2D2D002D00000000000000000000000000002D2D2D0000000000002D0000000000000000000000000000000000000000000000000000000000000000000000002D0000000000000000002D2D2D2D00000000000000000000000000000000002D2D2D00000000002D000000
310
00000000000000000000000000000000000000000000000000000000000000000000000000000000000000000000000000000000000000000000000000000000000000000000000000000000000000000000000000000000000000002D00000000000000000000000000000000000000000000000000000000000000000000
310
000000000000000000000000000000000000000000000000000000000000000000000000000000000000000000000000002D0000000000000000000000000000000000000000000000000000000000000000000000002D00000000000000000000000000000000000000000000000000000000000000000000000000002D00
310
000000000000000000000000000000000000000000000000000000000000000000000000000000000000000000000000000000000000000000000000000000000000000000000000000000000000000000000000000000000000000000002D2D2D2D2D2D2D2D2D2D2D2D2D2D2D2D2D2D2D2D2D2D2D2D2D2D2D2D2D2D2D2D2D
310
2D2D2D2D2D2D2D2D2D2D2D2D2D2D2D2D2D2D2D2D2D2D2D2D2D2D2D2D2D2D2D2D2D2D2D2D2D2D2D2D2D2D2D2D2D2D2D2D2D2D2D2D0000000000000000000000000000000000000000000000000000000000000000000000002D2D2D2D2D2D2D2D2D2D2D2D2D2D2D2D2D2D2D2D2D2D2D2D2D2D2D2D2D2D2D2D2D2D2D2D2D2D2D
310
2D00000000000000000000000000000000000000000000000000000000000000000000000000000000000000000000000000000000000000000000000000000000000000000000000000000000000000000000000000000000000000000000002D2D0000000000000000000000000000000000000000000000000000000000
310
0000000000000000002D2D2D2D2D2D0000000000000000000000000000000000000000000000000000000000000000000000002D2D2D0000000000000000000000000000000000000000000000000000000000000000000000002D2D000000000000000000000000000000002D2D2D2D000000000000000000000000000000
310
002D2D00000000000000000000000000000000000000000000000000000000000000000000000000000000000000000000000000000000000000000000000000000000000000000000000000000000000000000000000000000000000000000000000000000000000000000000000000000000000000000000000000000000
310
000000000000000000002D2D2D2D002D2D0000000000000000000000000000000000000000000000000000000000000000000000000000000000000000000000000000000000000000000000000000000000000000000000000000000000000000000000000000000000000000002D2D2D2D00000000000000000000000000
310
00000000000000000000000000000000000000000000000000000000000000000000000000000000000000000000000000000000000000000000000000000000000000000000000000000000000000000000000000000000000000000000000000000000000000000000000000000000000000000000000000000000000000
310
000000000000000000000000002D2D2D002D000000000000000000000000000000000000000000000000000000000000000000000000000000000000000000000000000000000000000000000000000000000000000000000000000000000000000000000000000000000000000000002D2D2D2D0000000000000000000000
310
00000000000000000000000000000000000000000000000000000000000000000000000000000000000000000000000000000000000000000000000000000000000000000000000000000000000000000000000000000000000000000000000000000000000000000000000000000000000000000000000000000000000000
310
00000000000000000000000000000000000000000000000000000000000000000000000000000000000000000000000000000000000000000000000000000000000000000000000000000000000000000000000000000000000000000000000000000000000000000000000000000000000000000000000000000000000000
310
00000000000000000000000000000000000000000000000000000000000000000000000000000000000000000000000000000000000000000000000000000000000000000000000000000000000000000000000000000000000000000000000000000000000000000000000000000000000000000000000000000000000000
310
00000000000000000000000000000000000000000000000000000000000000000000000000000000000000000000000000000000000000000000000000000000000000000000000000000000000000000000000000000000000000000000000000000000000000000000000000000000000000000000000000000000000000
310
00000000000000000000000000000000000000000000000000000000000000000000000000000000000000000000000000000000000000000000000000000000000000000000000000000000000000000000000000000000000000000000000000000000000000000000000000000000000000000000000000000000000000
310
00000000000000000000000000000000000000000000000000000000000000000000000000000000000000000000000000000000000000000000000000000000000000000000000000000000000000000000000000000000000000000000000000000000000000000000000000000000000000000000000000000000000000
310
00000000000000000000000000000000000000000000000000000000000000000000000000000000000000000000000000000000000000000000000000000000000000000000000000000000000000000000000000000000000000000000000000000000000000000000000000000000000000000000000000000000000000
310
00000000000000000000000000000000000000000000000000000000000000000000000000000000000000000000000000000000000000000000000000000000000000000000000000000000000000000000000000000000000000000000000000000000000000000000000000000000000000000000000000000000000000
310
00000000000000000000000000000000000000000000000000000000000000000000000000000000000000000000000000000000000000000000000000000000000000000000000000000000000000000000000000000000000000000000000000000000000000000000000000000000000000000000000000000000000000
310
00000000000000000000000000000000000000000000000000000000000000000000000000000000000000000000000000000000000000000000000000000000000000000000000000000000000000000000000000000000000000000000000000000000000000000000000000000000000000000000000000000000000000
310
00000000000000000000000000000000000000000000000000000000000000000000000000000000000000000000000000000000000000000000000000000000000000000000000000000000000000000000000000000000000000000000000000000000000000000000000000000000000000000000000000000000000000
310
00000000000000000000000000000000000000000000000000000000000000000000000000000000000000000000000000000000000000000000000000000000000000000000000000000000000000000000000000000000000000000000000000000000000000000000000000000000000000000000000000000000000000
310
00000000000000000000000000000000000000000000000000000000000000000000000000000000000000000000000000000000000000000000000000000000000000000000000000000000000000000000000000000000000000000000000000000000000000000000000000000000000000000000000000000000000000
310
00000000000000000000000000000000000000000000000000000000000000000000000000000000000000000000000000000000000000000000000000000000000000000000000000000000000000000000000000000000000000000000000000000000000000000000000000000000000000000000000000000000000000
310
00000000000000000000000000000000000000000000000000000000000000000000000000000000000000000000000000000000000000000000000000000000000000000000000000000000000000000000000000000000000000000000000000000000000000000000000000000000000000000000000000000000000000
310
00000000000000000000000000000000000000000000000000000000000000000000000000000000000000000000000000000000000000000000000000000000000000000000000000000000000000000000000000000000000000000000000000000000000000000000000000000000000000000000000000000000000000
310
00000000000000000000000000000000000000000000000000000000000000000000000000000000000000000000000000000000000000000000000000000000000000000000000000000000000000000000000000000000000000000000000000000000000000000000000000000000000000000000000000000000000000
310
00000000000000000000000000000000000000000000000000000000000000000000000000000000000000000000000000000000000000000000000000000000000000000000000000000000000000000000000000000000000000000000000000000000000000000000000000000000000000000000000000000000000000
310
00000000000000000000000000000000000000000000000000000000000000000000000000000000000000000000000000000000000000000000000000000000000000000000000000000000000000000000000000000000000000000000000000000000000000000000000000000000000000000000000000000000000000
310
00000000000000000000000000000000000000000000000000000000000000000000000000000000000000000000000000000000000000000000000000280000000000000000000000000000000000000000000000000000000000000000000000000000000000000000000000000000000000000000000000000000000000
310
00000000000000000000000000000000000000000000000000000000000000000000000000000000000000000000000000000000000000000000000000000000000000000000000000000000000000000000000000000000000000000000000000000000000000000000000000000000000000000000000000000000000000
310
00000000000000000000000000000000000000000000000000000000000000000000000000000000000000000000000000000000000000000000000000000028000000000000000000000000000000000000000000000000000000000000000000000000000000000000000000000000000000000000000000000000000000
310
00000000000000000000000000000000000000000000000000000000000000000000000000000000000000000000000000000000000000000000000000000000000000000000000000000000000000000000000000000000000000000000000000000000000000000000000000000000000000000000000000000000000000
310
00000000000000000000000000000000000000000000000000000000000000000000000000000000000000000000000000000000000000000000000000000000002800000000000000000000000000000000000000000000000000000000000000000000000000000000000000000000000000000000000000000000000000
310
00000000000000000000000000000000000000000000000000000000000000000000000000000000000000000000000000000000000000000000000000000000000000000000000000000000000000000000000000000000000000000000000000000000000000000000000000000000000000000000000000000000000000
310
00000000000000000000000000000000000000000000000000000000000000000000000000000000000000000000000000000000000000000000000000000000F5F5F5F5F5F5F5F500000000000000000000000000000000000000000000000000000000000000000000000000000000000000000000000000000000000000
310
00000000000000000000000000000000000000000000000000000000000000000000000000000000000000000000000000000000000000000000000000000000000000000000000000000000000000000000000000000000000000000000000000000000000000000000000000000000000000000000000000000000000000
310
000000000000000000000000000000000000000000000000000000000000000000000000000000000000000000000000000000000000000000000000000000000000F50000280000F5F50000000000000000000000000000000000000000000000000000000000000000000000000000000000000000000000000000000000
310
00000000000000000000000000000000000000000000000000000000000000000000000000000000000000000000000000000000000000000000000000000000000000000000000000000000000000000000000000000000000000000000000000000000000000000000000000000000000000000000000000000000000000
310
0000000000000000000000000000000000000000000000000000000000000000000000000000000000000000000000000000000000000000000000000000000000000000F50000280000F5F5000000000000000000000000000000000000000000000000000000000000000000000000000000000000000000000000000000
310
00000000000000000000000000000000000000000000000000000000000000000000000000000000000000000000000000000000000000000000000000000000000000000000000000000000000000000000000000000000000000000000000000000000000000000000000000000000000000000000000000000000000000
310
00000000000000000000000000000000000000000000000000000000000000000000000000000000000000000000000000000000000000000000000000000000000000000000F50000280000F5F500000000000000000000000000000000000000000000000000000000000000000000000000000000000000000000000000
310
00000000000000000000000000000000000000000000000000000000000000000000000000000000000000000000000000000000000000000000000000000000000000000000000000000000000000000000000000000000000000000000000000000000000000000000000000000000000000000000000000000000000000
310
000000000000000000000000000000000000000000000000000000000000000000000000000000000000000000000000000000000000000000000000000000000000000000000000F50000280000F5F50000000000000000000000000000000000000000000000000000000000000000000000000000000000000000000000
310
00000000000000000000000000000000000000000000000000000000000000000000000000000000000000000000000000000000000000000000000000000000000000000000000000000000000000000000000000000000000000000000000000000000000000000000000000000000000000000000000000000000000000
310
0000000000000000000000000000000000000000000000000000000000000000000000000000000000000000000000000000000000000000000000000000000000000000000000000000F50000280000F5F5000000000000000000000000000000000000000000000000000000000000000000000000000000000000000000
310
00000000000000000000000000000000000000000000000000000000000000000000000000000000000000000000000000000000000000000000000000000000000000000000000000000000000000000000000000000000000000000000000000000000000000000000000000000000000000000000000000000000000000
310
00000000000000000000000000000000000000000000000000000000000000000000000000000000000000000000000000000000000000000000000000000000000000000000000000000000F50000280000F5F500000000000000000000000000000000000000000000000000000000000000000000000000000000000000
310
00000000000000000000000000000000000000000000000000000000000000000000000000000000000000000000000000000000000000000000000000000000000000000000000000000000000000000000000000000000000000000000000000000000000000000000000000000000000000000000000000000000000000
310
000000000000000000000000000000000000000000000000000000000000000000000000000000000000000000000000000000000000000000000000000000000000000000000000000000000000F50000280000F5F50000000000000000000000000000000000000000000000000000000000000000000000000000000000
310
00000000000000000000000000000000000000000000000000000000000000000000000000000000000000000000000000000000000000000000000000000000000000000000000000000000000000000000000000000000000000000000000000000000000000000000000000000000000000000000000000000000000000
310
0000000000000000000000000000000000000000000000000000000000000000000000000000000000000000000000000000000000000000000000000000000000000000000000000000000000000000F50000280000F5F5000000000000000000000000000000000000000000000000000000000000000000000000000000
310
00000000000000000000000000000000000000000000000000000000000000000000000000000000000000000000000000000000000000000000000000000000000000000000000000000000000000000000000000000000000000000000000000000000000000000000000000000000000000000000000000000000000000
310
000000000000000000000000000000000000000000000000000000000000000000002800000000000000000000000000000000000000000000000000000000000000000000000000F5F5F5F5F5F5F5F5F5F5F50000280000F5F5F5F5F5F5F5F5F5F5F500000000000000000000000000000000000000000000000000000000
310
00000000000000000000000000000000000000000000000000000000000000000000000000000000000000000000000000000000000000000000000000000000000000000000000000000000000000000000000000000000000000000000000000000000000000000000000000000000000000000000000000000000000000
310
000000000000000000000000000000000000000000000000F5F5F5F5F5F5F5000000002D2D2D000000000000000000000000000000000000000000000000000000F5F5F5F5F5F5000000F5000000280000000000F50000280000F5F5000000000028000000F500000000000000000000000000000000000000000000000000
310
0000000000000000002D2D2D2D2D2D2D2D2D2D2D002D002D002D0000002D002D002D0000002D2D2D002D002D002D2D2D002D2D2D2D0000000000000000000000000000000000000000000000000000000000000000000000000000000000000000000000000000000000000000000000000000000000000000000000000000
310
000000000000000000000000000000000000000000000000F5F5F50000000000F500000000F528F5000000000000000000000000000000000000000000000000000000F500F50000F5000000F50000F5F5F500000000F5F5F5F5F5F5F5F500000000F5F5F50000F50000000000000000000000000000000000000000000000
310
00000000000000000000002D2D002D2D2D2D2D2D2D2D2D2D2D2D2D2D2D2D2D2D2D2D2D2D2D2D2D2D2D2D002D2D2D2D2D2D2D2D2D2D2D2D000000000000000000000000000000000000000000000000000000000000000000000000000000000000000000000000000000000000000000000000000000000000000000000000
310
000000000000000000000000000000000000000000000000F5F50000F50000000000F5F5F5F5F5F528F5F500000000000000F5F5F5F5F5F5F5F5F5F5F5F5F5F5F5F5F5F5F5F500F50000F50000F50028F52828F5F5F5F5F5F5F5F5F5F5F5F5F5F5F5F5F5F528F5280000F50000000000000000000000000000000000000000
310
000000000000000000000000002D2D2D2D2D2D2D2D2D2D2D2D2D2D2D2D2D2D002D2D2D2D2D2D2D00002D2D2D2D2D2D2D2D2D2D2D2D2D2D2D2D00000000000000000000000000000000000000000000000000000000000000000000000000000000000000000000000000000000000000000000000000000000000000000000
310
0000000000000000000000000000000000000000000000000000F5000000F50000000000F5F500F5F5F528F5F5F5F5F5F5F5F5F5F5F5F5F5F5F5F5F5F5F500F5000000000000000000F5000000F500F50000F5F5F5F500000000000000280000000000000000F5F5F5000000F5000000000000000000000000000000000000
310
00000000000000000000000000000000000000000000000000000000000000000000000000000000000000000000000000000000000000000000000000000000000000000000000000000000000000000000000000000000000000000000000000000000000000000000000000000000000000000000000000000000000000
310
00000000000000000000000000000000000000000000000000000000F50000F5000000000000F5F500F5F5F5F5F5F5F5F5F5F5F5F5F5F5F5F5F5F5F5F5F5F5F500F5000000000000000000F5000000F5F5000000F500280000000000000000280000000000000000002800F5000000F5000000000000000000000000000000
310
00000000000000000000000000000000000000000000000000000000000000000000000000000000000000000000000000000000000000000000000000000000000000000000000000000000000000000000000000000000000000000000000000000000000000000000000000000000000000000000000000000000000000
310
000000000000000000000000000000000000000000000000000000000000F50000F5000000000000F5F500F5F5F5F5F5F5F5F5F5F5F5F5F5F5F5F5F5F5F5F5F5F5F500F5000000000000000000F500000000F5F5F5F5F5F5F5F5F5F5F5F5F5F5F528F5F5F5F5F5F5F5F5F5F5F5F5F5F5F5F500000000000000000000000000
310
00000000000000000000000000000000000000000000000000000000000000000000000000000000000000000000000000000000000000000000000000000000000000000000000000000000000000000000000000000000000000000000000000000000000000000000000000000000000000000000000000000000000000
310
0000000000000000000000000000000000000000000000000000000000000000F50000F5000000000000F5F500F5F5F5F5F5F5F5F5F5F5F5F5F5F5F5F5F5F5F5F5F5F5F500F5000000000000000000F500000000F50000000000000000F50000000000280000000000F5000000000000000000F50000000000000000000000
310
0000000000000000000000000000000000000000002D2D2D2D2D2D2D2D00002D2D2D2D2D2D00002D2D2D2D2D2D000000002D2D2D2D2D0000002D2D2D2D2D2D2D2D2D00000000000000000000000000000000000000000000000000000000000000000000000000000000000000000000000000000000000000000000000000
310
00000000000000000000000000000000000000000000000000000000000000000000F50000F5000000000000F5F500F5F5F5F5F5F5F5F5F5F5F5F5F5F5F5F5F5F5F5F5F5F5F500F5000000000000000000F500000000F50000000000000000F50000000000280000000000F5000000000000000000F5000000000000000000
310
00000000000000000000000000000000000000000000002D2D002D2D2D2D2D2D2D2D2D002D2D2D2D2D2D2D2D002D2D2D2D2D2D2D2D2D2D2D2D2D002D2D2D002D2D2D2D2D0000000000000000000000000000000000000000000000000000000000000000000000000000000000000000000000000000000000000000000000
310
0000000000000000000000000000000000000000000000000000000000000000000000F5000000F5000000000000F5F500F50000000000000000000000000000000000000000F5F500F5000000000000000000F500000000F50000000000000000F50000000000280000000000F5000000000000000000F500000000000000
310
000000000000000000000000000000000000000000000000002D2D2D2D2D2D2D2D00002D2D2D2D2D2D0000002D2D2D2D2D000000002D2D2D2D2D00002D2D2D2D2D2D2D2D2D2D000000000000000000000000000000000000000000000000000000000000000000000000000000000000000000000000000000000000000000
310
00000000000000000000000000000000000000000000000000000000000000000000000000F5000000F5000000000000F5F500F5F5F5F5F5F5F5F5F5F5F5F5F5F5F5F5F5F5F5F5F5F5F500F5000000000000000000F500000000F50000000000000000F50000000000280000000000F5000000000000000000F50000000000
310
00000000000000000000000000000000000000000000000000000000000000000000000000000000000000000000000000000000000000000000000000000000000000000000000000000000000000000000000000000000000000000000000000000000000000000000000000000000000000000000000000000000000000
310
000000000000000000000000000000000000000000000000000000000000000000000000000000F5000000F5000000000000F5F50000000000000000000000000000000000000000000000F500F5000000000000000000F500000000F50000000000000000F50000000000280000000000F5000000000000000000F5000000
310
00000000000000000000000000000000000000000000000000000000000000000000000000000000000000000000000000000000000000000000000000000000000000000000000000000000000000000000000000000000000000000000000000000000000000000000000000000000000000000000000000000000000000
310
0000000000000000000000000000000000000000000000000000000000000000000000000000000000F50000F500000000000000F5F50000000000000000000000000000000000000000000000F500F5000000000000000000F500000000F50000000000000000F50000000000280000000000F5000000000000000000F500
310
00000000000000000000000000000000000000000000000000000000000000000000000000000000000000000000000000000000000000000000000000000000000000000000000000000000000000000000000000000000000000000000000000000000000000000000000000000000000000000000000000000000000000
310
00000000000000000000000000000000000000000000000000000000000000000000000000000000000000F50000F500000000000000F5F50000000000000000000000000000000000000000000000F500F5000000000000000000F500000000F50000000000000000F50000000000280000000000F5000000000000000000
310
F5000000000000000000000000000000000000000000000000000000000000000000000000000000000000000000000000000000000000000000000000000000000000000000000000000000000000000000000000000000000000000000000000000000000000000000000000000000000000000000000000000000000000
310
000000000000000000000000000000000000000000000000000000000000000000000000000000000000000000F50000F500000000000000F5F50000000000000000000000000000000000000000000000F500F5000000000000000000F500000000F50000000000000000F50000000000280000000000F500000000000000
310
0000F500000000000000000000000000000000000000000000000000000000000000000000000000000000000000000000000000000000000000000000000000000000000000000000000000000000000000000000000000000000000000000000000000000000000000000000000000000000000000000000000000000000
310
0000000000000000000000000000000000000000000000000000000000000000000000000000000000000000282828F52828F528282828282828F5F52828282828282828282828282828282828282828282828F528F5282828280028282828F528282800F52828282828282828F52828282828282828282828F52828280028
310
28282828F52828280000000000000000000000000000000000000000000000000000000000000000000000000000000000000000000000000000000000000000000000000000000000000000000000000000000000000000000000000000000000000000000000000000000000000000000000000000000000000000000000
310
00000000000000000000000000000000000000000000000000000000000000000000000000000000000000000000000000F50000F500000000000000F5F50000000000000000000000000000000000000000000000F500F5000000000000000000F500000000F50000000000000000F50000000000280000000000F5000000
310
000000000000F5000000000000000000000000000000000000000000000000000000000000000000000000000000000000000000000000000000000000000000000000000000000000000000000000000000000000000000000000000000000000000000000000000000000000000000000000000000000000000000000000
310
000000000000000000000000000000000000000000000000000000000000000000000000000000000000000000000000000000F50000F500000000000000F5F50000000000000000000000000000000000000000000000F500F5000000000000000000F500000000F50000000000000000F50000000000280000000000F500
310
0000000000000000F500000000000000000000000000000000000000000000000000000000000000000000000000000000000000000000000000000000000000000000000000000000000000000000000000000000000000000000000000000000000000000000000000000000000000000000000000000000000000000000
310
0000000000000000000000000000000000000000000000000000000000000000000000000000000000000000000000000000000000F50000F500000000000000F5F50000000000000000000000000000000000000000000000F500F5000000000000000000F500000000F50000000000000000F50000000000280000000000
310
F5000000000000000000F50000000000000000000000000000000000000000000000000000000000000000000000000000000000000000000000000000000000000000000000000000000000000000000000000000000000000000000000000000000000000000000000000000000000000000000000000000000000000000
310
00000000000000000000000000000000000000000000000000000000000000000000000000000000000000000000000000000000000000F5000000F5000000000000F5F50000000000000000000000000000000000000000000000F500F5000000000000000000F500000000F50000000000000000F5000000000028000000
310
0000F5000000000000000000F5000000000000000000000000000000000000000000000000000000000000000000000000000000000000000000000000000000000000000000000000000000000000000000000000000000000000000000000000000000000000000000000000000000000000000000000000000000000000
310
000000000000000000000000000000000000000000000000000000000000000000000000000000000000000000000000000000000000000000F5000000F5000000000000F5F500F5F5F5F5F5F5F5F5F5F5F5F5F5F5F5F5F5F5F5F5F5F5F500F5000000000000000000F500000000F50000000000000000F500000000002800
310
00000000F5000000000000000000F500000000000000000000000000000000000000000000000000000000000000000000000000000000000000000000000000000000000000000000000000000000000000000000000000000000000000000000000000000000000000000000000000000000000000000000000000000000
310
0000000000000000000000000000000000000000000000000000000000000000000000000000000000000000000000000000000000000000000000F5000000F5000000000000F5F500F50000000000000000000000000000000000000000F5F500F5000000000000000000F500000000F50000000000000000F50000000000
310
280000000000F5000000000000000000F50000000000000000000000000000000000000000000000000000000000000000000000000000000000000000000000000000000000000000000000000000000000000000000000000000000000000000000000000000000000000000000000000000000000000000000000000000
310
00000000000000000000000000000000000000000000000000000000000000000000000000000000000000000000000000000000000000000000000000F5000000F5000000000000F5F500F5F5F5F5F5F5F5F5F5F5F5F5F5F5F5F5F5F5F5F5F5F5F500F5000000000000000000F500000000F50000000000000000F5000000
310
0000280000000000F5000000000000000000F5000000000000000000000000000000000000000000000000000000000000000000000000000000000000000000000000000000000000000000000000000000000000000000000000000000000000000000000000000000000000000000000000000000000000000000000000
310
00000000000000000000000000000000000000000000000000000000000000000000000000000000000000000000000000000000000000000000000000000000F50000F5000000000000F5F500F5F5F5F5F5F5F5F5F5F5F5F5F5F5F5F5F5F5F5F5F5F5F500F5000000000000000000F500000000F50000000000000000F500
310
00000000280000000000F5000000000000000000F500000000000000000000000000000000000000000000000000000000000000000000000000000000000000000000000000000000000000000000000000000000000000000000000000000000000000000000000000000000000000000000000000000000000000000000
310
000000000000000000000000000000000000000000000000000000000000000000000000000000000000000000000000000000000000000000000000000000000000F50000F5000000000000F5F500F5F5F5F5F5F5F5F5F5F5F5F5F5F5F5F5F5F5F5F5F5F5F500F5000000000000000000F500000000F5F5F5F5F5F5F5F5F5
310
F5F5F5F5F5F528F5F5F5F5F5F5F5F5F5F5F5F5F5F5F5F50000000000000000000000000000000000000000000000000000000000000000000000000000000000000000000000000000000000000000000000000000000000000000000000000000000000000000000000000000000000000000000000000000000000000000
310
0000000000000000000000000000000000000000000000000000000000000000000000000000000000000000000000000000000000000000000000000000000000000000F50000F5000000000000F5F500F5F5F5F5F5F5F5F5F5F5F5F5F5F5F5F5F5F5F5F5F5F5F500F5000000000000000000F5000000F5F5000000F50028
310
0000000000000000280000000000000000002800F5000000F5000000000000000000000000000000000000000000000000000000000000000000000000000000000000000000000000000000000000000000000000000000000000000000000000000000000000000000000000000000000000000000000000000000000000
310
00000000000000000000000000000000000000000000000000000000000000000000000000000000000000000000000000000000000000000000000000000000000000000000F5000000F50000000000F5F500F5F5F5F5F5F5F5F5F5F5F5F5F5F5F5F5F5F5F5F5F5F5F500F5000000000000000000F5000000F500F50000F5
310
F5F5F500000000000000280000000000000000F5F5F5F50000F50000000000000000000000000000000000000000000000000000000000000000000000000000000000000000000000000000000000000000000000000000000000000000000000000000000000000000000000000000000000000000000000000000000000
310
000000000000000000000000000000000000000000000000000000000000000000000000000000000000000000000000000000000000000000000000000000000000000000000000F5000000F50000000000F5F5F5F5F5F5F5F5F5F5F5F5F5F5F5F5F5F5F5F5F5F5F5F5F5F5F5F5F5F5F5F5F5F5F5F500F50000F50000F500
310
28F52828F5280000000000002800000000000000F5F528F5280000F5000000000000000000000000000000000000000000000000000000000000000000000000000000000000000000000000000000000000000000000000000000000000000000000000000000000000000000000000000000000000000000000000000000
310
000000000000000000000000000000000000000000000000000000000000000000000000000000000000000000000000000000000000000000000000000000000000000000000000000000F5F5F5F50000000000F500000000000000000000000000000000000000000000000000000000000000000000F500F50000F50000
310
00F50000F528F5F5F5F5F5F5F5F5F5F5F5F5F5F5F5F500F528F50000F50000000000000000000000000000000000000000000000000000000000000000000000000000000000000000000000000000000000000000000000000000000000000000000000000000000000000000000000000000000000000000000000000000
310
0000000000000000000000000000000000000000000000000000000000000000000000000000000000000000000000000000000000000000000000000000000000000000000000000000000000000000F5F5F5F5F5F5F500000000000000000000000000000000000000000000000000000000000000000000F500F5F5F5F5
310
000000F5000000F5000000000000000028000000000000000000F5000000F5000000000000000000000000000000000000000000000000000000000000000000000000000000000000000000000000000000000000000000000000000000000000000000000000000000000000000000000000000000000000000000000000
310
00000000000000000000000000000000000000000000000000000000000000000000000000000000000000000000000000000000000000000000000000000000000000000000000000000000000000000000000000000000000000000000000000000000000000000000000000000000000000000000000000000000F50000
310
0000000000F5F5F5F5F5F5F5F5F5F5F5F5F5F5F5F5F5F5F5F5F5F5F5F5F5F5F50000000000000000000000000000000000000000000000000000000000000000000000000000000000000000000000000000000000000000000000000000000000000000000000000000000000000000000000000000000000000000000000
310
00000000000000000000000000000000000000000000000000000000000000000000000000000000000000000000000000000000000000000000000000000000000000000000000000000000000000000000000000000000000000000000000000000000000000000000000000000000000000000000000000000000000000
310
00000000000000000000000000000000000000002800000000000000000000000000000000000000000000000000000000000000000000000000000000000000000000000000000000000000000000000000000000000000000000000000000000000000000000000000000000000000000000000000000000000000000000
310
00000000000000000000000000000000000000000000000000000000000000000000000000000000000000000000000000000000000000000000000000000000000000000000000000000000000000000000000000000000000000000000000000000000000000000000000000000000000000000000000000000000000000
310
00000000000000000000000000000000000000000000280000000000000000000000000000000000000000000000000000000000000000000000000000000000000000000000000000000000000000000000000000000000000000000000000000000000000000000000000000000000000000000000000000000000000000
310
00000000000000000000000000000000000000000000000000000000000000000000000000000000000000000000000000000000000000000000000000000000000000000000000000000000000000000000000000000000000000000000000000000000000000000000000000000000000000000000000000000000000000
310
00000000000000000000000000000000000000000000000028000000000000000000000000000000000000000000000000000000000000000000000000000000000000000000000000000000000000000000000000000000000000000000000000000000000000000000000000000000000000000000000000000000000000
310
00000000000000000000000000000000000000000000000000000000000000000000000000000000000000000000000000000000000000000000000000000000000000000000000000000000000000000000000000000000000000000000000000000000000000000000000000000000000000000000000000000000000000
310
00000000000000000000000000000000000000000000000000000000000000000000000000000000000000000000000000000000000000000000000000000000000000000000000000000000000000000000000000000000000000000000000000000000000000000000000000000000000000000000000000000000000000
310
00000000000000000000000000000000000000000000000000000000000000000000000000000000000000000000000000000000000000000000000000000000000000000000000000000000000000000000000000000000000000000000000000000000000000000000000000000000000000000000000000000000000000
310
00000000000000000000000000000000000000000000000000000000000000000000000000000000000000000000000000000000000000000000000000000000000000000000000000000000000000000000000000000000000000000000000000000000000000000000000000000000000000000000000000000000000000
310
00000000000000000000000000000000000000000000000000000000000000000000000000000000000000000000000000000000000000000000000000000000000000000000000000000000000000000000000000000000000000000000000000000000000000000000000000000000000000000000000000000000000000
310
00000000000000000000000000000000000000000000000000000000000000000000000000000000000000000000000000000000000000000000000000000000000000000000000000000000000000000000000000000000000000000000000000000000000000000000000000000000000000000000000000000000000000
310
00000000000000000000000000000000000000000000000000000000000000000000000000000000000000000000000000000000000000000000000000000000000000000000000000000000000000000000000000000000000000000000000000000000000000000000000000000000000000000000000000000000000000
310
00000000000000000000000000000000000000000000000000000000000000000000000000000000000000000000000000000000000000000000000000000000000000000000000000000000000000000000000000000000000000000000000000000000000000000000000000000000000000000000000000000000000000
310
00000000000000000000000000000000000000000000000000000000000000000000000000000000000000000000000000000000000000000000000000000000000000000000000000000000000000000000000000000000000000000000000000000000000000000000000000000000000000000000000000000000000000
310
00000000000000000000000000000000000000000000000000000000000000000000000000000000000000000000000000000000000000000000000000000000000000000000000000000000000000000000000000000000000000000000000000000000000000000000000000000000000000000000000000000000000000
310
00000000000000000000000000000000000000000000000000000000000000000000000000000000000000000000000000000000000000000000000000000000000000000000000000000000000000000000000000000000000000000000000000000000000000000000000000000000000000000000000000000000000000
310
00000000000000000000000000000000000000000000000000000000000000000000000000000000000000000000000000000000000000000000000000000000000000000000000000000000000000000000000000000000000000000000000000000000000000000000000000000000000000000000000000000000000000
310
00000000000000000000000000000000000000000000000000000000000000000000000000000000000000000000000000000000000000000000000000000000000000000000000000000000000000000000000000000000000000000000000000000000000000000000000000000000000000000000000000000000000000
310
00000000000000000000000000000000000000000000000000000000000000000000000000000000000000000000000000000000000000000000000000000000000000000000000000000000000000000000000000000000000000000000000000000000000000000000000000000000000000000000000000000000000000
310
00000000000000000000000000000000000000000000000000000000000000000000000000000000000000000000000000000000000000000000000000000000000000000000000000000000000000000000000000000000000000000000000000000000000000000000000000000000000000000000000000000000000000
310
00000000000000000000000000000000000000000000000000000000000000000000000000000000000000000000000000000000000000000000000000000000000000000000000000000000000000000000000000000000000000000000000000000000000000000000000000000000000000000000000000000000000000
310
00000000000000000000000000000000000000000000000000000000000000000000000000000000000000000000000000000000000000000000000000000000000000000000000000000000000000000000000000000000000000000000000000000000000000000000000000000000000000000000000000000000000000
310
00000000000000000000000000000000000000000000000000000000000000000000000000000000000000000000000000000000000000000000000000000000000000000000000000000000000000000000000000000000000000000000000000000000000000000000000000000000000000000000000000000000000000
310
00000000000000000000000000000000000000000000000000000000000000000000000000000000000000000000000000000000000000000000000000000000000000000000000000000000000000000000000000000000000000000000000000000000000000000000000000000000000000000000000000000000000000
310
00000000000000000000000000000000000000000000000000000000000000000000000000000000000000000000000000000000000000000000000000000000000000000000000000000000000000000000000000000000000000000000000000000000000000000000000000000000000000000000000000000000000000
310
00000000000000000000000000000000000000000000000000000000000000000000000000000000000000000000000000000000000000000000000000000000000000000000000000000000000000000000000000000000000000000000000000000000000000000000000000000000000000000000000000000000000000
310
00000000000000000000000000000000000000000000000000000000000000000000000000000000000000000000000000000000000000000000000000000000000000000000000000000000000000000000000000000000000000000000000000000000000000000000000000000000000000000000000000000000000000
310
00000000000000000000000000000000000000000000000000000000000000000000000000000000000000000000000000000000000000000000000000000000000000000000000000000000000000000000000000000000000000000000000000000000000000000000000000000000000000000000000000000000000000
310
00000000000000000000000000000000000000000000000000000000000000000000000000000000000000000000000000000000000000000000000000000000000000000000000000000000000000000000000000000000000000000000000000000000000000000000000000000000000000000000000000000000000000
310
00000000000000000000000000000000000000000000000000000000000000000000000000000000000000000000000000000000000000000000000000000000000000000000000000000000000000000000000000000000000000000000000000000000000000000000000000000000000000000000000000000000000000
310
00000000000000000000000000000000000000000000000000000000000000000000000000000000000000000000000000000000000000000000000000000000000000000000000000000000000000000000000000000000000000000000000000000000000000000000000000000000000000000000000000000000000000
310
00000000000000000000000000000000000000000000000000000000000000000000000000000000000000000000000000000000000000000000000000000000000000000000000000000000000000000000000000000000000000000000000000000000000000000000000000000000000000000000000000000000000000
310
00000000000000000000000000000000000000000000000000000000000000000000000000000000000000000000000000000000000000000000000000000000000000000000000000000000000000000000000000000000000000000000000000000000000000000000000000000000000000000000000000000000000000
310
00000000000000000000000000000000000000000000000000000000000000000000000000000000000000000000000000000000000000000000000000000000000000000000000000000000000000000000000000000000000000000000000000000000000000000000000000000000000000000000000000000000000000
310
00000000000000000000000000000000000000000000000000000000000000000000000000000000000000000000000000000000000000000000000000000000000000000000000000000000000000000000000000000000000000000000000000000000000000000000000000000000000000000000000000000000000000
310
0000000000000000000000000000000000000000000000000000000000000000000000000000000000000000000000000000000000000000000000000000000000000000000000000000
  0
XRECORD
  5
2182
102
{ACAD_REACTORS
330
2181
102
}
330
2181
100
AcDbXrecord
280
     1
102
SHADEPLOT
 70
     0
102
SHADEPLOTRESLEVEL
 70
     2
102
SHADEPLOTCUSTOMDPI
 70
   300
  0
XRECORD
  5
217E
102
{ACAD_REACTORS
330
15D9
102
}
330
15D9
100
AcDbXrecord
280
     1
102
MATERIAL
148
0.0
149
0.0
149
0.0
 93
        0
 94
      127
282
     0
 72
     0
 77
     0
171
     0
175
     0
179
     0
273
     0
  0
XRECORD
  5
15DB
102
{ACAD_REACTORS
330
15D9
102
}
330
15D9
100
AcDbXrecord
280
     1
270
     1
271
     1
  0
XRECORD
  5
15DA
102
{ACAD_REACTORS
330
15D9
102
}
330
15D9
100
AcDbXrecord
280
     1
270
     1
271
     1
  0
XRECORD
  5
15DE
102
{ACAD_REACTORS
330
15D9
102
}
330
15D9
100
AcDbXrecord
280
     1
270
     1
271
     1
  0
XRECORD
  5
15DD
102
{ACAD_REACTORS
330
15D9
102
}
330
15D9
100
AcDbXrecord
280
     1
270
     1
271
     1
  0
XRECORD
  5
15DF
102
{ACAD_REACTORS
330
15D9
102
}
330
15D9
100
AcDbXrecord
280
     1
270
     1
271
     1
  0
XRECORD
  5
15DC
102
{ACAD_REACTORS
330
15D9
102
}
330
15D9
100
AcDbXrecord
280
     1
270
     1
271
     1
  0
XRECORD
  5
217D
102
{ACAD_REACTORS
330
15D1
102
}
330
15D1
100
AcDbXrecord
280
     1
102
MATERIAL
148
0.0
149
0.0
149
0.0
 93
        0
 94
      127
282
     0
 72
     0
 77
     0
171
     0
175
     0
179
     0
273
     0
  0
XRECORD
  5
15D3
102
{ACAD_REACTORS
330
15D1
102
}
330
15D1
100
AcDbXrecord
280
     1
270
     1
271
     1
  0
XRECORD
  5
15D2
102
{ACAD_REACTORS
330
15D1
102
}
330
15D1
100
AcDbXrecord
280
     1
270
     1
271
     1
  0
XRECORD
  5
15D6
102
{ACAD_REACTORS
330
15D1
102
}
330
15D1
100
AcDbXrecord
280
     1
270
     1
271
     1
  0
XRECORD
  5
15D5
102
{ACAD_REACTORS
330
15D1
102
}
330
15D1
100
AcDbXrecord
280
     1
270
     1
271
     1
  0
XRECORD
  5
15D7
102
{ACAD_REACTORS
330
15D1
102
}
330
15D1
100
AcDbXrecord
280
     1
270
     1
271
     1
  0
XRECORD
  5
15D4
102
{ACAD_REACTORS
330
15D1
102
}
330
15D1
100
AcDbXrecord
280
     1
270
     1
271
     1
  0
XRECORD
  5
217F
102
{ACAD_REACTORS
330
15E1
102
}
330
15E1
100
AcDbXrecord
280
     1
102
MATERIAL
148
0.0
149
0.0
149
0.0
 93
        0
 94
      127
282
     0
 72
     0
 77
     0
171
     0
175
     0
179
     0
273
     0
  0
XRECORD
  5
15E3
102
{ACAD_REACTORS
330
15E1
102
}
330
15E1
100
AcDbXrecord
280
     1
270
     1
271
     1
  0
XRECORD
  5
15E2
102
{ACAD_REACTORS
330
15E1
102
}
330
15E1
100
AcDbXrecord
280
     1
270
     1
271
     1
  0
XRECORD
  5
15E6
102
{ACAD_REACTORS
330
15E1
102
}
330
15E1
100
AcDbXrecord
280
     1
270
     1
271
     1
  0
XRECORD
  5
15E5
102
{ACAD_REACTORS
330
15E1
102
}
330
15E1
100
AcDbXrecord
280
     1
270
     1
271
     1
  0
XRECORD
  5
15E7
102
{ACAD_REACTORS
330
15E1
102
}
330
15E1
100
AcDbXrecord
280
     1
270
     1
271
     1
  0
XRECORD
  5
15E4
102
{ACAD_REACTORS
330
15E1
102
}
330
15E1
100
AcDbXrecord
280
     1
270
     1
271
     1
  0
XRECORD
  5
2072
102
{ACAD_REACTORS
330
2071
102
}
330
2071
100
AcDbXrecord
280
     1
102
ACAD_ROUNDTRIP_2012_MLEADER_STYLE
298
     1
  0
XRECORD
  5
2106
102
{ACAD_REACTORS
330
2105
102
}
330
2105
100
AcDbXrecord
280
     1
102
DISPLAYNAME
  1
Imperial24
102
FLAGS
 90
        0
  0
XRECORD
  5
210A
102
{ACAD_REACTORS
330
2109
102
}
330
2109
100
AcDbXrecord
280
     1
102
DISPLAYNAME
  1
Metric50
102
FLAGS
 90
        0
  0
CELLSTYLEMAP
  5
2175
102
{ACAD_REACTORS
330
1654
102
}
330
1654
100
AcDbCellStyleMap
 90
        3
300
CELLSTYLE
  1
TABLEFORMAT_BEGIN
 90
        5
170
     1
 91
        0
 92
    32768
 62
   257
 93
        1
300
CONTENTFORMAT
  1
CONTENTFORMAT_BEGIN
 90
        0
 91
        0
 92
      512
 93
        0
300

 40
0.0
140
1.0
 94
        5
 62
     0
340
16
144
0.25
309
CONTENTFORMAT_END
171
     0
 94
        0
309
TABLEFORMAT_END
  1
CELLSTYLE_BEGIN
 90
        1
 91
        1
300
_TITLE
309
CELLSTYLE_END
300
CELLSTYLE
  1
TABLEFORMAT_BEGIN
 90
        5
170
     1
 91
        0
 92
        0
 62
   257
 93
        1
300
CONTENTFORMAT
  1
CONTENTFORMAT_BEGIN
 90
        0
 91
        0
 92
      512
 93
        0
300

 40
0.0
140
1.0
 94
        5
 62
     0
340
16
144
0.18
309
CONTENTFORMAT_END
171
     0
 94
        0
309
TABLEFORMAT_END
  1
CELLSTYLE_BEGIN
 90
        2
 91
        1
300
_HEADER
309
CELLSTYLE_END
300
CELLSTYLE
  1
TABLEFORMAT_BEGIN
 90
        5
170
     1
 91
        0
 92
        0
 62
   257
 93
        1
300
CONTENTFORMAT
  1
CONTENTFORMAT_BEGIN
 90
        0
 91
        0
 92
      512
 93
        0
300

 40
0.0
140
1.0
 94
        2
 62
     0
340
16
144
0.18
309
CONTENTFORMAT_END
171
     0
 94
        0
309
TABLEFORMAT_END
  1
CELLSTYLE_BEGIN
 90
        3
 91
        2
300
_DATA
309
CELLSTYLE_END
  0
XRECORD
  5
2180
102
{ACAD_REACTORS
330
1654
102
}
330
1654
100
AcDbXrecord
280
     1
102
ACAD_ROUNDTRIP_PRE2007_TABLESTYLE
 90
      512
 91
        0
  1

 92
      512
 93
        0
  2

 94
      512
 95
        0
  3

  0
XRECORD
  5
20DC
102
{ACAD_REACTORS
330
20DB
102
}
330
20DB
100
AcDbXrecord
280
     1
102
RTVSPost2010Prop28
280
     1
102
RTVSPost2010PropOp28
 70
     1
102
RTVSPost2010Prop29
280
     1
102
RTVSPost2010PropOp29
 70
     1
102
RTVSPost2010Prop30
280
     0
102
RTVSPost2010PropOp30
 70
     1
102
RTVSPost2010Prop31
280
     0
102
RTVSPost2010PropOp31
 70
     1
102
RTVSPost2010Prop32
280
     0
102
RTVSPost2010PropOp32
 70
     1
102
RTVSPost2010Prop33
280
     0
102
RTVSPost2010PropOp33
 70
     1
102
RTVSPost2010Prop34
280
     0
102
RTVSPost2010PropOp34
 70
     1
102
RTVSPost2010Prop35
280
     0
102
RTVSPost2010PropOp35
 70
     1
102
RTVSPost2010Prop36
280
     0
102
RTVSPost2010PropOp36
 70
     1
102
RTVSPost2010Prop37
 90
       50
102
RTVSPost2010PropOp37
 70
     1
102
RTVSPost2010Prop38
140
0.0
102
RTVSPost2010PropOp38
 70
     1
102
RTVSPost2010Prop39
140
1.0
102
RTVSPost2010PropOp39
 70
     1
102
RTVSPost2010Prop40
 90
        0
102
RTVSPost2010PropOp40
 70
     1
102
RTVSPost2010Prop41ColorIndex
 90
       18
102
RTVSPost2010Prop41ColorRGB
 90
        0
102
RTVSPost2010PropOp41
 70
     1
102
RTVSPost2010Prop42
 90
       50
102
RTVSPost2010PropOp42
 70
     1
102
RTVSPost2010Prop43
 90
        3
102
RTVSPost2010PropOp43
 70
     1
102
RTVSPost2010Prop44ColorIndex
 90
        5
102
RTVSPost2010Prop44ColorRGB
 90
      255
102
RTVSPost2010PropOp44
 70
     1
102
RTVSPost2010Prop45
280
     0
102
RTVSPost2010PropOp45
 70
     1
102
RTVSPost2010Prop46
 90
       50
102
RTVSPost2010PropOp46
 70
     1
102
RTVSPost2010Prop47
 90
       50
102
RTVSPost2010PropOp47
 70
     1
102
RTVSPost2010Prop48
 90
       50
102
RTVSPost2010PropOp48
 70
     1
102
RTVSPost2010Prop49
280
     0
102
RTVSPost2010PropOp49
 70
     1
102
RTVSPost2010Prop50
 90
       50
102
RTVSPost2010PropOp50
 70
     1
102
RTVSPost2010Prop51ColorIndex
 90
      256
102
RTVSPost2010Prop51ColorRGB
 90
-16777216
102
RTVSPost2010PropOp51
 70
     0
102
RTVSPost2010Prop52
140
1.0
102
RTVSPost2010PropOp52
 70
     0
102
RTVSPost2010Prop53
 90
        2
102
RTVSPost2010PropOp53
 70
     1
102
RTVSPost2010Prop54
  1
strokes_ogs.tif
102
RTVSPost2010PropOp54
 70
     1
102
RTVSPost2010Prop55
280
     0
102
RTVSPost2010PropOp55
 70
     1
102
RTVSPost2010Prop56
140
1.0
102
RTVSPost2010PropOp56
 70
     1
102
RTVSPost2010Prop57
140
1.0
102
RTVSPost2010PropOp57
 70
     1
102
RTVSPropertyOp28
 70
     1
102
RTVSPropertyOp29
 70
     1
102
RTVSPropertyOp30
 70
     1
102
RTVSPropertyOp31
 70
     1
102
RTVSPropertyOp32
 70
     1
102
RTVSPropertyOp33
 70
     1
102
RTVSPropertyOp34
 70
     1
102
RTVSPropertyOp35
 70
     1
102
RTVSPropertyOp36
 70
     1
102
RTVSPropertyOp37
 70
     1
102
RTVSPropertyOp38
 70
     1
102
RTVSPropertyOp39
 70
     1
102
RTVSPropertyOp40
 70
     1
102
RTVSPropertyOp41
 70
     1
102
RTVSPropertyOp42
 70
     1
102
RTVSPropertyOp43
 70
     1
102
RTVSPropertyOp44
 70
     1
102
RTVSPropertyOp45
 70
     1
102
RTVSPropertyOp46
 70
     1
102
RTVSPropertyOp47
 70
     1
102
RTVSPropertyOp48
 70
     1
102
RTVSPropertyOp49
 70
     1
102
RTVSPropertyOp50
 70
     1
102
RTVSPropertyOp51
 70
     0
102
RTVSPropertyOp52
 70
     0
102
RTVSPropertyOp53
 70
     1
102
RTVSPropertyOp54
 70
     1
102
RTVSPropertyOp55
 70
     1
102
RTVSPropertyOp56
 70
     1
102
RTVSPropertyOp57
 70
     1
102
RTVSPropertyOp58
 70
     1
102
RTVSPropertyOp59
 70
     1
102
RTVSPropertyOp60
 70
     1
102
RTVSPropertyOp61
 70
     1
102
RTVSPropertyOp62
 70
     1
102
RTVSPropertyOp0
 70
     1
102
RTVSPropertyOp1
 70
     1
102
RTVSPropertyOp2
 70
     1
102
RTVSPropertyOp3
 70
     1
102
RTVSPropertyOp4
 70
     1
102
RTVSPropertyOp5
 70
     1
102
RTVSPropertyOp6
 70
     1
102
RTVSPropertyOp7
 70
     1
102
RTVSPropertyOp8
 70
     1
102
RTVSPropertyOp9
 70
     1
102
RTVSPropertyOp10
 70
     1
102
RTVSPropertyOp11
 70
     1
102
RTVSPropertyOp12
 70
     1
102
RTVSPropertyOp13
 70
     1
102
RTVSPropertyOp14
 70
     1
102
RTVSPropertyOp15
 70
     1
102
RTVSPropertyOp16
 70
     1
102
RTVSPropertyOp17
 70
     1
102
RTVSPropertyOp18
 70
     1
102
RTVSPropertyOp19
 70
     1
102
RTVSPropertyOp20
 70
     1
102
RTVSPropertyOp21
 70
     1
102
RTVSPropertyOp22
 70
     1
102
RTVSPropertyOp23
 70
     1
102
RTVSPropertyOp24
 70
     1
102
RTVSPropertyOp25
 70
     1
102
RTVSPropertyOp26
 70
     1
102
RTVSPropertyOp27
 70
     1
  0
XRECORD
  5
20E0
102
{ACAD_REACTORS
330
20DF
102
}
330
20DF
100
AcDbXrecord
280
     1
102
RTVSPost2010Prop28
280
     0
102
RTVSPost2010PropOp28
 70
     1
102
RTVSPost2010Prop29
280
     1
102
RTVSPost2010PropOp29
 70
     1
102
RTVSPost2010Prop30
280
     1
102
RTVSPost2010PropOp30
 70
     1
102
RTVSPost2010Prop31
280
     0
102
RTVSPost2010PropOp31
 70
     1
102
RTVSPost2010Prop32
280
     0
102
RTVSPost2010PropOp32
 70
     1
102
RTVSPost2010Prop33
280
     0
102
RTVSPost2010PropOp33
 70
     1
102
RTVSPost2010Prop34
280
     0
102
RTVSPost2010PropOp34
 70
     1
102
RTVSPost2010Prop35
280
     0
102
RTVSPost2010PropOp35
 70
     1
102
RTVSPost2010Prop36
280
     0
102
RTVSPost2010PropOp36
 70
     1
102
RTVSPost2010Prop37
 90
       50
102
RTVSPost2010PropOp37
 70
     1
102
RTVSPost2010Prop38
140
0.0
102
RTVSPost2010PropOp38
 70
     1
102
RTVSPost2010Prop39
140
1.0
102
RTVSPost2010PropOp39
 70
     1
102
RTVSPost2010Prop40
 90
        0
102
RTVSPost2010PropOp40
 70
     1
102
RTVSPost2010Prop41ColorIndex
 90
       18
102
RTVSPost2010Prop41ColorRGB
 90
        0
102
RTVSPost2010PropOp41
 70
     1
102
RTVSPost2010Prop42
 90
       50
102
RTVSPost2010PropOp42
 70
     1
102
RTVSPost2010Prop43
 90
        3
102
RTVSPost2010PropOp43
 70
     1
102
RTVSPost2010Prop44ColorIndex
 90
        5
102
RTVSPost2010Prop44ColorRGB
 90
      255
102
RTVSPost2010PropOp44
 70
     1
102
RTVSPost2010Prop45
280
     0
102
RTVSPost2010PropOp45
 70
     1
102
RTVSPost2010Prop46
 90
       50
102
RTVSPost2010PropOp46
 70
     1
102
RTVSPost2010Prop47
 90
       50
102
RTVSPost2010PropOp47
 70
     1
102
RTVSPost2010Prop48
 90
       50
102
RTVSPost2010PropOp48
 70
     1
102
RTVSPost2010Prop49
280
     0
102
RTVSPost2010PropOp49
 70
     1
102
RTVSPost2010Prop50
 90
       50
102
RTVSPost2010PropOp50
 70
     1
102
RTVSPost2010Prop51ColorIndex
 90
      256
102
RTVSPost2010Prop51ColorRGB
 90
-16777216
102
RTVSPost2010PropOp51
 70
     0
102
RTVSPost2010Prop52
140
1.0
102
RTVSPost2010PropOp52
 70
     0
102
RTVSPost2010Prop53
 90
        2
102
RTVSPost2010PropOp53
 70
     1
102
RTVSPost2010Prop54
  1
strokes_ogs.tif
102
RTVSPost2010PropOp54
 70
     1
102
RTVSPost2010Prop55
280
     0
102
RTVSPost2010PropOp55
 70
     1
102
RTVSPost2010Prop56
140
1.0
102
RTVSPost2010PropOp56
 70
     1
102
RTVSPost2010Prop57
140
1.0
102
RTVSPost2010PropOp57
 70
     1
102
RTVSPropertyOp28
 70
     1
102
RTVSPropertyOp29
 70
     1
102
RTVSPropertyOp30
 70
     1
102
RTVSPropertyOp31
 70
     1
102
RTVSPropertyOp32
 70
     1
102
RTVSPropertyOp33
 70
     1
102
RTVSPropertyOp34
 70
     1
102
RTVSPropertyOp35
 70
     1
102
RTVSPropertyOp36
 70
     1
102
RTVSPropertyOp37
 70
     1
102
RTVSPropertyOp38
 70
     1
102
RTVSPropertyOp39
 70
     1
102
RTVSPropertyOp40
 70
     1
102
RTVSPropertyOp41
 70
     1
102
RTVSPropertyOp42
 70
     1
102
RTVSPropertyOp43
 70
     1
102
RTVSPropertyOp44
 70
     1
102
RTVSPropertyOp45
 70
     1
102
RTVSPropertyOp46
 70
     1
102
RTVSPropertyOp47
 70
     1
102
RTVSPropertyOp48
 70
     1
102
RTVSPropertyOp49
 70
     1
102
RTVSPropertyOp50
 70
     1
102
RTVSPropertyOp51
 70
     0
102
RTVSPropertyOp52
 70
     0
102
RTVSPropertyOp53
 70
     1
102
RTVSPropertyOp54
 70
     1
102
RTVSPropertyOp55
 70
     1
102
RTVSPropertyOp56
 70
     1
102
RTVSPropertyOp57
 70
     1
102
RTVSPropertyOp58
 70
     1
102
RTVSPropertyOp59
 70
     1
102
RTVSPropertyOp60
 70
     1
102
RTVSPropertyOp61
 70
     1
102
RTVSPropertyOp62
 70
     1
102
RTVSPropertyOp0
 70
     1
102
RTVSPropertyOp1
 70
     1
102
RTVSPropertyOp2
 70
     1
102
RTVSPropertyOp3
 70
     1
102
RTVSPropertyOp4
 70
     1
102
RTVSPropertyOp5
 70
     1
102
RTVSPropertyOp6
 70
     1
102
RTVSPropertyOp7
 70
     1
102
RTVSPropertyOp8
 70
     1
102
RTVSPropertyOp9
 70
     1
102
RTVSPropertyOp10
 70
     1
102
RTVSPropertyOp11
 70
     1
102
RTVSPropertyOp12
 70
     1
102
RTVSPropertyOp13
 70
     1
102
RTVSPropertyOp14
 70
     1
102
RTVSPropertyOp15
 70
     1
102
RTVSPropertyOp16
 70
     1
102
RTVSPropertyOp17
 70
     1
102
RTVSPropertyOp18
 70
     1
102
RTVSPropertyOp19
 70
     1
102
RTVSPropertyOp20
 70
     1
102
RTVSPropertyOp21
 70
     1
102
RTVSPropertyOp22
 70
     1
102
RTVSPropertyOp23
 70
     1
102
RTVSPropertyOp24
 70
     1
102
RTVSPropertyOp25
 70
     1
102
RTVSPropertyOp26
 70
     1
102
RTVSPropertyOp27
 70
     1
  0
XRECORD
  5
20DE
102
{ACAD_REACTORS
330
20DD
102
}
330
20DD
100
AcDbXrecord
280
     1
102
RTVSPost2010Prop28
280
     0
102
RTVSPost2010PropOp28
 70
     1
102
RTVSPost2010Prop29
280
     1
102
RTVSPost2010PropOp29
 70
     1
102
RTVSPost2010Prop30
280
     1
102
RTVSPost2010PropOp30
 70
     1
102
RTVSPost2010Prop31
280
     0
102
RTVSPost2010PropOp31
 70
     1
102
RTVSPost2010Prop32
280
     0
102
RTVSPost2010PropOp32
 70
     1
102
RTVSPost2010Prop33
280
     0
102
RTVSPost2010PropOp33
 70
     1
102
RTVSPost2010Prop34
280
     0
102
RTVSPost2010PropOp34
 70
     1
102
RTVSPost2010Prop35
280
     0
102
RTVSPost2010PropOp35
 70
     1
102
RTVSPost2010Prop36
280
     0
102
RTVSPost2010PropOp36
 70
     1
102
RTVSPost2010Prop37
 90
       50
102
RTVSPost2010PropOp37
 70
     1
102
RTVSPost2010Prop38
140
0.0
102
RTVSPost2010PropOp38
 70
     1
102
RTVSPost2010Prop39
140
1.0
102
RTVSPost2010PropOp39
 70
     1
102
RTVSPost2010Prop40
 90
        0
102
RTVSPost2010PropOp40
 70
     1
102
RTVSPost2010Prop41ColorIndex
 90
       18
102
RTVSPost2010Prop41ColorRGB
 90
        0
102
RTVSPost2010PropOp41
 70
     1
102
RTVSPost2010Prop42
 90
       50
102
RTVSPost2010PropOp42
 70
     1
102
RTVSPost2010Prop43
 90
        3
102
RTVSPost2010PropOp43
 70
     1
102
RTVSPost2010Prop44ColorIndex
 90
        5
102
RTVSPost2010Prop44ColorRGB
 90
      255
102
RTVSPost2010PropOp44
 70
     1
102
RTVSPost2010Prop45
280
     0
102
RTVSPost2010PropOp45
 70
     1
102
RTVSPost2010Prop46
 90
       50
102
RTVSPost2010PropOp46
 70
     1
102
RTVSPost2010Prop47
 90
       50
102
RTVSPost2010PropOp47
 70
     1
102
RTVSPost2010Prop48
 90
       50
102
RTVSPost2010PropOp48
 70
     1
102
RTVSPost2010Prop49
280
     0
102
RTVSPost2010PropOp49
 70
     1
102
RTVSPost2010Prop50
 90
       50
102
RTVSPost2010PropOp50
 70
     1
102
RTVSPost2010Prop51ColorIndex
 90
      256
102
RTVSPost2010Prop51ColorRGB
 90
-16777216
102
RTVSPost2010PropOp51
 70
     0
102
RTVSPost2010Prop52
140
1.0
102
RTVSPost2010PropOp52
 70
     0
102
RTVSPost2010Prop53
 90
        2
102
RTVSPost2010PropOp53
 70
     1
102
RTVSPost2010Prop54
  1
strokes_ogs.tif
102
RTVSPost2010PropOp54
 70
     1
102
RTVSPost2010Prop55
280
     0
102
RTVSPost2010PropOp55
 70
     1
102
RTVSPost2010Prop56
140
1.0
102
RTVSPost2010PropOp56
 70
     1
102
RTVSPost2010Prop57
140
1.0
102
RTVSPost2010PropOp57
 70
     1
102
RTVSPropertyOp28
 70
     1
102
RTVSPropertyOp29
 70
     1
102
RTVSPropertyOp30
 70
     1
102
RTVSPropertyOp31
 70
     1
102
RTVSPropertyOp32
 70
     1
102
RTVSPropertyOp33
 70
     1
102
RTVSPropertyOp34
 70
     1
102
RTVSPropertyOp35
 70
     1
102
RTVSPropertyOp36
 70
     1
102
RTVSPropertyOp37
 70
     1
102
RTVSPropertyOp38
 70
     1
102
RTVSPropertyOp39
 70
     1
102
RTVSPropertyOp40
 70
     1
102
RTVSPropertyOp41
 70
     1
102
RTVSPropertyOp42
 70
     1
102
RTVSPropertyOp43
 70
     1
102
RTVSPropertyOp44
 70
     1
102
RTVSPropertyOp45
 70
     1
102
RTVSPropertyOp46
 70
     1
102
RTVSPropertyOp47
 70
     1
102
RTVSPropertyOp48
 70
     1
102
RTVSPropertyOp49
 70
     1
102
RTVSPropertyOp50
 70
     1
102
RTVSPropertyOp51
 70
     0
102
RTVSPropertyOp52
 70
     0
102
RTVSPropertyOp53
 70
     1
102
RTVSPropertyOp54
 70
     1
102
RTVSPropertyOp55
 70
     1
102
RTVSPropertyOp56
 70
     1
102
RTVSPropertyOp57
 70
     1
102
RTVSPropertyOp58
 70
     1
102
RTVSPropertyOp59
 70
     1
102
RTVSPropertyOp60
 70
     1
102
RTVSPropertyOp61
 70
     1
102
RTVSPropertyOp62
 70
     1
102
RTVSPropertyOp0
 70
     1
102
RTVSPropertyOp1
 70
     1
102
RTVSPropertyOp2
 70
     1
102
RTVSPropertyOp3
 70
     1
102
RTVSPropertyOp4
 70
     1
102
RTVSPropertyOp5
 70
     1
102
RTVSPropertyOp6
 70
     1
102
RTVSPropertyOp7
 70
     1
102
RTVSPropertyOp8
 70
     1
102
RTVSPropertyOp9
 70
     1
102
RTVSPropertyOp10
 70
     1
102
RTVSPropertyOp11
 70
     1
102
RTVSPropertyOp12
 70
     1
102
RTVSPropertyOp13
 70
     1
102
RTVSPropertyOp14
 70
     1
102
RTVSPropertyOp15
 70
     1
102
RTVSPropertyOp16
 70
     1
102
RTVSPropertyOp17
 70
     1
102
RTVSPropertyOp18
 70
     1
102
RTVSPropertyOp19
 70
     1
102
RTVSPropertyOp20
 70
     1
102
RTVSPropertyOp21
 70
     1
102
RTVSPropertyOp22
 70
     1
102
RTVSPropertyOp23
 70
     1
102
RTVSPropertyOp24
 70
     1
102
RTVSPropertyOp25
 70
     1
102
RTVSPropertyOp26
 70
     1
102
RTVSPropertyOp27
 70
     1
  0
XRECORD
  5
20DA
102
{ACAD_REACTORS
330
20D9
102
}
330
20D9
100
AcDbXrecord
280
     1
102
RTVSPost2010Prop28
280
     0
102
RTVSPost2010PropOp28
 70
     1
102
RTVSPost2010Prop29
280
     1
102
RTVSPost2010PropOp29
 70
     1
102
RTVSPost2010Prop30
280
     1
102
RTVSPost2010PropOp30
 70
     1
102
RTVSPost2010Prop31
280
     0
102
RTVSPost2010PropOp31
 70
     1
102
RTVSPost2010Prop32
280
     0
102
RTVSPost2010PropOp32
 70
     1
102
RTVSPost2010Prop33
280
     0
102
RTVSPost2010PropOp33
 70
     1
102
RTVSPost2010Prop34
280
     0
102
RTVSPost2010PropOp34
 70
     1
102
RTVSPost2010Prop35
280
     0
102
RTVSPost2010PropOp35
 70
     1
102
RTVSPost2010Prop36
280
     0
102
RTVSPost2010PropOp36
 70
     1
102
RTVSPost2010Prop37
 90
       50
102
RTVSPost2010PropOp37
 70
     1
102
RTVSPost2010Prop38
140
0.0
102
RTVSPost2010PropOp38
 70
     1
102
RTVSPost2010Prop39
140
1.0
102
RTVSPost2010PropOp39
 70
     1
102
RTVSPost2010Prop40
 90
        0
102
RTVSPost2010PropOp40
 70
     1
102
RTVSPost2010Prop41ColorIndex
 90
       18
102
RTVSPost2010Prop41ColorRGB
 90
        0
102
RTVSPost2010PropOp41
 70
     1
102
RTVSPost2010Prop42
 90
       50
102
RTVSPost2010PropOp42
 70
     1
102
RTVSPost2010Prop43
 90
        3
102
RTVSPost2010PropOp43
 70
     1
102
RTVSPost2010Prop44ColorIndex
 90
        5
102
RTVSPost2010Prop44ColorRGB
 90
      255
102
RTVSPost2010PropOp44
 70
     1
102
RTVSPost2010Prop45
280
     0
102
RTVSPost2010PropOp45
 70
     1
102
RTVSPost2010Prop46
 90
       50
102
RTVSPost2010PropOp46
 70
     1
102
RTVSPost2010Prop47
 90
       50
102
RTVSPost2010PropOp47
 70
     1
102
RTVSPost2010Prop48
 90
       50
102
RTVSPost2010PropOp48
 70
     1
102
RTVSPost2010Prop49
280
     0
102
RTVSPost2010PropOp49
 70
     1
102
RTVSPost2010Prop50
 90
       50
102
RTVSPost2010PropOp50
 70
     1
102
RTVSPost2010Prop51ColorIndex
 90
      256
102
RTVSPost2010Prop51ColorRGB
 90
-16777216
102
RTVSPost2010PropOp51
 70
     0
102
RTVSPost2010Prop52
140
1.0
102
RTVSPost2010PropOp52
 70
     0
102
RTVSPost2010Prop53
 90
        2
102
RTVSPost2010PropOp53
 70
     1
102
RTVSPost2010Prop54
  1
strokes_ogs.tif
102
RTVSPost2010PropOp54
 70
     1
102
RTVSPost2010Prop55
280
     0
102
RTVSPost2010PropOp55
 70
     1
102
RTVSPost2010Prop56
140
1.0
102
RTVSPost2010PropOp56
 70
     1
102
RTVSPost2010Prop57
140
1.0
102
RTVSPost2010PropOp57
 70
     1
102
RTVSPropertyOp28
 70
     1
102
RTVSPropertyOp29
 70
     1
102
RTVSPropertyOp30
 70
     1
102
RTVSPropertyOp31
 70
     1
102
RTVSPropertyOp32
 70
     1
102
RTVSPropertyOp33
 70
     1
102
RTVSPropertyOp34
 70
     1
102
RTVSPropertyOp35
 70
     1
102
RTVSPropertyOp36
 70
     1
102
RTVSPropertyOp37
 70
     1
102
RTVSPropertyOp38
 70
     1
102
RTVSPropertyOp39
 70
     1
102
RTVSPropertyOp40
 70
     1
102
RTVSPropertyOp41
 70
     1
102
RTVSPropertyOp42
 70
     1
102
RTVSPropertyOp43
 70
     1
102
RTVSPropertyOp44
 70
     1
102
RTVSPropertyOp45
 70
     1
102
RTVSPropertyOp46
 70
     1
102
RTVSPropertyOp47
 70
     1
102
RTVSPropertyOp48
 70
     1
102
RTVSPropertyOp49
 70
     1
102
RTVSPropertyOp50
 70
     1
102
RTVSPropertyOp51
 70
     0
102
RTVSPropertyOp52
 70
     0
102
RTVSPropertyOp53
 70
     1
102
RTVSPropertyOp54
 70
     1
102
RTVSPropertyOp55
 70
     1
102
RTVSPropertyOp56
 70
     1
102
RTVSPropertyOp57
 70
     1
102
RTVSPropertyOp58
 70
     1
102
RTVSPropertyOp59
 70
     1
102
RTVSPropertyOp60
 70
     1
102
RTVSPropertyOp61
 70
     1
102
RTVSPropertyOp62
 70
     1
102
RTVSPropertyOp0
 70
     1
102
RTVSPropertyOp1
 70
     1
102
RTVSPropertyOp2
 70
     1
102
RTVSPropertyOp3
 70
     1
102
RTVSPropertyOp4
 70
     1
102
RTVSPropertyOp5
 70
     1
102
RTVSPropertyOp6
 70
     1
102
RTVSPropertyOp7
 70
     1
102
RTVSPropertyOp8
 70
     1
102
RTVSPropertyOp9
 70
     1
102
RTVSPropertyOp10
 70
     1
102
RTVSPropertyOp11
 70
     1
102
RTVSPropertyOp12
 70
     1
102
RTVSPropertyOp13
 70
     1
102
RTVSPropertyOp14
 70
     1
102
RTVSPropertyOp15
 70
     1
102
RTVSPropertyOp16
 70
     1
102
RTVSPropertyOp17
 70
     1
102
RTVSPropertyOp18
 70
     1
102
RTVSPropertyOp19
 70
     1
102
RTVSPropertyOp20
 70
     1
102
RTVSPropertyOp21
 70
     1
102
RTVSPropertyOp22
 70
     1
102
RTVSPropertyOp23
 70
     1
102
RTVSPropertyOp24
 70
     1
102
RTVSPropertyOp25
 70
     1
102
RTVSPropertyOp26
 70
     1
102
RTVSPropertyOp27
 70
     1
  0
XRECORD
  5
20E8
102
{ACAD_REACTORS
330
20E7
102
}
330
20E7
100
AcDbXrecord
280
     1
102
RTVSPost2010Prop28
280
     0
102
RTVSPost2010PropOp28
 70
     1
102
RTVSPost2010Prop29
280
     1
102
RTVSPost2010PropOp29
 70
     1
102
RTVSPost2010Prop30
280
     1
102
RTVSPost2010PropOp30
 70
     1
102
RTVSPost2010Prop31
280
     0
102
RTVSPost2010PropOp31
 70
     1
102
RTVSPost2010Prop32
280
     0
102
RTVSPost2010PropOp32
 70
     1
102
RTVSPost2010Prop33
280
     0
102
RTVSPost2010PropOp33
 70
     1
102
RTVSPost2010Prop34
280
     0
102
RTVSPost2010PropOp34
 70
     1
102
RTVSPost2010Prop35
280
     0
102
RTVSPost2010PropOp35
 70
     1
102
RTVSPost2010Prop36
280
     0
102
RTVSPost2010PropOp36
 70
     1
102
RTVSPost2010Prop37
 90
       50
102
RTVSPost2010PropOp37
 70
     1
102
RTVSPost2010Prop38
140
0.0
102
RTVSPost2010PropOp38
 70
     1
102
RTVSPost2010Prop39
140
1.0
102
RTVSPost2010PropOp39
 70
     1
102
RTVSPost2010Prop40
 90
        0
102
RTVSPost2010PropOp40
 70
     1
102
RTVSPost2010Prop41ColorIndex
 90
       18
102
RTVSPost2010Prop41ColorRGB
 90
        0
102
RTVSPost2010PropOp41
 70
     1
102
RTVSPost2010Prop42
 90
       50
102
RTVSPost2010PropOp42
 70
     1
102
RTVSPost2010Prop43
 90
        3
102
RTVSPost2010PropOp43
 70
     1
102
RTVSPost2010Prop44ColorIndex
 90
        5
102
RTVSPost2010Prop44ColorRGB
 90
      255
102
RTVSPost2010PropOp44
 70
     1
102
RTVSPost2010Prop45
280
     0
102
RTVSPost2010PropOp45
 70
     1
102
RTVSPost2010Prop46
 90
       50
102
RTVSPost2010PropOp46
 70
     1
102
RTVSPost2010Prop47
 90
       50
102
RTVSPost2010PropOp47
 70
     1
102
RTVSPost2010Prop48
 90
       50
102
RTVSPost2010PropOp48
 70
     1
102
RTVSPost2010Prop49
280
     0
102
RTVSPost2010PropOp49
 70
     1
102
RTVSPost2010Prop50
 90
       50
102
RTVSPost2010PropOp50
 70
     1
102
RTVSPost2010Prop51ColorIndex
 90
      256
102
RTVSPost2010Prop51ColorRGB
 90
-16777216
102
RTVSPost2010PropOp51
 70
     0
102
RTVSPost2010Prop52
140
1.0
102
RTVSPost2010PropOp52
 70
     0
102
RTVSPost2010Prop53
 90
        2
102
RTVSPost2010PropOp53
 70
     1
102
RTVSPost2010Prop54
  1
strokes_ogs.tif
102
RTVSPost2010PropOp54
 70
     1
102
RTVSPost2010Prop55
280
     0
102
RTVSPost2010PropOp55
 70
     1
102
RTVSPost2010Prop56
140
1.0
102
RTVSPost2010PropOp56
 70
     1
102
RTVSPost2010Prop57
140
1.0
102
RTVSPost2010PropOp57
 70
     1
102
RTVSPropertyOp28
 70
     1
102
RTVSPropertyOp29
 70
     1
102
RTVSPropertyOp30
 70
     1
102
RTVSPropertyOp31
 70
     1
102
RTVSPropertyOp32
 70
     1
102
RTVSPropertyOp33
 70
     1
102
RTVSPropertyOp34
 70
     1
102
RTVSPropertyOp35
 70
     1
102
RTVSPropertyOp36
 70
     1
102
RTVSPropertyOp37
 70
     1
102
RTVSPropertyOp38
 70
     1
102
RTVSPropertyOp39
 70
     1
102
RTVSPropertyOp40
 70
     1
102
RTVSPropertyOp41
 70
     1
102
RTVSPropertyOp42
 70
     1
102
RTVSPropertyOp43
 70
     1
102
RTVSPropertyOp44
 70
     1
102
RTVSPropertyOp45
 70
     1
102
RTVSPropertyOp46
 70
     1
102
RTVSPropertyOp47
 70
     1
102
RTVSPropertyOp48
 70
     1
102
RTVSPropertyOp49
 70
     1
102
RTVSPropertyOp50
 70
     1
102
RTVSPropertyOp51
 70
     0
102
RTVSPropertyOp52
 70
     0
102
RTVSPropertyOp53
 70
     1
102
RTVSPropertyOp54
 70
     1
102
RTVSPropertyOp55
 70
     1
102
RTVSPropertyOp56
 70
     1
102
RTVSPropertyOp57
 70
     1
102
RTVSPropertyOp58
 70
     1
102
RTVSPropertyOp59
 70
     1
102
RTVSPropertyOp60
 70
     1
102
RTVSPropertyOp61
 70
     1
102
RTVSPropertyOp62
 70
     1
102
RTVSPropertyOp0
 70
     1
102
RTVSPropertyOp1
 70
     1
102
RTVSPropertyOp2
 70
     1
102
RTVSPropertyOp3
 70
     1
102
RTVSPropertyOp4
 70
     1
102
RTVSPropertyOp5
 70
     1
102
RTVSPropertyOp6
 70
     1
102
RTVSPropertyOp7
 70
     1
102
RTVSPropertyOp8
 70
     1
102
RTVSPropertyOp9
 70
     1
102
RTVSPropertyOp10
 70
     1
102
RTVSPropertyOp11
 70
     1
102
RTVSPropertyOp12
 70
     1
102
RTVSPropertyOp13
 70
     1
102
RTVSPropertyOp14
 70
     1
102
RTVSPropertyOp15
 70
     1
102
RTVSPropertyOp16
 70
     1
102
RTVSPropertyOp17
 70
     1
102
RTVSPropertyOp18
 70
     1
102
RTVSPropertyOp19
 70
     1
102
RTVSPropertyOp20
 70
     1
102
RTVSPropertyOp21
 70
     1
102
RTVSPropertyOp22
 70
     1
102
RTVSPropertyOp23
 70
     1
102
RTVSPropertyOp24
 70
     1
102
RTVSPropertyOp25
 70
     1
102
RTVSPropertyOp26
 70
     1
102
RTVSPropertyOp27
 70
     1
  0
XRECORD
  5
20F0
102
{ACAD_REACTORS
330
20EF
102
}
330
20EF
100
AcDbXrecord
280
     1
102
RTVSPost2010Prop28
280
     0
102
RTVSPost2010PropOp28
 70
     1
102
RTVSPost2010Prop29
280
     1
102
RTVSPost2010PropOp29
 70
     1
102
RTVSPost2010Prop30
280
     1
102
RTVSPost2010PropOp30
 70
     1
102
RTVSPost2010Prop31
280
     0
102
RTVSPost2010PropOp31
 70
     1
102
RTVSPost2010Prop32
280
     0
102
RTVSPost2010PropOp32
 70
     1
102
RTVSPost2010Prop33
280
     0
102
RTVSPost2010PropOp33
 70
     1
102
RTVSPost2010Prop34
280
     0
102
RTVSPost2010PropOp34
 70
     1
102
RTVSPost2010Prop35
280
     0
102
RTVSPost2010PropOp35
 70
     1
102
RTVSPost2010Prop36
280
     0
102
RTVSPost2010PropOp36
 70
     1
102
RTVSPost2010Prop37
 90
       50
102
RTVSPost2010PropOp37
 70
     1
102
RTVSPost2010Prop38
140
0.0
102
RTVSPost2010PropOp38
 70
     1
102
RTVSPost2010Prop39
140
1.0
102
RTVSPost2010PropOp39
 70
     1
102
RTVSPost2010Prop40
 90
        0
102
RTVSPost2010PropOp40
 70
     1
102
RTVSPost2010Prop41ColorIndex
 90
       18
102
RTVSPost2010Prop41ColorRGB
 90
        0
102
RTVSPost2010PropOp41
 70
     1
102
RTVSPost2010Prop42
 90
       50
102
RTVSPost2010PropOp42
 70
     1
102
RTVSPost2010Prop43
 90
        3
102
RTVSPost2010PropOp43
 70
     1
102
RTVSPost2010Prop44ColorIndex
 90
        5
102
RTVSPost2010Prop44ColorRGB
 90
      255
102
RTVSPost2010PropOp44
 70
     1
102
RTVSPost2010Prop45
280
     0
102
RTVSPost2010PropOp45
 70
     1
102
RTVSPost2010Prop46
 90
       50
102
RTVSPost2010PropOp46
 70
     1
102
RTVSPost2010Prop47
 90
       50
102
RTVSPost2010PropOp47
 70
     1
102
RTVSPost2010Prop48
 90
       50
102
RTVSPost2010PropOp48
 70
     1
102
RTVSPost2010Prop49
280
     0
102
RTVSPost2010PropOp49
 70
     1
102
RTVSPost2010Prop50
 90
       50
102
RTVSPost2010PropOp50
 70
     1
102
RTVSPost2010Prop51ColorIndex
 90
      256
102
RTVSPost2010Prop51ColorRGB
 90
-16777216
102
RTVSPost2010PropOp51
 70
     0
102
RTVSPost2010Prop52
140
1.0
102
RTVSPost2010PropOp52
 70
     0
102
RTVSPost2010Prop53
 90
        2
102
RTVSPost2010PropOp53
 70
     1
102
RTVSPost2010Prop54
  1
strokes_ogs.tif
102
RTVSPost2010PropOp54
 70
     1
102
RTVSPost2010Prop55
280
     0
102
RTVSPost2010PropOp55
 70
     1
102
RTVSPost2010Prop56
140
1.0
102
RTVSPost2010PropOp56
 70
     1
102
RTVSPost2010Prop57
140
1.0
102
RTVSPost2010PropOp57
 70
     1
102
RTVSPropertyOp28
 70
     1
102
RTVSPropertyOp29
 70
     1
102
RTVSPropertyOp30
 70
     1
102
RTVSPropertyOp31
 70
     1
102
RTVSPropertyOp32
 70
     1
102
RTVSPropertyOp33
 70
     1
102
RTVSPropertyOp34
 70
     1
102
RTVSPropertyOp35
 70
     1
102
RTVSPropertyOp36
 70
     1
102
RTVSPropertyOp37
 70
     1
102
RTVSPropertyOp38
 70
     1
102
RTVSPropertyOp39
 70
     1
102
RTVSPropertyOp40
 70
     1
102
RTVSPropertyOp41
 70
     1
102
RTVSPropertyOp42
 70
     1
102
RTVSPropertyOp43
 70
     1
102
RTVSPropertyOp44
 70
     1
102
RTVSPropertyOp45
 70
     1
102
RTVSPropertyOp46
 70
     1
102
RTVSPropertyOp47
 70
     1
102
RTVSPropertyOp48
 70
     1
102
RTVSPropertyOp49
 70
     1
102
RTVSPropertyOp50
 70
     1
102
RTVSPropertyOp51
 70
     0
102
RTVSPropertyOp52
 70
     0
102
RTVSPropertyOp53
 70
     1
102
RTVSPropertyOp54
 70
     1
102
RTVSPropertyOp55
 70
     1
102
RTVSPropertyOp56
 70
     1
102
RTVSPropertyOp57
 70
     1
102
RTVSPropertyOp58
 70
     1
102
RTVSPropertyOp59
 70
     1
102
RTVSPropertyOp60
 70
     1
102
RTVSPropertyOp61
 70
     1
102
RTVSPropertyOp62
 70
     1
102
RTVSPropertyOp0
 70
     1
102
RTVSPropertyOp1
 70
     1
102
RTVSPropertyOp2
 70
     1
102
RTVSPropertyOp3
 70
     1
102
RTVSPropertyOp4
 70
     1
102
RTVSPropertyOp5
 70
     1
102
RTVSPropertyOp6
 70
     1
102
RTVSPropertyOp7
 70
     1
102
RTVSPropertyOp8
 70
     1
102
RTVSPropertyOp9
 70
     1
102
RTVSPropertyOp10
 70
     1
102
RTVSPropertyOp11
 70
     1
102
RTVSPropertyOp12
 70
     1
102
RTVSPropertyOp13
 70
     1
102
RTVSPropertyOp14
 70
     1
102
RTVSPropertyOp15
 70
     1
102
RTVSPropertyOp16
 70
     1
102
RTVSPropertyOp17
 70
     1
102
RTVSPropertyOp18
 70
     1
102
RTVSPropertyOp19
 70
     1
102
RTVSPropertyOp20
 70
     1
102
RTVSPropertyOp21
 70
     1
102
RTVSPropertyOp22
 70
     1
102
RTVSPropertyOp23
 70
     1
102
RTVSPropertyOp24
 70
     1
102
RTVSPropertyOp25
 70
     1
102
RTVSPropertyOp26
 70
     1
102
RTVSPropertyOp27
 70
     1
  0
XRECORD
  5
20E2
102
{ACAD_REACTORS
330
20E1
102
}
330
20E1
100
AcDbXrecord
280
     1
102
RTVSPost2010Prop28
280
     0
102
RTVSPost2010PropOp28
 70
     1
102
RTVSPost2010Prop29
280
     1
102
RTVSPost2010PropOp29
 70
     1
102
RTVSPost2010Prop30
280
     1
102
RTVSPost2010PropOp30
 70
     1
102
RTVSPost2010Prop31
280
     0
102
RTVSPost2010PropOp31
 70
     1
102
RTVSPost2010Prop32
280
     0
102
RTVSPost2010PropOp32
 70
     1
102
RTVSPost2010Prop33
280
     0
102
RTVSPost2010PropOp33
 70
     1
102
RTVSPost2010Prop34
280
     0
102
RTVSPost2010PropOp34
 70
     1
102
RTVSPost2010Prop35
280
     0
102
RTVSPost2010PropOp35
 70
     1
102
RTVSPost2010Prop36
280
     0
102
RTVSPost2010PropOp36
 70
     1
102
RTVSPost2010Prop37
 90
       50
102
RTVSPost2010PropOp37
 70
     1
102
RTVSPost2010Prop38
140
0.0
102
RTVSPost2010PropOp38
 70
     1
102
RTVSPost2010Prop39
140
1.0
102
RTVSPost2010PropOp39
 70
     1
102
RTVSPost2010Prop40
 90
        0
102
RTVSPost2010PropOp40
 70
     1
102
RTVSPost2010Prop41ColorIndex
 90
       18
102
RTVSPost2010Prop41ColorRGB
 90
        0
102
RTVSPost2010PropOp41
 70
     1
102
RTVSPost2010Prop42
 90
       50
102
RTVSPost2010PropOp42
 70
     1
102
RTVSPost2010Prop43
 90
        3
102
RTVSPost2010PropOp43
 70
     1
102
RTVSPost2010Prop44ColorIndex
 90
        5
102
RTVSPost2010Prop44ColorRGB
 90
      255
102
RTVSPost2010PropOp44
 70
     1
102
RTVSPost2010Prop45
280
     0
102
RTVSPost2010PropOp45
 70
     1
102
RTVSPost2010Prop46
 90
       50
102
RTVSPost2010PropOp46
 70
     1
102
RTVSPost2010Prop47
 90
       50
102
RTVSPost2010PropOp47
 70
     1
102
RTVSPost2010Prop48
 90
       50
102
RTVSPost2010PropOp48
 70
     1
102
RTVSPost2010Prop49
280
     0
102
RTVSPost2010PropOp49
 70
     1
102
RTVSPost2010Prop50
 90
       50
102
RTVSPost2010PropOp50
 70
     1
102
RTVSPost2010Prop51ColorIndex
 90
      256
102
RTVSPost2010Prop51ColorRGB
 90
-16777216
102
RTVSPost2010PropOp51
 70
     0
102
RTVSPost2010Prop52
140
1.0
102
RTVSPost2010PropOp52
 70
     0
102
RTVSPost2010Prop53
 90
        2
102
RTVSPost2010PropOp53
 70
     1
102
RTVSPost2010Prop54
  1
strokes_ogs.tif
102
RTVSPost2010PropOp54
 70
     1
102
RTVSPost2010Prop55
280
     0
102
RTVSPost2010PropOp55
 70
     1
102
RTVSPost2010Prop56
140
1.0
102
RTVSPost2010PropOp56
 70
     1
102
RTVSPost2010Prop57
140
1.0
102
RTVSPost2010PropOp57
 70
     1
102
RTVSPropertyOp28
 70
     1
102
RTVSPropertyOp29
 70
     1
102
RTVSPropertyOp30
 70
     1
102
RTVSPropertyOp31
 70
     1
102
RTVSPropertyOp32
 70
     1
102
RTVSPropertyOp33
 70
     1
102
RTVSPropertyOp34
 70
     1
102
RTVSPropertyOp35
 70
     1
102
RTVSPropertyOp36
 70
     1
102
RTVSPropertyOp37
 70
     1
102
RTVSPropertyOp38
 70
     1
102
RTVSPropertyOp39
 70
     1
102
RTVSPropertyOp40
 70
     1
102
RTVSPropertyOp41
 70
     1
102
RTVSPropertyOp42
 70
     1
102
RTVSPropertyOp43
 70
     1
102
RTVSPropertyOp44
 70
     1
102
RTVSPropertyOp45
 70
     1
102
RTVSPropertyOp46
 70
     1
102
RTVSPropertyOp47
 70
     1
102
RTVSPropertyOp48
 70
     1
102
RTVSPropertyOp49
 70
     1
102
RTVSPropertyOp50
 70
     1
102
RTVSPropertyOp51
 70
     0
102
RTVSPropertyOp52
 70
     0
102
RTVSPropertyOp53
 70
     1
102
RTVSPropertyOp54
 70
     1
102
RTVSPropertyOp55
 70
     1
102
RTVSPropertyOp56
 70
     1
102
RTVSPropertyOp57
 70
     1
102
RTVSPropertyOp58
 70
     1
102
RTVSPropertyOp59
 70
     1
102
RTVSPropertyOp60
 70
     1
102
RTVSPropertyOp61
 70
     1
102
RTVSPropertyOp62
 70
     1
102
RTVSPropertyOp0
 70
     1
102
RTVSPropertyOp1
 70
     1
102
RTVSPropertyOp2
 70
     1
102
RTVSPropertyOp3
 70
     1
102
RTVSPropertyOp4
 70
     1
102
RTVSPropertyOp5
 70
     1
102
RTVSPropertyOp6
 70
     1
102
RTVSPropertyOp7
 70
     1
102
RTVSPropertyOp8
 70
     1
102
RTVSPropertyOp9
 70
     1
102
RTVSPropertyOp10
 70
     1
102
RTVSPropertyOp11
 70
     1
102
RTVSPropertyOp12
 70
     1
102
RTVSPropertyOp13
 70
     1
102
RTVSPropertyOp14
 70
     1
102
RTVSPropertyOp15
 70
     1
102
RTVSPropertyOp16
 70
     1
102
RTVSPropertyOp17
 70
     1
102
RTVSPropertyOp18
 70
     1
102
RTVSPropertyOp19
 70
     1
102
RTVSPropertyOp20
 70
     1
102
RTVSPropertyOp21
 70
     1
102
RTVSPropertyOp22
 70
     1
102
RTVSPropertyOp23
 70
     1
102
RTVSPropertyOp24
 70
     1
102
RTVSPropertyOp25
 70
     1
102
RTVSPropertyOp26
 70
     1
102
RTVSPropertyOp27
 70
     1
  0
XRECORD
  5
20E6
102
{ACAD_REACTORS
330
20E5
102
}
330
20E5
100
AcDbXrecord
280
     1
102
RTVSPost2010Prop28
280
     0
102
RTVSPost2010PropOp28
 70
     1
102
RTVSPost2010Prop29
280
     1
102
RTVSPost2010PropOp29
 70
     1
102
RTVSPost2010Prop30
280
     1
102
RTVSPost2010PropOp30
 70
     1
102
RTVSPost2010Prop31
280
     0
102
RTVSPost2010PropOp31
 70
     1
102
RTVSPost2010Prop32
280
     0
102
RTVSPost2010PropOp32
 70
     1
102
RTVSPost2010Prop33
280
     0
102
RTVSPost2010PropOp33
 70
     1
102
RTVSPost2010Prop34
280
     0
102
RTVSPost2010PropOp34
 70
     1
102
RTVSPost2010Prop35
280
     0
102
RTVSPost2010PropOp35
 70
     1
102
RTVSPost2010Prop36
280
     0
102
RTVSPost2010PropOp36
 70
     1
102
RTVSPost2010Prop37
 90
       50
102
RTVSPost2010PropOp37
 70
     1
102
RTVSPost2010Prop38
140
0.0
102
RTVSPost2010PropOp38
 70
     1
102
RTVSPost2010Prop39
140
1.0
102
RTVSPost2010PropOp39
 70
     1
102
RTVSPost2010Prop40
 90
        0
102
RTVSPost2010PropOp40
 70
     1
102
RTVSPost2010Prop41ColorIndex
 90
       18
102
RTVSPost2010Prop41ColorRGB
 90
        0
102
RTVSPost2010PropOp41
 70
     1
102
RTVSPost2010Prop42
 90
       50
102
RTVSPost2010PropOp42
 70
     1
102
RTVSPost2010Prop43
 90
        3
102
RTVSPost2010PropOp43
 70
     1
102
RTVSPost2010Prop44ColorIndex
 90
        5
102
RTVSPost2010Prop44ColorRGB
 90
      255
102
RTVSPost2010PropOp44
 70
     1
102
RTVSPost2010Prop45
280
     0
102
RTVSPost2010PropOp45
 70
     1
102
RTVSPost2010Prop46
 90
       50
102
RTVSPost2010PropOp46
 70
     1
102
RTVSPost2010Prop47
 90
       50
102
RTVSPost2010PropOp47
 70
     1
102
RTVSPost2010Prop48
 90
       50
102
RTVSPost2010PropOp48
 70
     1
102
RTVSPost2010Prop49
280
     0
102
RTVSPost2010PropOp49
 70
     1
102
RTVSPost2010Prop50
 90
       50
102
RTVSPost2010PropOp50
 70
     1
102
RTVSPost2010Prop51ColorIndex
 90
      256
102
RTVSPost2010Prop51ColorRGB
 90
-16777216
102
RTVSPost2010PropOp51
 70
     0
102
RTVSPost2010Prop52
140
1.0
102
RTVSPost2010PropOp52
 70
     0
102
RTVSPost2010Prop53
 90
        2
102
RTVSPost2010PropOp53
 70
     1
102
RTVSPost2010Prop54
  1
strokes_ogs.tif
102
RTVSPost2010PropOp54
 70
     1
102
RTVSPost2010Prop55
280
     0
102
RTVSPost2010PropOp55
 70
     1
102
RTVSPost2010Prop56
140
1.0
102
RTVSPost2010PropOp56
 70
     1
102
RTVSPost2010Prop57
140
1.0
102
RTVSPost2010PropOp57
 70
     1
102
RTVSPropertyOp28
 70
     1
102
RTVSPropertyOp29
 70
     1
102
RTVSPropertyOp30
 70
     1
102
RTVSPropertyOp31
 70
     1
102
RTVSPropertyOp32
 70
     1
102
RTVSPropertyOp33
 70
     1
102
RTVSPropertyOp34
 70
     1
102
RTVSPropertyOp35
 70
     1
102
RTVSPropertyOp36
 70
     1
102
RTVSPropertyOp37
 70
     1
102
RTVSPropertyOp38
 70
     1
102
RTVSPropertyOp39
 70
     1
102
RTVSPropertyOp40
 70
     1
102
RTVSPropertyOp41
 70
     1
102
RTVSPropertyOp42
 70
     1
102
RTVSPropertyOp43
 70
     1
102
RTVSPropertyOp44
 70
     1
102
RTVSPropertyOp45
 70
     1
102
RTVSPropertyOp46
 70
     1
102
RTVSPropertyOp47
 70
     1
102
RTVSPropertyOp48
 70
     1
102
RTVSPropertyOp49
 70
     1
102
RTVSPropertyOp50
 70
     1
102
RTVSPropertyOp51
 70
     0
102
RTVSPropertyOp52
 70
     0
102
RTVSPropertyOp53
 70
     1
102
RTVSPropertyOp54
 70
     1
102
RTVSPropertyOp55
 70
     1
102
RTVSPropertyOp56
 70
     1
102
RTVSPropertyOp57
 70
     1
102
RTVSPropertyOp58
 70
     1
102
RTVSPropertyOp59
 70
     1
102
RTVSPropertyOp60
 70
     1
102
RTVSPropertyOp61
 70
     1
102
RTVSPropertyOp62
 70
     1
102
RTVSPropertyOp0
 70
     1
102
RTVSPropertyOp1
 70
     1
102
RTVSPropertyOp2
 70
     1
102
RTVSPropertyOp3
 70
     1
102
RTVSPropertyOp4
 70
     1
102
RTVSPropertyOp5
 70
     1
102
RTVSPropertyOp6
 70
     1
102
RTVSPropertyOp7
 70
     1
102
RTVSPropertyOp8
 70
     1
102
RTVSPropertyOp9
 70
     1
102
RTVSPropertyOp10
 70
     1
102
RTVSPropertyOp11
 70
     1
102
RTVSPropertyOp12
 70
     1
102
RTVSPropertyOp13
 70
     1
102
RTVSPropertyOp14
 70
     1
102
RTVSPropertyOp15
 70
     1
102
RTVSPropertyOp16
 70
     1
102
RTVSPropertyOp17
 70
     1
102
RTVSPropertyOp18
 70
     1
102
RTVSPropertyOp19
 70
     1
102
RTVSPropertyOp20
 70
     1
102
RTVSPropertyOp21
 70
     1
102
RTVSPropertyOp22
 70
     1
102
RTVSPropertyOp23
 70
     1
102
RTVSPropertyOp24
 70
     1
102
RTVSPropertyOp25
 70
     1
102
RTVSPropertyOp26
 70
     1
102
RTVSPropertyOp27
 70
     1
  0
XRECORD
  5
20F6
102
{ACAD_REACTORS
330
20F5
102
}
330
20F5
100
AcDbXrecord
280
     1
102
RTVSPost2010Prop28
280
     0
102
RTVSPost2010PropOp28
 70
     1
102
RTVSPost2010Prop29
280
     1
102
RTVSPost2010PropOp29
 70
     1
102
RTVSPost2010Prop30
280
     1
102
RTVSPost2010PropOp30
 70
     1
102
RTVSPost2010Prop31
280
     0
102
RTVSPost2010PropOp31
 70
     1
102
RTVSPost2010Prop32
280
     0
102
RTVSPost2010PropOp32
 70
     1
102
RTVSPost2010Prop33
280
     0
102
RTVSPost2010PropOp33
 70
     1
102
RTVSPost2010Prop34
280
     0
102
RTVSPost2010PropOp34
 70
     1
102
RTVSPost2010Prop35
280
     0
102
RTVSPost2010PropOp35
 70
     1
102
RTVSPost2010Prop36
280
     0
102
RTVSPost2010PropOp36
 70
     1
102
RTVSPost2010Prop37
 90
       50
102
RTVSPost2010PropOp37
 70
     1
102
RTVSPost2010Prop38
140
0.0
102
RTVSPost2010PropOp38
 70
     1
102
RTVSPost2010Prop39
140
1.0
102
RTVSPost2010PropOp39
 70
     1
102
RTVSPost2010Prop40
 90
        0
102
RTVSPost2010PropOp40
 70
     1
102
RTVSPost2010Prop41ColorIndex
 90
       18
102
RTVSPost2010Prop41ColorRGB
 90
        0
102
RTVSPost2010PropOp41
 70
     1
102
RTVSPost2010Prop42
 90
       50
102
RTVSPost2010PropOp42
 70
     1
102
RTVSPost2010Prop43
 90
        3
102
RTVSPost2010PropOp43
 70
     1
102
RTVSPost2010Prop44ColorIndex
 90
        5
102
RTVSPost2010Prop44ColorRGB
 90
      255
102
RTVSPost2010PropOp44
 70
     1
102
RTVSPost2010Prop45
280
     0
102
RTVSPost2010PropOp45
 70
     1
102
RTVSPost2010Prop46
 90
       50
102
RTVSPost2010PropOp46
 70
     1
102
RTVSPost2010Prop47
 90
       50
102
RTVSPost2010PropOp47
 70
     1
102
RTVSPost2010Prop48
 90
       50
102
RTVSPost2010PropOp48
 70
     1
102
RTVSPost2010Prop49
280
     0
102
RTVSPost2010PropOp49
 70
     1
102
RTVSPost2010Prop50
 90
       50
102
RTVSPost2010PropOp50
 70
     1
102
RTVSPost2010Prop51ColorIndex
 90
      256
102
RTVSPost2010Prop51ColorRGB
 90
-16777216
102
RTVSPost2010PropOp51
 70
     0
102
RTVSPost2010Prop52
140
1.0
102
RTVSPost2010PropOp52
 70
     0
102
RTVSPost2010Prop53
 90
        2
102
RTVSPost2010PropOp53
 70
     1
102
RTVSPost2010Prop54
  1
strokes_ogs.tif
102
RTVSPost2010PropOp54
 70
     1
102
RTVSPost2010Prop55
280
     0
102
RTVSPost2010PropOp55
 70
     1
102
RTVSPost2010Prop56
140
1.0
102
RTVSPost2010PropOp56
 70
     1
102
RTVSPost2010Prop57
140
1.0
102
RTVSPost2010PropOp57
 70
     1
102
RTVSPropertyOp28
 70
     1
102
RTVSPropertyOp29
 70
     1
102
RTVSPropertyOp30
 70
     1
102
RTVSPropertyOp31
 70
     1
102
RTVSPropertyOp32
 70
     1
102
RTVSPropertyOp33
 70
     1
102
RTVSPropertyOp34
 70
     1
102
RTVSPropertyOp35
 70
     1
102
RTVSPropertyOp36
 70
     1
102
RTVSPropertyOp37
 70
     1
102
RTVSPropertyOp38
 70
     1
102
RTVSPropertyOp39
 70
     1
102
RTVSPropertyOp40
 70
     1
102
RTVSPropertyOp41
 70
     1
102
RTVSPropertyOp42
 70
     1
102
RTVSPropertyOp43
 70
     1
102
RTVSPropertyOp44
 70
     1
102
RTVSPropertyOp45
 70
     1
102
RTVSPropertyOp46
 70
     1
102
RTVSPropertyOp47
 70
     1
102
RTVSPropertyOp48
 70
     1
102
RTVSPropertyOp49
 70
     1
102
RTVSPropertyOp50
 70
     1
102
RTVSPropertyOp51
 70
     0
102
RTVSPropertyOp52
 70
     0
102
RTVSPropertyOp53
 70
     1
102
RTVSPropertyOp54
 70
     1
102
RTVSPropertyOp55
 70
     1
102
RTVSPropertyOp56
 70
     1
102
RTVSPropertyOp57
 70
     1
102
RTVSPropertyOp58
 70
     1
102
RTVSPropertyOp59
 70
     1
102
RTVSPropertyOp60
 70
     1
102
RTVSPropertyOp61
 70
     1
102
RTVSPropertyOp62
 70
     1
102
RTVSPropertyOp0
 70
     0
102
RTVSPropertyOp1
 70
     0
102
RTVSPropertyOp2
 70
     0
102
RTVSPropertyOp3
 70
     0
102
RTVSPropertyOp4
 70
     0
102
RTVSPropertyOp5
 70
     0
102
RTVSPropertyOp6
 70
     0
102
RTVSPropertyOp7
 70
     0
102
RTVSPropertyOp8
 70
     0
102
RTVSPropertyOp9
 70
     0
102
RTVSPropertyOp10
 70
     0
102
RTVSPropertyOp11
 70
     0
102
RTVSPropertyOp12
 70
     0
102
RTVSPropertyOp13
 70
     0
102
RTVSPropertyOp14
 70
     2
102
RTVSPropertyOp15
 70
     0
102
RTVSPropertyOp16
 70
     0
102
RTVSPropertyOp17
 70
     0
102
RTVSPropertyOp18
 70
     0
102
RTVSPropertyOp19
 70
     0
102
RTVSPropertyOp20
 70
     0
102
RTVSPropertyOp21
 70
     0
102
RTVSPropertyOp22
 70
     0
102
RTVSPropertyOp23
 70
     0
102
RTVSPropertyOp24
 70
     0
102
RTVSPropertyOp25
 70
     0
102
RTVSPropertyOp26
 70
     0
102
RTVSPropertyOp27
 70
     0
  0
XRECORD
  5
20EE
102
{ACAD_REACTORS
330
20ED
102
}
330
20ED
100
AcDbXrecord
280
     1
102
RTVSPost2010Prop28
280
     0
102
RTVSPost2010PropOp28
 70
     1
102
RTVSPost2010Prop29
280
     1
102
RTVSPost2010PropOp29
 70
     1
102
RTVSPost2010Prop30
280
     1
102
RTVSPost2010PropOp30
 70
     1
102
RTVSPost2010Prop31
280
     0
102
RTVSPost2010PropOp31
 70
     1
102
RTVSPost2010Prop32
280
     0
102
RTVSPost2010PropOp32
 70
     1
102
RTVSPost2010Prop33
280
     0
102
RTVSPost2010PropOp33
 70
     1
102
RTVSPost2010Prop34
280
     0
102
RTVSPost2010PropOp34
 70
     1
102
RTVSPost2010Prop35
280
     0
102
RTVSPost2010PropOp35
 70
     1
102
RTVSPost2010Prop36
280
     0
102
RTVSPost2010PropOp36
 70
     1
102
RTVSPost2010Prop37
 90
       50
102
RTVSPost2010PropOp37
 70
     1
102
RTVSPost2010Prop38
140
0.0
102
RTVSPost2010PropOp38
 70
     1
102
RTVSPost2010Prop39
140
1.0
102
RTVSPost2010PropOp39
 70
     1
102
RTVSPost2010Prop40
 90
        0
102
RTVSPost2010PropOp40
 70
     1
102
RTVSPost2010Prop41ColorIndex
 90
       18
102
RTVSPost2010Prop41ColorRGB
 90
        0
102
RTVSPost2010PropOp41
 70
     1
102
RTVSPost2010Prop42
 90
       50
102
RTVSPost2010PropOp42
 70
     1
102
RTVSPost2010Prop43
 90
        3
102
RTVSPost2010PropOp43
 70
     1
102
RTVSPost2010Prop44ColorIndex
 90
        5
102
RTVSPost2010Prop44ColorRGB
 90
      255
102
RTVSPost2010PropOp44
 70
     1
102
RTVSPost2010Prop45
280
     0
102
RTVSPost2010PropOp45
 70
     1
102
RTVSPost2010Prop46
 90
       50
102
RTVSPost2010PropOp46
 70
     1
102
RTVSPost2010Prop47
 90
       50
102
RTVSPost2010PropOp47
 70
     1
102
RTVSPost2010Prop48
 90
       50
102
RTVSPost2010PropOp48
 70
     1
102
RTVSPost2010Prop49
280
     0
102
RTVSPost2010PropOp49
 70
     1
102
RTVSPost2010Prop50
 90
       50
102
RTVSPost2010PropOp50
 70
     1
102
RTVSPost2010Prop51ColorIndex
 90
      256
102
RTVSPost2010Prop51ColorRGB
 90
-16777216
102
RTVSPost2010PropOp51
 70
     0
102
RTVSPost2010Prop52
140
1.0
102
RTVSPost2010PropOp52
 70
     0
102
RTVSPost2010Prop53
 90
        2
102
RTVSPost2010PropOp53
 70
     1
102
RTVSPost2010Prop54
  1
strokes_ogs.tif
102
RTVSPost2010PropOp54
 70
     1
102
RTVSPost2010Prop55
280
     0
102
RTVSPost2010PropOp55
 70
     1
102
RTVSPost2010Prop56
140
1.0
102
RTVSPost2010PropOp56
 70
     1
102
RTVSPost2010Prop57
140
1.0
102
RTVSPost2010PropOp57
 70
     1
102
RTVSPropertyOp28
 70
     1
102
RTVSPropertyOp29
 70
     1
102
RTVSPropertyOp30
 70
     1
102
RTVSPropertyOp31
 70
     1
102
RTVSPropertyOp32
 70
     1
102
RTVSPropertyOp33
 70
     1
102
RTVSPropertyOp34
 70
     1
102
RTVSPropertyOp35
 70
     1
102
RTVSPropertyOp36
 70
     1
102
RTVSPropertyOp37
 70
     1
102
RTVSPropertyOp38
 70
     1
102
RTVSPropertyOp39
 70
     1
102
RTVSPropertyOp40
 70
     1
102
RTVSPropertyOp41
 70
     1
102
RTVSPropertyOp42
 70
     1
102
RTVSPropertyOp43
 70
     1
102
RTVSPropertyOp44
 70
     1
102
RTVSPropertyOp45
 70
     1
102
RTVSPropertyOp46
 70
     1
102
RTVSPropertyOp47
 70
     1
102
RTVSPropertyOp48
 70
     1
102
RTVSPropertyOp49
 70
     1
102
RTVSPropertyOp50
 70
     1
102
RTVSPropertyOp51
 70
     0
102
RTVSPropertyOp52
 70
     0
102
RTVSPropertyOp53
 70
     1
102
RTVSPropertyOp54
 70
     1
102
RTVSPropertyOp55
 70
     1
102
RTVSPropertyOp56
 70
     1
102
RTVSPropertyOp57
 70
     1
102
RTVSPropertyOp58
 70
     1
102
RTVSPropertyOp59
 70
     1
102
RTVSPropertyOp60
 70
     1
102
RTVSPropertyOp61
 70
     1
102
RTVSPropertyOp62
 70
     1
102
RTVSPropertyOp0
 70
     1
102
RTVSPropertyOp1
 70
     1
102
RTVSPropertyOp2
 70
     1
102
RTVSPropertyOp3
 70
     1
102
RTVSPropertyOp4
 70
     1
102
RTVSPropertyOp5
 70
     1
102
RTVSPropertyOp6
 70
     1
102
RTVSPropertyOp7
 70
     1
102
RTVSPropertyOp8
 70
     1
102
RTVSPropertyOp9
 70
     1
102
RTVSPropertyOp10
 70
     1
102
RTVSPropertyOp11
 70
     1
102
RTVSPropertyOp12
 70
     1
102
RTVSPropertyOp13
 70
     1
102
RTVSPropertyOp14
 70
     1
102
RTVSPropertyOp15
 70
     1
102
RTVSPropertyOp16
 70
     1
102
RTVSPropertyOp17
 70
     1
102
RTVSPropertyOp18
 70
     1
102
RTVSPropertyOp19
 70
     1
102
RTVSPropertyOp20
 70
     1
102
RTVSPropertyOp21
 70
     1
102
RTVSPropertyOp22
 70
     1
102
RTVSPropertyOp23
 70
     1
102
RTVSPropertyOp24
 70
     1
102
RTVSPropertyOp25
 70
     1
102
RTVSPropertyOp26
 70
     1
102
RTVSPropertyOp27
 70
     1
  0
XRECORD
  5
20D2
102
{ACAD_REACTORS
330
20D1
102
}
330
20D1
100
AcDbXrecord
280
     1
102
RTVSPost2010Prop28
280
     0
102
RTVSPost2010PropOp28
 70
     1
102
RTVSPost2010Prop29
280
     1
102
RTVSPost2010PropOp29
 70
     1
102
RTVSPost2010Prop30
280
     1
102
RTVSPost2010PropOp30
 70
     1
102
RTVSPost2010Prop31
280
     0
102
RTVSPost2010PropOp31
 70
     1
102
RTVSPost2010Prop32
280
     0
102
RTVSPost2010PropOp32
 70
     1
102
RTVSPost2010Prop33
280
     0
102
RTVSPost2010PropOp33
 70
     1
102
RTVSPost2010Prop34
280
     0
102
RTVSPost2010PropOp34
 70
     1
102
RTVSPost2010Prop35
280
     0
102
RTVSPost2010PropOp35
 70
     1
102
RTVSPost2010Prop36
280
     0
102
RTVSPost2010PropOp36
 70
     1
102
RTVSPost2010Prop37
 90
       50
102
RTVSPost2010PropOp37
 70
     1
102
RTVSPost2010Prop38
140
0.0
102
RTVSPost2010PropOp38
 70
     1
102
RTVSPost2010Prop39
140
1.0
102
RTVSPost2010PropOp39
 70
     1
102
RTVSPost2010Prop40
 90
        0
102
RTVSPost2010PropOp40
 70
     1
102
RTVSPost2010Prop41ColorIndex
 90
       18
102
RTVSPost2010Prop41ColorRGB
 90
        0
102
RTVSPost2010PropOp41
 70
     1
102
RTVSPost2010Prop42
 90
       50
102
RTVSPost2010PropOp42
 70
     1
102
RTVSPost2010Prop43
 90
        3
102
RTVSPost2010PropOp43
 70
     1
102
RTVSPost2010Prop44ColorIndex
 90
        5
102
RTVSPost2010Prop44ColorRGB
 90
      255
102
RTVSPost2010PropOp44
 70
     1
102
RTVSPost2010Prop45
280
     0
102
RTVSPost2010PropOp45
 70
     1
102
RTVSPost2010Prop46
 90
       50
102
RTVSPost2010PropOp46
 70
     1
102
RTVSPost2010Prop47
 90
       50
102
RTVSPost2010PropOp47
 70
     1
102
RTVSPost2010Prop48
 90
       50
102
RTVSPost2010PropOp48
 70
     1
102
RTVSPost2010Prop49
280
     0
102
RTVSPost2010PropOp49
 70
     1
102
RTVSPost2010Prop50
 90
       50
102
RTVSPost2010PropOp50
 70
     1
102
RTVSPost2010Prop51ColorIndex
 90
      256
102
RTVSPost2010Prop51ColorRGB
 90
-16777216
102
RTVSPost2010PropOp51
 70
     0
102
RTVSPost2010Prop52
140
1.0
102
RTVSPost2010PropOp52
 70
     0
102
RTVSPost2010Prop53
 90
        2
102
RTVSPost2010PropOp53
 70
     1
102
RTVSPost2010Prop54
  1
strokes_ogs.tif
102
RTVSPost2010PropOp54
 70
     1
102
RTVSPost2010Prop55
280
     0
102
RTVSPost2010PropOp55
 70
     1
102
RTVSPost2010Prop56
140
1.0
102
RTVSPost2010PropOp56
 70
     1
102
RTVSPost2010Prop57
140
1.0
102
RTVSPost2010PropOp57
 70
     1
102
RTVSPropertyOp28
 70
     1
102
RTVSPropertyOp29
 70
     1
102
RTVSPropertyOp30
 70
     1
102
RTVSPropertyOp31
 70
     1
102
RTVSPropertyOp32
 70
     1
102
RTVSPropertyOp33
 70
     1
102
RTVSPropertyOp34
 70
     1
102
RTVSPropertyOp35
 70
     1
102
RTVSPropertyOp36
 70
     1
102
RTVSPropertyOp37
 70
     1
102
RTVSPropertyOp38
 70
     1
102
RTVSPropertyOp39
 70
     1
102
RTVSPropertyOp40
 70
     1
102
RTVSPropertyOp41
 70
     1
102
RTVSPropertyOp42
 70
     1
102
RTVSPropertyOp43
 70
     1
102
RTVSPropertyOp44
 70
     1
102
RTVSPropertyOp45
 70
     1
102
RTVSPropertyOp46
 70
     1
102
RTVSPropertyOp47
 70
     1
102
RTVSPropertyOp48
 70
     1
102
RTVSPropertyOp49
 70
     1
102
RTVSPropertyOp50
 70
     1
102
RTVSPropertyOp51
 70
     0
102
RTVSPropertyOp52
 70
     0
102
RTVSPropertyOp53
 70
     1
102
RTVSPropertyOp54
 70
     1
102
RTVSPropertyOp55
 70
     1
102
RTVSPropertyOp56
 70
     1
102
RTVSPropertyOp57
 70
     1
102
RTVSPropertyOp58
 70
     1
102
RTVSPropertyOp59
 70
     1
102
RTVSPropertyOp60
 70
     1
102
RTVSPropertyOp61
 70
     1
102
RTVSPropertyOp62
 70
     1
102
RTVSPropertyOp0
 70
     1
102
RTVSPropertyOp1
 70
     1
102
RTVSPropertyOp2
 70
     1
102
RTVSPropertyOp3
 70
     1
102
RTVSPropertyOp4
 70
     1
102
RTVSPropertyOp5
 70
     1
102
RTVSPropertyOp6
 70
     1
102
RTVSPropertyOp7
 70
     1
102
RTVSPropertyOp8
 70
     1
102
RTVSPropertyOp9
 70
     1
102
RTVSPropertyOp10
 70
     1
102
RTVSPropertyOp11
 70
     1
102
RTVSPropertyOp12
 70
     1
102
RTVSPropertyOp13
 70
     1
102
RTVSPropertyOp14
 70
     1
102
RTVSPropertyOp15
 70
     1
102
RTVSPropertyOp16
 70
     1
102
RTVSPropertyOp17
 70
     1
102
RTVSPropertyOp18
 70
     1
102
RTVSPropertyOp19
 70
     1
102
RTVSPropertyOp20
 70
     1
102
RTVSPropertyOp21
 70
     1
102
RTVSPropertyOp22
 70
     1
102
RTVSPropertyOp23
 70
     1
102
RTVSPropertyOp24
 70
     1
102
RTVSPropertyOp25
 70
     1
102
RTVSPropertyOp26
 70
     1
102
RTVSPropertyOp27
 70
     1
  0
XRECORD
  5
20D4
102
{ACAD_REACTORS
330
20D3
102
}
330
20D3
100
AcDbXrecord
280
     1
102
RTVSPost2010Prop28
280
     0
102
RTVSPost2010PropOp28
 70
     1
102
RTVSPost2010Prop29
280
     1
102
RTVSPost2010PropOp29
 70
     1
102
RTVSPost2010Prop30
280
     1
102
RTVSPost2010PropOp30
 70
     1
102
RTVSPost2010Prop31
280
     0
102
RTVSPost2010PropOp31
 70
     1
102
RTVSPost2010Prop32
280
     0
102
RTVSPost2010PropOp32
 70
     1
102
RTVSPost2010Prop33
280
     0
102
RTVSPost2010PropOp33
 70
     1
102
RTVSPost2010Prop34
280
     0
102
RTVSPost2010PropOp34
 70
     1
102
RTVSPost2010Prop35
280
     0
102
RTVSPost2010PropOp35
 70
     1
102
RTVSPost2010Prop36
280
     0
102
RTVSPost2010PropOp36
 70
     1
102
RTVSPost2010Prop37
 90
       50
102
RTVSPost2010PropOp37
 70
     1
102
RTVSPost2010Prop38
140
0.0
102
RTVSPost2010PropOp38
 70
     1
102
RTVSPost2010Prop39
140
1.0
102
RTVSPost2010PropOp39
 70
     1
102
RTVSPost2010Prop40
 90
        0
102
RTVSPost2010PropOp40
 70
     1
102
RTVSPost2010Prop41ColorIndex
 90
       18
102
RTVSPost2010Prop41ColorRGB
 90
        0
102
RTVSPost2010PropOp41
 70
     1
102
RTVSPost2010Prop42
 90
       50
102
RTVSPost2010PropOp42
 70
     1
102
RTVSPost2010Prop43
 90
        3
102
RTVSPost2010PropOp43
 70
     1
102
RTVSPost2010Prop44ColorIndex
 90
        5
102
RTVSPost2010Prop44ColorRGB
 90
      255
102
RTVSPost2010PropOp44
 70
     1
102
RTVSPost2010Prop45
280
     0
102
RTVSPost2010PropOp45
 70
     1
102
RTVSPost2010Prop46
 90
       50
102
RTVSPost2010PropOp46
 70
     1
102
RTVSPost2010Prop47
 90
       50
102
RTVSPost2010PropOp47
 70
     1
102
RTVSPost2010Prop48
 90
       50
102
RTVSPost2010PropOp48
 70
     1
102
RTVSPost2010Prop49
280
     0
102
RTVSPost2010PropOp49
 70
     1
102
RTVSPost2010Prop50
 90
       50
102
RTVSPost2010PropOp50
 70
     1
102
RTVSPost2010Prop51ColorIndex
 90
      256
102
RTVSPost2010Prop51ColorRGB
 90
-16777216
102
RTVSPost2010PropOp51
 70
     0
102
RTVSPost2010Prop52
140
1.0
102
RTVSPost2010PropOp52
 70
     0
102
RTVSPost2010Prop53
 90
        2
102
RTVSPost2010PropOp53
 70
     1
102
RTVSPost2010Prop54
  1
strokes_ogs.tif
102
RTVSPost2010PropOp54
 70
     1
102
RTVSPost2010Prop55
280
     0
102
RTVSPost2010PropOp55
 70
     1
102
RTVSPost2010Prop56
140
1.0
102
RTVSPost2010PropOp56
 70
     1
102
RTVSPost2010Prop57
140
1.0
102
RTVSPost2010PropOp57
 70
     1
102
RTVSPropertyOp28
 70
     1
102
RTVSPropertyOp29
 70
     1
102
RTVSPropertyOp30
 70
     1
102
RTVSPropertyOp31
 70
     1
102
RTVSPropertyOp32
 70
     1
102
RTVSPropertyOp33
 70
     1
102
RTVSPropertyOp34
 70
     1
102
RTVSPropertyOp35
 70
     1
102
RTVSPropertyOp36
 70
     1
102
RTVSPropertyOp37
 70
     1
102
RTVSPropertyOp38
 70
     1
102
RTVSPropertyOp39
 70
     1
102
RTVSPropertyOp40
 70
     1
102
RTVSPropertyOp41
 70
     1
102
RTVSPropertyOp42
 70
     1
102
RTVSPropertyOp43
 70
     1
102
RTVSPropertyOp44
 70
     1
102
RTVSPropertyOp45
 70
     1
102
RTVSPropertyOp46
 70
     1
102
RTVSPropertyOp47
 70
     1
102
RTVSPropertyOp48
 70
     1
102
RTVSPropertyOp49
 70
     1
102
RTVSPropertyOp50
 70
     1
102
RTVSPropertyOp51
 70
     0
102
RTVSPropertyOp52
 70
     0
102
RTVSPropertyOp53
 70
     1
102
RTVSPropertyOp54
 70
     1
102
RTVSPropertyOp55
 70
     1
102
RTVSPropertyOp56
 70
     1
102
RTVSPropertyOp57
 70
     1
102
RTVSPropertyOp58
 70
     1
102
RTVSPropertyOp59
 70
     1
102
RTVSPropertyOp60
 70
     1
102
RTVSPropertyOp61
 70
     1
102
RTVSPropertyOp62
 70
     1
102
RTVSPropertyOp0
 70
     1
102
RTVSPropertyOp1
 70
     1
102
RTVSPropertyOp2
 70
     1
102
RTVSPropertyOp3
 70
     1
102
RTVSPropertyOp4
 70
     1
102
RTVSPropertyOp5
 70
     1
102
RTVSPropertyOp6
 70
     1
102
RTVSPropertyOp7
 70
     1
102
RTVSPropertyOp8
 70
     1
102
RTVSPropertyOp9
 70
     1
102
RTVSPropertyOp10
 70
     1
102
RTVSPropertyOp11
 70
     1
102
RTVSPropertyOp12
 70
     1
102
RTVSPropertyOp13
 70
     1
102
RTVSPropertyOp14
 70
     1
102
RTVSPropertyOp15
 70
     1
102
RTVSPropertyOp16
 70
     1
102
RTVSPropertyOp17
 70
     1
102
RTVSPropertyOp18
 70
     1
102
RTVSPropertyOp19
 70
     1
102
RTVSPropertyOp20
 70
     1
102
RTVSPropertyOp21
 70
     1
102
RTVSPropertyOp22
 70
     1
102
RTVSPropertyOp23
 70
     1
102
RTVSPropertyOp24
 70
     1
102
RTVSPropertyOp25
 70
     1
102
RTVSPropertyOp26
 70
     1
102
RTVSPropertyOp27
 70
     1
  0
XRECORD
  5
20D6
102
{ACAD_REACTORS
330
20D5
102
}
330
20D5
100
AcDbXrecord
280
     1
102
RTVSPost2010Prop28
280
     0
102
RTVSPost2010PropOp28
 70
     1
102
RTVSPost2010Prop29
280
     1
102
RTVSPost2010PropOp29
 70
     1
102
RTVSPost2010Prop30
280
     1
102
RTVSPost2010PropOp30
 70
     1
102
RTVSPost2010Prop31
280
     0
102
RTVSPost2010PropOp31
 70
     1
102
RTVSPost2010Prop32
280
     0
102
RTVSPost2010PropOp32
 70
     1
102
RTVSPost2010Prop33
280
     0
102
RTVSPost2010PropOp33
 70
     1
102
RTVSPost2010Prop34
280
     0
102
RTVSPost2010PropOp34
 70
     1
102
RTVSPost2010Prop35
280
     0
102
RTVSPost2010PropOp35
 70
     1
102
RTVSPost2010Prop36
280
     0
102
RTVSPost2010PropOp36
 70
     1
102
RTVSPost2010Prop37
 90
       50
102
RTVSPost2010PropOp37
 70
     1
102
RTVSPost2010Prop38
140
0.0
102
RTVSPost2010PropOp38
 70
     1
102
RTVSPost2010Prop39
140
1.0
102
RTVSPost2010PropOp39
 70
     1
102
RTVSPost2010Prop40
 90
        0
102
RTVSPost2010PropOp40
 70
     1
102
RTVSPost2010Prop41ColorIndex
 90
       18
102
RTVSPost2010Prop41ColorRGB
 90
        0
102
RTVSPost2010PropOp41
 70
     1
102
RTVSPost2010Prop42
 90
       50
102
RTVSPost2010PropOp42
 70
     1
102
RTVSPost2010Prop43
 90
        3
102
RTVSPost2010PropOp43
 70
     1
102
RTVSPost2010Prop44ColorIndex
 90
        5
102
RTVSPost2010Prop44ColorRGB
 90
      255
102
RTVSPost2010PropOp44
 70
     1
102
RTVSPost2010Prop45
280
     0
102
RTVSPost2010PropOp45
 70
     1
102
RTVSPost2010Prop46
 90
       50
102
RTVSPost2010PropOp46
 70
     1
102
RTVSPost2010Prop47
 90
       50
102
RTVSPost2010PropOp47
 70
     1
102
RTVSPost2010Prop48
 90
       50
102
RTVSPost2010PropOp48
 70
     1
102
RTVSPost2010Prop49
280
     0
102
RTVSPost2010PropOp49
 70
     1
102
RTVSPost2010Prop50
 90
       50
102
RTVSPost2010PropOp50
 70
     1
102
RTVSPost2010Prop51ColorIndex
 90
      256
102
RTVSPost2010Prop51ColorRGB
 90
-16777216
102
RTVSPost2010PropOp51
 70
     0
102
RTVSPost2010Prop52
140
1.0
102
RTVSPost2010PropOp52
 70
     0
102
RTVSPost2010Prop53
 90
        2
102
RTVSPost2010PropOp53
 70
     1
102
RTVSPost2010Prop54
  1
strokes_ogs.tif
102
RTVSPost2010PropOp54
 70
     1
102
RTVSPost2010Prop55
280
     0
102
RTVSPost2010PropOp55
 70
     1
102
RTVSPost2010Prop56
140
1.0
102
RTVSPost2010PropOp56
 70
     1
102
RTVSPost2010Prop57
140
1.0
102
RTVSPost2010PropOp57
 70
     1
102
RTVSPropertyOp28
 70
     1
102
RTVSPropertyOp29
 70
     1
102
RTVSPropertyOp30
 70
     1
102
RTVSPropertyOp31
 70
     1
102
RTVSPropertyOp32
 70
     1
102
RTVSPropertyOp33
 70
     1
102
RTVSPropertyOp34
 70
     1
102
RTVSPropertyOp35
 70
     1
102
RTVSPropertyOp36
 70
     1
102
RTVSPropertyOp37
 70
     1
102
RTVSPropertyOp38
 70
     1
102
RTVSPropertyOp39
 70
     1
102
RTVSPropertyOp40
 70
     1
102
RTVSPropertyOp41
 70
     1
102
RTVSPropertyOp42
 70
     1
102
RTVSPropertyOp43
 70
     1
102
RTVSPropertyOp44
 70
     1
102
RTVSPropertyOp45
 70
     1
102
RTVSPropertyOp46
 70
     1
102
RTVSPropertyOp47
 70
     1
102
RTVSPropertyOp48
 70
     1
102
RTVSPropertyOp49
 70
     1
102
RTVSPropertyOp50
 70
     1
102
RTVSPropertyOp51
 70
     0
102
RTVSPropertyOp52
 70
     0
102
RTVSPropertyOp53
 70
     1
102
RTVSPropertyOp54
 70
     1
102
RTVSPropertyOp55
 70
     1
102
RTVSPropertyOp56
 70
     1
102
RTVSPropertyOp57
 70
     1
102
RTVSPropertyOp58
 70
     1
102
RTVSPropertyOp59
 70
     1
102
RTVSPropertyOp60
 70
     1
102
RTVSPropertyOp61
 70
     1
102
RTVSPropertyOp62
 70
     1
102
RTVSPropertyOp0
 70
     1
102
RTVSPropertyOp1
 70
     1
102
RTVSPropertyOp2
 70
     1
102
RTVSPropertyOp3
 70
     1
102
RTVSPropertyOp4
 70
     1
102
RTVSPropertyOp5
 70
     1
102
RTVSPropertyOp6
 70
     1
102
RTVSPropertyOp7
 70
     1
102
RTVSPropertyOp8
 70
     1
102
RTVSPropertyOp9
 70
     1
102
RTVSPropertyOp10
 70
     1
102
RTVSPropertyOp11
 70
     1
102
RTVSPropertyOp12
 70
     1
102
RTVSPropertyOp13
 70
     1
102
RTVSPropertyOp14
 70
     1
102
RTVSPropertyOp15
 70
     1
102
RTVSPropertyOp16
 70
     1
102
RTVSPropertyOp17
 70
     1
102
RTVSPropertyOp18
 70
     1
102
RTVSPropertyOp19
 70
     1
102
RTVSPropertyOp20
 70
     1
102
RTVSPropertyOp21
 70
     1
102
RTVSPropertyOp22
 70
     1
102
RTVSPropertyOp23
 70
     1
102
RTVSPropertyOp24
 70
     1
102
RTVSPropertyOp25
 70
     1
102
RTVSPropertyOp26
 70
     1
102
RTVSPropertyOp27
 70
     1
  0
XRECORD
  5
20D8
102
{ACAD_REACTORS
330
20D7
102
}
330
20D7
100
AcDbXrecord
280
     1
102
RTVSPost2010Prop28
280
     0
102
RTVSPost2010PropOp28
 70
     1
102
RTVSPost2010Prop29
280
     1
102
RTVSPost2010PropOp29
 70
     1
102
RTVSPost2010Prop30
280
     1
102
RTVSPost2010PropOp30
 70
     1
102
RTVSPost2010Prop31
280
     0
102
RTVSPost2010PropOp31
 70
     1
102
RTVSPost2010Prop32
280
     0
102
RTVSPost2010PropOp32
 70
     1
102
RTVSPost2010Prop33
280
     0
102
RTVSPost2010PropOp33
 70
     1
102
RTVSPost2010Prop34
280
     0
102
RTVSPost2010PropOp34
 70
     1
102
RTVSPost2010Prop35
280
     0
102
RTVSPost2010PropOp35
 70
     1
102
RTVSPost2010Prop36
280
     0
102
RTVSPost2010PropOp36
 70
     1
102
RTVSPost2010Prop37
 90
       50
102
RTVSPost2010PropOp37
 70
     1
102
RTVSPost2010Prop38
140
0.0
102
RTVSPost2010PropOp38
 70
     1
102
RTVSPost2010Prop39
140
1.0
102
RTVSPost2010PropOp39
 70
     1
102
RTVSPost2010Prop40
 90
        0
102
RTVSPost2010PropOp40
 70
     1
102
RTVSPost2010Prop41ColorIndex
 90
       18
102
RTVSPost2010Prop41ColorRGB
 90
        0
102
RTVSPost2010PropOp41
 70
     1
102
RTVSPost2010Prop42
 90
       50
102
RTVSPost2010PropOp42
 70
     1
102
RTVSPost2010Prop43
 90
        3
102
RTVSPost2010PropOp43
 70
     1
102
RTVSPost2010Prop44ColorIndex
 90
        5
102
RTVSPost2010Prop44ColorRGB
 90
      255
102
RTVSPost2010PropOp44
 70
     1
102
RTVSPost2010Prop45
280
     0
102
RTVSPost2010PropOp45
 70
     1
102
RTVSPost2010Prop46
 90
       50
102
RTVSPost2010PropOp46
 70
     1
102
RTVSPost2010Prop47
 90
       50
102
RTVSPost2010PropOp47
 70
     1
102
RTVSPost2010Prop48
 90
       50
102
RTVSPost2010PropOp48
 70
     1
102
RTVSPost2010Prop49
280
     0
102
RTVSPost2010PropOp49
 70
     1
102
RTVSPost2010Prop50
 90
       50
102
RTVSPost2010PropOp50
 70
     1
102
RTVSPost2010Prop51ColorIndex
 90
      256
102
RTVSPost2010Prop51ColorRGB
 90
-16777216
102
RTVSPost2010PropOp51
 70
     0
102
RTVSPost2010Prop52
140
1.0
102
RTVSPost2010PropOp52
 70
     0
102
RTVSPost2010Prop53
 90
        2
102
RTVSPost2010PropOp53
 70
     1
102
RTVSPost2010Prop54
  1
strokes_ogs.tif
102
RTVSPost2010PropOp54
 70
     1
102
RTVSPost2010Prop55
280
     0
102
RTVSPost2010PropOp55
 70
     1
102
RTVSPost2010Prop56
140
1.0
102
RTVSPost2010PropOp56
 70
     1
102
RTVSPost2010Prop57
140
1.0
102
RTVSPost2010PropOp57
 70
     1
102
RTVSPropertyOp28
 70
     1
102
RTVSPropertyOp29
 70
     1
102
RTVSPropertyOp30
 70
     1
102
RTVSPropertyOp31
 70
     1
102
RTVSPropertyOp32
 70
     1
102
RTVSPropertyOp33
 70
     1
102
RTVSPropertyOp34
 70
     1
102
RTVSPropertyOp35
 70
     1
102
RTVSPropertyOp36
 70
     1
102
RTVSPropertyOp37
 70
     1
102
RTVSPropertyOp38
 70
     1
102
RTVSPropertyOp39
 70
     1
102
RTVSPropertyOp40
 70
     1
102
RTVSPropertyOp41
 70
     1
102
RTVSPropertyOp42
 70
     1
102
RTVSPropertyOp43
 70
     1
102
RTVSPropertyOp44
 70
     1
102
RTVSPropertyOp45
 70
     1
102
RTVSPropertyOp46
 70
     1
102
RTVSPropertyOp47
 70
     1
102
RTVSPropertyOp48
 70
     1
102
RTVSPropertyOp49
 70
     1
102
RTVSPropertyOp50
 70
     1
102
RTVSPropertyOp51
 70
     0
102
RTVSPropertyOp52
 70
     0
102
RTVSPropertyOp53
 70
     1
102
RTVSPropertyOp54
 70
     1
102
RTVSPropertyOp55
 70
     1
102
RTVSPropertyOp56
 70
     1
102
RTVSPropertyOp57
 70
     1
102
RTVSPropertyOp58
 70
     1
102
RTVSPropertyOp59
 70
     1
102
RTVSPropertyOp60
 70
     1
102
RTVSPropertyOp61
 70
     1
102
RTVSPropertyOp62
 70
     1
102
RTVSPropertyOp0
 70
     1
102
RTVSPropertyOp1
 70
     1
102
RTVSPropertyOp2
 70
     1
102
RTVSPropertyOp3
 70
     1
102
RTVSPropertyOp4
 70
     1
102
RTVSPropertyOp5
 70
     1
102
RTVSPropertyOp6
 70
     1
102
RTVSPropertyOp7
 70
     1
102
RTVSPropertyOp8
 70
     1
102
RTVSPropertyOp9
 70
     1
102
RTVSPropertyOp10
 70
     1
102
RTVSPropertyOp11
 70
     1
102
RTVSPropertyOp12
 70
     1
102
RTVSPropertyOp13
 70
     1
102
RTVSPropertyOp14
 70
     1
102
RTVSPropertyOp15
 70
     1
102
RTVSPropertyOp16
 70
     1
102
RTVSPropertyOp17
 70
     1
102
RTVSPropertyOp18
 70
     1
102
RTVSPropertyOp19
 70
     1
102
RTVSPropertyOp20
 70
     1
102
RTVSPropertyOp21
 70
     1
102
RTVSPropertyOp22
 70
     1
102
RTVSPropertyOp23
 70
     1
102
RTVSPropertyOp24
 70
     1
102
RTVSPropertyOp25
 70
     1
102
RTVSPropertyOp26
 70
     1
102
RTVSPropertyOp27
 70
     1
  0
XRECORD
  5
20FA
102
{ACAD_REACTORS
330
20F9
102
}
330
20F9
100
AcDbXrecord
280
     1
102
RTVSPost2010Prop28
280
     0
102
RTVSPost2010PropOp28
 70
     1
102
RTVSPost2010Prop29
280
     1
102
RTVSPost2010PropOp29
 70
     1
102
RTVSPost2010Prop30
280
     1
102
RTVSPost2010PropOp30
 70
     1
102
RTVSPost2010Prop31
280
     0
102
RTVSPost2010PropOp31
 70
     1
102
RTVSPost2010Prop32
280
     0
102
RTVSPost2010PropOp32
 70
     1
102
RTVSPost2010Prop33
280
     0
102
RTVSPost2010PropOp33
 70
     1
102
RTVSPost2010Prop34
280
     0
102
RTVSPost2010PropOp34
 70
     1
102
RTVSPost2010Prop35
280
     0
102
RTVSPost2010PropOp35
 70
     1
102
RTVSPost2010Prop36
280
     0
102
RTVSPost2010PropOp36
 70
     1
102
RTVSPost2010Prop37
 90
       50
102
RTVSPost2010PropOp37
 70
     1
102
RTVSPost2010Prop38
140
0.0
102
RTVSPost2010PropOp38
 70
     1
102
RTVSPost2010Prop39
140
1.0
102
RTVSPost2010PropOp39
 70
     1
102
RTVSPost2010Prop40
 90
        0
102
RTVSPost2010PropOp40
 70
     1
102
RTVSPost2010Prop41ColorIndex
 90
       18
102
RTVSPost2010Prop41ColorRGB
 90
        0
102
RTVSPost2010PropOp41
 70
     1
102
RTVSPost2010Prop42
 90
       50
102
RTVSPost2010PropOp42
 70
     1
102
RTVSPost2010Prop43
 90
        3
102
RTVSPost2010PropOp43
 70
     1
102
RTVSPost2010Prop44ColorIndex
 90
        5
102
RTVSPost2010Prop44ColorRGB
 90
      255
102
RTVSPost2010PropOp44
 70
     1
102
RTVSPost2010Prop45
280
     0
102
RTVSPost2010PropOp45
 70
     1
102
RTVSPost2010Prop46
 90
       50
102
RTVSPost2010PropOp46
 70
     1
102
RTVSPost2010Prop47
 90
       50
102
RTVSPost2010PropOp47
 70
     1
102
RTVSPost2010Prop48
 90
       50
102
RTVSPost2010PropOp48
 70
     1
102
RTVSPost2010Prop49
280
     0
102
RTVSPost2010PropOp49
 70
     1
102
RTVSPost2010Prop50
 90
       50
102
RTVSPost2010PropOp50
 70
     1
102
RTVSPost2010Prop51ColorIndex
 90
      256
102
RTVSPost2010Prop51ColorRGB
 90
-16777216
102
RTVSPost2010PropOp51
 70
     0
102
RTVSPost2010Prop52
140
1.0
102
RTVSPost2010PropOp52
 70
     0
102
RTVSPost2010Prop53
 90
        2
102
RTVSPost2010PropOp53
 70
     1
102
RTVSPost2010Prop54
  1
strokes_ogs.tif
102
RTVSPost2010PropOp54
 70
     1
102
RTVSPost2010Prop55
280
     0
102
RTVSPost2010PropOp55
 70
     1
102
RTVSPost2010Prop56
140
1.0
102
RTVSPost2010PropOp56
 70
     1
102
RTVSPost2010Prop57
140
1.0
102
RTVSPost2010PropOp57
 70
     1
102
RTVSPropertyOp28
 70
     1
102
RTVSPropertyOp29
 70
     1
102
RTVSPropertyOp30
 70
     1
102
RTVSPropertyOp31
 70
     1
102
RTVSPropertyOp32
 70
     1
102
RTVSPropertyOp33
 70
     1
102
RTVSPropertyOp34
 70
     1
102
RTVSPropertyOp35
 70
     1
102
RTVSPropertyOp36
 70
     1
102
RTVSPropertyOp37
 70
     1
102
RTVSPropertyOp38
 70
     1
102
RTVSPropertyOp39
 70
     1
102
RTVSPropertyOp40
 70
     1
102
RTVSPropertyOp41
 70
     1
102
RTVSPropertyOp42
 70
     1
102
RTVSPropertyOp43
 70
     1
102
RTVSPropertyOp44
 70
     1
102
RTVSPropertyOp45
 70
     1
102
RTVSPropertyOp46
 70
     1
102
RTVSPropertyOp47
 70
     1
102
RTVSPropertyOp48
 70
     1
102
RTVSPropertyOp49
 70
     1
102
RTVSPropertyOp50
 70
     1
102
RTVSPropertyOp51
 70
     0
102
RTVSPropertyOp52
 70
     0
102
RTVSPropertyOp53
 70
     1
102
RTVSPropertyOp54
 70
     1
102
RTVSPropertyOp55
 70
     1
102
RTVSPropertyOp56
 70
     1
102
RTVSPropertyOp57
 70
     1
102
RTVSPropertyOp58
 70
     1
102
RTVSPropertyOp59
 70
     1
102
RTVSPropertyOp60
 70
     1
102
RTVSPropertyOp61
 70
     1
102
RTVSPropertyOp62
 70
     1
102
RTVSPropertyOp0
 70
     1
102
RTVSPropertyOp1
 70
     1
102
RTVSPropertyOp2
 70
     1
102
RTVSPropertyOp3
 70
     1
102
RTVSPropertyOp4
 70
     1
102
RTVSPropertyOp5
 70
     1
102
RTVSPropertyOp6
 70
     1
102
RTVSPropertyOp7
 70
     1
102
RTVSPropertyOp8
 70
     1
102
RTVSPropertyOp9
 70
     1
102
RTVSPropertyOp10
 70
     1
102
RTVSPropertyOp11
 70
     1
102
RTVSPropertyOp12
 70
     1
102
RTVSPropertyOp13
 70
     1
102
RTVSPropertyOp14
 70
     1
102
RTVSPropertyOp15
 70
     1
102
RTVSPropertyOp16
 70
     1
102
RTVSPropertyOp17
 70
     1
102
RTVSPropertyOp18
 70
     1
102
RTVSPropertyOp19
 70
     1
102
RTVSPropertyOp20
 70
     1
102
RTVSPropertyOp21
 70
     1
102
RTVSPropertyOp22
 70
     1
102
RTVSPropertyOp23
 70
     1
102
RTVSPropertyOp24
 70
     1
102
RTVSPropertyOp25
 70
     1
102
RTVSPropertyOp26
 70
     1
102
RTVSPropertyOp27
 70
     1
  0
XRECORD
  5
20F2
102
{ACAD_REACTORS
330
20F1
102
}
330
20F1
100
AcDbXrecord
280
     1
102
RTVSPost2010Prop28
280
     0
102
RTVSPost2010PropOp28
 70
     1
102
RTVSPost2010Prop29
280
     1
102
RTVSPost2010PropOp29
 70
     1
102
RTVSPost2010Prop30
280
     1
102
RTVSPost2010PropOp30
 70
     1
102
RTVSPost2010Prop31
280
     0
102
RTVSPost2010PropOp31
 70
     1
102
RTVSPost2010Prop32
280
     0
102
RTVSPost2010PropOp32
 70
     1
102
RTVSPost2010Prop33
280
     0
102
RTVSPost2010PropOp33
 70
     1
102
RTVSPost2010Prop34
280
     0
102
RTVSPost2010PropOp34
 70
     1
102
RTVSPost2010Prop35
280
     0
102
RTVSPost2010PropOp35
 70
     1
102
RTVSPost2010Prop36
280
     0
102
RTVSPost2010PropOp36
 70
     1
102
RTVSPost2010Prop37
 90
       50
102
RTVSPost2010PropOp37
 70
     1
102
RTVSPost2010Prop38
140
0.0
102
RTVSPost2010PropOp38
 70
     1
102
RTVSPost2010Prop39
140
1.0
102
RTVSPost2010PropOp39
 70
     1
102
RTVSPost2010Prop40
 90
        0
102
RTVSPost2010PropOp40
 70
     1
102
RTVSPost2010Prop41ColorIndex
 90
       18
102
RTVSPost2010Prop41ColorRGB
 90
        0
102
RTVSPost2010PropOp41
 70
     1
102
RTVSPost2010Prop42
 90
       50
102
RTVSPost2010PropOp42
 70
     1
102
RTVSPost2010Prop43
 90
        3
102
RTVSPost2010PropOp43
 70
     1
102
RTVSPost2010Prop44ColorIndex
 90
        5
102
RTVSPost2010Prop44ColorRGB
 90
      255
102
RTVSPost2010PropOp44
 70
     1
102
RTVSPost2010Prop45
280
     0
102
RTVSPost2010PropOp45
 70
     1
102
RTVSPost2010Prop46
 90
       50
102
RTVSPost2010PropOp46
 70
     1
102
RTVSPost2010Prop47
 90
       50
102
RTVSPost2010PropOp47
 70
     1
102
RTVSPost2010Prop48
 90
       50
102
RTVSPost2010PropOp48
 70
     1
102
RTVSPost2010Prop49
280
     0
102
RTVSPost2010PropOp49
 70
     1
102
RTVSPost2010Prop50
 90
       50
102
RTVSPost2010PropOp50
 70
     1
102
RTVSPost2010Prop51ColorIndex
 90
      256
102
RTVSPost2010Prop51ColorRGB
 90
-16777216
102
RTVSPost2010PropOp51
 70
     0
102
RTVSPost2010Prop52
140
1.0
102
RTVSPost2010PropOp52
 70
     0
102
RTVSPost2010Prop53
 90
        2
102
RTVSPost2010PropOp53
 70
     1
102
RTVSPost2010Prop54
  1
strokes_ogs.tif
102
RTVSPost2010PropOp54
 70
     1
102
RTVSPost2010Prop55
280
     0
102
RTVSPost2010PropOp55
 70
     1
102
RTVSPost2010Prop56
140
1.0
102
RTVSPost2010PropOp56
 70
     1
102
RTVSPost2010Prop57
140
1.0
102
RTVSPost2010PropOp57
 70
     1
102
RTVSPropertyOp28
 70
     1
102
RTVSPropertyOp29
 70
     1
102
RTVSPropertyOp30
 70
     1
102
RTVSPropertyOp31
 70
     1
102
RTVSPropertyOp32
 70
     1
102
RTVSPropertyOp33
 70
     1
102
RTVSPropertyOp34
 70
     1
102
RTVSPropertyOp35
 70
     1
102
RTVSPropertyOp36
 70
     1
102
RTVSPropertyOp37
 70
     1
102
RTVSPropertyOp38
 70
     1
102
RTVSPropertyOp39
 70
     1
102
RTVSPropertyOp40
 70
     1
102
RTVSPropertyOp41
 70
     1
102
RTVSPropertyOp42
 70
     1
102
RTVSPropertyOp43
 70
     1
102
RTVSPropertyOp44
 70
     1
102
RTVSPropertyOp45
 70
     1
102
RTVSPropertyOp46
 70
     1
102
RTVSPropertyOp47
 70
     1
102
RTVSPropertyOp48
 70
     1
102
RTVSPropertyOp49
 70
     1
102
RTVSPropertyOp50
 70
     1
102
RTVSPropertyOp51
 70
     0
102
RTVSPropertyOp52
 70
     0
102
RTVSPropertyOp53
 70
     1
102
RTVSPropertyOp54
 70
     1
102
RTVSPropertyOp55
 70
     1
102
RTVSPropertyOp56
 70
     1
102
RTVSPropertyOp57
 70
     1
102
RTVSPropertyOp58
 70
     1
102
RTVSPropertyOp59
 70
     1
102
RTVSPropertyOp60
 70
     1
102
RTVSPropertyOp61
 70
     1
102
RTVSPropertyOp62
 70
     1
102
RTVSPropertyOp0
 70
     0
102
RTVSPropertyOp1
 70
     0
102
RTVSPropertyOp2
 70
     0
102
RTVSPropertyOp3
 70
     0
102
RTVSPropertyOp4
 70
     0
102
RTVSPropertyOp5
 70
     0
102
RTVSPropertyOp6
 70
     0
102
RTVSPropertyOp7
 70
     0
102
RTVSPropertyOp8
 70
     0
102
RTVSPropertyOp9
 70
     0
102
RTVSPropertyOp10
 70
     0
102
RTVSPropertyOp11
 70
     0
102
RTVSPropertyOp12
 70
     0
102
RTVSPropertyOp13
 70
     0
102
RTVSPropertyOp14
 70
     2
102
RTVSPropertyOp15
 70
     0
102
RTVSPropertyOp16
 70
     0
102
RTVSPropertyOp17
 70
     0
102
RTVSPropertyOp18
 70
     0
102
RTVSPropertyOp19
 70
     0
102
RTVSPropertyOp20
 70
     0
102
RTVSPropertyOp21
 70
     0
102
RTVSPropertyOp22
 70
     0
102
RTVSPropertyOp23
 70
     0
102
RTVSPropertyOp24
 70
     0
102
RTVSPropertyOp25
 70
     0
102
RTVSPropertyOp26
 70
     0
102
RTVSPropertyOp27
 70
     0
  0
XRECORD
  5
20EC
102
{ACAD_REACTORS
330
20EB
102
}
330
20EB
100
AcDbXrecord
280
     1
102
RTVSPost2010Prop28
280
     0
102
RTVSPost2010PropOp28
 70
     1
102
RTVSPost2010Prop29
280
     1
102
RTVSPost2010PropOp29
 70
     1
102
RTVSPost2010Prop30
280
     1
102
RTVSPost2010PropOp30
 70
     1
102
RTVSPost2010Prop31
280
     0
102
RTVSPost2010PropOp31
 70
     1
102
RTVSPost2010Prop32
280
     0
102
RTVSPost2010PropOp32
 70
     1
102
RTVSPost2010Prop33
280
     0
102
RTVSPost2010PropOp33
 70
     1
102
RTVSPost2010Prop34
280
     0
102
RTVSPost2010PropOp34
 70
     1
102
RTVSPost2010Prop35
280
     0
102
RTVSPost2010PropOp35
 70
     1
102
RTVSPost2010Prop36
280
     0
102
RTVSPost2010PropOp36
 70
     1
102
RTVSPost2010Prop37
 90
       50
102
RTVSPost2010PropOp37
 70
     1
102
RTVSPost2010Prop38
140
0.0
102
RTVSPost2010PropOp38
 70
     1
102
RTVSPost2010Prop39
140
1.0
102
RTVSPost2010PropOp39
 70
     1
102
RTVSPost2010Prop40
 90
        0
102
RTVSPost2010PropOp40
 70
     1
102
RTVSPost2010Prop41ColorIndex
 90
       18
102
RTVSPost2010Prop41ColorRGB
 90
        0
102
RTVSPost2010PropOp41
 70
     1
102
RTVSPost2010Prop42
 90
       50
102
RTVSPost2010PropOp42
 70
     1
102
RTVSPost2010Prop43
 90
        3
102
RTVSPost2010PropOp43
 70
     1
102
RTVSPost2010Prop44ColorIndex
 90
        5
102
RTVSPost2010Prop44ColorRGB
 90
      255
102
RTVSPost2010PropOp44
 70
     1
102
RTVSPost2010Prop45
280
     0
102
RTVSPost2010PropOp45
 70
     1
102
RTVSPost2010Prop46
 90
       50
102
RTVSPost2010PropOp46
 70
     1
102
RTVSPost2010Prop47
 90
       50
102
RTVSPost2010PropOp47
 70
     1
102
RTVSPost2010Prop48
 90
       50
102
RTVSPost2010PropOp48
 70
     1
102
RTVSPost2010Prop49
280
     0
102
RTVSPost2010PropOp49
 70
     1
102
RTVSPost2010Prop50
 90
       50
102
RTVSPost2010PropOp50
 70
     1
102
RTVSPost2010Prop51ColorIndex
 90
      256
102
RTVSPost2010Prop51ColorRGB
 90
-16777216
102
RTVSPost2010PropOp51
 70
     0
102
RTVSPost2010Prop52
140
1.0
102
RTVSPost2010PropOp52
 70
     0
102
RTVSPost2010Prop53
 90
        2
102
RTVSPost2010PropOp53
 70
     1
102
RTVSPost2010Prop54
  1
strokes_ogs.tif
102
RTVSPost2010PropOp54
 70
     1
102
RTVSPost2010Prop55
280
     0
102
RTVSPost2010PropOp55
 70
     1
102
RTVSPost2010Prop56
140
1.0
102
RTVSPost2010PropOp56
 70
     1
102
RTVSPost2010Prop57
140
1.0
102
RTVSPost2010PropOp57
 70
     1
102
RTVSPropertyOp28
 70
     1
102
RTVSPropertyOp29
 70
     1
102
RTVSPropertyOp30
 70
     1
102
RTVSPropertyOp31
 70
     1
102
RTVSPropertyOp32
 70
     1
102
RTVSPropertyOp33
 70
     1
102
RTVSPropertyOp34
 70
     1
102
RTVSPropertyOp35
 70
     1
102
RTVSPropertyOp36
 70
     1
102
RTVSPropertyOp37
 70
     1
102
RTVSPropertyOp38
 70
     1
102
RTVSPropertyOp39
 70
     1
102
RTVSPropertyOp40
 70
     1
102
RTVSPropertyOp41
 70
     1
102
RTVSPropertyOp42
 70
     1
102
RTVSPropertyOp43
 70
     1
102
RTVSPropertyOp44
 70
     1
102
RTVSPropertyOp45
 70
     1
102
RTVSPropertyOp46
 70
     1
102
RTVSPropertyOp47
 70
     1
102
RTVSPropertyOp48
 70
     1
102
RTVSPropertyOp49
 70
     1
102
RTVSPropertyOp50
 70
     1
102
RTVSPropertyOp51
 70
     0
102
RTVSPropertyOp52
 70
     0
102
RTVSPropertyOp53
 70
     1
102
RTVSPropertyOp54
 70
     1
102
RTVSPropertyOp55
 70
     1
102
RTVSPropertyOp56
 70
     1
102
RTVSPropertyOp57
 70
     1
102
RTVSPropertyOp58
 70
     1
102
RTVSPropertyOp59
 70
     1
102
RTVSPropertyOp60
 70
     1
102
RTVSPropertyOp61
 70
     1
102
RTVSPropertyOp62
 70
     1
102
RTVSPropertyOp0
 70
     1
102
RTVSPropertyOp1
 70
     1
102
RTVSPropertyOp2
 70
     1
102
RTVSPropertyOp3
 70
     1
102
RTVSPropertyOp4
 70
     1
102
RTVSPropertyOp5
 70
     1
102
RTVSPropertyOp6
 70
     1
102
RTVSPropertyOp7
 70
     1
102
RTVSPropertyOp8
 70
     1
102
RTVSPropertyOp9
 70
     1
102
RTVSPropertyOp10
 70
     1
102
RTVSPropertyOp11
 70
     1
102
RTVSPropertyOp12
 70
     1
102
RTVSPropertyOp13
 70
     1
102
RTVSPropertyOp14
 70
     1
102
RTVSPropertyOp15
 70
     1
102
RTVSPropertyOp16
 70
     1
102
RTVSPropertyOp17
 70
     1
102
RTVSPropertyOp18
 70
     1
102
RTVSPropertyOp19
 70
     1
102
RTVSPropertyOp20
 70
     1
102
RTVSPropertyOp21
 70
     1
102
RTVSPropertyOp22
 70
     1
102
RTVSPropertyOp23
 70
     1
102
RTVSPropertyOp24
 70
     1
102
RTVSPropertyOp25
 70
     1
102
RTVSPropertyOp26
 70
     1
102
RTVSPropertyOp27
 70
     1
  0
XRECORD
  5
20F4
102
{ACAD_REACTORS
330
20F3
102
}
330
20F3
100
AcDbXrecord
280
     1
102
RTVSPost2010Prop28
280
     0
102
RTVSPost2010PropOp28
 70
     1
102
RTVSPost2010Prop29
280
     1
102
RTVSPost2010PropOp29
 70
     1
102
RTVSPost2010Prop30
280
     1
102
RTVSPost2010PropOp30
 70
     1
102
RTVSPost2010Prop31
280
     0
102
RTVSPost2010PropOp31
 70
     1
102
RTVSPost2010Prop32
280
     0
102
RTVSPost2010PropOp32
 70
     1
102
RTVSPost2010Prop33
280
     0
102
RTVSPost2010PropOp33
 70
     1
102
RTVSPost2010Prop34
280
     0
102
RTVSPost2010PropOp34
 70
     1
102
RTVSPost2010Prop35
280
     0
102
RTVSPost2010PropOp35
 70
     1
102
RTVSPost2010Prop36
280
     0
102
RTVSPost2010PropOp36
 70
     1
102
RTVSPost2010Prop37
 90
       50
102
RTVSPost2010PropOp37
 70
     1
102
RTVSPost2010Prop38
140
0.0
102
RTVSPost2010PropOp38
 70
     1
102
RTVSPost2010Prop39
140
1.0
102
RTVSPost2010PropOp39
 70
     1
102
RTVSPost2010Prop40
 90
        0
102
RTVSPost2010PropOp40
 70
     1
102
RTVSPost2010Prop41ColorIndex
 90
       18
102
RTVSPost2010Prop41ColorRGB
 90
        0
102
RTVSPost2010PropOp41
 70
     1
102
RTVSPost2010Prop42
 90
       50
102
RTVSPost2010PropOp42
 70
     1
102
RTVSPost2010Prop43
 90
        3
102
RTVSPost2010PropOp43
 70
     1
102
RTVSPost2010Prop44ColorIndex
 90
        5
102
RTVSPost2010Prop44ColorRGB
 90
      255
102
RTVSPost2010PropOp44
 70
     1
102
RTVSPost2010Prop45
280
     0
102
RTVSPost2010PropOp45
 70
     1
102
RTVSPost2010Prop46
 90
       50
102
RTVSPost2010PropOp46
 70
     1
102
RTVSPost2010Prop47
 90
       50
102
RTVSPost2010PropOp47
 70
     1
102
RTVSPost2010Prop48
 90
       50
102
RTVSPost2010PropOp48
 70
     1
102
RTVSPost2010Prop49
280
     0
102
RTVSPost2010PropOp49
 70
     1
102
RTVSPost2010Prop50
 90
       50
102
RTVSPost2010PropOp50
 70
     1
102
RTVSPost2010Prop51ColorIndex
 90
      256
102
RTVSPost2010Prop51ColorRGB
 90
-16777216
102
RTVSPost2010PropOp51
 70
     0
102
RTVSPost2010Prop52
140
1.0
102
RTVSPost2010PropOp52
 70
     0
102
RTVSPost2010Prop53
 90
        2
102
RTVSPost2010PropOp53
 70
     1
102
RTVSPost2010Prop54
  1
strokes_ogs.tif
102
RTVSPost2010PropOp54
 70
     1
102
RTVSPost2010Prop55
280
     0
102
RTVSPost2010PropOp55
 70
     1
102
RTVSPost2010Prop56
140
1.0
102
RTVSPost2010PropOp56
 70
     1
102
RTVSPost2010Prop57
140
1.0
102
RTVSPost2010PropOp57
 70
     1
102
RTVSPropertyOp28
 70
     1
102
RTVSPropertyOp29
 70
     1
102
RTVSPropertyOp30
 70
     1
102
RTVSPropertyOp31
 70
     1
102
RTVSPropertyOp32
 70
     1
102
RTVSPropertyOp33
 70
     1
102
RTVSPropertyOp34
 70
     1
102
RTVSPropertyOp35
 70
     1
102
RTVSPropertyOp36
 70
     1
102
RTVSPropertyOp37
 70
     1
102
RTVSPropertyOp38
 70
     1
102
RTVSPropertyOp39
 70
     1
102
RTVSPropertyOp40
 70
     1
102
RTVSPropertyOp41
 70
     1
102
RTVSPropertyOp42
 70
     1
102
RTVSPropertyOp43
 70
     1
102
RTVSPropertyOp44
 70
     1
102
RTVSPropertyOp45
 70
     1
102
RTVSPropertyOp46
 70
     1
102
RTVSPropertyOp47
 70
     1
102
RTVSPropertyOp48
 70
     1
102
RTVSPropertyOp49
 70
     1
102
RTVSPropertyOp50
 70
     1
102
RTVSPropertyOp51
 70
     0
102
RTVSPropertyOp52
 70
     0
102
RTVSPropertyOp53
 70
     1
102
RTVSPropertyOp54
 70
     1
102
RTVSPropertyOp55
 70
     1
102
RTVSPropertyOp56
 70
     1
102
RTVSPropertyOp57
 70
     1
102
RTVSPropertyOp58
 70
     1
102
RTVSPropertyOp59
 70
     1
102
RTVSPropertyOp60
 70
     1
102
RTVSPropertyOp61
 70
     1
102
RTVSPropertyOp62
 70
     1
102
RTVSPropertyOp0
 70
     0
102
RTVSPropertyOp1
 70
     0
102
RTVSPropertyOp2
 70
     0
102
RTVSPropertyOp3
 70
     0
102
RTVSPropertyOp4
 70
     0
102
RTVSPropertyOp5
 70
     0
102
RTVSPropertyOp6
 70
     0
102
RTVSPropertyOp7
 70
     0
102
RTVSPropertyOp8
 70
     0
102
RTVSPropertyOp9
 70
     0
102
RTVSPropertyOp10
 70
     0
102
RTVSPropertyOp11
 70
     0
102
RTVSPropertyOp12
 70
     0
102
RTVSPropertyOp13
 70
     0
102
RTVSPropertyOp14
 70
     2
102
RTVSPropertyOp15
 70
     0
102
RTVSPropertyOp16
 70
     0
102
RTVSPropertyOp17
 70
     0
102
RTVSPropertyOp18
 70
     0
102
RTVSPropertyOp19
 70
     0
102
RTVSPropertyOp20
 70
     0
102
RTVSPropertyOp21
 70
     0
102
RTVSPropertyOp22
 70
     0
102
RTVSPropertyOp23
 70
     0
102
RTVSPropertyOp24
 70
     0
102
RTVSPropertyOp25
 70
     0
102
RTVSPropertyOp26
 70
     0
102
RTVSPropertyOp27
 70
     0
  0
XRECORD
  5
20E4
102
{ACAD_REACTORS
330
20E3
102
}
330
20E3
100
AcDbXrecord
280
     1
102
RTVSPost2010Prop28
280
     0
102
RTVSPost2010PropOp28
 70
     1
102
RTVSPost2010Prop29
280
     1
102
RTVSPost2010PropOp29
 70
     1
102
RTVSPost2010Prop30
280
     1
102
RTVSPost2010PropOp30
 70
     1
102
RTVSPost2010Prop31
280
     0
102
RTVSPost2010PropOp31
 70
     1
102
RTVSPost2010Prop32
280
     0
102
RTVSPost2010PropOp32
 70
     1
102
RTVSPost2010Prop33
280
     0
102
RTVSPost2010PropOp33
 70
     1
102
RTVSPost2010Prop34
280
     0
102
RTVSPost2010PropOp34
 70
     1
102
RTVSPost2010Prop35
280
     0
102
RTVSPost2010PropOp35
 70
     1
102
RTVSPost2010Prop36
280
     0
102
RTVSPost2010PropOp36
 70
     1
102
RTVSPost2010Prop37
 90
       50
102
RTVSPost2010PropOp37
 70
     1
102
RTVSPost2010Prop38
140
0.0
102
RTVSPost2010PropOp38
 70
     1
102
RTVSPost2010Prop39
140
1.0
102
RTVSPost2010PropOp39
 70
     1
102
RTVSPost2010Prop40
 90
        0
102
RTVSPost2010PropOp40
 70
     1
102
RTVSPost2010Prop41ColorIndex
 90
       18
102
RTVSPost2010Prop41ColorRGB
 90
        0
102
RTVSPost2010PropOp41
 70
     1
102
RTVSPost2010Prop42
 90
       50
102
RTVSPost2010PropOp42
 70
     1
102
RTVSPost2010Prop43
 90
        3
102
RTVSPost2010PropOp43
 70
     1
102
RTVSPost2010Prop44ColorIndex
 90
        5
102
RTVSPost2010Prop44ColorRGB
 90
      255
102
RTVSPost2010PropOp44
 70
     1
102
RTVSPost2010Prop45
280
     0
102
RTVSPost2010PropOp45
 70
     1
102
RTVSPost2010Prop46
 90
       50
102
RTVSPost2010PropOp46
 70
     1
102
RTVSPost2010Prop47
 90
       50
102
RTVSPost2010PropOp47
 70
     1
102
RTVSPost2010Prop48
 90
       50
102
RTVSPost2010PropOp48
 70
     1
102
RTVSPost2010Prop49
280
     0
102
RTVSPost2010PropOp49
 70
     1
102
RTVSPost2010Prop50
 90
       50
102
RTVSPost2010PropOp50
 70
     1
102
RTVSPost2010Prop51ColorIndex
 90
      256
102
RTVSPost2010Prop51ColorRGB
 90
-16777216
102
RTVSPost2010PropOp51
 70
     0
102
RTVSPost2010Prop52
140
1.0
102
RTVSPost2010PropOp52
 70
     0
102
RTVSPost2010Prop53
 90
        2
102
RTVSPost2010PropOp53
 70
     1
102
RTVSPost2010Prop54
  1
strokes_ogs.tif
102
RTVSPost2010PropOp54
 70
     1
102
RTVSPost2010Prop55
280
     0
102
RTVSPost2010PropOp55
 70
     1
102
RTVSPost2010Prop56
140
1.0
102
RTVSPost2010PropOp56
 70
     1
102
RTVSPost2010Prop57
140
1.0
102
RTVSPost2010PropOp57
 70
     1
102
RTVSPropertyOp28
 70
     1
102
RTVSPropertyOp29
 70
     1
102
RTVSPropertyOp30
 70
     1
102
RTVSPropertyOp31
 70
     1
102
RTVSPropertyOp32
 70
     1
102
RTVSPropertyOp33
 70
     1
102
RTVSPropertyOp34
 70
     1
102
RTVSPropertyOp35
 70
     1
102
RTVSPropertyOp36
 70
     1
102
RTVSPropertyOp37
 70
     1
102
RTVSPropertyOp38
 70
     1
102
RTVSPropertyOp39
 70
     1
102
RTVSPropertyOp40
 70
     1
102
RTVSPropertyOp41
 70
     1
102
RTVSPropertyOp42
 70
     1
102
RTVSPropertyOp43
 70
     1
102
RTVSPropertyOp44
 70
     1
102
RTVSPropertyOp45
 70
     1
102
RTVSPropertyOp46
 70
     1
102
RTVSPropertyOp47
 70
     1
102
RTVSPropertyOp48
 70
     1
102
RTVSPropertyOp49
 70
     1
102
RTVSPropertyOp50
 70
     1
102
RTVSPropertyOp51
 70
     0
102
RTVSPropertyOp52
 70
     0
102
RTVSPropertyOp53
 70
     1
102
RTVSPropertyOp54
 70
     1
102
RTVSPropertyOp55
 70
     1
102
RTVSPropertyOp56
 70
     1
102
RTVSPropertyOp57
 70
     1
102
RTVSPropertyOp58
 70
     1
102
RTVSPropertyOp59
 70
     1
102
RTVSPropertyOp60
 70
     1
102
RTVSPropertyOp61
 70
     1
102
RTVSPropertyOp62
 70
     1
102
RTVSPropertyOp0
 70
     1
102
RTVSPropertyOp1
 70
     1
102
RTVSPropertyOp2
 70
     1
102
RTVSPropertyOp3
 70
     1
102
RTVSPropertyOp4
 70
     1
102
RTVSPropertyOp5
 70
     1
102
RTVSPropertyOp6
 70
     1
102
RTVSPropertyOp7
 70
     1
102
RTVSPropertyOp8
 70
     1
102
RTVSPropertyOp9
 70
     1
102
RTVSPropertyOp10
 70
     1
102
RTVSPropertyOp11
 70
     1
102
RTVSPropertyOp12
 70
     1
102
RTVSPropertyOp13
 70
     1
102
RTVSPropertyOp14
 70
     1
102
RTVSPropertyOp15
 70
     1
102
RTVSPropertyOp16
 70
     1
102
RTVSPropertyOp17
 70
     1
102
RTVSPropertyOp18
 70
     1
102
RTVSPropertyOp19
 70
     1
102
RTVSPropertyOp20
 70
     1
102
RTVSPropertyOp21
 70
     1
102
RTVSPropertyOp22
 70
     1
102
RTVSPropertyOp23
 70
     1
102
RTVSPropertyOp24
 70
     1
102
RTVSPropertyOp25
 70
     1
102
RTVSPropertyOp26
 70
     1
102
RTVSPropertyOp27
 70
     1
  0
XRECORD
  5
2104
102
{ACAD_REACTORS
330
2103
102
}
330
2103
100
AcDbXrecord
280
     1
102
RTVSPost2010Prop28
280
     0
102
RTVSPost2010PropOp28
 70
     1
102
RTVSPost2010Prop29
280
     1
102
RTVSPost2010PropOp29
 70
     1
102
RTVSPost2010Prop30
280
     1
102
RTVSPost2010PropOp30
 70
     1
102
RTVSPost2010Prop31
280
     0
102
RTVSPost2010PropOp31
 70
     1
102
RTVSPost2010Prop32
280
     0
102
RTVSPost2010PropOp32
 70
     1
102
RTVSPost2010Prop33
280
     0
102
RTVSPost2010PropOp33
 70
     1
102
RTVSPost2010Prop34
280
     0
102
RTVSPost2010PropOp34
 70
     1
102
RTVSPost2010Prop35
280
     0
102
RTVSPost2010PropOp35
 70
     1
102
RTVSPost2010Prop36
280
     0
102
RTVSPost2010PropOp36
 70
     1
102
RTVSPost2010Prop37
 90
       50
102
RTVSPost2010PropOp37
 70
     1
102
RTVSPost2010Prop38
140
0.0
102
RTVSPost2010PropOp38
 70
     1
102
RTVSPost2010Prop39
140
1.0
102
RTVSPost2010PropOp39
 70
     1
102
RTVSPost2010Prop40
 90
        0
102
RTVSPost2010PropOp40
 70
     1
102
RTVSPost2010Prop41ColorIndex
 90
       18
102
RTVSPost2010Prop41ColorRGB
 90
        0
102
RTVSPost2010PropOp41
 70
     1
102
RTVSPost2010Prop42
 90
       50
102
RTVSPost2010PropOp42
 70
     1
102
RTVSPost2010Prop43
 90
        3
102
RTVSPost2010PropOp43
 70
     1
102
RTVSPost2010Prop44ColorIndex
 90
        5
102
RTVSPost2010Prop44ColorRGB
 90
      255
102
RTVSPost2010PropOp44
 70
     1
102
RTVSPost2010Prop45
280
     0
102
RTVSPost2010PropOp45
 70
     1
102
RTVSPost2010Prop46
 90
       50
102
RTVSPost2010PropOp46
 70
     1
102
RTVSPost2010Prop47
 90
       50
102
RTVSPost2010PropOp47
 70
     1
102
RTVSPost2010Prop48
 90
       50
102
RTVSPost2010PropOp48
 70
     1
102
RTVSPost2010Prop49
280
     0
102
RTVSPost2010PropOp49
 70
     1
102
RTVSPost2010Prop50
 90
       50
102
RTVSPost2010PropOp50
 70
     1
102
RTVSPost2010Prop51ColorIndex
 90
      256
102
RTVSPost2010Prop51ColorRGB
 90
-16777216
102
RTVSPost2010PropOp51
 70
     0
102
RTVSPost2010Prop52
140
1.0
102
RTVSPost2010PropOp52
 70
     0
102
RTVSPost2010Prop53
 90
        2
102
RTVSPost2010PropOp53
 70
     1
102
RTVSPost2010Prop54
  1
strokes_ogs.tif
102
RTVSPost2010PropOp54
 70
     1
102
RTVSPost2010Prop55
280
     0
102
RTVSPost2010PropOp55
 70
     1
102
RTVSPost2010Prop56
140
1.0
102
RTVSPost2010PropOp56
 70
     1
102
RTVSPost2010Prop57
140
1.0
102
RTVSPost2010PropOp57
 70
     1
102
RTVSPropertyOp28
 70
     1
102
RTVSPropertyOp29
 70
     1
102
RTVSPropertyOp30
 70
     1
102
RTVSPropertyOp31
 70
     1
102
RTVSPropertyOp32
 70
     1
102
RTVSPropertyOp33
 70
     1
102
RTVSPropertyOp34
 70
     1
102
RTVSPropertyOp35
 70
     1
102
RTVSPropertyOp36
 70
     1
102
RTVSPropertyOp37
 70
     1
102
RTVSPropertyOp38
 70
     1
102
RTVSPropertyOp39
 70
     1
102
RTVSPropertyOp40
 70
     1
102
RTVSPropertyOp41
 70
     1
102
RTVSPropertyOp42
 70
     1
102
RTVSPropertyOp43
 70
     1
102
RTVSPropertyOp44
 70
     1
102
RTVSPropertyOp45
 70
     1
102
RTVSPropertyOp46
 70
     1
102
RTVSPropertyOp47
 70
     1
102
RTVSPropertyOp48
 70
     1
102
RTVSPropertyOp49
 70
     1
102
RTVSPropertyOp50
 70
     1
102
RTVSPropertyOp51
 70
     0
102
RTVSPropertyOp52
 70
     0
102
RTVSPropertyOp53
 70
     1
102
RTVSPropertyOp54
 70
     1
102
RTVSPropertyOp55
 70
     1
102
RTVSPropertyOp56
 70
     1
102
RTVSPropertyOp57
 70
     1
102
RTVSPropertyOp58
 70
     1
102
RTVSPropertyOp59
 70
     1
102
RTVSPropertyOp60
 70
     1
102
RTVSPropertyOp61
 70
     1
102
RTVSPropertyOp62
 70
     1
102
RTVSPropertyOp0
 70
     1
102
RTVSPropertyOp1
 70
     1
102
RTVSPropertyOp2
 70
     1
102
RTVSPropertyOp3
 70
     1
102
RTVSPropertyOp4
 70
     1
102
RTVSPropertyOp5
 70
     1
102
RTVSPropertyOp6
 70
     1
102
RTVSPropertyOp7
 70
     1
102
RTVSPropertyOp8
 70
     1
102
RTVSPropertyOp9
 70
     1
102
RTVSPropertyOp10
 70
     1
102
RTVSPropertyOp11
 70
     1
102
RTVSPropertyOp12
 70
     1
102
RTVSPropertyOp13
 70
     1
102
RTVSPropertyOp14
 70
     1
102
RTVSPropertyOp15
 70
     1
102
RTVSPropertyOp16
 70
     1
102
RTVSPropertyOp17
 70
     1
102
RTVSPropertyOp18
 70
     1
102
RTVSPropertyOp19
 70
     1
102
RTVSPropertyOp20
 70
     1
102
RTVSPropertyOp21
 70
     1
102
RTVSPropertyOp22
 70
     1
102
RTVSPropertyOp23
 70
     1
102
RTVSPropertyOp24
 70
     1
102
RTVSPropertyOp25
 70
     1
102
RTVSPropertyOp26
 70
     1
102
RTVSPropertyOp27
 70
     1
  0
XRECORD
  5
2102
102
{ACAD_REACTORS
330
2101
102
}
330
2101
100
AcDbXrecord
280
     1
102
RTVSPost2010Prop28
280
     0
102
RTVSPost2010PropOp28
 70
     1
102
RTVSPost2010Prop29
280
     1
102
RTVSPost2010PropOp29
 70
     1
102
RTVSPost2010Prop30
280
     1
102
RTVSPost2010PropOp30
 70
     1
102
RTVSPost2010Prop31
280
     0
102
RTVSPost2010PropOp31
 70
     1
102
RTVSPost2010Prop32
280
     0
102
RTVSPost2010PropOp32
 70
     1
102
RTVSPost2010Prop33
280
     0
102
RTVSPost2010PropOp33
 70
     1
102
RTVSPost2010Prop34
280
     0
102
RTVSPost2010PropOp34
 70
     1
102
RTVSPost2010Prop35
280
     0
102
RTVSPost2010PropOp35
 70
     1
102
RTVSPost2010Prop36
280
     0
102
RTVSPost2010PropOp36
 70
     1
102
RTVSPost2010Prop37
 90
       50
102
RTVSPost2010PropOp37
 70
     1
102
RTVSPost2010Prop38
140
0.0
102
RTVSPost2010PropOp38
 70
     1
102
RTVSPost2010Prop39
140
1.0
102
RTVSPost2010PropOp39
 70
     1
102
RTVSPost2010Prop40
 90
        0
102
RTVSPost2010PropOp40
 70
     1
102
RTVSPost2010Prop41ColorIndex
 90
       18
102
RTVSPost2010Prop41ColorRGB
 90
        0
102
RTVSPost2010PropOp41
 70
     1
102
RTVSPost2010Prop42
 90
       50
102
RTVSPost2010PropOp42
 70
     1
102
RTVSPost2010Prop43
 90
        3
102
RTVSPost2010PropOp43
 70
     1
102
RTVSPost2010Prop44ColorIndex
 90
        5
102
RTVSPost2010Prop44ColorRGB
 90
      255
102
RTVSPost2010PropOp44
 70
     1
102
RTVSPost2010Prop45
280
     0
102
RTVSPost2010PropOp45
 70
     1
102
RTVSPost2010Prop46
 90
       50
102
RTVSPost2010PropOp46
 70
     1
102
RTVSPost2010Prop47
 90
       50
102
RTVSPost2010PropOp47
 70
     1
102
RTVSPost2010Prop48
 90
       50
102
RTVSPost2010PropOp48
 70
     1
102
RTVSPost2010Prop49
280
     0
102
RTVSPost2010PropOp49
 70
     1
102
RTVSPost2010Prop50
 90
       50
102
RTVSPost2010PropOp50
 70
     1
102
RTVSPost2010Prop51ColorIndex
 90
      256
102
RTVSPost2010Prop51ColorRGB
 90
-16777216
102
RTVSPost2010PropOp51
 70
     0
102
RTVSPost2010Prop52
140
1.0
102
RTVSPost2010PropOp52
 70
     0
102
RTVSPost2010Prop53
 90
        2
102
RTVSPost2010PropOp53
 70
     1
102
RTVSPost2010Prop54
  1
strokes_ogs.tif
102
RTVSPost2010PropOp54
 70
     1
102
RTVSPost2010Prop55
280
     0
102
RTVSPost2010PropOp55
 70
     1
102
RTVSPost2010Prop56
140
1.0
102
RTVSPost2010PropOp56
 70
     1
102
RTVSPost2010Prop57
140
1.0
102
RTVSPost2010PropOp57
 70
     1
102
RTVSPropertyOp28
 70
     1
102
RTVSPropertyOp29
 70
     1
102
RTVSPropertyOp30
 70
     1
102
RTVSPropertyOp31
 70
     1
102
RTVSPropertyOp32
 70
     1
102
RTVSPropertyOp33
 70
     1
102
RTVSPropertyOp34
 70
     1
102
RTVSPropertyOp35
 70
     1
102
RTVSPropertyOp36
 70
     1
102
RTVSPropertyOp37
 70
     1
102
RTVSPropertyOp38
 70
     1
102
RTVSPropertyOp39
 70
     1
102
RTVSPropertyOp40
 70
     1
102
RTVSPropertyOp41
 70
     1
102
RTVSPropertyOp42
 70
     1
102
RTVSPropertyOp43
 70
     1
102
RTVSPropertyOp44
 70
     1
102
RTVSPropertyOp45
 70
     1
102
RTVSPropertyOp46
 70
     1
102
RTVSPropertyOp47
 70
     1
102
RTVSPropertyOp48
 70
     1
102
RTVSPropertyOp49
 70
     1
102
RTVSPropertyOp50
 70
     1
102
RTVSPropertyOp51
 70
     0
102
RTVSPropertyOp52
 70
     0
102
RTVSPropertyOp53
 70
     1
102
RTVSPropertyOp54
 70
     1
102
RTVSPropertyOp55
 70
     1
102
RTVSPropertyOp56
 70
     1
102
RTVSPropertyOp57
 70
     1
102
RTVSPropertyOp58
 70
     1
102
RTVSPropertyOp59
 70
     1
102
RTVSPropertyOp60
 70
     1
102
RTVSPropertyOp61
 70
     1
102
RTVSPropertyOp62
 70
     1
102
RTVSPropertyOp0
 70
     1
102
RTVSPropertyOp1
 70
     1
102
RTVSPropertyOp2
 70
     1
102
RTVSPropertyOp3
 70
     1
102
RTVSPropertyOp4
 70
     1
102
RTVSPropertyOp5
 70
     1
102
RTVSPropertyOp6
 70
     1
102
RTVSPropertyOp7
 70
     1
102
RTVSPropertyOp8
 70
     1
102
RTVSPropertyOp9
 70
     1
102
RTVSPropertyOp10
 70
     1
102
RTVSPropertyOp11
 70
     1
102
RTVSPropertyOp12
 70
     1
102
RTVSPropertyOp13
 70
     1
102
RTVSPropertyOp14
 70
     1
102
RTVSPropertyOp15
 70
     1
102
RTVSPropertyOp16
 70
     1
102
RTVSPropertyOp17
 70
     1
102
RTVSPropertyOp18
 70
     1
102
RTVSPropertyOp19
 70
     1
102
RTVSPropertyOp20
 70
     1
102
RTVSPropertyOp21
 70
     1
102
RTVSPropertyOp22
 70
     1
102
RTVSPropertyOp23
 70
     1
102
RTVSPropertyOp24
 70
     1
102
RTVSPropertyOp25
 70
     1
102
RTVSPropertyOp26
 70
     1
102
RTVSPropertyOp27
 70
     1
  0
XRECORD
  5
20FC
102
{ACAD_REACTORS
330
20FB
102
}
330
20FB
100
AcDbXrecord
280
     1
102
RTVSPost2010Prop28
280
     0
102
RTVSPost2010PropOp28
 70
     1
102
RTVSPost2010Prop29
280
     1
102
RTVSPost2010PropOp29
 70
     1
102
RTVSPost2010Prop30
280
     1
102
RTVSPost2010PropOp30
 70
     1
102
RTVSPost2010Prop31
280
     0
102
RTVSPost2010PropOp31
 70
     1
102
RTVSPost2010Prop32
280
     0
102
RTVSPost2010PropOp32
 70
     1
102
RTVSPost2010Prop33
280
     0
102
RTVSPost2010PropOp33
 70
     1
102
RTVSPost2010Prop34
280
     0
102
RTVSPost2010PropOp34
 70
     1
102
RTVSPost2010Prop35
280
     0
102
RTVSPost2010PropOp35
 70
     1
102
RTVSPost2010Prop36
280
     0
102
RTVSPost2010PropOp36
 70
     1
102
RTVSPost2010Prop37
 90
       50
102
RTVSPost2010PropOp37
 70
     1
102
RTVSPost2010Prop38
140
0.0
102
RTVSPost2010PropOp38
 70
     1
102
RTVSPost2010Prop39
140
1.0
102
RTVSPost2010PropOp39
 70
     1
102
RTVSPost2010Prop40
 90
        0
102
RTVSPost2010PropOp40
 70
     1
102
RTVSPost2010Prop41ColorIndex
 90
       18
102
RTVSPost2010Prop41ColorRGB
 90
        0
102
RTVSPost2010PropOp41
 70
     1
102
RTVSPost2010Prop42
 90
       50
102
RTVSPost2010PropOp42
 70
     1
102
RTVSPost2010Prop43
 90
        3
102
RTVSPost2010PropOp43
 70
     1
102
RTVSPost2010Prop44ColorIndex
 90
        5
102
RTVSPost2010Prop44ColorRGB
 90
      255
102
RTVSPost2010PropOp44
 70
     1
102
RTVSPost2010Prop45
280
     0
102
RTVSPost2010PropOp45
 70
     1
102
RTVSPost2010Prop46
 90
       50
102
RTVSPost2010PropOp46
 70
     1
102
RTVSPost2010Prop47
 90
       50
102
RTVSPost2010PropOp47
 70
     1
102
RTVSPost2010Prop48
 90
       50
102
RTVSPost2010PropOp48
 70
     1
102
RTVSPost2010Prop49
280
     0
102
RTVSPost2010PropOp49
 70
     1
102
RTVSPost2010Prop50
 90
       50
102
RTVSPost2010PropOp50
 70
     1
102
RTVSPost2010Prop51ColorIndex
 90
      256
102
RTVSPost2010Prop51ColorRGB
 90
-16777216
102
RTVSPost2010PropOp51
 70
     0
102
RTVSPost2010Prop52
140
1.0
102
RTVSPost2010PropOp52
 70
     0
102
RTVSPost2010Prop53
 90
        2
102
RTVSPost2010PropOp53
 70
     1
102
RTVSPost2010Prop54
  1
strokes_ogs.tif
102
RTVSPost2010PropOp54
 70
     1
102
RTVSPost2010Prop55
280
     0
102
RTVSPost2010PropOp55
 70
     1
102
RTVSPost2010Prop56
140
1.0
102
RTVSPost2010PropOp56
 70
     1
102
RTVSPost2010Prop57
140
1.0
102
RTVSPost2010PropOp57
 70
     1
102
RTVSPropertyOp28
 70
     1
102
RTVSPropertyOp29
 70
     1
102
RTVSPropertyOp30
 70
     1
102
RTVSPropertyOp31
 70
     1
102
RTVSPropertyOp32
 70
     1
102
RTVSPropertyOp33
 70
     1
102
RTVSPropertyOp34
 70
     1
102
RTVSPropertyOp35
 70
     1
102
RTVSPropertyOp36
 70
     1
102
RTVSPropertyOp37
 70
     1
102
RTVSPropertyOp38
 70
     1
102
RTVSPropertyOp39
 70
     1
102
RTVSPropertyOp40
 70
     1
102
RTVSPropertyOp41
 70
     1
102
RTVSPropertyOp42
 70
     1
102
RTVSPropertyOp43
 70
     1
102
RTVSPropertyOp44
 70
     1
102
RTVSPropertyOp45
 70
     1
102
RTVSPropertyOp46
 70
     1
102
RTVSPropertyOp47
 70
     1
102
RTVSPropertyOp48
 70
     1
102
RTVSPropertyOp49
 70
     1
102
RTVSPropertyOp50
 70
     1
102
RTVSPropertyOp51
 70
     0
102
RTVSPropertyOp52
 70
     0
102
RTVSPropertyOp53
 70
     1
102
RTVSPropertyOp54
 70
     1
102
RTVSPropertyOp55
 70
     1
102
RTVSPropertyOp56
 70
     1
102
RTVSPropertyOp57
 70
     1
102
RTVSPropertyOp58
 70
     1
102
RTVSPropertyOp59
 70
     1
102
RTVSPropertyOp60
 70
     1
102
RTVSPropertyOp61
 70
     1
102
RTVSPropertyOp62
 70
     1
102
RTVSPropertyOp0
 70
     1
102
RTVSPropertyOp1
 70
     1
102
RTVSPropertyOp2
 70
     1
102
RTVSPropertyOp3
 70
     1
102
RTVSPropertyOp4
 70
     1
102
RTVSPropertyOp5
 70
     1
102
RTVSPropertyOp6
 70
     1
102
RTVSPropertyOp7
 70
     1
102
RTVSPropertyOp8
 70
     1
102
RTVSPropertyOp9
 70
     1
102
RTVSPropertyOp10
 70
     1
102
RTVSPropertyOp11
 70
     1
102
RTVSPropertyOp12
 70
     1
102
RTVSPropertyOp13
 70
     1
102
RTVSPropertyOp14
 70
     1
102
RTVSPropertyOp15
 70
     1
102
RTVSPropertyOp16
 70
     1
102
RTVSPropertyOp17
 70
     1
102
RTVSPropertyOp18
 70
     1
102
RTVSPropertyOp19
 70
     1
102
RTVSPropertyOp20
 70
     1
102
RTVSPropertyOp21
 70
     1
102
RTVSPropertyOp22
 70
     1
102
RTVSPropertyOp23
 70
     1
102
RTVSPropertyOp24
 70
     1
102
RTVSPropertyOp25
 70
     1
102
RTVSPropertyOp26
 70
     1
102
RTVSPropertyOp27
 70
     1
  0
XRECORD
  5
20FE
102
{ACAD_REACTORS
330
20FD
102
}
330
20FD
100
AcDbXrecord
280
     1
102
RTVSPost2010Prop28
280
     0
102
RTVSPost2010PropOp28
 70
     1
102
RTVSPost2010Prop29
280
     1
102
RTVSPost2010PropOp29
 70
     1
102
RTVSPost2010Prop30
280
     1
102
RTVSPost2010PropOp30
 70
     1
102
RTVSPost2010Prop31
280
     0
102
RTVSPost2010PropOp31
 70
     1
102
RTVSPost2010Prop32
280
     0
102
RTVSPost2010PropOp32
 70
     1
102
RTVSPost2010Prop33
280
     0
102
RTVSPost2010PropOp33
 70
     1
102
RTVSPost2010Prop34
280
     0
102
RTVSPost2010PropOp34
 70
     1
102
RTVSPost2010Prop35
280
     0
102
RTVSPost2010PropOp35
 70
     1
102
RTVSPost2010Prop36
280
     0
102
RTVSPost2010PropOp36
 70
     1
102
RTVSPost2010Prop37
 90
       50
102
RTVSPost2010PropOp37
 70
     1
102
RTVSPost2010Prop38
140
0.0
102
RTVSPost2010PropOp38
 70
     1
102
RTVSPost2010Prop39
140
1.0
102
RTVSPost2010PropOp39
 70
     1
102
RTVSPost2010Prop40
 90
        0
102
RTVSPost2010PropOp40
 70
     1
102
RTVSPost2010Prop41ColorIndex
 90
       18
102
RTVSPost2010Prop41ColorRGB
 90
        0
102
RTVSPost2010PropOp41
 70
     1
102
RTVSPost2010Prop42
 90
       50
102
RTVSPost2010PropOp42
 70
     1
102
RTVSPost2010Prop43
 90
        3
102
RTVSPost2010PropOp43
 70
     1
102
RTVSPost2010Prop44ColorIndex
 90
        5
102
RTVSPost2010Prop44ColorRGB
 90
      255
102
RTVSPost2010PropOp44
 70
     1
102
RTVSPost2010Prop45
280
     0
102
RTVSPost2010PropOp45
 70
     1
102
RTVSPost2010Prop46
 90
       50
102
RTVSPost2010PropOp46
 70
     1
102
RTVSPost2010Prop47
 90
       50
102
RTVSPost2010PropOp47
 70
     1
102
RTVSPost2010Prop48
 90
       50
102
RTVSPost2010PropOp48
 70
     1
102
RTVSPost2010Prop49
280
     0
102
RTVSPost2010PropOp49
 70
     1
102
RTVSPost2010Prop50
 90
       50
102
RTVSPost2010PropOp50
 70
     1
102
RTVSPost2010Prop51ColorIndex
 90
      256
102
RTVSPost2010Prop51ColorRGB
 90
-16777216
102
RTVSPost2010PropOp51
 70
     0
102
RTVSPost2010Prop52
140
1.0
102
RTVSPost2010PropOp52
 70
     0
102
RTVSPost2010Prop53
 90
        2
102
RTVSPost2010PropOp53
 70
     1
102
RTVSPost2010Prop54
  1
strokes_ogs.tif
102
RTVSPost2010PropOp54
 70
     1
102
RTVSPost2010Prop55
280
     0
102
RTVSPost2010PropOp55
 70
     1
102
RTVSPost2010Prop56
140
1.0
102
RTVSPost2010PropOp56
 70
     1
102
RTVSPost2010Prop57
140
1.0
102
RTVSPost2010PropOp57
 70
     1
102
RTVSPropertyOp28
 70
     1
102
RTVSPropertyOp29
 70
     1
102
RTVSPropertyOp30
 70
     1
102
RTVSPropertyOp31
 70
     1
102
RTVSPropertyOp32
 70
     1
102
RTVSPropertyOp33
 70
     1
102
RTVSPropertyOp34
 70
     1
102
RTVSPropertyOp35
 70
     1
102
RTVSPropertyOp36
 70
     1
102
RTVSPropertyOp37
 70
     1
102
RTVSPropertyOp38
 70
     1
102
RTVSPropertyOp39
 70
     1
102
RTVSPropertyOp40
 70
     1
102
RTVSPropertyOp41
 70
     1
102
RTVSPropertyOp42
 70
     1
102
RTVSPropertyOp43
 70
     1
102
RTVSPropertyOp44
 70
     1
102
RTVSPropertyOp45
 70
     1
102
RTVSPropertyOp46
 70
     1
102
RTVSPropertyOp47
 70
     1
102
RTVSPropertyOp48
 70
     1
102
RTVSPropertyOp49
 70
     1
102
RTVSPropertyOp50
 70
     1
102
RTVSPropertyOp51
 70
     0
102
RTVSPropertyOp52
 70
     0
102
RTVSPropertyOp53
 70
     1
102
RTVSPropertyOp54
 70
     1
102
RTVSPropertyOp55
 70
     1
102
RTVSPropertyOp56
 70
     1
102
RTVSPropertyOp57
 70
     1
102
RTVSPropertyOp58
 70
     1
102
RTVSPropertyOp59
 70
     1
102
RTVSPropertyOp60
 70
     1
102
RTVSPropertyOp61
 70
     1
102
RTVSPropertyOp62
 70
     1
102
RTVSPropertyOp0
 70
     1
102
RTVSPropertyOp1
 70
     1
102
RTVSPropertyOp2
 70
     1
102
RTVSPropertyOp3
 70
     1
102
RTVSPropertyOp4
 70
     1
102
RTVSPropertyOp5
 70
     1
102
RTVSPropertyOp6
 70
     1
102
RTVSPropertyOp7
 70
     1
102
RTVSPropertyOp8
 70
     1
102
RTVSPropertyOp9
 70
     1
102
RTVSPropertyOp10
 70
     1
102
RTVSPropertyOp11
 70
     1
102
RTVSPropertyOp12
 70
     1
102
RTVSPropertyOp13
 70
     1
102
RTVSPropertyOp14
 70
     1
102
RTVSPropertyOp15
 70
     1
102
RTVSPropertyOp16
 70
     1
102
RTVSPropertyOp17
 70
     1
102
RTVSPropertyOp18
 70
     1
102
RTVSPropertyOp19
 70
     1
102
RTVSPropertyOp20
 70
     1
102
RTVSPropertyOp21
 70
     1
102
RTVSPropertyOp22
 70
     1
102
RTVSPropertyOp23
 70
     1
102
RTVSPropertyOp24
 70
     1
102
RTVSPropertyOp25
 70
     1
102
RTVSPropertyOp26
 70
     1
102
RTVSPropertyOp27
 70
     1
  0
XRECORD
  5
20EA
102
{ACAD_REACTORS
330
20E9
102
}
330
20E9
100
AcDbXrecord
280
     1
102
RTVSPost2010Prop28
280
     0
102
RTVSPost2010PropOp28
 70
     1
102
RTVSPost2010Prop29
280
     1
102
RTVSPost2010PropOp29
 70
     1
102
RTVSPost2010Prop30
280
     1
102
RTVSPost2010PropOp30
 70
     1
102
RTVSPost2010Prop31
280
     0
102
RTVSPost2010PropOp31
 70
     1
102
RTVSPost2010Prop32
280
     0
102
RTVSPost2010PropOp32
 70
     1
102
RTVSPost2010Prop33
280
     0
102
RTVSPost2010PropOp33
 70
     1
102
RTVSPost2010Prop34
280
     0
102
RTVSPost2010PropOp34
 70
     1
102
RTVSPost2010Prop35
280
     0
102
RTVSPost2010PropOp35
 70
     1
102
RTVSPost2010Prop36
280
     0
102
RTVSPost2010PropOp36
 70
     1
102
RTVSPost2010Prop37
 90
       50
102
RTVSPost2010PropOp37
 70
     1
102
RTVSPost2010Prop38
140
0.0
102
RTVSPost2010PropOp38
 70
     1
102
RTVSPost2010Prop39
140
1.0
102
RTVSPost2010PropOp39
 70
     1
102
RTVSPost2010Prop40
 90
        0
102
RTVSPost2010PropOp40
 70
     1
102
RTVSPost2010Prop41ColorIndex
 90
       18
102
RTVSPost2010Prop41ColorRGB
 90
        0
102
RTVSPost2010PropOp41
 70
     1
102
RTVSPost2010Prop42
 90
       50
102
RTVSPost2010PropOp42
 70
     1
102
RTVSPost2010Prop43
 90
        3
102
RTVSPost2010PropOp43
 70
     1
102
RTVSPost2010Prop44ColorIndex
 90
        5
102
RTVSPost2010Prop44ColorRGB
 90
      255
102
RTVSPost2010PropOp44
 70
     1
102
RTVSPost2010Prop45
280
     0
102
RTVSPost2010PropOp45
 70
     1
102
RTVSPost2010Prop46
 90
       50
102
RTVSPost2010PropOp46
 70
     1
102
RTVSPost2010Prop47
 90
       50
102
RTVSPost2010PropOp47
 70
     1
102
RTVSPost2010Prop48
 90
       50
102
RTVSPost2010PropOp48
 70
     1
102
RTVSPost2010Prop49
280
     0
102
RTVSPost2010PropOp49
 70
     1
102
RTVSPost2010Prop50
 90
       50
102
RTVSPost2010PropOp50
 70
     1
102
RTVSPost2010Prop51ColorIndex
 90
      256
102
RTVSPost2010Prop51ColorRGB
 90
-16777216
102
RTVSPost2010PropOp51
 70
     0
102
RTVSPost2010Prop52
140
1.0
102
RTVSPost2010PropOp52
 70
     0
102
RTVSPost2010Prop53
 90
        2
102
RTVSPost2010PropOp53
 70
     1
102
RTVSPost2010Prop54
  1
strokes_ogs.tif
102
RTVSPost2010PropOp54
 70
     1
102
RTVSPost2010Prop55
280
     0
102
RTVSPost2010PropOp55
 70
     1
102
RTVSPost2010Prop56
140
1.0
102
RTVSPost2010PropOp56
 70
     1
102
RTVSPost2010Prop57
140
1.0
102
RTVSPost2010PropOp57
 70
     1
102
RTVSPropertyOp28
 70
     1
102
RTVSPropertyOp29
 70
     1
102
RTVSPropertyOp30
 70
     1
102
RTVSPropertyOp31
 70
     1
102
RTVSPropertyOp32
 70
     1
102
RTVSPropertyOp33
 70
     1
102
RTVSPropertyOp34
 70
     1
102
RTVSPropertyOp35
 70
     1
102
RTVSPropertyOp36
 70
     1
102
RTVSPropertyOp37
 70
     1
102
RTVSPropertyOp38
 70
     1
102
RTVSPropertyOp39
 70
     1
102
RTVSPropertyOp40
 70
     1
102
RTVSPropertyOp41
 70
     1
102
RTVSPropertyOp42
 70
     1
102
RTVSPropertyOp43
 70
     1
102
RTVSPropertyOp44
 70
     1
102
RTVSPropertyOp45
 70
     1
102
RTVSPropertyOp46
 70
     1
102
RTVSPropertyOp47
 70
     1
102
RTVSPropertyOp48
 70
     1
102
RTVSPropertyOp49
 70
     1
102
RTVSPropertyOp50
 70
     1
102
RTVSPropertyOp51
 70
     0
102
RTVSPropertyOp52
 70
     0
102
RTVSPropertyOp53
 70
     1
102
RTVSPropertyOp54
 70
     1
102
RTVSPropertyOp55
 70
     1
102
RTVSPropertyOp56
 70
     1
102
RTVSPropertyOp57
 70
     1
102
RTVSPropertyOp58
 70
     1
102
RTVSPropertyOp59
 70
     1
102
RTVSPropertyOp60
 70
     1
102
RTVSPropertyOp61
 70
     1
102
RTVSPropertyOp62
 70
     1
102
RTVSPropertyOp0
 70
     1
102
RTVSPropertyOp1
 70
     1
102
RTVSPropertyOp2
 70
     1
102
RTVSPropertyOp3
 70
     1
102
RTVSPropertyOp4
 70
     1
102
RTVSPropertyOp5
 70
     1
102
RTVSPropertyOp6
 70
     1
102
RTVSPropertyOp7
 70
     1
102
RTVSPropertyOp8
 70
     1
102
RTVSPropertyOp9
 70
     1
102
RTVSPropertyOp10
 70
     1
102
RTVSPropertyOp11
 70
     1
102
RTVSPropertyOp12
 70
     1
102
RTVSPropertyOp13
 70
     1
102
RTVSPropertyOp14
 70
     1
102
RTVSPropertyOp15
 70
     1
102
RTVSPropertyOp16
 70
     1
102
RTVSPropertyOp17
 70
     1
102
RTVSPropertyOp18
 70
     1
102
RTVSPropertyOp19
 70
     1
102
RTVSPropertyOp20
 70
     1
102
RTVSPropertyOp21
 70
     1
102
RTVSPropertyOp22
 70
     1
102
RTVSPropertyOp23
 70
     1
102
RTVSPropertyOp24
 70
     1
102
RTVSPropertyOp25
 70
     1
102
RTVSPropertyOp26
 70
     1
102
RTVSPropertyOp27
 70
     1
  0
XRECORD
  5
20F8
102
{ACAD_REACTORS
330
20F7
102
}
330
20F7
100
AcDbXrecord
280
     1
102
RTVSPost2010Prop28
280
     0
102
RTVSPost2010PropOp28
 70
     1
102
RTVSPost2010Prop29
280
     1
102
RTVSPost2010PropOp29
 70
     1
102
RTVSPost2010Prop30
280
     1
102
RTVSPost2010PropOp30
 70
     1
102
RTVSPost2010Prop31
280
     0
102
RTVSPost2010PropOp31
 70
     1
102
RTVSPost2010Prop32
280
     0
102
RTVSPost2010PropOp32
 70
     1
102
RTVSPost2010Prop33
280
     0
102
RTVSPost2010PropOp33
 70
     1
102
RTVSPost2010Prop34
280
     0
102
RTVSPost2010PropOp34
 70
     1
102
RTVSPost2010Prop35
280
     0
102
RTVSPost2010PropOp35
 70
     1
102
RTVSPost2010Prop36
280
     0
102
RTVSPost2010PropOp36
 70
     1
102
RTVSPost2010Prop37
 90
       50
102
RTVSPost2010PropOp37
 70
     1
102
RTVSPost2010Prop38
140
0.0
102
RTVSPost2010PropOp38
 70
     1
102
RTVSPost2010Prop39
140
1.0
102
RTVSPost2010PropOp39
 70
     1
102
RTVSPost2010Prop40
 90
        0
102
RTVSPost2010PropOp40
 70
     1
102
RTVSPost2010Prop41ColorIndex
 90
       18
102
RTVSPost2010Prop41ColorRGB
 90
        0
102
RTVSPost2010PropOp41
 70
     1
102
RTVSPost2010Prop42
 90
       50
102
RTVSPost2010PropOp42
 70
     1
102
RTVSPost2010Prop43
 90
        3
102
RTVSPost2010PropOp43
 70
     1
102
RTVSPost2010Prop44ColorIndex
 90
        5
102
RTVSPost2010Prop44ColorRGB
 90
      255
102
RTVSPost2010PropOp44
 70
     1
102
RTVSPost2010Prop45
280
     0
102
RTVSPost2010PropOp45
 70
     1
102
RTVSPost2010Prop46
 90
       50
102
RTVSPost2010PropOp46
 70
     1
102
RTVSPost2010Prop47
 90
       50
102
RTVSPost2010PropOp47
 70
     1
102
RTVSPost2010Prop48
 90
       50
102
RTVSPost2010PropOp48
 70
     1
102
RTVSPost2010Prop49
280
     0
102
RTVSPost2010PropOp49
 70
     1
102
RTVSPost2010Prop50
 90
       50
102
RTVSPost2010PropOp50
 70
     1
102
RTVSPost2010Prop51ColorIndex
 90
      256
102
RTVSPost2010Prop51ColorRGB
 90
-16777216
102
RTVSPost2010PropOp51
 70
     0
102
RTVSPost2010Prop52
140
1.0
102
RTVSPost2010PropOp52
 70
     0
102
RTVSPost2010Prop53
 90
        2
102
RTVSPost2010PropOp53
 70
     1
102
RTVSPost2010Prop54
  1
strokes_ogs.tif
102
RTVSPost2010PropOp54
 70
     1
102
RTVSPost2010Prop55
280
     0
102
RTVSPost2010PropOp55
 70
     1
102
RTVSPost2010Prop56
140
1.0
102
RTVSPost2010PropOp56
 70
     1
102
RTVSPost2010Prop57
140
1.0
102
RTVSPost2010PropOp57
 70
     1
102
RTVSPropertyOp28
 70
     1
102
RTVSPropertyOp29
 70
     1
102
RTVSPropertyOp30
 70
     1
102
RTVSPropertyOp31
 70
     1
102
RTVSPropertyOp32
 70
     1
102
RTVSPropertyOp33
 70
     1
102
RTVSPropertyOp34
 70
     1
102
RTVSPropertyOp35
 70
     1
102
RTVSPropertyOp36
 70
     1
102
RTVSPropertyOp37
 70
     1
102
RTVSPropertyOp38
 70
     1
102
RTVSPropertyOp39
 70
     1
102
RTVSPropertyOp40
 70
     1
102
RTVSPropertyOp41
 70
     1
102
RTVSPropertyOp42
 70
     1
102
RTVSPropertyOp43
 70
     1
102
RTVSPropertyOp44
 70
     1
102
RTVSPropertyOp45
 70
     1
102
RTVSPropertyOp46
 70
     1
102
RTVSPropertyOp47
 70
     1
102
RTVSPropertyOp48
 70
     1
102
RTVSPropertyOp49
 70
     1
102
RTVSPropertyOp50
 70
     1
102
RTVSPropertyOp51
 70
     0
102
RTVSPropertyOp52
 70
     0
102
RTVSPropertyOp53
 70
     1
102
RTVSPropertyOp54
 70
     1
102
RTVSPropertyOp55
 70
     1
102
RTVSPropertyOp56
 70
     1
102
RTVSPropertyOp57
 70
     1
102
RTVSPropertyOp58
 70
     1
102
RTVSPropertyOp59
 70
     1
102
RTVSPropertyOp60
 70
     1
102
RTVSPropertyOp61
 70
     1
102
RTVSPropertyOp62
 70
     1
102
RTVSPropertyOp0
 70
     1
102
RTVSPropertyOp1
 70
     1
102
RTVSPropertyOp2
 70
     1
102
RTVSPropertyOp3
 70
     1
102
RTVSPropertyOp4
 70
     1
102
RTVSPropertyOp5
 70
     1
102
RTVSPropertyOp6
 70
     1
102
RTVSPropertyOp7
 70
     1
102
RTVSPropertyOp8
 70
     1
102
RTVSPropertyOp9
 70
     1
102
RTVSPropertyOp10
 70
     1
102
RTVSPropertyOp11
 70
     1
102
RTVSPropertyOp12
 70
     1
102
RTVSPropertyOp13
 70
     1
102
RTVSPropertyOp14
 70
     1
102
RTVSPropertyOp15
 70
     1
102
RTVSPropertyOp16
 70
     1
102
RTVSPropertyOp17
 70
     1
102
RTVSPropertyOp18
 70
     1
102
RTVSPropertyOp19
 70
     1
102
RTVSPropertyOp20
 70
     1
102
RTVSPropertyOp21
 70
     1
102
RTVSPropertyOp22
 70
     1
102
RTVSPropertyOp23
 70
     1
102
RTVSPropertyOp24
 70
     1
102
RTVSPropertyOp25
 70
     1
102
RTVSPropertyOp26
 70
     1
102
RTVSPropertyOp27
 70
     1
  0
XRECORD
  5
2100
102
{ACAD_REACTORS
330
20FF
102
}
330
20FF
100
AcDbXrecord
280
     1
102
RTVSPost2010Prop28
280
     0
102
RTVSPost2010PropOp28
 70
     1
102
RTVSPost2010Prop29
280
     1
102
RTVSPost2010PropOp29
 70
     1
102
RTVSPost2010Prop30
280
     1
102
RTVSPost2010PropOp30
 70
     1
102
RTVSPost2010Prop31
280
     0
102
RTVSPost2010PropOp31
 70
     1
102
RTVSPost2010Prop32
280
     0
102
RTVSPost2010PropOp32
 70
     1
102
RTVSPost2010Prop33
280
     0
102
RTVSPost2010PropOp33
 70
     1
102
RTVSPost2010Prop34
280
     0
102
RTVSPost2010PropOp34
 70
     1
102
RTVSPost2010Prop35
280
     0
102
RTVSPost2010PropOp35
 70
     1
102
RTVSPost2010Prop36
280
     0
102
RTVSPost2010PropOp36
 70
     1
102
RTVSPost2010Prop37
 90
       50
102
RTVSPost2010PropOp37
 70
     1
102
RTVSPost2010Prop38
140
0.0
102
RTVSPost2010PropOp38
 70
     1
102
RTVSPost2010Prop39
140
1.0
102
RTVSPost2010PropOp39
 70
     1
102
RTVSPost2010Prop40
 90
        0
102
RTVSPost2010PropOp40
 70
     1
102
RTVSPost2010Prop41ColorIndex
 90
       18
102
RTVSPost2010Prop41ColorRGB
 90
        0
102
RTVSPost2010PropOp41
 70
     1
102
RTVSPost2010Prop42
 90
       50
102
RTVSPost2010PropOp42
 70
     1
102
RTVSPost2010Prop43
 90
        3
102
RTVSPost2010PropOp43
 70
     1
102
RTVSPost2010Prop44ColorIndex
 90
        5
102
RTVSPost2010Prop44ColorRGB
 90
      255
102
RTVSPost2010PropOp44
 70
     1
102
RTVSPost2010Prop45
280
     0
102
RTVSPost2010PropOp45
 70
     1
102
RTVSPost2010Prop46
 90
       50
102
RTVSPost2010PropOp46
 70
     1
102
RTVSPost2010Prop47
 90
       50
102
RTVSPost2010PropOp47
 70
     1
102
RTVSPost2010Prop48
 90
       50
102
RTVSPost2010PropOp48
 70
     1
102
RTVSPost2010Prop49
280
     0
102
RTVSPost2010PropOp49
 70
     1
102
RTVSPost2010Prop50
 90
       50
102
RTVSPost2010PropOp50
 70
     1
102
RTVSPost2010Prop51ColorIndex
 90
      256
102
RTVSPost2010Prop51ColorRGB
 90
-16777216
102
RTVSPost2010PropOp51
 70
     0
102
RTVSPost2010Prop52
140
1.0
102
RTVSPost2010PropOp52
 70
     0
102
RTVSPost2010Prop53
 90
        2
102
RTVSPost2010PropOp53
 70
     1
102
RTVSPost2010Prop54
  1
strokes_ogs.tif
102
RTVSPost2010PropOp54
 70
     1
102
RTVSPost2010Prop55
280
     0
102
RTVSPost2010PropOp55
 70
     1
102
RTVSPost2010Prop56
140
1.0
102
RTVSPost2010PropOp56
 70
     1
102
RTVSPost2010Prop57
140
1.0
102
RTVSPost2010PropOp57
 70
     1
102
RTVSPropertyOp28
 70
     1
102
RTVSPropertyOp29
 70
     1
102
RTVSPropertyOp30
 70
     1
102
RTVSPropertyOp31
 70
     1
102
RTVSPropertyOp32
 70
     1
102
RTVSPropertyOp33
 70
     1
102
RTVSPropertyOp34
 70
     1
102
RTVSPropertyOp35
 70
     1
102
RTVSPropertyOp36
 70
     1
102
RTVSPropertyOp37
 70
     1
102
RTVSPropertyOp38
 70
     1
102
RTVSPropertyOp39
 70
     1
102
RTVSPropertyOp40
 70
     1
102
RTVSPropertyOp41
 70
     1
102
RTVSPropertyOp42
 70
     1
102
RTVSPropertyOp43
 70
     1
102
RTVSPropertyOp44
 70
     1
102
RTVSPropertyOp45
 70
     1
102
RTVSPropertyOp46
 70
     1
102
RTVSPropertyOp47
 70
     1
102
RTVSPropertyOp48
 70
     1
102
RTVSPropertyOp49
 70
     1
102
RTVSPropertyOp50
 70
     1
102
RTVSPropertyOp51
 70
     0
102
RTVSPropertyOp52
 70
     0
102
RTVSPropertyOp53
 70
     1
102
RTVSPropertyOp54
 70
     1
102
RTVSPropertyOp55
 70
     1
102
RTVSPropertyOp56
 70
     1
102
RTVSPropertyOp57
 70
     1
102
RTVSPropertyOp58
 70
     1
102
RTVSPropertyOp59
 70
     1
102
RTVSPropertyOp60
 70
     1
102
RTVSPropertyOp61
 70
     1
102
RTVSPropertyOp62
 70
     1
102
RTVSPropertyOp0
 70
     1
102
RTVSPropertyOp1
 70
     1
102
RTVSPropertyOp2
 70
     1
102
RTVSPropertyOp3
 70
     1
102
RTVSPropertyOp4
 70
     1
102
RTVSPropertyOp5
 70
     1
102
RTVSPropertyOp6
 70
     1
102
RTVSPropertyOp7
 70
     1
102
RTVSPropertyOp8
 70
     1
102
RTVSPropertyOp9
 70
     1
102
RTVSPropertyOp10
 70
     1
102
RTVSPropertyOp11
 70
     1
102
RTVSPropertyOp12
 70
     1
102
RTVSPropertyOp13
 70
     1
102
RTVSPropertyOp14
 70
     1
102
RTVSPropertyOp15
 70
     1
102
RTVSPropertyOp16
 70
     1
102
RTVSPropertyOp17
 70
     1
102
RTVSPropertyOp18
 70
     1
102
RTVSPropertyOp19
 70
     1
102
RTVSPropertyOp20
 70
     1
102
RTVSPropertyOp21
 70
     1
102
RTVSPropertyOp22
 70
     1
102
RTVSPropertyOp23
 70
     1
102
RTVSPropertyOp24
 70
     1
102
RTVSPropertyOp25
 70
     1
102
RTVSPropertyOp26
 70
     1
102
RTVSPropertyOp27
 70
     1
  0
ENDSEC
  0
EOF
