  0
SECTION
  2
HEADER
  9
$ACADVER
  1
AC1014
  9
$ACADMAINTVER
 70
     9
  9
$DWGCODEPAGE
  3
ANSI_932
  9
$INSBASE
 10
0.0
 20
0.0
 30
0.0
  9
$EXTMIN
 10
-17.68124999999999
 20
-42.00000000000001
 30
0.0
  9
$EXTMAX
 10
692.52124
 20
495.179291
 30
0.0
  9
$LIMMIN
 10
0.0
 20
0.0
  9
$LIMMAX
 10
12.0
 20
9.0
  9
$ORTHOMODE
 70
     1
  9
$REGENMODE
 70
     1
  9
$FILLMODE
 70
     1
  9
$QTEXTMODE
 70
     0
  9
$MIRRTEXT
 70
     1
  9
$DRAGMODE
 70
     2
  9
$LTSCALE
 40
3.0
  9
$OSMODE
 70
    45
  9
$ATTMODE
 70
     1
  9
$TEXTSIZE
 40
3.0
  9
$TRACEWID
 40
0.05
  9
$TEXTSTYLE
  7
STANDARD
  9
$CLAYER
  8
1
  9
$CELTYPE
  6
CONTINUOUS
  9
$CECOLOR
 62
   256
  9
$CELTSCALE
 40
1.0
  9
$DELOBJ
 70
     1
  9
$DISPSILH
 70
     0
  9
$DIMSCALE
 40
1.0
  9
$DIMASZ
 40
0.18
  9
$DIMEXO
 40
0.0625
  9
$DIMDLI
 40
0.38
  9
$DIMRND
 40
0.0
  9
$DIMDLE
 40
0.0
  9
$DIMEXE
 40
0.18
  9
$DIMTP
 40
0.0
  9
$DIMTM
 40
0.0
  9
$DIMTXT
 40
0.18
  9
$DIMCEN
 40
0.09
  9
$DIMTSZ
 40
0.0
  9
$DIMTOL
 70
     0
  9
$DIMLIM
 70
     0
  9
$DIMTIH
 70
     1
  9
$DIMTOH
 70
     1
  9
$DIMSE1
 70
     0
  9
$DIMSE2
 70
     0
  9
$DIMTAD
 70
     0
  9
$DIMZIN
 70
     0
  9
$DIMBLK
  1

  9
$DIMASO
 70
     1
  9
$DIMSHO
 70
     1
  9
$DIMPOST
  1

  9
$DIMAPOST
  1

  9
$DIMALT
 70
     0
  9
$DIMALTD
 70
     2
  9
$DIMALTF
 40
25.4
  9
$DIMLFAC
 40
1.0
  9
$DIMTOFL
 70
     0
  9
$DIMTVP
 40
0.0
  9
$DIMTIX
 70
     0
  9
$DIMSOXD
 70
     0
  9
$DIMSAH
 70
     0
  9
$DIMBLK1
  1

  9
$DIMBLK2
  1

  9
$DIMSTYLE
  2
STANDARD
  9
$DIMCLRD
 70
     0
  9
$DIMCLRE
 70
     0
  9
$DIMCLRT
 70
     0
  9
$DIMTFAC
 40
1.0
  9
$DIMGAP
 40
0.09
  9
$DIMJUST
 70
     0
  9
$DIMSD1
 70
     0
  9
$DIMSD2
 70
     0
  9
$DIMTOLJ
 70
     1
  9
$DIMTZIN
 70
     0
  9
$DIMALTZ
 70
     0
  9
$DIMALTTZ
 70
     0
  9
$DIMFIT
 70
     3
  9
$DIMUPT
 70
     0
  9
$DIMUNIT
 70
     2
  9
$DIMDEC
 70
     4
  9
$DIMTDEC
 70
     4
  9
$DIMALTU
 70
     2
  9
$DIMALTTD
 70
     2
  9
$DIMTXSTY
  7
STANDARD
  9
$DIMAUNIT
 70
     0
  9
$LUNITS
 70
     2
  9
$LUPREC
 70
     4
  9
$SKETCHINC
 40
0.1
  9
$FILLETRAD
 40
0.0
  9
$AUNITS
 70
     0
  9
$AUPREC
 70
     0
  9
$MENU
  1
.
  9
$ELEVATION
 40
0.0
  9
$PELEVATION
 40
0.0
  9
$THICKNESS
 40
0.0
  9
$LIMCHECK
 70
     0
  9
$BLIPMODE
 70
     0
  9
$CHAMFERA
 40
0.0
  9
$CHAMFERB
 40
0.0
  9
$CHAMFERC
 40
0.0
  9
$CHAMFERD
 40
0.0
  9
$SKPOLY
 70
     0
  9
$TDCREATE
 40
2453347.746734120
  9
$TDUPDATE
 40
2453354.763025521
  9
$TDINDWG
 40
0.0041797106
  9
$TDUSRTIMER
 40
0.0041797106
  9
$USRTIMER
 70
     1
  9
$ANGBASE
 50
0.0
  9
$ANGDIR
 70
     0
  9
$PDMODE
 70
     0
  9
$PDSIZE
 40
0.0
  9
$PLINEWID
 40
0.0
  9
$COORDS
 70
     1
  9
$SPLFRAME
 70
     0
  9
$SPLINETYPE
 70
     6
  9
$SPLINESEGS
 70
     8
  9
$ATTDIA
 70
     0
  9
$ATTREQ
 70
     1
  9
$HANDLING
 70
 22529
  9
$HANDSEED
  5
40F
  9
$SURFTAB1
 70
     6
  9
$SURFTAB2
 70
     6
  9
$SURFTYPE
 70
     6
  9
$SURFU
 70
     6
  9
$SURFV
 70
     6
  9
$UCSNAME
  2

  9
$UCSORG
 10
0.0
 20
0.0
 30
0.0
  9
$UCSXDIR
 10
1.0
 20
0.0
 30
0.0
  9
$UCSYDIR
 10
0.0
 20
1.0
 30
0.0
  9
$PUCSNAME
  2

  9
$PUCSORG
 10
0.0
 20
0.0
 30
0.0
  9
$PUCSXDIR
 10
1.0
 20
0.0
 30
0.0
  9
$PUCSYDIR
 10
0.0
 20
1.0
 30
0.0
  9
$USERI1
 70
     0
  9
$USERI2
 70
     0
  9
$USERI3
 70
     0
  9
$USERI4
 70
     0
  9
$USERI5
 70
     0
  9
$USERR1
 40
0.0
  9
$USERR2
 40
0.0
  9
$USERR3
 40
0.0
  9
$USERR4
 40
0.0
  9
$USERR5
 40
0.0
  9
$WORLDVIEW
 70
     1
  9
$SHADEDGE
 70
     3
  9
$SHADEDIF
 70
    70
  9
$TILEMODE
 70
     1
  9
$MAXACTVP
 70
    64
  9
$PINSBASE
 10
0.0
 20
0.0
 30
0.0
  9
$PLIMCHECK
 70
     0
  9
$PEXTMIN
 10
1.000000000000000E+20
 20
1.000000000000000E+20
 30
1.000000000000000E+20
  9
$PEXTMAX
 10
-1.000000000000000E+20
 20
-1.000000000000000E+20
 30
-1.000000000000000E+20
  9
$PLIMMIN
 10
0.0
 20
0.0
  9
$PLIMMAX
 10
12.0
 20
9.0
  9
$UNITMODE
 70
     0
  9
$VISRETAIN
 70
     1
  9
$PLINEGEN
 70
     0
  9
$PSLTSCALE
 70
     1
  9
$TREEDEPTH
 70
  3020
  9
$PICKSTYLE
 70
     1
  9
$CMLSTYLE
  2
STANDARD
  9
$CMLJUST
 70
     0
  9
$CMLSCALE
 40
1.0
  9
$PROXYGRAPHICS
 70
     1
  9
$MEASUREMENT
 70
     0
  0
ENDSEC
  0
SECTION
  2
CLASSES
  0
CLASS
  1
ACDBDICTIONARYWDFLT
  2
AcDbDictionaryWithDefault
  3
AutoCAD 2000
 90
        0
280
     0
281
     0
  0
CLASS
  1
ACDBPLACEHOLDER
  2
AcDbPlaceHolder
  3
AutoCAD 2000
 90
        0
280
     0
281
     0
  0
CLASS
  1
LAYOUT
  2
AcDbLayout
  3
AutoCAD 2000
 90
        0
280
     0
281
     0
  0
CLASS
  1
DICTIONARYVAR
  2
AcDbDictionaryVar
  3
AutoCAD 2000
 90
        0
280
     0
281
     0
  0
CLASS
  1
LONG_TRANSACTION
  2
AcDbLongTransaction
  3
AutoCAD 2000
 90
        0
280
     0
281
     0
  0
CLASS
  1
LWPOLYLINE
  2
AcDbPolyline
  3
AutoCAD 2000
 90
        0
280
     0
281
     1
  0
CLASS
  1
HATCH
  2
AcDbHatch
  3
AutoCAD 2000
 90
        0
280
     0
281
     1
  0
CLASS
  1
XRECORD
  2
AcDbXrecord
  3
AutoCAD 2000
 90
        0
280
     0
281
     0
  0
ENDSEC
  0
SECTION
  2
TABLES
  0
TABLE
  2
VPORT
  5
8
330
0
100
AcDbSymbolTable
 70
     2
  0
VPORT
  5
3EA
330
8
100
AcDbSymbolTableRecord
100
AcDbViewportTableRecord
  2
*ACTIVE
 70
     0
 10
0.0
 20
0.0
 11
1.0
 21
1.0
 12
529.2352915190323
 22
230.6732611900389
 13
0.0
 23
0.0
 14
1.0
 24
1.0
 15
0.0
 25
0.0
 16
0.0
 26
0.0
 36
1.0
 17
0.0
 27
0.0
 37
0.0
 40
758.104423713847
 41
1.976793248945147
 42
50.0
 43
0.0
 44
0.0
 50
0.0
 51
0.0
 71
     0
 72
   100
 73
     1
 74
     1
 75
     0
 76
     0
 77
     0
 78
     0
  0
ENDTAB
  0
TABLE
  2
LTYPE
  5
5
330
0
100
AcDbSymbolTable
 70
     3
  0
LTYPE
  5
13
330
5
100
AcDbSymbolTableRecord
100
AcDbLinetypeTableRecord
  2
BYBLOCK
 70
     0
  3

 72
    65
 73
     0
 40
0.0
  0
LTYPE
  5
14
330
5
100
AcDbSymbolTableRecord
100
AcDbLinetypeTableRecord
  2
BYLAYER
 70
     0
  3

 72
    65
 73
     0
 40
0.0
  0
LTYPE
  5
15
330
5
100
AcDbSymbolTableRecord
100
AcDbLinetypeTableRecord
  2
CONTINUOUS
 70
     0
  3
solid line
 72
    65
 73
     0
 40
0.0
  0
LTYPE
  5
23
330
5
100
AcDbSymbolTableRecord
100
AcDbLinetypeTableRecord
  2
DASHED
 70
     0
  3
__ __ __ __ __ __ __ __ __ __ __ __ __ __ __
 72
    65
 73
     2
 40
0.75
 49
0.5
 74
     0
 49
-0.25
 74
     0
  0
LTYPE
  5
24
330
5
100
AcDbSymbolTableRecord
100
AcDbLinetypeTableRecord
  2
CENTER
 70
     0
  3
____ _ ____ _ ____ _ ____ _ ____ _ ____ _ ____
 72
    65
 73
     4
 40
2.0
 49
1.25
 74
     0
 49
-0.25
 74
     0
 49
0.25
 74
     0
 49
-0.25
 74
     0
  0
ENDTAB
  0
TABLE
  2
LAYER
  5
2
330
0
100
AcDbSymbolTable
 70
     2
  0
LAYER
  5
10
330
2
100
AcDbSymbolTableRecord
100
AcDbLayerTableRecord
  2
0
 70
     0
 62
     7
  6
CONTINUOUS
  0
LAYER
  5
22
330
2
100
AcDbSymbolTableRecord
100
AcDbLayerTableRecord
  2
1
 70
     0
 62
     7
  6
CONTINUOUS
  0
ENDTAB
  0
TABLE
  2
STYLE
  5
3
330
0
100
AcDbSymbolTable
 70
     1
  0
STYLE
  5
11
330
3
100
AcDbSymbolTableRecord
100
AcDbTextStyleTableRecord
  2
STANDARD
 70
     0
 40
0.0
 41
1.0
 50
0.0
 71
     0
 42
3.0
  3
txt
  4
BIGFONT
  0
ENDTAB
  0
TABLE
  2
VIEW
  5
6
330
0
100
AcDbSymbolTable
 70
     0
  0
ENDTAB
  0
TABLE
  2
UCS
  5
7
330
0
100
AcDbSymbolTable
 70
     0
  0
ENDTAB
  0
TABLE
  2
APPID
  5
9
330
0
100
AcDbSymbolTable
 70
     1
  0
APPID
  5
12
330
9
100
AcDbSymbolTableRecord
100
AcDbRegAppTableRecord
  2
ACAD
 70
     0
  0
ENDTAB
  0
TABLE
  2
DIMSTYLE
  5
A
330
0
100
AcDbSymbolTable
 70
     1
  0
DIMSTYLE
105
2B8
330
A
100
AcDbSymbolTableRecord
100
AcDbDimStyleTableRecord
  2
STANDARD
 70
     0
  3

  4

  5

  6

  7

 40
1.0
 41
0.18
 42
0.0625
 43
0.38
 44
0.18
 45
0.0
 46
0.0
 47
0.0
 48
0.0
140
0.18
141
0.09
142
0.0
143
25.4
144
1.0
145
0.0
146
1.0
147
0.09
 71
     0
 72
     0
 73
     1
 74
     1
 75
     0
 76
     0
 77
     0
 78
     0
170
     0
171
     2
172
     0
173
     0
174
     0
175
     0
176
     0
177
     0
178
     0
270
     2
271
     4
272
     4
273
     2
274
     2
340
11
275
     0
280
     0
281
     0
282
     0
283
     1
284
     0
285
     0
286
     0
287
     3
288
     0
  0
ENDTAB
  0
TABLE
  2
BLOCK_RECORD
  5
1
330
0
100
AcDbSymbolTable
 70
     0
  0
BLOCK_RECORD
  5
1E
102
{ACAD_XDICTIONARY
360
40D
102
}
330
1
100
AcDbSymbolTableRecord
100
AcDbBlockTableRecord
  2
*MODEL_SPACE
  0
BLOCK_RECORD
  5
1A
102
{ACAD_XDICTIONARY
360
40B
102
}
330
1
100
AcDbSymbolTableRecord
100
AcDbBlockTableRecord
  2
*PAPER_SPACE
  0
ENDTAB
  0
ENDSEC
  0
SECTION
  2
BLOCKS
  0
BLOCK
  5
1F
330
1E
100
AcDbEntity
  8
0
100
AcDbBlockBegin
  2
*MODEL_SPACE
 70
     0
 10
0.0
 20
0.0
 30
0.0
  3
*MODEL_SPACE
  1

  0
ENDBLK
  5
20
330
1E
100
AcDbEntity
  8
0
100
AcDbBlockEnd
  0
BLOCK
  5
1B
330
1A
100
AcDbEntity
 67
     1
  8
0
100
AcDbBlockBegin
  2
*PAPER_SPACE
 70
     0
 10
0.0
 20
0.0
 30
0.0
  3
*PAPER_SPACE
  1

  0
ENDBLK
  5
1C
330
1A
100
AcDbEntity
 67
     1
  8
0
100
AcDbBlockEnd
  0
ENDSEC
  0
SECTION
  2
ENTITIES
  0
LINE
  5
29
330
1E
100
AcDbEntity
  8
0
  6
CENTER
100
AcDbLine
 10
333.018127
 20
495.179291
 30
0.0
 11
333.018127
 21
271.774994
 31
0.0
  0
LINE
  5
2A
330
1E
100
AcDbEntity
  8
0
  6
CONTINUOUS
100
AcDbLine
 10
409.0183109999999
 20
406.0317379999999
 30
0.0
 11
408.232849
 21
451.031738
 31
0.0
  0
LINE
  5
2B
330
1E
100
AcDbEntity
  8
0
  6
CONTINUOUS
100
AcDbLine
 10
274.5680849999999
 20
481.0317379999999
 30
0.0
 11
333.018127
 21
481.0317379999999
 31
0.0
  0
LINE
  5
2C
330
1E
100
AcDbEntity
  8
0
  6
CONTINUOUS
100
AcDbLine
 10
398.9617309999999
 20
475.8329469999999
 30
0.0
 11
408.232849
 21
451.031738
 31
0.0
  0
ARC
  5
2D
330
1E
100
AcDbEntity
  8
0
  6
CONTINUOUS
100
AcDbCircle
 10
391.46817
 20
473.0317379999999
 30
0.0
 40
8.0
100
AcDbArc
 50
20.49661799999999
 51
90.0
  0
LINE
  5
2E
330
1E
100
AcDbEntity
  8
0
  6
CONTINUOUS
100
AcDbLine
 10
409.0183109999999
 20
406.0317379999999
 30
0.0
 11
408.232849
 21
361.0317379999999
 31
0.0
  0
LINE
  5
2F
330
1E
100
AcDbEntity
  8
0
  6
CONTINUOUS
100
AcDbLine
 10
274.5680849999999
 20
331.0317379999999
 30
0.0
 11
317.018127
 21
331.0317379999999
 31
0.0
  0
LINE
  5
30
330
1E
100
AcDbEntity
  8
0
  6
CONTINUOUS
100
AcDbLine
 10
398.9617309999999
 20
336.230499
 30
0.0
 11
408.232849
 21
361.0317379999999
 31
0.0
  0
ARC
  5
31
330
1E
100
AcDbEntity
  8
0
  6
CONTINUOUS
100
AcDbCircle
 10
391.46817
 20
339.0317379999999
 30
0.0
 40
8.0
100
AcDbArc
 50
270.0
 51
339.503382
  0
LINE
  5
32
330
1E
100
AcDbEntity
  8
0
  6
CONTINUOUS
100
AcDbLine
 10
267.074524
 20
475.8329469999999
 30
0.0
 11
258.039764
 21
451.6640009999999
 31
0.0
  0
ARC
  5
33
330
1E
100
AcDbEntity
  8
0
  6
CONTINUOUS
100
AcDbCircle
 10
274.5680849999999
 20
473.0317379999999
 30
0.0
 40
8.0
100
AcDbArc
 50
90.0
 51
159.5033869999999
  0
LINE
  5
34
330
1E
100
AcDbEntity
  8
0
  6
CONTINUOUS
100
AcDbLine
 10
267.074524
 20
336.230499
 30
0.0
 11
258.039764
 21
360.399445
 31
0.0
  0
ARC
  5
35
330
1E
100
AcDbEntity
  8
0
  6
CONTINUOUS
100
AcDbCircle
 10
274.5680849999999
 20
339.0317379999999
 30
0.0
 40
8.0
100
AcDbArc
 50
200.496613
 51
270.0
  0
LINE
  5
36
330
1E
100
AcDbEntity
  8
0
  6
CONTINUOUS
100
AcDbLine
 10
260.751495
 20
451.031738
 30
0.0
 11
405.2847599999999
 21
451.031738
 31
0.0
  0
LINE
  5
37
330
1E
100
AcDbEntity
  8
0
  6
CONTINUOUS
100
AcDbLine
 10
405.2847599999999
 20
361.0317379999999
 30
0.0
 11
260.751495
 21
361.0317379999999
 31
0.0
  0
LINE
  5
38
330
1E
100
AcDbEntity
  8
0
  6
CONTINUOUS
100
AcDbLine
 10
333.018127
 20
468.0317379999999
 30
0.0
 11
368.276947
 21
468.0317379999999
 31
0.0
  0
ARC
  5
39
330
1E
100
AcDbEntity
  8
0
  6
CONTINUOUS
100
AcDbCircle
 10
405.2847599999999
 20
448.0317379999999
 30
0.0
 40
3.0
100
AcDbArc
 50
1.0
 51
90.0
  0
ARC
  5
3A
330
1E
100
AcDbEntity
  8
0
  6
CONTINUOUS
100
AcDbCircle
 10
405.2847599999999
 20
364.0317379999999
 30
0.0
 40
3.0
100
AcDbArc
 50
270.0
 51
359.0
  0
LINE
  5
3B
330
1E
100
AcDbEntity
  8
0
  6
CONTINUOUS
100
AcDbLine
 10
362.0181269999999
 20
448.0317379999999
 30
0.0
 11
362.0181269999999
 21
364.0317379999999
 31
0.0
  0
LINE
  5
3C
330
1E
100
AcDbEntity
  8
0
  6
CONTINUOUS
100
AcDbLine
 10
304.018127
 20
448.0317379999999
 30
0.0
 11
304.018127
 21
364.0317379999999
 31
0.0
  0
LINE
  5
3D
330
1E
100
AcDbEntity
  8
0
  6
CONTINUOUS
100
AcDbLine
 10
234.5183259999999
 20
477.0317379999999
 30
0.0
 11
234.5183259999999
 21
335.0317379999999
 31
0.0
  0
LINE
  5
3E
330
1E
100
AcDbEntity
  8
0
  6
CONTINUOUS
100
AcDbLine
 10
241.913025
 20
477.0317379999999
 30
0.0
 11
234.5183259999999
 21
477.0317379999999
 31
0.0
  0
LINE
  5
3F
330
1E
100
AcDbEntity
  8
0
  6
CONTINUOUS
100
AcDbLine
 10
333.018127
 20
468.0317379999999
 30
0.0
 11
297.759308
 21
468.0317379999999
 31
0.0
  0
LINE
  5
40
330
1E
100
AcDbEntity
  8
0
  6
CONTINUOUS
100
AcDbLine
 10
333.018127
 20
344.0317379999999
 30
0.0
 11
368.276947
 21
344.0317379999999
 31
0.0
  0
LINE
  5
41
330
1E
100
AcDbEntity
  8
0
  6
CONTINUOUS
100
AcDbLine
 10
333.018127
 20
344.0317379999999
 30
0.0
 11
297.759308
 21
344.0317379999999
 31
0.0
  0
LINE
  5
42
330
1E
100
AcDbEntity
  8
0
  6
CONTINUOUS
100
AcDbLine
 10
333.018127
 20
481.0317379999999
 30
0.0
 11
391.46817
 21
481.0317379999999
 31
0.0
  0
LINE
  5
43
330
1E
100
AcDbEntity
  8
0
  6
CONTINUOUS
100
AcDbLine
 10
352.018127
 20
286.0317379999999
 30
0.0
 11
317.018127
 21
286.0317379999999
 31
0.0
  0
LINE
  5
44
330
1E
100
AcDbEntity
  8
0
  6
CONTINUOUS
100
AcDbLine
 10
317.018127
 20
341.0317379999999
 30
0.0
 11
317.018127
 21
286.0317379999999
 31
0.0
  0
LINE
  5
45
330
1E
100
AcDbEntity
  8
0
  6
CONTINUOUS
100
AcDbLine
 10
349.0181269999999
 20
341.0317379999999
 30
0.0
 11
349.0181269999999
 21
336.0317379999999
 31
0.0
  0
LINE
  5
46
330
1E
100
AcDbEntity
  8
0
  6
CONTINUOUS
100
AcDbLine
 10
315.5181269999999
 20
341.0317379999999
 30
0.0
 11
350.518127
 21
341.0317379999999
 31
0.0
  0
LINE
  5
47
330
1E
100
AcDbEntity
  8
0
  6
CONTINUOUS
100
AcDbLine
 10
315.5181269999999
 20
344.0317379999999
 30
0.0
 11
315.5181269999999
 21
341.0317379999999
 31
0.0
  0
LINE
  5
48
330
1E
100
AcDbEntity
  8
0
  6
CONTINUOUS
100
AcDbLine
 10
350.518127
 20
344.0317379999999
 30
0.0
 11
350.518127
 21
341.0317379999999
 31
0.0
  0
LINE
  5
49
330
1E
100
AcDbEntity
  8
0
  6
CONTINUOUS
100
AcDbLine
 10
352.018127
 20
286.0317379999999
 30
0.0
 11
352.018127
 21
336.0317379999999
 31
0.0
  0
LINE
  5
4A
330
1E
100
AcDbEntity
  8
0
  6
CONTINUOUS
100
AcDbLine
 10
348.216827
 20
336.0317379999999
 30
0.0
 11
352.018127
 21
336.0317379999999
 31
0.0
  0
LINE
  5
4B
330
1E
100
AcDbEntity
  8
0
  6
CONTINUOUS
100
AcDbLine
 10
348.216827
 20
336.0317379999999
 30
0.0
 11
348.216827
 21
286.0317379999999
 31
0.0
  0
LINE
  5
4C
330
1E
100
AcDbEntity
  8
0
  6
CONTINUOUS
100
AcDbLine
 10
352.018127
 20
331.0317379999999
 30
0.0
 11
391.46817
 21
331.0317379999999
 31
0.0
  0
LINE
  5
4D
330
1E
100
AcDbEntity
  8
0
  6
CENTER
100
AcDbLine
 10
370.641815
 20
466.0317379999999
 30
0.0
 11
389.579315
 21
466.0317379999999
 31
0.0
  0
LINE
  5
4E
330
1E
100
AcDbEntity
  8
0
  6
CENTER
100
AcDbLine
 10
380.5181269999999
 20
456.879395
 30
0.0
 11
380.5181269999999
 21
476.379395
 31
0.0
  0
ARC
  5
4F
330
1E
100
AcDbEntity
  8
0
  6
CONTINUOUS
100
AcDbCircle
 10
380.5181269999999
 20
466.0317379999999
 30
0.0
 40
6.5
100
AcDbArc
 50
308.759312
 51
230.284866
  0
ARC
  5
50
330
1E
100
AcDbEntity
  8
0
  6
CONTINUOUS
100
AcDbCircle
 10
285.518127
 20
466.0317379999999
 30
0.0
 40
6.5
100
AcDbArc
 50
309.715137
 51
231.2406919999999
  0
LINE
  5
51
330
1E
100
AcDbEntity
  8
0
  6
CENTER
100
AcDbLine
 10
285.518127
 20
456.879395
 30
0.0
 11
285.518127
 21
476.379395
 31
0.0
  0
LINE
  5
52
330
1E
100
AcDbEntity
  8
0
  6
CENTER
100
AcDbLine
 10
295.3944399999999
 20
466.0317379999999
 30
0.0
 11
276.4569399999999
 21
466.0317379999999
 31
0.0
  0
LINE
  5
53
330
1E
100
AcDbEntity
  8
0
  6
CENTER
100
AcDbLine
 10
-17.68124999999999
 20
406.0317379999999
 30
0.0
 11
427.0025019999999
 21
406.0317379999999
 31
0.0
  0
LINE
  5
54
330
1E
100
AcDbEntity
  8
0
  6
CONTINUOUS
100
AcDbLine
 10
257.017914
 20
406.0317379999999
 30
0.0
 11
257.7519529999999
 21
448.0840759999999
 31
0.0
  0
LINE
  5
55
330
1E
100
AcDbEntity
  8
0
  6
CONTINUOUS
100
AcDbLine
 10
257.017914
 20
406.0317379999999
 30
0.0
 11
257.7519529999999
 21
363.97937
 31
0.0
  0
ARC
  5
56
330
1E
100
AcDbEntity
  8
0
  6
CONTINUOUS
100
AcDbCircle
 10
260.751495
 20
448.0317379999999
 30
0.0
 40
3.0
100
AcDbArc
 50
90.0
 51
179.0
  0
ARC
  5
57
330
1E
100
AcDbEntity
  8
0
  6
CONTINUOUS
100
AcDbCircle
 10
260.751495
 20
364.0317379999999
 30
0.0
 40
3.0
100
AcDbArc
 50
181.0
 51
270.0
  0
LINE
  5
58
330
1E
100
AcDbEntity
  8
0
  6
CONTINUOUS
100
AcDbLine
 10
249.6404419999999
 20
471.102264
 30
0.0
 11
253.429535
 21
456.961182
 31
0.0
  0
ARC
  5
59
330
1E
100
AcDbEntity
  8
0
  6
CONTINUOUS
100
AcDbCircle
 10
261.1569519999999
 20
459.031738
 30
0.0
 40
8.0
100
AcDbArc
 50
195.0
 51
270.0
  0
ARC
  5
5A
330
1E
100
AcDbEntity
  8
0
  6
CONTINUOUS
100
AcDbCircle
 10
241.913025
 20
469.0317379999999
 30
0.0
 40
8.0
100
AcDbArc
 50
15.0
 51
90.0
  0
LINE
  5
5B
330
1E
100
AcDbEntity
  8
0
  6
CONTINUOUS
100
AcDbLine
 10
241.913025
 20
335.0317379999999
 30
0.0
 11
234.5183259999999
 21
335.0317379999999
 31
0.0
  0
ARC
  5
5C
330
1E
100
AcDbEntity
  8
0
  6
CONTINUOUS
100
AcDbCircle
 10
241.913025
 20
343.0317379999999
 30
0.0
 40
8.0
100
AcDbArc
 50
270.0
 51
345.0
  0
LINE
  5
5D
330
1E
100
AcDbEntity
  8
0
  6
CONTINUOUS
100
AcDbLine
 10
249.6404419999999
 20
340.961182
 30
0.0
 11
253.429535
 21
355.1022639999999
 31
0.0
  0
ARC
  5
5E
330
1E
100
AcDbEntity
  8
0
  6
CONTINUOUS
100
AcDbCircle
 10
261.1569519999999
 20
353.0317379999999
 30
0.0
 40
8.0
100
AcDbArc
 50
90.0
 51
164.9999999999999
  0
LINE
  5
5F
330
1E
100
AcDbEntity
  8
0
  6
CONTINUOUS
100
AcDbLine
 10
373.0737609999999
 20
464.442566
 30
0.0
 11
374.0769349999999
 21
461.0317379999999
 31
0.0
  0
ARC
  5
60
330
1E
100
AcDbEntity
  8
0
  6
CONTINUOUS
100
AcDbCircle
 10
368.276947
 20
463.031738
 30
0.0
 40
5.0
100
AcDbArc
 50
16.38954
 51
90.0
  0
LINE
  5
61
330
1E
100
AcDbEntity
  8
0
  6
CONTINUOUS
100
AcDbLine
 10
388.56427
 20
457.4243469999999
 30
0.0
 11
389.371979
 21
454.639099
 31
0.0
  0
LINE
  5
62
330
1E
100
AcDbEntity
  8
0
  6
CONTINUOUS
100
AcDbLine
 10
383.762115
 20
461.0317379999999
 30
0.0
 11
374.0769349999999
 21
461.0317379999999
 31
0.0
  0
ARC
  5
63
330
1E
100
AcDbEntity
  8
0
  6
CONTINUOUS
100
AcDbCircle
 10
383.762115
 20
456.0317379999999
 30
0.0
 40
5.0
100
AcDbArc
 50
16.172159
 51
90.0
  0
ARC
  5
64
330
1E
100
AcDbEntity
  8
0
  6
CONTINUOUS
100
AcDbCircle
 10
394.1741329999999
 20
456.0317379999999
 30
0.0
 40
5.0
100
AcDbArc
 50
196.1721649999999
 51
270.0
  0
LINE
  5
65
330
1E
100
AcDbEntity
  8
0
  6
CONTINUOUS
100
AcDbLine
 10
390.4181209999999
 20
451.031738
 30
0.0
 11
390.421356
 21
451.02063
 31
0.0
  0
ARC
  5
66
330
1E
100
AcDbEntity
  8
0
  6
CONTINUOUS
100
AcDbCircle
 10
297.759308
 20
463.031738
 30
0.0
 40
5.0
100
AcDbArc
 50
90.0
 51
163.610458
  0
LINE
  5
67
330
1E
100
AcDbEntity
  8
0
  6
CONTINUOUS
100
AcDbLine
 10
292.962494
 20
464.442566
 30
0.0
 11
291.9592899999999
 21
461.0317379999999
 31
0.0
  0
LINE
  5
68
330
1E
100
AcDbEntity
  8
0
  6
CONTINUOUS
100
AcDbLine
 10
277.471985
 20
457.4243469999999
 30
0.0
 11
276.6642759999999
 21
454.639099
 31
0.0
  0
LINE
  5
69
330
1E
100
AcDbEntity
  8
0
  6
CONTINUOUS
100
AcDbLine
 10
282.274139
 20
461.0317379999999
 30
0.0
 11
291.9592899999999
 21
461.0317379999999
 31
0.0
  0
ARC
  5
6A
330
1E
100
AcDbEntity
  8
0
  6
CONTINUOUS
100
AcDbCircle
 10
282.274139
 20
456.0317379999999
 30
0.0
 40
5.0
100
AcDbArc
 50
90.0
 51
163.827835
  0
ARC
  5
6B
330
1E
100
AcDbEntity
  8
0
  6
CONTINUOUS
100
AcDbCircle
 10
271.862122
 20
456.0317379999999
 30
0.0
 40
5.0
100
AcDbArc
 50
270.0
 51
343.827841
  0
LINE
  5
6C
330
1E
100
AcDbEntity
  8
0
  6
CONTINUOUS
100
AcDbLine
 10
275.6181339999999
 20
451.031738
 30
0.0
 11
275.614899
 21
451.02063
 31
0.0
  0
ARC
  5
6D
330
1E
100
AcDbEntity
  8
0
  6
CONTINUOUS
100
AcDbCircle
 10
285.518127
 20
346.0317379999999
 30
0.0
 40
6.5
100
AcDbArc
 50
128.759308
 51
50.28486299999999
  0
LINE
  5
6E
330
1E
100
AcDbEntity
  8
0
  6
CENTER
100
AcDbLine
 10
285.518127
 20
355.1840819999999
 30
0.0
 11
285.518127
 21
335.6840819999999
 31
0.0
  0
LINE
  5
6F
330
1E
100
AcDbEntity
  8
0
  6
CENTER
100
AcDbLine
 10
295.3944399999999
 20
346.0317379999999
 30
0.0
 11
276.4569399999999
 21
346.0317379999999
 31
0.0
  0
ARC
  5
70
330
1E
100
AcDbEntity
  8
0
  6
CONTINUOUS
100
AcDbCircle
 10
297.759308
 20
349.0317379999999
 30
0.0
 40
5.0
100
AcDbArc
 50
196.389542
 51
270.0
  0
LINE
  5
71
330
1E
100
AcDbEntity
  8
0
  6
CONTINUOUS
100
AcDbLine
 10
292.962494
 20
347.6209109999999
 30
0.0
 11
291.9592899999999
 21
351.0317379999999
 31
0.0
  0
LINE
  5
72
330
1E
100
AcDbEntity
  8
0
  6
CONTINUOUS
100
AcDbLine
 10
277.471985
 20
354.639099
 30
0.0
 11
276.6642759999999
 21
357.424347
 31
0.0
  0
LINE
  5
73
330
1E
100
AcDbEntity
  8
0
  6
CONTINUOUS
100
AcDbLine
 10
282.274139
 20
351.0317379999999
 30
0.0
 11
291.9592899999999
 21
351.0317379999999
 31
0.0
  0
ARC
  5
74
330
1E
100
AcDbEntity
  8
0
  6
CONTINUOUS
100
AcDbCircle
 10
282.274139
 20
356.0317379999999
 30
0.0
 40
5.0
100
AcDbArc
 50
196.1721649999999
 51
270.0
  0
ARC
  5
75
330
1E
100
AcDbEntity
  8
0
  6
CONTINUOUS
100
AcDbCircle
 10
271.862122
 20
356.0317379999999
 30
0.0
 40
5.0
100
AcDbArc
 50
16.172159
 51
90.0
  0
LINE
  5
76
330
1E
100
AcDbEntity
  8
0
  6
CONTINUOUS
100
AcDbLine
 10
275.6181339999999
 20
361.0317379999999
 30
0.0
 11
275.614899
 21
361.042816
 31
0.0
  0
LINE
  5
77
330
1E
100
AcDbEntity
  8
0
  6
CENTER
100
AcDbLine
 10
370.641815
 20
346.0317379999999
 30
0.0
 11
389.579315
 21
346.0317379999999
 31
0.0
  0
LINE
  5
78
330
1E
100
AcDbEntity
  8
0
  6
CENTER
100
AcDbLine
 10
380.5181269999999
 20
355.1840819999999
 30
0.0
 11
380.5181269999999
 21
335.6840819999999
 31
0.0
  0
ARC
  5
79
330
1E
100
AcDbEntity
  8
0
  6
CONTINUOUS
100
AcDbCircle
 10
380.5181269999999
 20
346.0317379999999
 30
0.0
 40
6.5
100
AcDbArc
 50
129.7151339999999
 51
51.24068799999999
  0
LINE
  5
7A
330
1E
100
AcDbEntity
  8
0
  6
CONTINUOUS
100
AcDbLine
 10
373.0737609999999
 20
347.6209109999999
 30
0.0
 11
374.0769349999999
 21
351.0317379999999
 31
0.0
  0
ARC
  5
7B
330
1E
100
AcDbEntity
  8
0
  6
CONTINUOUS
100
AcDbCircle
 10
368.276947
 20
349.0317379999999
 30
0.0
 40
5.0
100
AcDbArc
 50
270.0
 51
343.61046
  0
LINE
  5
7C
330
1E
100
AcDbEntity
  8
0
  6
CONTINUOUS
100
AcDbLine
 10
388.56427
 20
354.639099
 30
0.0
 11
389.371979
 21
357.424347
 31
0.0
  0
LINE
  5
7D
330
1E
100
AcDbEntity
  8
0
  6
CONTINUOUS
100
AcDbLine
 10
383.762115
 20
351.0317379999999
 30
0.0
 11
374.0769349999999
 21
351.0317379999999
 31
0.0
  0
ARC
  5
7E
330
1E
100
AcDbEntity
  8
0
  6
CONTINUOUS
100
AcDbCircle
 10
383.762115
 20
356.0317379999999
 30
0.0
 40
5.0
100
AcDbArc
 50
270.0
 51
343.827841
  0
ARC
  5
7F
330
1E
100
AcDbEntity
  8
0
  6
CONTINUOUS
100
AcDbCircle
 10
394.1741329999999
 20
356.0317379999999
 30
0.0
 40
5.0
100
AcDbArc
 50
90.0
 51
163.827835
  0
LINE
  5
80
330
1E
100
AcDbEntity
  8
0
  6
CONTINUOUS
100
AcDbLine
 10
390.4181209999999
 20
361.0317379999999
 30
0.0
 11
390.421356
 21
361.042816
 31
0.0
  0
LINE
  5
81
330
1E
100
AcDbEntity
  8
0
  6
CENTER
100
AcDbLine
 10
271.707489
 20
131.4828799999999
 30
0.0
 11
213.5133359999999
 21
131.4828799999999
 31
0.0
  0
LINE
  5
82
330
1E
100
AcDbEntity
  8
0
  6
CONTINUOUS
100
AcDbLine
 10
234.5181269999999
 20
168.48288
 30
0.0
 11
234.5181269999999
 21
26.48294099999999
 31
0.0
  0
LINE
  5
83
330
1E
100
AcDbEntity
  8
0
  6
CENTER
100
AcDbLine
 10
262.0181269999999
 20
97.48288000000002
 30
0.0
 11
234.5181269999999
 21
97.48288000000002
 31
0.0
  0
LINE
  5
84
330
1E
100
AcDbEntity
  8
0
  6
CENTER
100
AcDbLine
 10
333.018127
 20
222.860001
 30
0.0
 11
333.018127
 21
-11.14999999999999
 31
0.0
  0
LINE
  5
85
330
1E
100
AcDbEntity
  8
0
  6
CENTER
100
AcDbLine
 10
264.5675049999999
 20
139.4828799999999
 30
0.0
 11
393.533752
 21
139.4828799999999
 31
0.0
  0
LINE
  5
86
330
1E
100
AcDbEntity
  8
0
  6
CENTER
100
AcDbLine
 10
380.5181269999999
 20
24.758341
 30
0.0
 11
380.5181269999999
 21
-9.106419999999999
 31
0.0
  0
LINE
  5
87
330
1E
100
AcDbEntity
  8
0
  6
CENTER
100
AcDbLine
 10
285.518127
 20
24.758341
 30
0.0
 11
285.518127
 21
-9.398339999999999
 31
0.0
  0
LINE
  5
88
330
1E
100
AcDbEntity
  8
0
  6
CONTINUOUS
100
AcDbLine
 10
257.0181269999999
 20
-0.5171200000000001
 30
0.0
 11
409.018127
 21
-0.5171200000000001
 31
0.0
  0
LINE
  5
89
330
1E
100
AcDbEntity
  8
0
  6
CONTINUOUS
100
AcDbLine
 10
257.0181269999999
 20
17.48287999999999
 30
0.0
 11
409.018127
 21
17.48287999999999
 31
0.0
  0
LINE
  5
8A
330
1E
100
AcDbEntity
  8
0
  6
CONTINUOUS
100
AcDbLine
 10
409.018127
 20
167.788467
 30
0.0
 11
409.018127
 21
-0.5171200000000001
 31
0.0
  0
LINE
  5
8B
330
1E
100
AcDbEntity
  8
0
  6
CONTINUOUS
100
AcDbLine
 10
306.51474
 20
204.4828799999999
 30
0.0
 11
359.5215149999999
 21
204.4828799999999
 31
0.0
  0
LINE
  5
8C
330
1E
100
AcDbEntity
  8
0
  6
CONTINUOUS
100
AcDbLine
 10
405.5681149999999
 20
174.3685
 30
0.0
 11
364.0715329999999
 21
203.062958
 31
0.0
  0
LINE
  5
8D
330
1E
100
AcDbEntity
  8
0
  6
CONTINUOUS
100
AcDbLine
 10
260.46814
 20
174.3685
 30
0.0
 11
301.9647219999999
 21
203.062958
 31
0.0
  0
ARC
  5
8E
330
1E
100
AcDbEntity
  8
0
  6
CONTINUOUS
100
AcDbCircle
 10
359.5215149999999
 20
196.48288
 30
0.0
 40
8.0
100
AcDbArc
 50
55.336689
 51
90.0
  0
ARC
  5
8F
330
1E
100
AcDbEntity
  8
0
  6
CONTINUOUS
100
AcDbCircle
 10
401.018127
 20
167.788406
 30
0.0
 40
8.0
100
AcDbArc
 50
0.0
 51
55.336739
  0
ARC
  5
90
330
1E
100
AcDbEntity
  8
0
  6
CONTINUOUS
100
AcDbCircle
 10
306.51474
 20
196.48288
 30
0.0
 40
8.0
100
AcDbArc
 50
90.0
 51
124.663696
  0
ARC
  5
91
330
1E
100
AcDbEntity
  8
0
  6
CONTINUOUS
100
AcDbCircle
 10
265.018127
 20
167.788483
 30
0.0
 40
8.0
100
AcDbArc
 50
124.6638029999999
 51
180.0
  0
LINE
  5
92
330
1E
100
AcDbEntity
  8
0
  6
CONTINUOUS
100
AcDbLine
 10
257.0181269999999
 20
167.788467
 30
0.0
 11
257.0181269999999
 21
-0.5171200000000001
 31
0.0
  0
LINE
  5
93
330
1E
100
AcDbEntity
  8
0
  6
DASHED
100
AcDbLine
 10
279.018127
 20
17.48287999999999
 30
0.0
 11
279.018127
 21
-0.5171200000000001
 31
0.0
  0
LINE
  5
94
330
1E
100
AcDbEntity
  8
0
  6
DASHED
100
AcDbLine
 10
292.018127
 20
17.48287999999999
 30
0.0
 11
292.018127
 21
-0.5171200000000001
 31
0.0
  0
LINE
  5
95
330
1E
100
AcDbEntity
  8
0
  6
DASHED
100
AcDbLine
 10
374.0181269999999
 20
17.48287999999999
 30
0.0
 11
374.0181269999999
 21
-0.5171200000000001
 31
0.0
  0
LINE
  5
96
330
1E
100
AcDbEntity
  8
0
  6
DASHED
100
AcDbLine
 10
387.018127
 20
17.48287999999999
 30
0.0
 11
387.018127
 21
-0.5171200000000001
 31
0.0
  0
CIRCLE
  5
97
330
1E
100
AcDbEntity
  8
0
  6
CONTINUOUS
100
AcDbCircle
 10
333.018127
 20
139.4828799999999
 30
0.0
 40
39.0
  0
ARC
  5
98
330
1E
100
AcDbEntity
  8
0
  6
CONTINUOUS
100
AcDbCircle
 10
333.018127
 20
139.4828799999999
 30
0.0
 40
44.0
100
AcDbArc
 50
12.52323999999999
 51
167.476898
  0
ARC
  5
99
330
1E
100
AcDbEntity
  8
0
  6
CONTINUOUS
100
AcDbCircle
 10
307.5181269999999
 20
80.48288000000001
 30
0.0
 40
29.0
100
AcDbArc
 50
167.476898
 51
270.0
  0
ARC
  5
9A
330
1E
100
AcDbEntity
  8
0
  6
CONTINUOUS
100
AcDbCircle
 10
358.518127
 20
80.48288000000001
 30
0.0
 40
29.0
100
AcDbArc
 50
270.0
 51
12.52323999999999
  0
ARC
  5
9B
330
1E
100
AcDbEntity
  8
0
  6
CONTINUOUS
100
AcDbCircle
 10
307.5181269999999
 20
80.48288000000001
 30
0.0
 40
31.89999999999999
100
AcDbArc
 50
167.476898
 51
270.0
  0
ARC
  5
9C
330
1E
100
AcDbEntity
  8
0
  6
CONTINUOUS
100
AcDbCircle
 10
358.518127
 20
80.48288000000001
 30
0.0
 40
31.89999999999999
100
AcDbArc
 50
270.0
 51
12.52323999999999
  0
ARC
  5
9D
330
1E
100
AcDbEntity
  8
0
  6
CONTINUOUS
100
AcDbCircle
 10
333.018127
 20
139.4828799999999
 30
0.0
 40
41.09999799999999
100
AcDbArc
 50
167.476898
 51
12.52323999999999
  0
LINE
  5
9E
330
1E
100
AcDbEntity
  8
0
  6
CONTINUOUS
100
AcDbLine
 10
276.377136
 20
87.399879
 30
0.0
 11
290.0649109999999
 21
149.0235899999999
 31
0.0
  0
LINE
  5
9F
330
1E
100
AcDbEntity
  8
0
  6
CONTINUOUS
100
AcDbLine
 10
279.2081299999999
 20
86.77108
 30
0.0
 11
292.8959349999999
 21
148.394745
 31
0.0
  0
LINE
  5
A0
330
1E
100
AcDbEntity
  8
0
  6
CONTINUOUS
100
AcDbLine
 10
307.5181269999999
 20
48.582859
 30
0.0
 11
358.518127
 21
48.582859
 31
0.0
  0
LINE
  5
A1
330
1E
100
AcDbEntity
  8
0
  6
CONTINUOUS
100
AcDbLine
 10
358.518127
 20
51.48288
 30
0.0
 11
307.5181269999999
 21
51.48288
 31
0.0
  0
LINE
  5
A2
330
1E
100
AcDbEntity
  8
0
  6
CONTINUOUS
100
AcDbLine
 10
375.971313
 20
149.023651
 30
0.0
 11
389.6591189999999
 21
87.39994000000001
 31
0.0
  0
LINE
  5
A3
330
1E
100
AcDbEntity
  8
0
  6
CONTINUOUS
100
AcDbLine
 10
373.14032
 20
148.394867
 30
0.0
 11
386.8281249999999
 21
86.77108
 31
0.0
  0
LINE
  5
A4
330
1E
100
AcDbEntity
  8
0
  6
CONTINUOUS
100
AcDbLine
 10
320.791138
 20
63.48288
 30
0.0
 11
315.850739
 21
63.48288
 31
0.0
  0
LINE
  5
A5
330
1E
100
AcDbEntity
  8
0
  6
CONTINUOUS
100
AcDbLine
 10
323.5181269999999
 20
71.758278
 30
0.0
 11
323.5181269999999
 21
63.48288
 31
0.0
  0
LINE
  5
A6
330
1E
100
AcDbEntity
  8
0
  6
CONTINUOUS
100
AcDbLine
 10
328.2681269999999
 20
74.764122
 30
0.0
 11
328.2681269999999
 21
77.73288
 31
0.0
  0
LINE
  5
A7
330
1E
100
AcDbEntity
  8
0
  6
CONTINUOUS
100
AcDbLine
 10
337.768127
 20
74.764122
 30
0.0
 11
337.768127
 21
77.73288
 31
0.0
  0
LINE
  5
A8
330
1E
100
AcDbEntity
  8
0
  6
CONTINUOUS
100
AcDbLine
 10
332.0903319999999
 20
75.988739
 30
0.0
 11
332.0903319999999
 21
65.041481
 31
0.0
  0
LINE
  5
A9
330
1E
100
AcDbEntity
  8
0
  6
CONTINUOUS
100
AcDbLine
 10
333.871735
 20
75.988739
 30
0.0
 11
333.871735
 21
65.041481
 31
0.0
  0
LINE
  5
AA
330
1E
100
AcDbEntity
  8
0
  6
CONTINUOUS
100
AcDbLine
 10
343.223114
 20
75.988739
 30
0.0
 11
343.223114
 21
64.96726200000001
 31
0.0
  0
LINE
  5
AB
330
1E
100
AcDbEntity
  8
0
  6
CONTINUOUS
100
AcDbLine
 10
344.8561399999999
 20
70.14402
 30
0.0
 11
344.8561399999999
 21
64.96726200000001
 31
0.0
  0
LINE
  5
AC
330
1E
100
AcDbEntity
  8
0
  6
CONTINUOUS
100
AcDbLine
 10
321.2641299999999
 20
75.840302
 30
0.0
 11
316.686523
 21
75.840302
 31
0.0
  0
LINE
  5
AD
330
1E
100
AcDbEntity
  8
0
  6
CONTINUOUS
100
AcDbLine
 10
316.686523
 20
75.840302
 30
0.0
 11
315.613922
 21
74.510277
 31
0.0
  0
LINE
  5
AE
330
1E
100
AcDbEntity
  8
0
  6
CONTINUOUS
100
AcDbLine
 10
315.74292
 20
77.73288
 30
0.0
 11
314.0181269999999
 21
75.52443700000001
 31
0.0
  0
LINE
  5
AF
330
1E
100
AcDbEntity
  8
0
  6
CONTINUOUS
100
AcDbLine
 10
315.613922
 20
66.300758
 30
0.0
 11
316.703735
 21
65.15280200000001
 31
0.0
  0
LINE
  5
B0
330
1E
100
AcDbEntity
  8
0
  6
CONTINUOUS
100
AcDbLine
 10
314.0181269999999
 20
65.33200100000001
 30
0.0
 11
315.850739
 21
63.48288
 31
0.0
  0
LINE
  5
B1
330
1E
100
AcDbEntity
  8
0
  6
CONTINUOUS
100
AcDbLine
 10
314.0181269999999
 20
75.52443700000001
 30
0.0
 11
314.0181269999999
 21
65.33200100000001
 31
0.0
  0
LINE
  5
B2
330
1E
100
AcDbEntity
  8
0
  6
CONTINUOUS
100
AcDbLine
 10
315.613922
 20
74.510277
 30
0.0
 11
315.613922
 21
66.300758
 31
0.0
  0
LINE
  5
B3
330
1E
100
AcDbEntity
  8
0
  6
CONTINUOUS
100
AcDbLine
 10
322.1451109999999
 20
74.98873899999999
 30
0.0
 11
321.246124
 21
75.840302
 31
0.0
  0
LINE
  5
B4
330
1E
100
AcDbEntity
  8
0
  6
CONTINUOUS
100
AcDbLine
 10
322.13092
 20
77.73288
 30
0.0
 11
323.5181269999999
 21
76.193321
 31
0.0
  0
LINE
  5
B5
330
1E
100
AcDbEntity
  8
0
  6
CONTINUOUS
100
AcDbLine
 10
322.1451109999999
 20
74.764122
 30
0.0
 11
323.5181269999999
 21
74.764122
 31
0.0
  0
LINE
  5
B6
330
1E
100
AcDbEntity
  8
0
  6
CONTINUOUS
100
AcDbLine
 10
315.74292
 20
77.73288
 30
0.0
 11
322.13092
 21
77.73288
 31
0.0
  0
LINE
  5
B7
330
1E
100
AcDbEntity
  8
0
  6
CONTINUOUS
100
AcDbLine
 10
319.658722
 20
71.758278
 30
0.0
 11
323.5181269999999
 21
71.758278
 31
0.0
  0
LINE
  5
B8
330
1E
100
AcDbEntity
  8
0
  6
CONTINUOUS
100
AcDbLine
 10
322.1451109999999
 20
70.19967700000001
 30
0.0
 11
319.658722
 21
70.19967700000001
 31
0.0
  0
LINE
  5
B9
330
1E
100
AcDbEntity
  8
0
  6
CONTINUOUS
100
AcDbLine
 10
319.176331
 20
65.15280200000001
 30
0.0
 11
316.703735
 21
65.15280200000001
 31
0.0
  0
LINE
  5
BA
330
1E
100
AcDbEntity
  8
0
  6
CONTINUOUS
100
AcDbLine
 10
322.1451109999999
 20
68.71530200000001
 30
0.0
 11
322.1451109999999
 21
69.902802
 31
0.0
  0
ARC
  5
BB
330
1E
100
AcDbEntity
  8
0
  6
CONTINUOUS
100
AcDbCircle
 10
319.176331
 20
68.12155899999999
 30
0.0
 40
2.96875
100
AcDbArc
 50
270.0002139999999
 51
0.000109
  0
LINE
  5
BC
330
1E
100
AcDbEntity
  8
0
  6
CONTINUOUS
100
AcDbLine
 10
322.1451109999999
 20
64.618797
 30
0.0
 11
322.1451109999999
 21
63.48288
 31
0.0
  0
LINE
  5
BD
330
1E
100
AcDbEntity
  8
0
  6
CONTINUOUS
100
AcDbLine
 10
323.5181269999999
 20
76.193321
 30
0.0
 11
323.5181269999999
 21
74.764122
 31
0.0
  0
LINE
  5
BE
330
1E
100
AcDbEntity
  8
0
  6
CONTINUOUS
100
AcDbLine
 10
322.1451109999999
 20
70.19967700000001
 30
0.0
 11
322.1451109999999
 21
68.12155899999999
 31
0.0
  0
LINE
  5
BF
330
1E
100
AcDbEntity
  8
0
  6
CONTINUOUS
100
AcDbLine
 10
319.658722
 20
71.758278
 30
0.0
 11
319.658722
 21
70.19967700000001
 31
0.0
  0
LINE
  5
C0
330
1E
100
AcDbEntity
  8
0
  6
CONTINUOUS
100
AcDbLine
 10
322.1451109999999
 20
63.48288
 30
0.0
 11
323.5181269999999
 21
63.48288
 31
0.0
  0
LINE
  5
C1
330
1E
100
AcDbEntity
  8
0
  6
CONTINUOUS
100
AcDbLine
 10
322.1451109999999
 20
64.618797
 30
0.0
 11
320.791138
 21
63.48288
 31
0.0
  0
LINE
  5
C2
330
1E
100
AcDbEntity
  8
0
  6
CONTINUOUS
100
AcDbLine
 10
333.871735
 20
65.041481
 30
0.0
 11
334.4653319999999
 21
65.041481
 31
0.0
  0
LINE
  5
C3
330
1E
100
AcDbEntity
  8
0
  6
CONTINUOUS
100
AcDbLine
 10
331.3853149999999
 20
65.041481
 30
0.0
 11
331.3853149999999
 21
63.48288
 31
0.0
  0
LINE
  5
C4
330
1E
100
AcDbEntity
  8
0
  6
CONTINUOUS
100
AcDbLine
 10
334.4653319999999
 20
65.041481
 30
0.0
 11
334.4653319999999
 21
63.48288
 31
0.0
  0
LINE
  5
C5
330
1E
100
AcDbEntity
  8
0
  6
CONTINUOUS
100
AcDbLine
 10
336.77713
 20
74.764122
 30
0.0
 11
337.768127
 21
74.764122
 31
0.0
  0
LINE
  5
C6
330
1E
100
AcDbEntity
  8
0
  6
CONTINUOUS
100
AcDbLine
 10
328.2681269999999
 20
74.764122
 30
0.0
 11
329.3227229999999
 21
74.764122
 31
0.0
  0
LINE
  5
C7
330
1E
100
AcDbEntity
  8
0
  6
CONTINUOUS
100
AcDbLine
 10
328.2681269999999
 20
77.73288
 30
0.0
 11
337.768127
 21
77.73288
 31
0.0
  0
LINE
  5
C8
330
1E
100
AcDbEntity
  8
0
  6
CONTINUOUS
100
AcDbLine
 10
331.3853149999999
 20
63.48288
 30
0.0
 11
334.4653319999999
 21
63.48288
 31
0.0
  0
LINE
  5
C9
330
1E
100
AcDbEntity
  8
0
  6
CONTINUOUS
100
AcDbLine
 10
331.3853149999999
 20
65.041481
 30
0.0
 11
332.0903319999999
 21
65.041481
 31
0.0
  0
ARC
  5
CA
330
1E
100
AcDbEntity
  8
0
  6
CONTINUOUS
100
AcDbCircle
 10
348.214325
 20
73.92916099999999
 30
0.0
 40
3.803712
100
AcDbArc
 50
286.0181269999999
 51
90.00351
  0
ARC
  5
CB
330
1E
100
AcDbEntity
  8
0
  6
CONTINUOUS
100
AcDbCircle
 10
348.214325
 20
73.92916099999999
 30
0.0
 40
2.320524
100
AcDbArc
 50
277.414726
 51
62.41185
  0
LINE
  5
CC
330
1E
100
AcDbEntity
  8
0
  6
CONTINUOUS
100
AcDbLine
 10
342.5181269999999
 20
77.73288
 30
0.0
 11
348.214325
 21
77.73288
 31
0.0
  0
LINE
  5
CD
330
1E
100
AcDbEntity
  8
0
  6
CONTINUOUS
100
AcDbLine
 10
348.513916
 20
71.62802099999999
 30
0.0
 11
344.8561399999999
 21
71.62802099999999
 31
0.0
  0
LINE
  5
CE
330
1E
100
AcDbEntity
  8
0
  6
CONTINUOUS
100
AcDbLine
 10
342.5181269999999
 20
77.73288
 30
0.0
 11
342.5181269999999
 21
75.988739
 31
0.0
  0
LINE
  5
CF
330
1E
100
AcDbEntity
  8
0
  6
CONTINUOUS
100
AcDbLine
 10
344.8561399999999
 20
75.988739
 30
0.0
 11
344.8561399999999
 21
71.62802099999999
 31
0.0
  0
LINE
  5
D0
330
1E
100
AcDbEntity
  8
0
  6
CONTINUOUS
100
AcDbLine
 10
349.2639159999999
 20
70.27316299999999
 30
0.0
 11
351.618317
 21
64.96726200000001
 31
0.0
  0
LINE
  5
D1
330
1E
100
AcDbEntity
  8
0
  6
CONTINUOUS
100
AcDbLine
 10
347.8967289999999
 20
70.14402
 30
0.0
 11
350.124725
 21
64.96726200000001
 31
0.0
  0
LINE
  5
D2
330
1E
100
AcDbEntity
  8
0
  6
CONTINUOUS
100
AcDbLine
 10
342.5181269999999
 20
64.96726200000001
 30
0.0
 11
343.223114
 21
64.96726200000001
 31
0.0
  0
LINE
  5
D3
330
1E
100
AcDbEntity
  8
0
  6
CONTINUOUS
100
AcDbLine
 10
344.8561399999999
 20
64.96726200000001
 30
0.0
 11
345.505524
 21
64.96726200000001
 31
0.0
  0
LINE
  5
D4
330
1E
100
AcDbEntity
  8
0
  6
CONTINUOUS
100
AcDbLine
 10
345.505524
 20
63.48288
 30
0.0
 11
342.5181269999999
 21
63.48288
 31
0.0
  0
LINE
  5
D5
330
1E
100
AcDbEntity
  8
0
  6
CONTINUOUS
100
AcDbLine
 10
349.828735
 20
64.96726200000001
 30
0.0
 11
350.124725
 21
64.96726200000001
 31
0.0
  0
LINE
  5
D6
330
1E
100
AcDbEntity
  8
0
  6
CONTINUOUS
100
AcDbLine
 10
351.618317
 20
64.96726200000001
 30
0.0
 11
352.018127
 21
64.96726200000001
 31
0.0
  0
LINE
  5
D7
330
1E
100
AcDbEntity
  8
0
  6
CONTINUOUS
100
AcDbLine
 10
349.828735
 20
63.48288
 30
0.0
 11
352.018127
 21
63.48288
 31
0.0
  0
LINE
  5
D8
330
1E
100
AcDbEntity
  8
0
  6
CONTINUOUS
100
AcDbLine
 10
352.018127
 20
64.96726200000001
 30
0.0
 11
352.018127
 21
63.48288
 31
0.0
  0
LINE
  5
D9
330
1E
100
AcDbEntity
  8
0
  6
CONTINUOUS
100
AcDbLine
 10
349.828735
 20
64.96726200000001
 30
0.0
 11
349.828735
 21
63.48288
 31
0.0
  0
LINE
  5
DA
330
1E
100
AcDbEntity
  8
0
  6
CONTINUOUS
100
AcDbLine
 10
345.505524
 20
64.96726200000001
 30
0.0
 11
345.505524
 21
63.48288
 31
0.0
  0
LINE
  5
DB
330
1E
100
AcDbEntity
  8
0
  6
CONTINUOUS
100
AcDbLine
 10
342.5181269999999
 20
64.96726200000001
 30
0.0
 11
342.5181269999999
 21
63.48288
 31
0.0
  0
LINE
  5
DC
330
1E
100
AcDbEntity
  8
0
  6
CONTINUOUS
100
AcDbLine
 10
329.832916
 20
75.988739
 30
0.0
 11
329.3227229999999
 21
74.764122
 31
0.0
  0
LINE
  5
DD
330
1E
100
AcDbEntity
  8
0
  6
CONTINUOUS
100
AcDbLine
 10
336.346924
 20
75.988739
 30
0.0
 11
336.77713
 21
74.764122
 31
0.0
  0
LINE
  5
DE
330
1E
100
AcDbEntity
  8
0
  6
CONTINUOUS
100
AcDbLine
 10
333.871735
 20
75.988739
 30
0.0
 11
336.346924
 21
75.988739
 31
0.0
  0
LINE
  5
DF
330
1E
100
AcDbEntity
  8
0
  6
CONTINUOUS
100
AcDbLine
 10
332.0903319999999
 20
75.988739
 30
0.0
 11
329.832916
 21
75.988739
 31
0.0
  0
LINE
  5
E0
330
1E
100
AcDbEntity
  8
0
  6
CONTINUOUS
100
AcDbLine
 10
344.8561399999999
 20
70.14402
 30
0.0
 11
347.8967289999999
 21
70.14402
 31
0.0
  0
LINE
  5
E1
330
1E
100
AcDbEntity
  8
0
  6
CONTINUOUS
100
AcDbLine
 10
342.5181269999999
 20
75.988739
 30
0.0
 11
343.223114
 21
75.988739
 31
0.0
  0
LINE
  5
E2
330
1E
100
AcDbEntity
  8
0
  6
CONTINUOUS
100
AcDbLine
 10
344.8561399999999
 20
75.988739
 30
0.0
 11
349.289124
 21
75.985878
 31
0.0
  0
LINE
  5
E3
330
1E
100
AcDbEntity
  8
0
  6
CONTINUOUS
100
AcDbLine
 10
322.1451109999999
 20
74.98873899999999
 30
0.0
 11
322.1451109999999
 21
74.764122
 31
0.0
  0
LINE
  5
E4
330
1E
100
AcDbEntity
  8
0
  6
CONTINUOUS
100
AcDbLine
 10
271.018127
 20
15.41636
 30
0.0
 11
271.018127
 21
-0.5171200000000001
 31
0.0
  0
LINE
  5
E5
330
1E
100
AcDbEntity
  8
0
  6
CONTINUOUS
100
AcDbLine
 10
395.0181269999999
 20
15.41636
 30
0.0
 11
395.0181269999999
 21
-0.5171200000000001
 31
0.0
  0
LINE
  5
E6
330
1E
100
AcDbEntity
  8
0
  6
CONTINUOUS
100
AcDbLine
 10
308.018127
 20
20.08287999999999
 30
0.0
 11
308.018127
 21
18.48287999999999
 31
0.0
  0
LINE
  5
E7
330
1E
100
AcDbEntity
  8
0
  6
CONTINUOUS
100
AcDbLine
 10
307.305573
 20
20.05533799999999
 30
0.0
 11
304.2058719999999
 21
18.19545
 31
0.0
  0
ARC
  5
E8
330
1E
100
AcDbEntity
  8
0
  6
CONTINUOUS
100
AcDbCircle
 10
307.0181269999999
 20
18.48287999999999
 30
0.0
 40
1.0
100
AcDbArc
 50
270.0
 51
0.0
  0
LINE
  5
E9
330
1E
100
AcDbEntity
  8
0
  6
CONTINUOUS
100
AcDbLine
 10
234.5181269999999
 20
168.48288
 30
0.0
 11
234.5181269999999
 21
26.48287999999999
 31
0.0
  0
LINE
  5
EA
330
1E
100
AcDbEntity
  8
0
  6
CONTINUOUS
100
AcDbLine
 10
234.5181269999999
 20
168.48288
 30
0.0
 11
253.331726
 21
168.48288
 31
0.0
  0
LINE
  5
EB
330
1E
100
AcDbEntity
  8
0
  6
CONTINUOUS
100
AcDbLine
 10
234.5181269999999
 20
26.48287999999999
 30
0.0
 11
252.018127
 21
26.48287999999999
 31
0.0
  0
ARC
  5
EC
330
1E
100
AcDbEntity
  8
0
  6
CONTINUOUS
100
AcDbCircle
 10
253.331726
 20
173.48288
 30
0.0
 40
5.0
100
AcDbArc
 50
270.0
 51
334.021606
  0
ARC
  5
ED
330
1E
100
AcDbEntity
  8
0
  6
CONTINUOUS
100
AcDbCircle
 10
252.018127
 20
21.48282099999999
 30
0.0
 40
5.0
100
AcDbArc
 50
0.0
 51
90.0
  0
ARC
  5
EE
330
1E
100
AcDbEntity
  8
0
  6
CONTINUOUS
100
AcDbCircle
 10
420.0855099999999
 20
97.48288000000002
 30
0.0
 40
172.0674739999999
100
AcDbArc
 50
161.386795
 51
198.6132049999999
  0
LINE
  5
EF
330
1E
100
AcDbEntity
  8
0
  6
CONTINUOUS
100
AcDbLine
 10
344.018127
 20
134.4829409999999
 30
0.0
 11
344.018127
 21
144.4829409999999
 31
0.0
  0
LINE
  5
F0
330
1E
100
AcDbEntity
  8
0
  6
CONTINUOUS
100
AcDbLine
 10
352.018127
 20
134.4829409999999
 30
0.0
 11
352.018127
 21
144.4829409999999
 31
0.0
  0
LINE
  5
F1
330
1E
100
AcDbEntity
  8
0
  6
CONTINUOUS
100
AcDbLine
 10
352.018127
 20
134.4829409999999
 30
0.0
 11
344.018127
 21
134.4829409999999
 31
0.0
  0
LINE
  5
F2
330
1E
100
AcDbEntity
  8
0
  6
CONTINUOUS
100
AcDbLine
 10
352.018127
 20
144.4829409999999
 30
0.0
 11
344.018127
 21
144.4829409999999
 31
0.0
  0
ARC
  5
F3
330
1E
100
AcDbEntity
  8
0
  6
CONTINUOUS
100
AcDbCircle
 10
333.018127
 20
139.4828799999999
 30
0.0
 40
16.0
100
AcDbArc
 50
18.2099
 51
341.7901
  0
LINE
  5
F4
330
1E
100
AcDbEntity
  8
0
  6
CENTER
100
AcDbLine
 10
610.9600219999999
 20
-14.9067
 30
0.0
 11
610.9600219999999
 21
221.074997
 31
0.0
  0
LINE
  5
F5
330
1E
100
AcDbEntity
  8
0
  6
CENTER
100
AcDbLine
 10
475.25
 20
139.4828799999999
 30
0.0
 11
689.3975219999999
 21
139.4828799999999
 31
0.0
  0
LINE
  5
F6
330
1E
100
AcDbEntity
  8
0
  6
CENTER
100
AcDbLine
 10
670.9600219999999
 20
26.081579
 30
0.0
 11
670.9600219999999
 21
-11.81748
 31
0.0
  0
LINE
  5
F7
330
1E
100
AcDbEntity
  8
0
  6
CENTER
100
AcDbLine
 10
550.960022
 20
26.081579
 30
0.0
 11
550.960022
 21
-11.81748
 31
0.0
  0
LINE
  5
F8
330
1E
100
AcDbEntity
  8
0
  6
CONTINUOUS
100
AcDbLine
 10
535.9600219999999
 20
-0.5171200000000001
 30
0.0
 11
580.960022
 21
-0.5171200000000001
 31
0.0
  0
LINE
  5
F9
330
1E
100
AcDbEntity
  8
0
  6
CONTINUOUS
100
AcDbLine
 10
640.9600219999999
 20
-0.5171200000000001
 30
0.0
 11
685.9600219999999
 21
-0.5171200000000001
 31
0.0
  0
LINE
  5
FA
330
1E
100
AcDbEntity
  8
0
  6
CONTINUOUS
100
AcDbLine
 10
683.4600219999999
 20
17.48287999999999
 30
0.0
 11
659.960022
 21
17.48287999999999
 31
0.0
  0
LINE
  5
FB
330
1E
100
AcDbEntity
  8
0
  6
CONTINUOUS
100
AcDbLine
 10
655.960022
 20
200.7496639999999
 30
0.0
 11
655.960022
 21
-0.5171200000000001
 31
0.0
  0
LINE
  5
FC
330
1E
100
AcDbEntity
  8
0
  6
CONTINUOUS
100
AcDbLine
 10
565.9600219999999
 20
187.224106
 30
0.0
 11
565.9600219999999
 21
200.7491149999999
 31
0.0
  0
LINE
  5
FD
330
1E
100
AcDbEntity
  8
0
  6
CONTINUOUS
100
AcDbLine
 10
685.9600219999999
 20
15.22038299999999
 30
0.0
 11
685.9600219999999
 21
-0.5171200000000001
 31
0.0
  0
LINE
  5
FE
330
1E
100
AcDbEntity
  8
0
  6
CONTINUOUS
100
AcDbLine
 10
535.9600219999999
 20
15.22038299999999
 30
0.0
 11
535.9600219999999
 21
-0.5171200000000001
 31
0.0
  0
LINE
  5
FF
330
1E
100
AcDbEntity
  8
0
  6
CONTINUOUS
100
AcDbLine
 10
582.4600219999999
 20
0.9828799999999999
 30
0.0
 11
639.460022
 21
0.9828799999999999
 31
0.0
  0
LINE
  5
100
330
1E
100
AcDbEntity
  8
0
  6
CONTINUOUS
100
AcDbLine
 10
653.0123899999999
 20
203.749298
 30
0.0
 11
610.9600219999999
 21
204.4829409999999
 31
0.0
  0
LINE
  5
101
330
1E
100
AcDbEntity
  8
0
  6
CONTINUOUS
100
AcDbLine
 10
568.907593
 20
203.7486719999999
 30
0.0
 11
610.9600219999999
 21
204.4829409999999
 31
0.0
  0
LINE
  5
102
330
1E
100
AcDbEntity
  8
0
  6
CONTINUOUS
100
AcDbLine
 10
548.9600219999999
 20
104.2240219999999
 30
0.0
 11
548.9600219999999
 21
174.741745
 31
0.0
  0
LINE
  5
103
330
1E
100
AcDbEntity
  8
0
  6
CONTINUOUS
100
AcDbLine
 10
672.960022
 20
104.2240219999999
 30
0.0
 11
672.960022
 21
174.741745
 31
0.0
  0
LINE
  5
104
330
1E
100
AcDbEntity
  8
0
  6
CONTINUOUS
100
AcDbLine
 10
555.960022
 20
55.238861
 30
0.0
 11
555.960022
 21
143.39328
 31
0.0
  0
LINE
  5
105
330
1E
100
AcDbEntity
  8
0
  6
CONTINUOUS
100
AcDbLine
 10
665.9600219999999
 20
55.23891800000001
 30
0.0
 11
665.9600219999999
 21
143.39328
 31
0.0
  0
LINE
  5
106
330
1E
100
AcDbEntity
  8
0
  6
DASHED
100
AcDbLine
 10
677.4600219999999
 20
17.48287999999999
 30
0.0
 11
677.4600219999999
 21
-0.5171200000000001
 31
0.0
  0
LINE
  5
107
330
1E
100
AcDbEntity
  8
0
  6
DASHED
100
AcDbLine
 10
664.460022
 20
17.48287999999999
 30
0.0
 11
664.460022
 21
-0.5171200000000001
 31
0.0
  0
LINE
  5
108
330
1E
100
AcDbEntity
  8
0
  6
DASHED
100
AcDbLine
 10
557.4600219999999
 20
17.48287999999999
 30
0.0
 11
557.4600219999999
 21
-0.5171200000000001
 31
0.0
  0
LINE
  5
109
330
1E
100
AcDbEntity
  8
0
  6
DASHED
100
AcDbLine
 10
544.4600219999999
 20
17.48287999999999
 30
0.0
 11
544.4600219999999
 21
-0.5171200000000001
 31
0.0
  0
ARC
  5
10A
330
1E
100
AcDbEntity
  8
0
  6
CONTINUOUS
100
AcDbCircle
 10
568.9600219999999
 20
200.7491149999999
 30
0.0
 40
3.0
100
AcDbArc
 50
91.000603
 51
180.0
  0
ARC
  5
10B
330
1E
100
AcDbEntity
  8
0
  6
CONTINUOUS
100
AcDbCircle
 10
652.9600219999999
 20
200.7496639999999
 30
0.0
 40
3.0
100
AcDbArc
 50
0.0
 51
89.00057999999999
  0
LINE
  5
10C
330
1E
100
AcDbEntity
  8
0
  6
CONTINUOUS
100
AcDbLine
 10
562.3707889999999
 20
182.427277
 30
0.0
 11
552.5491940000001
 21
179.538483
 31
0.0
  0
LINE
  5
10D
330
1E
100
AcDbEntity
  8
0
  6
CONTINUOUS
100
AcDbLine
 10
552.5491940000001
 20
99.427277
 30
0.0
 11
553.0888059999999
 21
99.268578
 31
0.0
  0
LINE
  5
10E
330
1E
100
AcDbEntity
  8
0
  6
CONTINUOUS
100
AcDbLine
 10
559.567383
 20
50.436741
 30
0.0
 11
562.3526
 21
49.62900199999999
 31
0.0
  0
LINE
  5
10F
330
1E
100
AcDbEntity
  8
0
  6
CONTINUOUS
100
AcDbLine
 10
683.70874
 20
17.707975
 30
0.0
 11
658.6614990000001
 21
20.212729
 31
0.0
  0
LINE
  5
110
330
1E
100
AcDbEntity
  8
0
  6
CONTINUOUS
100
AcDbLine
 10
662.3526
 20
50.436741
 30
0.0
 11
659.567383
 21
49.62900199999999
 31
0.0
  0
LINE
  5
111
330
1E
100
AcDbEntity
  8
0
  6
CONTINUOUS
100
AcDbLine
 10
669.3707889999999
 20
99.427277
 30
0.0
 11
668.8314209999999
 21
99.268578
 31
0.0
  0
LINE
  5
112
330
1E
100
AcDbEntity
  8
0
  6
CONTINUOUS
100
AcDbLine
 10
669.3707889999999
 20
179.538483
 30
0.0
 11
659.549194
 21
182.427277
 31
0.0
  0
LINE
  5
113
330
1E
100
AcDbEntity
  8
0
  6
CONTINUOUS
100
AcDbLine
 10
568.534424
 20
171.9828799999999
 30
0.0
 11
653.2125849999999
 21
171.9828799999999
 31
0.0
  0
ARC
  5
114
330
1E
100
AcDbEntity
  8
0
  6
CONTINUOUS
100
AcDbCircle
 10
553.9600219999999
 20
174.741745
 30
0.0
 40
5.0
100
AcDbArc
 50
106.3898999999999
 51
180.0
  0
ARC
  5
115
330
1E
100
AcDbEntity
  8
0
  6
CONTINUOUS
100
AcDbCircle
 10
667.960022
 20
174.741745
 30
0.0
 40
5.0
100
AcDbArc
 50
0.0
 51
73.61052700000001
  0
ARC
  5
116
330
1E
100
AcDbEntity
  8
0
  6
CONTINUOUS
100
AcDbCircle
 10
553.9600219999999
 20
104.224098
 30
0.0
 40
5.0
100
AcDbArc
 50
180.0
 51
253.6107939999999
  0
ARC
  5
117
330
1E
100
AcDbEntity
  8
0
  6
CONTINUOUS
100
AcDbCircle
 10
667.960022
 20
104.2240219999999
 30
0.0
 40
5.0
100
AcDbArc
 50
286.389679
 51
0.0
  0
ARC
  5
118
330
1E
100
AcDbEntity
  8
0
  6
CONTINUOUS
100
AcDbCircle
 10
660.9600219999999
 20
55.238861
 30
0.0
 40
5.0
100
AcDbArc
 50
286.1723019999999
 51
0.0
  0
ARC
  5
119
330
1E
100
AcDbEntity
  8
0
  6
CONTINUOUS
100
AcDbCircle
 10
560.9600219999999
 20
55.23891800000001
 30
0.0
 40
5.0
100
AcDbArc
 50
180.0
 51
253.8282009999999
  0
LINE
  5
11A
330
1E
100
AcDbEntity
  8
0
  6
CONTINUOUS
100
AcDbLine
 10
565.9600219999999
 20
187.224106
 30
0.0
 11
565.9600219999999
 21
-0.5171200000000001
 31
0.0
  0
ARC
  5
11B
330
1E
100
AcDbEntity
  8
0
  6
CONTINUOUS
100
AcDbCircle
 10
560.9600219999999
 20
187.224106
 30
0.0
 40
5.0
100
AcDbArc
 50
286.3897709999999
 51
0.0
  0
ARC
  5
11C
330
1E
100
AcDbEntity
  8
0
  6
CONTINUOUS
100
AcDbCircle
 10
551.960022
 20
95.43106100000001
 30
0.0
 40
4.0
100
AcDbArc
 50
0.0
 51
73.61064899999999
  0
ARC
  5
11D
330
1E
100
AcDbEntity
  8
0
  6
CONTINUOUS
100
AcDbCircle
 10
560.9600219999999
 20
44.82681999999999
 30
0.0
 40
5.0
100
AcDbArc
 50
0.0
 51
73.82791899999999
  0
ARC
  5
11E
330
1E
100
AcDbEntity
  8
0
  6
CONTINUOUS
100
AcDbCircle
 10
660.9600219999999
 20
44.82688099999999
 30
0.0
 40
5.0
100
AcDbArc
 50
106.1725009999999
 51
180.0
  0
ARC
  5
11F
330
1E
100
AcDbEntity
  8
0
  6
CONTINUOUS
100
AcDbCircle
 10
669.9600219999999
 20
95.43112200000001
 30
0.0
 40
4.0
100
AcDbArc
 50
106.3899989999999
 51
180.0
  0
ARC
  5
120
330
1E
100
AcDbEntity
  8
0
  6
CONTINUOUS
100
AcDbCircle
 10
660.9600219999999
 20
187.224106
 30
0.0
 40
5.0
100
AcDbArc
 50
180.0
 51
253.6107939999999
  0
LINE
  5
121
330
1E
100
AcDbEntity
  8
0
  6
CONTINUOUS
100
AcDbLine
 10
580.960022
 20
-0.5171200000000001
 30
0.0
 11
582.4600219999999
 21
0.9828799999999999
 31
0.0
  0
LINE
  5
122
330
1E
100
AcDbEntity
  8
0
  6
CONTINUOUS
100
AcDbLine
 10
640.9600219999999
 20
-0.5171200000000001
 30
0.0
 11
639.460022
 21
0.9828799999999999
 31
0.0
  0
ARC
  5
123
330
1E
100
AcDbEntity
  8
0
  6
CONTINUOUS
100
AcDbCircle
 10
659.960022
 20
21.48287999999999
 30
0.0
 40
4.0
100
AcDbArc
 50
180.0
 51
270.0
  0
ARC
  5
124
330
1E
100
AcDbEntity
  8
0
  6
CONTINUOUS
100
AcDbCircle
 10
683.4600219999999
 20
14.98287999999999
 30
0.0
 40
2.5
100
AcDbArc
 50
0.0
 51
90.0
  0
LINE
  5
125
330
1E
100
AcDbEntity
  8
0
  6
CENTER
100
AcDbLine
 10
508.48999
 20
97.48288000000002
 30
0.0
 11
692.52124
 21
97.48288000000002
 31
0.0
  0
ARC
  5
126
330
1E
100
AcDbEntity
  8
0
  6
CONTINUOUS
100
AcDbCircle
 10
610.9600219999999
 20
97.48288000000002
 30
0.0
 40
71.0
100
AcDbArc
 50
309.331299
 51
29.162706
  0
ARC
  5
127
330
1E
100
AcDbEntity
  8
0
  6
CONTINUOUS
100
AcDbCircle
 10
610.9600219999999
 20
97.48288000000002
 30
0.0
 40
71.0
100
AcDbArc
 50
158.518707
 51
230.6687009999999
  0
LINE
  5
128
330
1E
100
AcDbEntity
  8
0
  6
CONTINUOUS
100
AcDbLine
 10
490.9599909999999
 20
123.48288
 30
0.0
 11
490.9599909999999
 21
155.4828799999999
 31
0.0
  0
LINE
  5
129
330
1E
100
AcDbEntity
  8
0
  6
CONTINUOUS
100
AcDbLine
 10
545.9600219999999
 20
155.4828799999999
 30
0.0
 11
490.9599909999999
 21
155.4828799999999
 31
0.0
  0
LINE
  5
12A
330
1E
100
AcDbEntity
  8
0
  6
CONTINUOUS
100
AcDbLine
 10
545.9600219999999
 20
123.48288
 30
0.0
 11
490.9599909999999
 21
123.48288
 31
0.0
  0
LINE
  5
12B
330
1E
100
AcDbEntity
  8
0
  6
CONTINUOUS
100
AcDbLine
 10
545.9600219999999
 20
156.9828799999999
 30
0.0
 11
545.9600219999999
 21
121.98288
 31
0.0
  0
LINE
  5
12C
330
1E
100
AcDbEntity
  8
0
  6
CONTINUOUS
100
AcDbLine
 10
548.9600219999999
 20
156.9828799999999
 30
0.0
 11
545.9600219999999
 21
156.9828799999999
 31
0.0
  0
LINE
  5
12D
330
1E
100
AcDbEntity
  8
0
  6
CONTINUOUS
100
AcDbLine
 10
548.9600219999999
 20
121.98288
 30
0.0
 11
545.9600219999999
 21
121.98288
 31
0.0
  0
ARC
  5
12E
330
1E
100
AcDbEntity
  8
0
  6
CONTINUOUS
100
AcDbCircle
 10
535.9600219999999
 20
139.4828799999999
 30
0.0
 40
5.0
100
AcDbArc
 50
270.0
 51
90.0
  0
LINE
  5
12F
330
1E
100
AcDbEntity
  8
0
  6
CONTINUOUS
100
AcDbLine
 10
535.9600219999999
 20
144.4828799999999
 30
0.0
 11
490.9599909999999
 21
144.4828799999999
 31
0.0
  0
LINE
  5
130
330
1E
100
AcDbEntity
  8
0
  6
CONTINUOUS
100
AcDbLine
 10
535.9600219999999
 20
134.4828799999999
 30
0.0
 11
490.9599909999999
 21
134.4828799999999
 31
0.0
  0
LINE
  5
133
330
1E
100
AcDbEntity
  8
0
  6
CONTINUOUS
100
AcDbLine
 10
223.5181269999999
 20
137.23288
 30
0.0
 11
223.5181269999999
 21
29.69326
 31
0.0
  0
LINE
  5
134
330
1E
100
AcDbEntity
  8
0
  6
CONTINUOUS
100
AcDbLine
 10
226.4395289999999
 20
26.69436099999999
 30
0.0
 11
234.5181269999999
 21
26.48287999999999
 31
0.0
  0
ARC
  5
135
330
1E
100
AcDbEntity
  8
0
  6
CONTINUOUS
100
AcDbCircle
 10
226.5181269999999
 20
29.69339899999999
 30
0.0
 40
3.0
100
AcDbArc
 50
180.0
 51
268.5004879999999
  0
LINE
  5
136
330
1E
100
AcDbEntity
  8
0
  6
CONTINUOUS
100
AcDbLine
 10
234.5181269999999
 20
168.48288
 30
0.0
 11
189.387222
 21
169.6649929999999
 31
0.0
  0
LINE
  5
137
330
1E
100
AcDbEntity
  8
0
  6
CENTER
100
AcDbLine
 10
-16.57
 20
131.4828799999999
 30
0.0
 11
213.273422
 21
131.4828799999999
 31
0.0
  0
LINE
  5
138
330
1E
100
AcDbEntity
  8
0
  6
CENTER
100
AcDbLine
 10
203.2681269999999
 20
97.48288000000002
 30
0.0
 11
234.5181269999999
 21
97.48288000000002
 31
0.0
  0
LINE
  5
139
330
1E
100
AcDbEntity
  8
0
  6
CONTINUOUS
100
AcDbLine
 10
176.0181269999999
 20
188.98288
 30
0.0
 11
176.0181269999999
 21
73.98288
 31
0.0
  0
LINE
  5
13A
330
1E
100
AcDbEntity
  8
0
  6
CONTINUOUS
100
AcDbLine
 10
184.5181269999999
 20
185.98288
 30
0.0
 11
184.5181269999999
 21
143.7328799999999
 31
0.0
  0
LINE
  5
13B
330
1E
100
AcDbEntity
  8
0
  6
CONTINUOUS
100
AcDbLine
 10
181.518127
 20
188.98288
 30
0.0
 11
176.0181269999999
 21
188.98288
 31
0.0
  0
LINE
  5
13C
330
1E
100
AcDbEntity
  8
0
  6
CONTINUOUS
100
AcDbLine
 10
176.0181269999999
 20
73.98288
 30
0.0
 11
180.389008
 21
73.98288
 31
0.0
  0
ARC
  5
13D
330
1E
100
AcDbEntity
  8
0
  6
CONTINUOUS
100
AcDbCircle
 10
181.518127
 20
185.9828339999999
 30
0.0
 40
3.0
100
AcDbArc
 50
0.0
 51
90.0
  0
LINE
  5
13E
330
1E
100
AcDbEntity
  8
0
  6
CONTINUOUS
100
AcDbLine
 10
223.5181269999999
 20
41.48287999999999
 30
0.0
 11
180.389008
 21
73.98288
 31
0.0
  0
ARC
  5
13F
330
1E
100
AcDbEntity
  8
0
  6
CONTINUOUS
100
AcDbCircle
 10
189.518082
 20
174.663345
 30
0.0
 40
5.0
100
AcDbArc
 50
180.0
 51
268.499908
  0
ARC
  5
140
330
1E
100
AcDbEntity
  8
0
  6
CONTINUOUS
100
AcDbCircle
 10
658.960022
 20
23.19783999999999
 30
0.0
 40
3.0
100
AcDbArc
 50
180.0
 51
264.2893369999999
  0
ARC
  5
141
330
1E
100
AcDbEntity
  8
0
  6
CONTINUOUS
100
AcDbCircle
 10
683.4600219999999
 20
15.22038299999999
 30
0.0
 40
2.5
100
AcDbArc
 50
0.0
 51
84.28935200000001
  0
LINE
  5
142
330
1E
100
AcDbEntity
  8
0
  6
CONTINUOUS
100
AcDbLine
 10
538.460022
 20
17.48287999999999
 30
0.0
 11
561.9600219999999
 21
17.48287999999999
 31
0.0
  0
LINE
  5
143
330
1E
100
AcDbEntity
  8
0
  6
CONTINUOUS
100
AcDbLine
 10
538.2112429999999
 20
17.707975
 30
0.0
 11
563.2584839999999
 21
20.212729
 31
0.0
  0
ARC
  5
144
330
1E
100
AcDbEntity
  8
0
  6
CONTINUOUS
100
AcDbCircle
 10
561.9600219999999
 20
21.48287999999999
 30
0.0
 40
4.0
100
AcDbArc
 50
270.0
 51
0.0
  0
ARC
  5
145
330
1E
100
AcDbEntity
  8
0
  6
CONTINUOUS
100
AcDbCircle
 10
538.460022
 20
14.98287999999999
 30
0.0
 40
2.5
100
AcDbArc
 50
90.0
 51
180.0
  0
ARC
  5
146
330
1E
100
AcDbEntity
  8
0
  6
CONTINUOUS
100
AcDbCircle
 10
562.9600219999999
 20
23.19783999999999
 30
0.0
 40
3.0
100
AcDbArc
 50
275.710648
 51
0.0
  0
ARC
  5
147
330
1E
100
AcDbEntity
  8
0
  6
CONTINUOUS
100
AcDbCircle
 10
538.460022
 20
15.22038299999999
 30
0.0
 40
2.5
100
AcDbArc
 50
95.710648
 51
180.0
  0
LINE
  5
148
330
1E
100
AcDbEntity
  8
0
  6
CONTINUOUS
100
AcDbLine
 10
223.518204
 20
474.240173
 30
0.0
 11
223.518204
 21
464.775909
 31
0.0
  0
LINE
  5
149
330
1E
100
AcDbEntity
  8
0
  6
CONTINUOUS
100
AcDbLine
 10
234.5183259999999
 20
335.0317379999999
 30
0.0
 11
226.439819
 21
335.243256
 31
0.0
  0
ARC
  5
14A
330
1E
100
AcDbEntity
  8
0
  6
CONTINUOUS
100
AcDbCircle
 10
226.5183259999999
 20
338.24231
 30
0.0
 40
3.0
100
AcDbArc
 50
180.0
 51
268.5003049999999
  0
LINE
  5
14B
330
1E
100
AcDbEntity
  8
0
  6
CONTINUOUS
100
AcDbLine
 10
234.5183259999999
 20
477.0316769999999
 30
0.0
 11
226.59668
 21
477.239136
 31
0.0
  0
ARC
  5
14C
330
1E
100
AcDbEntity
  8
0
  6
CONTINUOUS
100
AcDbCircle
 10
226.518204
 20
474.240173
 30
0.0
 40
3.0
100
AcDbArc
 50
88.50013699999999
 51
180.0
  0
LINE
  5
14D
330
1E
100
AcDbEntity
  8
0
  6
CONTINUOUS
100
AcDbLine
 10
223.51796
 20
347.2879029999999
 30
0.0
 11
223.51796
 21
338.24231
 31
0.0
  0
LINE
  5
14E
330
1E
100
AcDbEntity
  8
0
  6
CONTINUOUS
100
AcDbLine
 10
184.5182949999999
 20
460.674896
 30
0.0
 11
184.518112
 21
351.388794
 31
0.0
  0
LINE
  5
14F
330
1E
100
AcDbEntity
  8
0
  6
CONTINUOUS
100
AcDbLine
 10
176.0183259999999
 20
463.531738
 30
0.0
 11
223.518204
 21
464.775909
 31
0.0
  0
LINE
  5
150
330
1E
100
AcDbEntity
  8
0
  6
CONTINUOUS
100
AcDbLine
 10
176.0183259999999
 20
348.5317379999999
 30
0.0
 11
223.51796
 21
347.2879029999999
 31
0.0
  0
ARC
  5
151
330
1E
100
AcDbEntity
  8
0
  6
CONTINUOUS
100
AcDbCircle
 10
181.518356
 20
460.674896
 30
0.0
 40
3.0
100
AcDbArc
 50
0.0
 51
91.50055700000001
  0
ARC
  5
152
330
1E
100
AcDbEntity
  8
0
  6
CONTINUOUS
100
AcDbCircle
 10
181.518356
 20
351.388794
 30
0.0
 40
3.0
100
AcDbArc
 50
268.500122
 51
0.0
  0
LINE
  5
153
330
1E
100
AcDbEntity
  8
0
  6
CONTINUOUS
100
AcDbLine
 10
176.0183259999999
 20
463.531738
 30
0.0
 11
176.0183259999999
 21
348.5317379999999
 31
0.0
  0
LINE
  5
154
330
1E
100
AcDbEntity
  8
0
  6
CONTINUOUS
100
AcDbLine
 10
52.01815699850886
 20
463.531738
 30
0.0
 11
176.0183259999999
 21
463.531738
 31
0.0
  0
LINE
  5
155
330
1E
100
AcDbEntity
  8
0
  6
CONTINUOUS
100
AcDbLine
 10
176.0183259999999
 20
348.5317379999999
 30
0.0
 11
131.492706
 21
348.5317379999999
 31
0.0
  0
LINE
  5
156
330
1E
100
AcDbEntity
  8
0
  6
CONTINUOUS
100
AcDbLine
 10
64.018326
 20
432.031219
 30
0.0
 11
167.992126
 21
432.031219
 31
0.0
  0
LINE
  5
157
330
1E
100
AcDbEntity
  8
0
  6
CONTINUOUS
100
AcDbLine
 10
64.018326
 20
439.8017269999999
 30
0.0
 11
167.992126
 21
439.8017269999999
 31
0.0
  0
LINE
  5
158
330
1E
100
AcDbEntity
  8
0
  6
CONTINUOUS
100
AcDbLine
 10
65.018326
 20
443.081116
 30
0.0
 11
166.992142
 21
443.081116
 31
0.0
  0
LINE
  5
159
330
1E
100
AcDbEntity
  8
0
  6
CONTINUOUS
100
AcDbLine
 10
64.018326
 20
447.8960879999999
 30
0.0
 11
167.992126
 21
447.8960879999999
 31
0.0
  0
LINE
  5
15A
330
1E
100
AcDbEntity
  8
0
  6
CONTINUOUS
100
AcDbLine
 10
65.018326
 20
449.883911
 30
0.0
 11
166.992142
 21
449.883911
 31
0.0
  0
LINE
  5
15B
330
1E
100
AcDbEntity
  8
0
  6
CONTINUOUS
100
AcDbLine
 10
64.018326
 20
453.926575
 30
0.0
 11
167.992126
 21
453.926575
 31
0.0
  0
LINE
  5
15C
330
1E
100
AcDbEntity
  8
0
  6
CONTINUOUS
100
AcDbLine
 10
64.018326
 20
458.457397
 30
0.0
 11
167.992126
 21
458.457397
 31
0.0
  0
LINE
  5
15D
330
1E
100
AcDbEntity
  8
0
  6
CONTINUOUS
100
AcDbLine
 10
64.018326
 20
461.334473
 30
0.0
 11
167.992126
 21
461.334473
 31
0.0
  0
LINE
  5
15E
330
1E
100
AcDbEntity
  8
0
  6
CONTINUOUS
100
AcDbLine
 10
64.018326
 20
462.989807
 30
0.0
 11
167.992126
 21
462.989807
 31
0.0
  0
LINE
  5
15F
330
1E
100
AcDbEntity
  8
0
  6
CONTINUOUS
100
AcDbLine
 10
167.992126
 20
463.531738
 30
0.0
 11
167.992126
 21
432.031219
 31
0.0
  0
LINE
  5
160
330
1E
100
AcDbEntity
  8
0
  6
CONTINUOUS
100
AcDbLine
 10
64.018326
 20
380.0322269999999
 30
0.0
 11
167.992126
 21
380.0322269999999
 31
0.0
  0
LINE
  5
161
330
1E
100
AcDbEntity
  8
0
  6
CONTINUOUS
100
AcDbLine
 10
64.018326
 20
372.2617189999999
 30
0.0
 11
167.992126
 21
372.2617189999999
 31
0.0
  0
LINE
  5
162
330
1E
100
AcDbEntity
  8
0
  6
CONTINUOUS
100
AcDbLine
 10
64.018326
 20
364.167358
 30
0.0
 11
167.992126
 21
364.167358
 31
0.0
  0
LINE
  5
163
330
1E
100
AcDbEntity
  8
0
  6
CONTINUOUS
100
AcDbLine
 10
130.9927059999999
 20
353.606018
 30
0.0
 11
167.992126
 21
353.606018
 31
0.0
  0
LINE
  5
164
330
1E
100
AcDbEntity
  8
0
  6
CONTINUOUS
100
AcDbLine
 10
130.9927059999999
 20
350.728973
 30
0.0
 11
167.992126
 21
350.728973
 31
0.0
  0
LINE
  5
165
330
1E
100
AcDbEntity
  8
0
  6
CONTINUOUS
100
AcDbLine
 10
131.4926909999999
 20
349.073639
 30
0.0
 11
167.992126
 21
349.073639
 31
0.0
  0
LINE
  5
166
330
1E
100
AcDbEntity
  8
0
  6
CONTINUOUS
100
AcDbLine
 10
167.992126
 20
348.5317379999999
 30
0.0
 11
167.992126
 21
380.0322269999999
 31
0.0
  0
LINE
  5
167
330
1E
100
AcDbEntity
  8
0
  6
CONTINUOUS
100
AcDbLine
 10
130.9927059999999
 20
349.0317379999999
 30
0.0
 11
130.9927059999999
 21
355.231171
 31
0.0
  0
ARC
  5
168
330
1E
100
AcDbEntity
  8
0
  6
CONTINUOUS
100
AcDbCircle
 10
131.4926909999999
 20
349.573639
 30
0.0
 40
0.499992
100
AcDbArc
 50
180.0
 51
270.0
  0
ARC
  5
169
330
1E
100
AcDbEntity
  8
0
  6
CONTINUOUS
100
AcDbCircle
 10
129.9927219999999
 20
351.032593
 30
0.0
 40
0.9999839999999998
100
AcDbArc
 50
270.0
 51
0.0
  0
LINE
  5
16A
330
1E
100
AcDbEntity
  8
0
  6
CONTINUOUS
100
AcDbLine
 10
65.018326
 20
368.98233
 30
0.0
 11
166.992142
 21
368.98233
 31
0.0
  0
LINE
  5
16B
330
1E
100
AcDbEntity
  8
0
  6
CONTINUOUS
100
AcDbLine
 10
65.018326
 20
362.1795349999999
 30
0.0
 11
166.992142
 21
362.1795349999999
 31
0.0
  0
LINE
  5
16C
330
1E
100
AcDbEntity
  8
0
  6
CONTINUOUS
100
AcDbLine
 10
64.018326
 20
358.136902
 30
0.0
 11
167.992126
 21
358.136902
 31
0.0
  0
LINE
  5
16D
330
1E
100
AcDbEntity
  8
0
  6
CONTINUOUS
100
AcDbLine
 10
64.018326
 20
355.231171
 30
0.0
 11
130.9927059999999
 21
355.231171
 31
0.0
  0
LINE
  5
16E
330
1E
100
AcDbEntity
  8
0
  6
CONTINUOUS
100
AcDbLine
 10
65.018326
 20
350.032623
 30
0.0
 11
110.540695
 21
350.032623
 31
0.0
  0
LINE
  5
16F
330
1E
100
AcDbEntity
  8
0
  6
CONTINUOUS
100
AcDbLine
 10
129.9927219999999
 20
350.032623
 30
0.0
 11
110.540695
 21
350.0325319999999
 31
0.0
  0
ARC
  5
170
330
1E
100
AcDbEntity
  8
0
  6
CONTINUOUS
100
AcDbCircle
 10
131.492706
 20
349.0317379999999
 30
0.0
 40
0.5
100
AcDbArc
 50
180.0
 51
270.0
  0
LINE
  5
171
330
1E
100
AcDbEntity
  8
0
  6
CONTINUOUS
100
AcDbLine
 10
308.8490909999999
 20
20.48287999999999
 30
0.0
 11
357.1871639999999
 21
20.48287999999999
 31
0.0
  0
ARC
  5
172
330
1E
100
AcDbEntity
  8
0
  6
CONTINUOUS
100
AcDbCircle
 10
308.8490909999999
 20
17.48287999999999
 30
0.0
 40
3.0
100
AcDbArc
 50
90.0
 51
120.964531
  0
ARC
  5
173
330
1E
100
AcDbEntity
  8
0
  6
CONTINUOUS
100
AcDbCircle
 10
301.633331
 20
22.48288
 30
0.0
 40
5.0
100
AcDbArc
 50
270.0
 51
300.964539
  0
LINE
  5
174
330
1E
100
AcDbEntity
  8
0
  6
CONTINUOUS
100
AcDbLine
 10
358.018127
 20
20.08287999999999
 30
0.0
 11
358.018127
 21
18.48287999999999
 31
0.0
  0
LINE
  5
175
330
1E
100
AcDbEntity
  8
0
  6
CONTINUOUS
100
AcDbLine
 10
358.730682
 20
20.05533799999999
 30
0.0
 11
361.8303829999999
 21
18.19545
 31
0.0
  0
ARC
  5
176
330
1E
100
AcDbEntity
  8
0
  6
CONTINUOUS
100
AcDbCircle
 10
359.0181269999999
 20
18.48287999999999
 30
0.0
 40
1.0
100
AcDbArc
 50
180.0
 51
270.0
  0
ARC
  5
177
330
1E
100
AcDbEntity
  8
0
  6
CONTINUOUS
100
AcDbCircle
 10
357.1871639999999
 20
17.48287999999999
 30
0.0
 40
3.0
100
AcDbArc
 50
59.035465
 51
90.0
  0
ARC
  5
178
330
1E
100
AcDbEntity
  8
0
  6
CONTINUOUS
100
AcDbCircle
 10
364.402924
 20
22.48288
 30
0.0
 40
5.0
100
AcDbArc
 50
239.0354689999999
 51
270.0
  0
LINE
  5
179
330
1E
100
AcDbEntity
  8
0
  6
CENTER
100
AcDbLine
 10
560.4381099999999
 20
131.4828799999999
 30
0.0
 11
662.7568969999999
 21
131.4828799999999
 31
0.0
  0
LINE
  5
17A
330
1E
100
AcDbEntity
  8
0
  6
CONTINUOUS
100
AcDbLine
 10
58.080727
 20
335.609924
 30
0.0
 11
57.018326
 21
295.5317379999999
 31
0.0
  0
LINE
  5
17B
330
1E
100
AcDbEntity
  8
0
  6
CONTINUOUS
100
AcDbLine
 10
125.9553219999999
 20
335.609924
 30
0.0
 11
127.018326
 21
295.5317379999999
 31
0.0
  0
LINE
  5
17C
330
1E
100
AcDbEntity
  8
0
  6
CONTINUOUS
100
AcDbLine
 10
67.99252299999999
 20
348.5317379999999
 30
0.0
 11
80.518326
 21
348.5317379999999
 31
0.0
  0
LINE
  5
17D
330
1E
100
AcDbEntity
  8
0
  6
CONTINUOUS
100
AcDbLine
 10
116.044128
 20
348.5317379999999
 30
0.0
 11
80.518326
 21
348.5317379999999
 31
0.0
  0
LINE
  5
17E
330
1E
100
AcDbEntity
  8
0
  6
CONTINUOUS
100
AcDbLine
 10
122.969528
 20
338.5317379999999
 30
0.0
 11
105.329529
 21
338.5317379999999
 31
0.0
  0
ARC
  5
17F
330
1E
100
AcDbEntity
  8
0
  6
CONTINUOUS
100
AcDbCircle
 10
61.06632600000001
 20
335.5317379999999
 30
0.0
 40
3.0
100
AcDbArc
 50
90.0
 51
178.5002749999999
  0
ARC
  5
180
330
1E
100
AcDbEntity
  8
0
  6
CONTINUOUS
100
AcDbCircle
 10
122.969528
 20
335.5317379999999
 30
0.0
 40
3.0
100
AcDbArc
 50
1.4999
 51
90.0
  0
LINE
  5
181
330
1E
100
AcDbEntity
  8
0
  6
CONTINUOUS
100
AcDbLine
 10
66.992767
 20
347.557922
 30
0.0
 11
66.807419
 21
340.47937
 31
0.0
  0
LINE
  5
182
330
1E
100
AcDbEntity
  8
0
  6
CONTINUOUS
100
AcDbLine
 10
117.043434
 20
347.5578919999999
 30
0.0
 11
117.22921
 21
340.4792479999999
 31
0.0
  0
ARC
  5
183
330
1E
100
AcDbEntity
  8
0
  6
CONTINUOUS
100
AcDbCircle
 10
116.044128
 20
347.5317379999999
 30
0.0
 40
1.0
100
AcDbArc
 50
1.4993
 51
90.0
  0
ARC
  5
184
330
1E
100
AcDbEntity
  8
0
  6
CONTINUOUS
100
AcDbCircle
 10
67.99252299999999
 20
347.5317379999999
 30
0.0
 40
1.0
100
AcDbArc
 50
90.0
 51
178.4994049999999
  0
LINE
  5
185
330
1E
100
AcDbEntity
  8
0
  6
CONTINUOUS
100
AcDbLine
 10
61.066525
 20
338.5317379999999
 30
0.0
 11
78.707123
 21
338.5317379999999
 31
0.0
  0
ARC
  5
186
330
1E
100
AcDbEntity
  8
0
  6
CONTINUOUS
100
AcDbCircle
 10
92.01832600000001
 20
406.0317379999999
 30
0.0
 40
68.800003
100
AcDbArc
 50
258.8442
 51
281.1558
  0
LINE
  5
187
330
1E
100
AcDbEntity
  8
0
  6
CENTER
100
AcDbLine
 10
92.01832600000001
 20
352.357941
 30
0.0
 11
92.01832600000001
 21
277.438141
 31
0.0
  0
LINE
  5
188
330
1E
100
AcDbEntity
  8
0
  6
CONTINUOUS
100
AcDbLine
 10
59.518326
 20
289.5317379999999
 30
0.0
 11
124.518326
 21
289.5317379999999
 31
0.0
  0
LINE
  5
189
330
1E
100
AcDbEntity
  8
0
  6
CONTINUOUS
100
AcDbLine
 10
127.018326
 20
292.0317379999999
 30
0.0
 11
127.018326
 21
294.5317379999999
 31
0.0
  0
LINE
  5
18A
330
1E
100
AcDbEntity
  8
0
  6
CONTINUOUS
100
AcDbLine
 10
57.018326
 20
292.0317379999999
 30
0.0
 11
57.018326
 21
294.5317379999999
 31
0.0
  0
LINE
  5
18B
330
1E
100
AcDbEntity
  8
0
  6
CONTINUOUS
100
AcDbLine
 10
127.018326
 20
294.5317379999999
 30
0.0
 11
57.018326
 21
294.5317379999999
 31
0.0
  0
LINE
  5
18C
330
1E
100
AcDbEntity
  8
0
  6
CONTINUOUS
100
AcDbLine
 10
127.018326
 20
295.5317379999999
 30
0.0
 11
57.018326
 21
295.5317379999999
 31
0.0
  0
LINE
  5
18D
330
1E
100
AcDbEntity
  8
0
  6
CONTINUOUS
100
AcDbLine
 10
127.018326
 20
294.5317379999999
 30
0.0
 11
127.018326
 21
295.5317379999999
 31
0.0
  0
LINE
  5
18E
330
1E
100
AcDbEntity
  8
0
  6
CONTINUOUS
100
AcDbLine
 10
57.018326
 20
294.5317379999999
 30
0.0
 11
57.018326
 21
295.5317379999999
 31
0.0
  0
LINE
  5
18F
330
1E
100
AcDbEntity
  8
0
  6
CENTER
100
AcDbLine
 10
62.018326
 20
311.5317379999999
 30
0.0
 11
22.331326
 21
311.5317379999999
 31
0.0
  0
LINE
  5
190
330
1E
100
AcDbEntity
  8
0
  6
CONTINUOUS
100
AcDbLine
 10
118.505524
 20
292.5317379999999
 30
0.0
 11
126.018326
 21
292.5317379999999
 31
0.0
  0
LINE
  5
191
330
1E
100
AcDbEntity
  8
0
  6
CONTINUOUS
100
AcDbLine
 10
65.53132600000001
 20
292.5317379999999
 30
0.0
 11
58.018326
 21
292.5317379999999
 31
0.0
  0
LINE
  5
192
330
1E
100
AcDbEntity
  8
0
  6
CONTINUOUS
100
AcDbLine
 10
118.0055239999999
 20
292.044922
 30
0.0
 11
117.9653239999999
 21
290.505524
 31
0.0
  0
ARC
  5
193
330
1E
100
AcDbEntity
  8
0
  6
CONTINUOUS
100
AcDbCircle
 10
118.505524
 20
292.0317379999999
 30
0.0
 40
0.5
100
AcDbArc
 50
90.0
 51
178.5
  0
ARC
  5
194
330
1E
100
AcDbEntity
  8
0
  6
CONTINUOUS
100
AcDbCircle
 10
116.965729
 20
290.5317379999999
 30
0.0
 40
1.0
100
AcDbArc
 50
270.0
 51
358.5002
  0
ARC
  5
195
330
1E
100
AcDbEntity
  8
0
  6
CONTINUOUS
100
AcDbCircle
 10
126.018326
 20
293.5317379999999
 30
0.0
 40
1.0
100
AcDbArc
 50
270.0
 51
0.0
  0
ARC
  5
196
330
1E
100
AcDbEntity
  8
0
  6
CONTINUOUS
100
AcDbCircle
 10
124.518326
 20
292.0317379999999
 30
0.0
 40
2.5
100
AcDbArc
 50
270.0
 51
0.0
  0
LINE
  5
197
330
1E
100
AcDbEntity
  8
0
  6
CONTINUOUS
100
AcDbLine
 10
66.03112800000001
 20
292.044922
 30
0.0
 11
66.071327
 21
290.505524
 31
0.0
  0
ARC
  5
198
330
1E
100
AcDbEntity
  8
0
  6
CONTINUOUS
100
AcDbCircle
 10
67.07112099999999
 20
290.5317379999999
 30
0.0
 40
1.0
100
AcDbArc
 50
181.500397
 51
270.0
  0
ARC
  5
199
330
1E
100
AcDbEntity
  8
0
  6
CONTINUOUS
100
AcDbCircle
 10
65.53132600000001
 20
292.0317379999999
 30
0.0
 40
0.5
100
AcDbArc
 50
1.500199999999999
 51
90.0
  0
ARC
  5
19A
330
1E
100
AcDbEntity
  8
0
  6
CONTINUOUS
100
AcDbCircle
 10
58.018326
 20
293.5317379999999
 30
0.0
 40
1.0
100
AcDbArc
 50
180.0
 51
270.0
  0
ARC
  5
19B
330
1E
100
AcDbEntity
  8
0
  6
CONTINUOUS
100
AcDbCircle
 10
59.518326
 20
292.0317379999999
 30
0.0
 40
2.5
100
AcDbArc
 50
180.0
 51
270.0
  0
ARC
  5
19C
330
1E
100
AcDbEntity
  8
0
  6
CONTINUOUS
100
AcDbCircle
 10
122.0183259999999
 20
292.5317379999999
 30
0.0
 40
3.0
100
AcDbArc
 50
180.0
 51
0.0
  0
LINE
  5
19D
330
1E
100
AcDbEntity
  8
0
  6
CONTINUOUS
100
AcDbLine
 10
124.9763259999999
 20
292.0317379999999
 30
0.0
 11
119.060326
 21
292.0317379999999
 31
0.0
  0
LINE
  5
19E
330
1E
100
AcDbEntity
  8
0
  6
CONTINUOUS
100
AcDbLine
 10
122.0183259999999
 20
290.0317379999999
 30
0.0
 11
121.737328
 21
289.544922
 31
0.0
  0
LINE
  5
19F
330
1E
100
AcDbEntity
  8
0
  6
CONTINUOUS
100
AcDbLine
 10
122.0183259999999
 20
290.0317379999999
 30
0.0
 11
122.299522
 21
289.544922
 31
0.0
  0
ARC
  5
1A0
330
1E
100
AcDbEntity
  8
0
  6
CONTINUOUS
100
AcDbCircle
 10
62.018326
 20
292.5317379999999
 30
0.0
 40
3.0
100
AcDbArc
 50
180.0
 51
0.0
  0
LINE
  5
1A1
330
1E
100
AcDbEntity
  8
0
  6
CONTINUOUS
100
AcDbLine
 10
64.976326
 20
292.0317379999999
 30
0.0
 11
59.060326
 21
292.0317379999999
 31
0.0
  0
LINE
  5
1A2
330
1E
100
AcDbEntity
  8
0
  6
CONTINUOUS
100
AcDbLine
 10
62.018326
 20
290.0317379999999
 30
0.0
 11
61.737324
 21
289.544922
 31
0.0
  0
LINE
  5
1A3
330
1E
100
AcDbEntity
  8
0
  6
CONTINUOUS
100
AcDbLine
 10
62.018326
 20
290.0317379999999
 30
0.0
 11
62.299526
 21
289.544922
 31
0.0
  0
LINE
  5
1A4
330
1E
100
AcDbEntity
  8
0
  6
CONTINUOUS
100
AcDbLine
 10
115.018326
 20
348.5317379999999
 30
0.0
 11
115.018326
 21
350.0317379999999
 31
0.0
  0
LINE
  5
1A5
330
1E
100
AcDbEntity
  8
0
  6
CONTINUOUS
100
AcDbLine
 10
69.018326
 20
348.5317379999999
 30
0.0
 11
69.018326
 21
350.0317379999999
 31
0.0
  0
LINE
  5
1A6
330
1E
100
AcDbEntity
  8
0
  6
CONTINUOUS
100
AcDbLine
 10
29.018326
 20
326.031921
 30
0.0
 11
29.018326
 21
297.0317379999999
 31
0.0
  0
LINE
  5
1A7
330
1E
100
AcDbEntity
  8
0
  6
CONTINUOUS
100
AcDbLine
 10
37.018326
 20
326.031921
 30
0.0
 11
37.018326
 21
297.0317379999999
 31
0.0
  0
LINE
  5
1A8
330
1E
100
AcDbEntity
  8
0
  6
CONTINUOUS
100
AcDbLine
 10
29.018326
 20
326.031921
 30
0.0
 11
37.018326
 21
326.031921
 31
0.0
  0
LINE
  5
1A9
330
1E
100
AcDbEntity
  8
0
  6
CONTINUOUS
100
AcDbLine
 10
29.018326
 20
297.0317379999999
 30
0.0
 11
37.018326
 21
297.0317379999999
 31
0.0
  0
LINE
  5
1AA
330
1E
100
AcDbEntity
  8
0
  6
CONTINUOUS
100
AcDbLine
 10
46.018326
 20
324.531921
 30
0.0
 11
46.018326
 21
298.5317379999999
 31
0.0
  0
LINE
  5
1AB
330
1E
100
AcDbEntity
  8
0
  6
CONTINUOUS
100
AcDbLine
 10
37.018326
 20
324.531921
 30
0.0
 11
46.018326
 21
324.531921
 31
0.0
  0
LINE
  5
1AC
330
1E
100
AcDbEntity
  8
0
  6
CONTINUOUS
100
AcDbLine
 10
37.018326
 20
298.5317379999999
 30
0.0
 11
46.018326
 21
298.5317379999999
 31
0.0
  0
LINE
  5
1AD
330
1E
100
AcDbEntity
  8
0
  6
CONTINUOUS
100
AcDbLine
 10
46.018326
 20
323.031921
 30
0.0
 11
51.018326
 21
323.031921
 31
0.0
  0
LINE
  5
1AE
330
1E
100
AcDbEntity
  8
0
  6
CONTINUOUS
100
AcDbLine
 10
46.018326
 20
300.0317379999999
 30
0.0
 11
51.018326
 21
300.0317379999999
 31
0.0
  0
LINE
  5
1AF
330
1E
100
AcDbEntity
  8
0
  6
CONTINUOUS
100
AcDbLine
 10
51.018326
 20
325.031921
 30
0.0
 11
51.018326
 21
298.0317379999999
 31
0.0
  0
LINE
  5
1B0
330
1E
100
AcDbEntity
  8
0
  6
CONTINUOUS
100
AcDbLine
 10
55.518326
 20
326.031921
 30
0.0
 11
55.518326
 21
297.0317379999999
 31
0.0
  0
LINE
  5
1B1
330
1E
100
AcDbEntity
  8
0
  6
CONTINUOUS
100
AcDbLine
 10
51.018326
 20
325.031921
 30
0.0
 11
55.518326
 21
325.031921
 31
0.0
  0
LINE
  5
1B2
330
1E
100
AcDbEntity
  8
0
  6
CONTINUOUS
100
AcDbLine
 10
51.018326
 20
298.0317379999999
 30
0.0
 11
55.518326
 21
298.0317379999999
 31
0.0
  0
LINE
  5
1B3
330
1E
100
AcDbEntity
  8
0
  6
CONTINUOUS
100
AcDbLine
 10
55.518326
 20
326.031921
 30
0.0
 11
57.826923
 21
326.031921
 31
0.0
  0
LINE
  5
1B4
330
1E
100
AcDbEntity
  8
0
  6
CONTINUOUS
100
AcDbLine
 10
55.518326
 20
297.0317379999999
 30
0.0
 11
57.058125
 21
297.0317379999999
 31
0.0
  0
LINE
  5
1B5
330
1E
100
AcDbEntity
  8
0
  6
CONTINUOUS
100
AcDbLine
 10
29.018326
 20
319.531921
 30
0.0
 11
37.018326
 21
319.531921
 31
0.0
  0
LINE
  5
1B6
330
1E
100
AcDbEntity
  8
0
  6
CONTINUOUS
100
AcDbLine
 10
29.018326
 20
303.5317379999999
 30
0.0
 11
37.018326
 21
303.5317379999999
 31
0.0
  0
LINE
  5
1B7
330
1E
100
AcDbEntity
  8
0
  6
CONTINUOUS
100
AcDbLine
 10
46.018326
 20
321.531921
 30
0.0
 11
51.018326
 21
321.531921
 31
0.0
  0
LINE
  5
1B8
330
1E
100
AcDbEntity
  8
0
  6
CONTINUOUS
100
AcDbLine
 10
46.018326
 20
301.5317379999999
 30
0.0
 11
51.018326
 21
301.5317379999999
 31
0.0
  0
ARC
  5
1B9
330
1E
100
AcDbEntity
  8
0
  6
CONTINUOUS
100
AcDbCircle
 10
64.808105
 20
340.5317379999999
 30
0.0
 40
2.0
100
AcDbArc
 50
270.0
 51
358.500092
  0
ARC
  5
1BA
330
1E
100
AcDbEntity
  8
0
  6
CONTINUOUS
100
AcDbCircle
 10
119.2285229999999
 20
340.5317379999999
 30
0.0
 40
2.0
100
AcDbArc
 50
181.5033719999999
 51
270.0
  0
LINE
  5
1BB
330
1E
100
AcDbEntity
  8
0
  6
CONTINUOUS
100
AcDbLine
 10
52.01815700084296
 20
188.982986
 30
0.0
 11
176.0181269999999
 21
188.982986
 31
0.0
  0
LINE
  5
1BC
330
1E
100
AcDbEntity
  8
0
  6
CONTINUOUS
100
AcDbLine
 10
168.018127
 20
182.7689969999999
 30
0.0
 11
168.018127
 21
178.482986
 31
0.0
  0
LINE
  5
1BD
330
1E
100
AcDbEntity
  8
0
  6
CONTINUOUS
100
AcDbLine
 10
129.0181269999999
 20
158.482986
 30
0.0
 11
127.018127
 21
158.482986
 31
0.0
  0
LINE
  5
1BE
330
1E
100
AcDbEntity
  8
0
  6
CONTINUOUS
100
AcDbLine
 10
129.0181269999999
 20
104.4829939999999
 30
0.0
 11
127.018127
 21
104.4829939999999
 31
0.0
  0
LINE
  5
1BF
330
1E
100
AcDbEntity
  8
0
  6
CONTINUOUS
100
AcDbLine
 10
131.0181269999999
 20
106.4829939999999
 30
0.0
 11
131.0181269999999
 21
156.482986
 31
0.0
  0
LINE
  5
1C0
330
1E
100
AcDbEntity
  8
0
  6
CONTINUOUS
100
AcDbLine
 10
64.018127
 20
169.482986
 30
0.0
 11
168.018127
 21
169.482986
 31
0.0
  0
LINE
  5
1C1
330
1E
100
AcDbEntity
  8
0
  6
CONTINUOUS
100
AcDbLine
 10
64.018127
 20
171.482986
 30
0.0
 11
168.018127
 21
171.482986
 31
0.0
  0
LINE
  5
1C2
330
1E
100
AcDbEntity
  8
0
  6
CONTINUOUS
100
AcDbLine
 10
64.018127
 20
176.482986
 30
0.0
 11
168.018127
 21
176.482986
 31
0.0
  0
LINE
  5
1C3
330
1E
100
AcDbEntity
  8
0
  6
CONTINUOUS
100
AcDbLine
 10
64.018127
 20
178.482986
 30
0.0
 11
168.018127
 21
178.482986
 31
0.0
  0
LINE
  5
1C4
330
1E
100
AcDbEntity
  8
0
  6
CONTINUOUS
100
AcDbLine
 10
64.018127
 20
182.7689969999999
 30
0.0
 11
168.018127
 21
182.7689969999999
 31
0.0
  0
LINE
  5
1C5
330
1E
100
AcDbEntity
  8
0
  6
CONTINUOUS
100
AcDbLine
 10
168.018127
 20
80.196991
 30
0.0
 11
168.018127
 21
84.48299399999999
 31
0.0
  0
LINE
  5
1C6
330
1E
100
AcDbEntity
  8
0
  6
CONTINUOUS
100
AcDbLine
 10
168.018127
 20
86.48299399999999
 30
0.0
 11
168.018127
 21
91.48299399999999
 31
0.0
  0
LINE
  5
1C7
330
1E
100
AcDbEntity
  8
0
  6
CONTINUOUS
100
AcDbLine
 10
168.018127
 20
93.482994
 30
0.0
 11
168.018127
 21
98.98299399999999
 31
0.0
  0
LINE
  5
1C8
330
1E
100
AcDbEntity
  8
0
  6
CONTINUOUS
100
AcDbLine
 10
168.018127
 20
100.9829939999999
 30
0.0
 11
168.018127
 21
107.0829929999999
 31
0.0
  0
LINE
  5
1C9
330
1E
100
AcDbEntity
  8
0
  6
CONTINUOUS
100
AcDbLine
 10
168.018127
 20
109.0829929999999
 30
0.0
 11
168.018127
 21
114.882996
 31
0.0
  0
LINE
  5
1CA
330
1E
100
AcDbEntity
  8
0
  6
CONTINUOUS
100
AcDbLine
 10
168.018127
 20
116.8829959999999
 30
0.0
 11
168.018127
 21
122.6829909999999
 31
0.0
  0
LINE
  5
1CB
330
1E
100
AcDbEntity
  8
0
  6
CONTINUOUS
100
AcDbLine
 10
168.018127
 20
124.6829909999999
 30
0.0
 11
168.018127
 21
130.482986
 31
0.0
  0
LINE
  5
1CC
330
1E
100
AcDbEntity
  8
0
  6
CONTINUOUS
100
AcDbLine
 10
168.018127
 20
132.482986
 30
0.0
 11
168.018127
 21
138.2829899999999
 31
0.0
  0
LINE
  5
1CD
330
1E
100
AcDbEntity
  8
0
  6
CONTINUOUS
100
AcDbLine
 10
168.018127
 20
140.2829899999999
 30
0.0
 11
168.018127
 21
146.0829929999999
 31
0.0
  0
LINE
  5
1CE
330
1E
100
AcDbEntity
  8
0
  6
CONTINUOUS
100
AcDbLine
 10
168.018127
 20
148.0829929999999
 30
0.0
 11
168.018127
 21
153.8829959999999
 31
0.0
  0
LINE
  5
1CF
330
1E
100
AcDbEntity
  8
0
  6
CONTINUOUS
100
AcDbLine
 10
168.018127
 20
155.8829959999999
 30
0.0
 11
168.018127
 21
161.982986
 31
0.0
  0
LINE
  5
1D0
330
1E
100
AcDbEntity
  8
0
  6
CONTINUOUS
100
AcDbLine
 10
168.018127
 20
163.982986
 30
0.0
 11
168.018127
 21
169.482986
 31
0.0
  0
LINE
  5
1D1
330
1E
100
AcDbEntity
  8
0
  6
CONTINUOUS
100
AcDbLine
 10
168.018127
 20
171.482986
 30
0.0
 11
168.018127
 21
176.482986
 31
0.0
  0
ARC
  5
1D2
330
1E
100
AcDbEntity
  8
0
  6
CONTINUOUS
100
AcDbCircle
 10
129.0181269999999
 20
156.482986
 30
0.0
 40
2.0
100
AcDbArc
 50
0.0
 51
90.0
  0
ARC
  5
1D3
330
1E
100
AcDbEntity
  8
0
  6
CONTINUOUS
100
AcDbCircle
 10
129.0181269999999
 20
106.4829939999999
 30
0.0
 40
2.0
100
AcDbArc
 50
270.0
 51
0.0
  0
LINE
  5
1D4
330
1E
100
AcDbEntity
  8
0
  6
CONTINUOUS
100
AcDbLine
 10
168.018127
 20
100.9829939999999
 30
0.0
 11
127.018127
 21
100.9829939999999
 31
0.0
  0
LINE
  5
1D5
330
1E
100
AcDbEntity
  8
0
  6
CONTINUOUS
100
AcDbLine
 10
168.018127
 20
98.98299399999999
 30
0.0
 11
127.018127
 21
98.98304000000001
 31
0.0
  0
LINE
  5
1D6
330
1E
100
AcDbEntity
  8
0
  6
CONTINUOUS
100
AcDbLine
 10
168.018127
 20
93.482994
 30
0.0
 11
78.518173
 21
93.482994
 31
0.0
  0
LINE
  5
1D7
330
1E
100
AcDbEntity
  8
0
  6
CONTINUOUS
100
AcDbLine
 10
168.018127
 20
91.48299399999999
 30
0.0
 11
105.5182719999999
 21
91.48299399999999
 31
0.0
  0
LINE
  5
1D8
330
1E
100
AcDbEntity
  8
0
  6
CONTINUOUS
100
AcDbLine
 10
168.018127
 20
86.48299399999999
 30
0.0
 11
80.51817300000001
 21
86.48299399999999
 31
0.0
  0
LINE
  5
1D9
330
1E
100
AcDbEntity
  8
0
  6
CONTINUOUS
100
AcDbLine
 10
168.018127
 20
84.48299399999999
 30
0.0
 11
105.018272
 21
84.48299399999999
 31
0.0
  0
LINE
  5
1DA
330
1E
100
AcDbEntity
  8
0
  6
CONTINUOUS
100
AcDbLine
 10
168.018127
 20
80.196991
 30
0.0
 11
79.01817300000001
 21
80.196991
 31
0.0
  0
LINE
  5
1DB
330
1E
100
AcDbEntity
  8
0
  6
CONTINUOUS
100
AcDbLine
 10
176.0181269999999
 20
73.98299399999999
 30
0.0
 11
106.5182719999999
 21
73.98299399999999
 31
0.0
  0
LINE
  5
1DC
330
1E
100
AcDbEntity
  8
0
  6
CONTINUOUS
100
AcDbLine
 10
127.018127
 20
163.982986
 30
0.0
 11
127.018127
 21
98.98304000000001
 31
0.0
  0
LINE
  5
1DD
330
1E
100
AcDbEntity
  8
0
  6
CONTINUOUS
100
AcDbLine
 10
57.018124
 20
98.98294100000001
 30
0.0
 11
57.018124
 21
163.982986
 31
0.0
  0
LINE
  5
1DE
330
1E
100
AcDbEntity
  8
0
  6
CONTINUOUS
100
AcDbLine
 10
59.518124
 20
166.482986
 30
0.0
 11
124.518127
 21
166.482986
 31
0.0
  0
LINE
  5
1DF
330
1E
100
AcDbEntity
  8
0
  6
CONTINUOUS
100
AcDbLine
 10
59.518116
 20
96.48294100000001
 30
0.0
 11
124.518127
 21
96.48294100000001
 31
0.0
  0
ARC
  5
1E0
330
1E
100
AcDbEntity
  8
0
  6
CONTINUOUS
100
AcDbCircle
 10
124.518127
 20
98.98294100000001
 30
0.0
 40
2.5
100
AcDbArc
 50
270.0
 51
0.0
  0
ARC
  5
1E1
330
1E
100
AcDbEntity
  8
0
  6
CONTINUOUS
100
AcDbCircle
 10
124.518127
 20
163.982956
 30
0.0
 40
2.5
100
AcDbArc
 50
0.0
 51
90.0
  0
ARC
  5
1E2
330
1E
100
AcDbEntity
  8
0
  6
CONTINUOUS
100
AcDbCircle
 10
59.518124
 20
163.982986
 30
0.0
 40
2.5
100
AcDbArc
 50
90.0
 51
180.0
  0
ARC
  5
1E3
330
1E
100
AcDbEntity
  8
0
  6
CONTINUOUS
100
AcDbCircle
 10
59.518116
 20
98.98294100000001
 30
0.0
 40
2.5
100
AcDbArc
 50
180.0
 51
270.0
  0
ARC
  5
1E4
330
1E
100
AcDbEntity
  8
0
  6
CONTINUOUS
100
AcDbCircle
 10
122.018127
 20
161.482986
 30
0.0
 40
4.0
100
AcDbArc
 50
180.0
 51
270.0
  0
ARC
  5
1E5
330
1E
100
AcDbEntity
  8
0
  6
CONTINUOUS
100
AcDbCircle
 10
122.018127
 20
101.4829409999999
 30
0.0
 40
4.0
100
AcDbArc
 50
90.0
 51
180.0
  0
ARC
  5
1E6
330
1E
100
AcDbEntity
  8
0
  6
CONTINUOUS
100
AcDbCircle
 10
62.018124
 20
101.4829409999999
 30
0.0
 40
4.0
100
AcDbArc
 50
0.0
 51
90.0
  0
ARC
  5
1E7
330
1E
100
AcDbEntity
  8
0
  6
CONTINUOUS
100
AcDbCircle
 10
62.018124
 20
161.482986
 30
0.0
 40
4.0
100
AcDbArc
 50
270.0
 51
0.0
  0
LINE
  5
1E8
330
1E
100
AcDbEntity
  8
0
  6
CONTINUOUS
100
AcDbLine
 10
118.018127
 20
101.4829409999999
 30
0.0
 11
118.018127
 21
98.98294100000001
 31
0.0
  0
LINE
  5
1E9
330
1E
100
AcDbEntity
  8
0
  6
CONTINUOUS
100
AcDbLine
 10
118.018127
 20
161.482986
 30
0.0
 11
118.018127
 21
163.982986
 31
0.0
  0
LINE
  5
1EA
330
1E
100
AcDbEntity
  8
0
  6
CONTINUOUS
100
AcDbLine
 10
66.018127
 20
161.482986
 30
0.0
 11
66.018127
 21
163.982956
 31
0.0
  0
LINE
  5
1EB
330
1E
100
AcDbEntity
  8
0
  6
CONTINUOUS
100
AcDbLine
 10
66.018127
 20
101.4829409999999
 30
0.0
 11
66.018127
 21
98.98294100000001
 31
0.0
  0
LINE
  5
1EC
330
1E
100
AcDbEntity
  8
0
  6
CONTINUOUS
100
AcDbLine
 10
122.018127
 20
105.4829409999999
 30
0.0
 11
124.518127
 21
105.4829409999999
 31
0.0
  0
LINE
  5
1ED
330
1E
100
AcDbEntity
  8
0
  6
CONTINUOUS
100
AcDbLine
 10
122.018127
 20
157.482986
 30
0.0
 11
124.518127
 21
157.482986
 31
0.0
  0
LINE
  5
1EE
330
1E
100
AcDbEntity
  8
0
  6
CONTINUOUS
100
AcDbLine
 10
62.018124
 20
157.482986
 30
0.0
 11
59.518116
 21
157.482986
 31
0.0
  0
LINE
  5
1EF
330
1E
100
AcDbEntity
  8
0
  6
CONTINUOUS
100
AcDbLine
 10
62.018105
 20
105.4829409999999
 30
0.0
 11
59.518116
 21
105.4829409999999
 31
0.0
  0
ARC
  5
1F0
330
1E
100
AcDbEntity
  8
0
  6
CONTINUOUS
100
AcDbCircle
 10
115.518127
 20
163.982986
 30
0.0
 40
2.5
100
AcDbArc
 50
0.0
 51
90.0
  0
ARC
  5
1F1
330
1E
100
AcDbEntity
  8
0
  6
CONTINUOUS
100
AcDbCircle
 10
124.518127
 20
154.982956
 30
0.0
 40
2.5
100
AcDbArc
 50
0.0
 51
90.0
  0
ARC
  5
1F2
330
1E
100
AcDbEntity
  8
0
  6
CONTINUOUS
100
AcDbCircle
 10
124.518127
 20
107.982941
 30
0.0
 40
2.5
100
AcDbArc
 50
270.0
 51
0.0
  0
ARC
  5
1F3
330
1E
100
AcDbEntity
  8
0
  6
CONTINUOUS
100
AcDbCircle
 10
115.518127
 20
98.98294100000001
 30
0.0
 40
2.5
100
AcDbArc
 50
270.0
 51
0.0
  0
ARC
  5
1F4
330
1E
100
AcDbEntity
  8
0
  6
CONTINUOUS
100
AcDbCircle
 10
68.518127
 20
163.982986
 30
0.0
 40
2.5
100
AcDbArc
 50
90.0
 51
180.0
  0
ARC
  5
1F5
330
1E
100
AcDbEntity
  8
0
  6
CONTINUOUS
100
AcDbCircle
 10
59.518124
 20
154.982986
 30
0.0
 40
2.5
100
AcDbArc
 50
90.0
 51
180.0
  0
ARC
  5
1F6
330
1E
100
AcDbEntity
  8
0
  6
CONTINUOUS
100
AcDbCircle
 10
68.518112
 20
98.98294100000001
 30
0.0
 40
2.5
100
AcDbArc
 50
180.0
 51
270.0
  0
ARC
  5
1F7
330
1E
100
AcDbEntity
  8
0
  6
CONTINUOUS
100
AcDbCircle
 10
59.518116
 20
107.982941
 30
0.0
 40
2.5
100
AcDbArc
 50
180.0
 51
270.0
  0
LINE
  5
1F8
330
1E
100
AcDbEntity
  8
0
  6
CONTINUOUS
100
AcDbLine
 10
29.01817499999999
 20
116.982841
 30
0.0
 11
29.01817499999999
 21
145.9829409999999
 31
0.0
  0
LINE
  5
1F9
330
1E
100
AcDbEntity
  8
0
  6
CONTINUOUS
100
AcDbLine
 10
37.018173
 20
116.982841
 30
0.0
 11
37.018173
 21
145.9829409999999
 31
0.0
  0
LINE
  5
1FA
330
1E
100
AcDbEntity
  8
0
  6
CONTINUOUS
100
AcDbLine
 10
29.01817499999999
 20
116.982841
 30
0.0
 11
37.018173
 21
116.982841
 31
0.0
  0
LINE
  5
1FB
330
1E
100
AcDbEntity
  8
0
  6
CONTINUOUS
100
AcDbLine
 10
29.01817499999999
 20
145.9829409999999
 30
0.0
 11
37.018173
 21
145.9829409999999
 31
0.0
  0
LINE
  5
1FC
330
1E
100
AcDbEntity
  8
0
  6
CONTINUOUS
100
AcDbLine
 10
46.01817299999999
 20
118.4828409999999
 30
0.0
 11
46.01817299999999
 21
144.4829409999999
 31
0.0
  0
LINE
  5
1FD
330
1E
100
AcDbEntity
  8
0
  6
CONTINUOUS
100
AcDbLine
 10
37.018173
 20
118.4828409999999
 30
0.0
 11
46.01817299999999
 21
118.4828409999999
 31
0.0
  0
LINE
  5
1FE
330
1E
100
AcDbEntity
  8
0
  6
CONTINUOUS
100
AcDbLine
 10
37.018173
 20
144.4829409999999
 30
0.0
 11
46.01817299999999
 21
144.4829409999999
 31
0.0
  0
LINE
  5
1FF
330
1E
100
AcDbEntity
  8
0
  6
CONTINUOUS
100
AcDbLine
 10
46.01817299999999
 20
119.982841
 30
0.0
 11
51.018173
 21
119.982841
 31
0.0
  0
LINE
  5
200
330
1E
100
AcDbEntity
  8
0
  6
CONTINUOUS
100
AcDbLine
 10
46.01817299999999
 20
142.9829409999999
 30
0.0
 11
51.018173
 21
142.9829409999999
 31
0.0
  0
LINE
  5
201
330
1E
100
AcDbEntity
  8
0
  6
CONTINUOUS
100
AcDbLine
 10
51.018173
 20
117.982841
 30
0.0
 11
51.018173
 21
144.9829409999999
 31
0.0
  0
LINE
  5
202
330
1E
100
AcDbEntity
  8
0
  6
CONTINUOUS
100
AcDbLine
 10
55.51817299999999
 20
116.982841
 30
0.0
 11
55.51817299999999
 21
145.9829409999999
 31
0.0
  0
LINE
  5
203
330
1E
100
AcDbEntity
  8
0
  6
CONTINUOUS
100
AcDbLine
 10
51.018173
 20
117.982841
 30
0.0
 11
55.51817299999999
 21
117.982841
 31
0.0
  0
LINE
  5
204
330
1E
100
AcDbEntity
  8
0
  6
CONTINUOUS
100
AcDbLine
 10
51.018173
 20
144.9829409999999
 30
0.0
 11
55.51817299999999
 21
144.9829409999999
 31
0.0
  0
LINE
  5
205
330
1E
100
AcDbEntity
  8
0
  6
CONTINUOUS
100
AcDbLine
 10
55.51817299999999
 20
116.982841
 30
0.0
 11
57.018124
 21
116.982841
 31
0.0
  0
LINE
  5
206
330
1E
100
AcDbEntity
  8
0
  6
CONTINUOUS
100
AcDbLine
 10
55.51817299999999
 20
145.9829409999999
 30
0.0
 11
57.018124
 21
145.9829409999999
 31
0.0
  0
LINE
  5
207
330
1E
100
AcDbEntity
  8
0
  6
CONTINUOUS
100
AcDbLine
 10
29.01817499999999
 20
123.4828409999999
 30
0.0
 11
37.018173
 21
123.4828409999999
 31
0.0
  0
LINE
  5
208
330
1E
100
AcDbEntity
  8
0
  6
CONTINUOUS
100
AcDbLine
 10
29.01817499999999
 20
139.4829409999999
 30
0.0
 11
37.018173
 21
139.4829409999999
 31
0.0
  0
LINE
  5
209
330
1E
100
AcDbEntity
  8
0
  6
CONTINUOUS
100
AcDbLine
 10
127.018127
 20
163.982986
 30
0.0
 11
168.018127
 21
163.982986
 31
0.0
  0
LINE
  5
20A
330
1E
100
AcDbEntity
  8
0
  6
CONTINUOUS
100
AcDbLine
 10
127.018127
 20
161.982986
 30
0.0
 11
168.018127
 21
161.982986
 31
0.0
  0
LINE
  5
20B
330
1E
100
AcDbEntity
  8
0
  6
CONTINUOUS
100
AcDbLine
 10
131.0181269999999
 20
155.8829959999999
 30
0.0
 11
168.018127
 21
155.8829959999999
 31
0.0
  0
LINE
  5
20C
330
1E
100
AcDbEntity
  8
0
  6
CONTINUOUS
100
AcDbLine
 10
131.0181269999999
 20
153.8829959999999
 30
0.0
 11
168.018127
 21
153.8829959999999
 31
0.0
  0
LINE
  5
20D
330
1E
100
AcDbEntity
  8
0
  6
CONTINUOUS
100
AcDbLine
 10
131.0181269999999
 20
148.0829929999999
 30
0.0
 11
168.018127
 21
148.0829929999999
 31
0.0
  0
LINE
  5
20E
330
1E
100
AcDbEntity
  8
0
  6
CONTINUOUS
100
AcDbLine
 10
131.0181269999999
 20
146.0829929999999
 30
0.0
 11
168.018127
 21
146.0829929999999
 31
0.0
  0
LINE
  5
20F
330
1E
100
AcDbEntity
  8
0
  6
CONTINUOUS
100
AcDbLine
 10
131.0181269999999
 20
140.2829899999999
 30
0.0
 11
168.018127
 21
140.2829899999999
 31
0.0
  0
LINE
  5
210
330
1E
100
AcDbEntity
  8
0
  6
CONTINUOUS
100
AcDbLine
 10
131.0181269999999
 20
138.2829899999999
 30
0.0
 11
168.018127
 21
138.2829899999999
 31
0.0
  0
LINE
  5
211
330
1E
100
AcDbEntity
  8
0
  6
CONTINUOUS
100
AcDbLine
 10
131.0181269999999
 20
132.482986
 30
0.0
 11
168.018127
 21
132.482986
 31
0.0
  0
LINE
  5
212
330
1E
100
AcDbEntity
  8
0
  6
CONTINUOUS
100
AcDbLine
 10
131.0181269999999
 20
130.482986
 30
0.0
 11
168.018127
 21
130.482986
 31
0.0
  0
LINE
  5
213
330
1E
100
AcDbEntity
  8
0
  6
CONTINUOUS
100
AcDbLine
 10
131.0181269999999
 20
124.6829909999999
 30
0.0
 11
168.018127
 21
124.6829909999999
 31
0.0
  0
LINE
  5
214
330
1E
100
AcDbEntity
  8
0
  6
CONTINUOUS
100
AcDbLine
 10
131.0181269999999
 20
122.6829909999999
 30
0.0
 11
168.018127
 21
122.6829909999999
 31
0.0
  0
LINE
  5
215
330
1E
100
AcDbEntity
  8
0
  6
CONTINUOUS
100
AcDbLine
 10
131.0181269999999
 20
116.8829959999999
 30
0.0
 11
168.018127
 21
116.8829959999999
 31
0.0
  0
LINE
  5
216
330
1E
100
AcDbEntity
  8
0
  6
CONTINUOUS
100
AcDbLine
 10
131.0181269999999
 20
114.882996
 30
0.0
 11
168.018127
 21
114.882996
 31
0.0
  0
LINE
  5
217
330
1E
100
AcDbEntity
  8
0
  6
CONTINUOUS
100
AcDbLine
 10
131.0181269999999
 20
109.0829929999999
 30
0.0
 11
168.018127
 21
109.0829929999999
 31
0.0
  0
LINE
  5
218
330
1E
100
AcDbEntity
  8
0
  6
CONTINUOUS
100
AcDbLine
 10
131.0181269999999
 20
107.0829929999999
 30
0.0
 11
168.018127
 21
107.0829929999999
 31
0.0
  0
LINE
  5
219
330
1E
100
AcDbEntity
  8
0
  6
CONTINUOUS
100
AcDbLine
 10
78.518173
 20
93.482994
 30
0.0
 11
64.018127
 21
93.482994
 31
0.0
  0
LINE
  5
21A
330
1E
100
AcDbEntity
  8
0
  6
CONTINUOUS
100
AcDbLine
 10
105.5182719999999
 20
91.48299399999999
 30
0.0
 11
64.018127
 21
91.48299399999999
 31
0.0
  0
LINE
  5
21B
330
1E
100
AcDbEntity
  8
0
  6
CONTINUOUS
100
AcDbLine
 10
105.018272
 20
84.48299399999999
 30
0.0
 11
64.018127
 21
84.48299399999999
 31
0.0
  0
LINE
  5
21C
330
1E
100
AcDbEntity
  8
0
  6
CONTINUOUS
100
AcDbLine
 10
80.51817300000001
 20
86.48299399999999
 30
0.0
 11
64.018127
 21
86.48299399999999
 31
0.0
  0
LINE
  5
21D
330
1E
100
AcDbEntity
  8
0
  6
CONTINUOUS
100
AcDbLine
 10
79.01817300000001
 20
80.196991
 30
0.0
 11
67.574638
 21
80.196991
 31
0.0
  0
LINE
  5
21E
330
1E
100
AcDbEntity
  8
0
  6
CONTINUOUS
100
AcDbLine
 10
106.5182719999999
 20
73.98299399999999
 30
0.0
 11
70.01826499999999
 21
73.98299399999999
 31
0.0
  0
LINE
  5
21F
330
1E
100
AcDbEntity
  8
0
  6
CENTER
100
AcDbLine
 10
92.01812700000001
 20
169.357986
 30
0.0
 11
92.01812700000001
 21
87.73299399999999
 31
0.0
  0
LINE
  5
220
330
1E
100
AcDbEntity
  8
0
  6
CONTINUOUS
100
AcDbLine
 10
494.4599909999999
 20
98.98288
 30
0.0
 11
494.4599909999999
 21
123.48288
 31
0.0
  0
LINE
  5
221
330
1E
100
AcDbEntity
  8
0
  6
CONTINUOUS
100
AcDbLine
 10
496.959991
 20
166.4828799999999
 30
0.0
 11
499.4599909999999
 21
166.4828799999999
 31
0.0
  0
LINE
  5
222
330
1E
100
AcDbEntity
  8
0
  6
CONTINUOUS
100
AcDbLine
 10
496.959991
 20
96.48288
 30
0.0
 11
499.4599909999999
 21
96.48288
 31
0.0
  0
LINE
  5
223
330
1E
100
AcDbEntity
  8
0
  6
CONTINUOUS
100
AcDbLine
 10
499.4599909999999
 20
166.4828799999999
 30
0.0
 11
499.4599909999999
 21
155.4828799999999
 31
0.0
  0
LINE
  5
224
330
1E
100
AcDbEntity
  8
0
  6
CONTINUOUS
100
AcDbLine
 10
500.459991
 20
166.4828799999999
 30
0.0
 11
500.459991
 21
155.4828799999999
 31
0.0
  0
LINE
  5
225
330
1E
100
AcDbEntity
  8
0
  6
CONTINUOUS
100
AcDbLine
 10
499.4599909999999
 20
166.4828799999999
 30
0.0
 11
500.459991
 21
166.4828799999999
 31
0.0
  0
LINE
  5
226
330
1E
100
AcDbEntity
  8
0
  6
CONTINUOUS
100
AcDbLine
 10
499.4599909999999
 20
96.48288
 30
0.0
 11
500.459991
 21
96.48288
 31
0.0
  0
LINE
  5
227
330
1E
100
AcDbEntity
  8
0
  6
CONTINUOUS
100
AcDbLine
 10
497.459991
 20
157.969986
 30
0.0
 11
497.459991
 21
165.4828799999999
 31
0.0
  0
LINE
  5
228
330
1E
100
AcDbEntity
  8
0
  6
CONTINUOUS
100
AcDbLine
 10
497.459991
 20
104.9958189999999
 30
0.0
 11
497.459991
 21
97.48288000000002
 31
0.0
  0
LINE
  5
229
330
1E
100
AcDbEntity
  8
0
  6
CONTINUOUS
100
AcDbLine
 10
496.9731139999999
 20
157.470184
 30
0.0
 11
495.433807
 21
157.429886
 31
0.0
  0
ARC
  5
22A
330
1E
100
AcDbEntity
  8
0
  6
CONTINUOUS
100
AcDbCircle
 10
496.959991
 20
157.969986
 30
0.0
 40
0.5
100
AcDbArc
 50
271.4999999999999
 51
0.0
  0
ARC
  5
22B
330
1E
100
AcDbEntity
  8
0
  6
CONTINUOUS
100
AcDbCircle
 10
495.4599909999999
 20
156.430176
 30
0.0
 40
1.0
100
AcDbArc
 50
91.49980199999999
 51
180.0
  0
ARC
  5
22C
330
1E
100
AcDbEntity
  8
0
  6
CONTINUOUS
100
AcDbCircle
 10
498.459991
 20
165.4828799999999
 30
0.0
 40
1.0
100
AcDbArc
 50
90.0
 51
180.0
  0
ARC
  5
22D
330
1E
100
AcDbEntity
  8
0
  6
CONTINUOUS
100
AcDbCircle
 10
496.959991
 20
163.98288
 30
0.0
 40
2.5
100
AcDbArc
 50
90.0
 51
180.0
  0
LINE
  5
22E
330
1E
100
AcDbEntity
  8
0
  6
CONTINUOUS
100
AcDbLine
 10
496.9731139999999
 20
105.4956969999999
 30
0.0
 11
495.433807
 21
105.53598
 31
0.0
  0
ARC
  5
22F
330
1E
100
AcDbEntity
  8
0
  6
CONTINUOUS
100
AcDbCircle
 10
495.4599909999999
 20
106.535606
 30
0.0
 40
1.0
100
AcDbArc
 50
180.0
 51
268.4996029999999
  0
ARC
  5
230
330
1E
100
AcDbEntity
  8
0
  6
CONTINUOUS
100
AcDbCircle
 10
496.959991
 20
104.9958189999999
 30
0.0
 40
0.5
100
AcDbArc
 50
0.0
 51
88.49980200000002
  0
ARC
  5
231
330
1E
100
AcDbEntity
  8
0
  6
CONTINUOUS
100
AcDbCircle
 10
498.459991
 20
97.48288000000002
 30
0.0
 40
1.0
100
AcDbArc
 50
180.0
 51
270.0
  0
ARC
  5
232
330
1E
100
AcDbEntity
  8
0
  6
CONTINUOUS
100
AcDbCircle
 10
496.959991
 20
98.98288
 30
0.0
 40
2.5
100
AcDbArc
 50
180.0
 51
270.0
  0
ARC
  5
233
330
1E
100
AcDbEntity
  8
0
  6
CONTINUOUS
100
AcDbCircle
 10
497.459991
 20
161.4828799999999
 30
0.0
 40
3.0
100
AcDbArc
 50
90.0
 51
270.0
  0
LINE
  5
234
330
1E
100
AcDbEntity
  8
0
  6
CONTINUOUS
100
AcDbLine
 10
496.959991
 20
164.440887
 30
0.0
 11
496.959991
 21
158.524887
 31
0.0
  0
LINE
  5
235
330
1E
100
AcDbEntity
  8
0
  6
CONTINUOUS
100
AcDbLine
 10
494.9599909999999
 20
161.4828799999999
 30
0.0
 11
494.4732059999999
 21
161.201782
 31
0.0
  0
LINE
  5
236
330
1E
100
AcDbEntity
  8
0
  6
CONTINUOUS
100
AcDbLine
 10
494.9599909999999
 20
161.4828799999999
 30
0.0
 11
494.4732059999999
 21
161.763977
 31
0.0
  0
ARC
  5
237
330
1E
100
AcDbEntity
  8
0
  6
CONTINUOUS
100
AcDbCircle
 10
497.459991
 20
101.48288
 30
0.0
 40
3.0
100
AcDbArc
 50
90.0
 51
270.0
  0
LINE
  5
238
330
1E
100
AcDbEntity
  8
0
  6
CONTINUOUS
100
AcDbLine
 10
496.959991
 20
104.440887
 30
0.0
 11
496.959991
 21
98.524872
 31
0.0
  0
LINE
  5
239
330
1E
100
AcDbEntity
  8
0
  6
CONTINUOUS
100
AcDbLine
 10
494.9599909999999
 20
101.48288
 30
0.0
 11
494.4732059999999
 21
101.2018129999999
 31
0.0
  0
LINE
  5
23A
330
1E
100
AcDbEntity
  8
0
  6
CONTINUOUS
100
AcDbLine
 10
494.9599909999999
 20
101.48288
 30
0.0
 11
494.4732059999999
 21
101.7640079999999
 31
0.0
  0
LINE
  5
23B
330
1E
100
AcDbEntity
  8
0
  6
CENTER
100
AcDbLine
 10
516.4600219999999
 20
173.93988
 30
0.0
 11
516.4600219999999
 21
88.09249900000001
 31
0.0
  0
LINE
  5
23C
330
1E
100
AcDbEntity
  8
0
  6
CONTINUOUS
100
AcDbLine
 10
539.9600219999999
 20
97.529999
 30
0.0
 11
500.459991
 21
96.48288
 31
0.0
  0
LINE
  5
23D
330
1E
100
AcDbEntity
  8
0
  6
CONTINUOUS
100
AcDbLine
 10
543.460022
 20
162.434174
 30
0.0
 11
543.460022
 21
155.4828799999999
 31
0.0
  0
LINE
  5
23E
330
1E
100
AcDbEntity
  8
0
  6
CONTINUOUS
100
AcDbLine
 10
540.538147
 20
165.4199219999999
 30
0.0
 11
500.459991
 21
166.4828799999999
 31
0.0
  0
ARC
  5
23F
330
1E
100
AcDbEntity
  8
0
  6
CONTINUOUS
100
AcDbCircle
 10
545.4600219999999
 20
158.693008
 30
0.0
 40
2.0
100
AcDbArc
 50
180.0
 51
268.5000309999999
  0
ARC
  5
240
330
1E
100
AcDbEntity
  8
0
  6
CONTINUOUS
100
AcDbCircle
 10
540.4600219999999
 20
162.434174
 30
0.0
 40
3.0
100
AcDbArc
 50
0.0
 51
88.50009900000001
  0
LINE
  5
241
330
1E
100
AcDbEntity
  8
0
  6
CONTINUOUS
100
AcDbLine
 10
545.9600219999999
 20
156.67923
 30
0.0
 11
545.4076539999999
 21
156.6936949999999
 31
0.0
  0
LINE
  5
243
330
1E
100
AcDbEntity
  8
0
  6
CONTINUOUS
100
AcDbLine
 10
494.4599909999999
 20
155.4828799999999
 30
0.0
 11
494.4599909999999
 21
163.98288
 31
0.0
  0
LINE
  5
244
330
1E
100
AcDbEntity
  8
0
  6
CONTINUOUS
100
AcDbLine
 10
499.4599909999999
 20
123.48288
 30
0.0
 11
499.4599909999999
 21
96.48288
 31
0.0
  0
LINE
  5
245
330
1E
100
AcDbEntity
  8
0
  6
CONTINUOUS
100
AcDbLine
 10
500.459991
 20
123.48288
 30
0.0
 11
500.459991
 21
96.48288
 31
0.0
  0
LINE
  5
24B
330
1E
100
AcDbEntity
  8
0
  6
CONTINUOUS
100
AcDbLine
 10
64.018326
 20
463.531738
 30
0.0
 11
64.018326
 21
432.031616
 31
0.0
  0
LINE
  5
24C
330
1E
100
AcDbEntity
  8
0
  6
CONTINUOUS
100
AcDbLine
 10
64.018326
 20
348.5317379999999
 30
0.0
 11
52.01815699850886
 21
348.5317379999999
 31
0.0
  0
LINE
  5
24D
330
1E
100
AcDbEntity
  8
0
  6
CONTINUOUS
100
AcDbLine
 10
64.018326
 20
348.5317379999999
 30
0.0
 11
64.018326
 21
380.0318299999999
 31
0.0
  0
ARC
  5
257
330
1E
100
AcDbEntity
  8
0
  6
CONTINUOUS
100
AcDbCircle
 10
65.018326
 20
351.0326229999999
 30
0.0
 40
1.0
100
AcDbArc
 50
180.0
 51
270.0
  0
ARC
  5
263
330
1E
100
AcDbEntity
  8
0
  6
CONTINUOUS
100
AcDbCircle
 10
62.01822700000001
 20
74.441452
 30
0.0
 40
8.0
100
AcDbArc
 50
0.0
 51
90.0
  0
ARC
  5
264
330
1E
100
AcDbEntity
  8
0
  6
CONTINUOUS
100
AcDbCircle
 10
62.01822700000001
 20
74.441452
 30
0.0
 40
5.0
100
AcDbArc
 50
0.0
 51
90.0
  0
ARC
  5
265
330
1E
100
AcDbEntity
  8
0
  6
CONTINUOUS
100
AcDbCircle
 10
62.01822700000001
 20
74.441452
 30
0.0
 40
2.0
100
AcDbArc
 50
0.0
 51
90.0
  0
LINE
  5
266
330
1E
100
AcDbEntity
  8
0
  6
CONTINUOUS
100
AcDbLine
 10
62.01822700000001
 20
76.441429
 30
0.0
 11
52.01815700084296
 21
76.441429
 31
0.0
  0
LINE
  5
267
330
1E
100
AcDbEntity
  8
0
  6
CONTINUOUS
100
AcDbLine
 10
64.018227
 20
74.441452
 30
0.0
 11
64.018227
 21
65.727013
 31
0.0
  0
LINE
  5
268
330
1E
100
AcDbEntity
  8
0
  6
CONTINUOUS
100
AcDbLine
 10
67.018227
 20
74.441452
 30
0.0
 11
67.018227
 21
64.46899399999999
 31
0.0
  0
LINE
  5
269
330
1E
100
AcDbEntity
  8
0
  6
CONTINUOUS
100
AcDbLine
 10
70.01826499999999
 20
74.441452
 30
0.0
 11
70.01826499999999
 21
67.314316
 31
0.0
  0
LINE
  5
26A
330
1E
100
AcDbEntity
  8
0
  6
CONTINUOUS
100
AcDbLine
 10
62.01822700000001
 20
79.441452
 30
0.0
 11
52.01815700084296
 21
79.441452
 31
0.0
  0
LINE
  5
26B
330
1E
100
AcDbEntity
  8
0
  6
CONTINUOUS
100
AcDbLine
 10
64.018227
 20
65.727013
 30
0.0
 11
67.018227
 21
64.46899399999999
 31
0.0
  0
LINE
  5
26C
330
1E
100
AcDbEntity
  8
0
  6
CONTINUOUS
100
AcDbLine
 10
67.018227
 20
66.181213
 30
0.0
 11
70.01826499999999
 21
67.314316
 31
0.0
  0
LINE
  5
26D
330
1E
100
AcDbEntity
  8
0
  6
CONTINUOUS
100
AcDbLine
 10
65.51822699999999
 20
65.097893
 30
0.0
 11
65.51822699999999
 21
59.79631
 31
0.0
  0
LINE
  5
26E
330
1E
100
AcDbEntity
  8
0
  6
CONTINUOUS
100
AcDbLine
 10
68.51822699999999
 20
66.74767299999999
 30
0.0
 11
68.51822699999999
 21
61.567013
 31
0.0
  0
LINE
  5
26F
330
1E
100
AcDbEntity
  8
0
  6
CONTINUOUS
100
AcDbLine
 10
68.71820799999999
 20
66.82323499999999
 30
0.0
 11
68.71820799999999
 21
61.567013
 31
0.0
  0
LINE
  5
270
330
1E
100
AcDbEntity
  8
0
  6
CONTINUOUS
100
AcDbLine
 10
68.31822199999999
 20
66.672112
 30
0.0
 11
68.31822199999999
 21
61.567013
 31
0.0
  0
LINE
  5
271
330
1E
100
AcDbEntity
  8
0
  6
CONTINUOUS
100
AcDbLine
 10
68.918243
 20
66.89878799999999
 30
0.0
 11
68.918243
 21
61.567013
 31
0.0
  0
LINE
  5
272
330
1E
100
AcDbEntity
  8
0
  6
CONTINUOUS
100
AcDbLine
 10
68.118248
 20
66.59654999999999
 30
0.0
 11
68.118248
 21
61.567013
 31
0.0
  0
LINE
  5
273
330
1E
100
AcDbEntity
  8
0
  6
CONTINUOUS
100
AcDbLine
 10
69.11824799999999
 20
66.97435
 30
0.0
 11
69.11824799999999
 21
61.567013
 31
0.0
  0
LINE
  5
274
330
1E
100
AcDbEntity
  8
0
  6
CONTINUOUS
100
AcDbLine
 10
67.918243
 20
66.520988
 30
0.0
 11
67.918243
 21
61.567013
 31
0.0
  0
LINE
  5
275
330
1E
100
AcDbEntity
  8
0
  6
CONTINUOUS
100
AcDbLine
 10
69.31822199999999
 20
67.049889
 30
0.0
 11
69.31822199999999
 21
61.567013
 31
0.0
  0
LINE
  5
276
330
1E
100
AcDbEntity
  8
0
  6
CONTINUOUS
100
AcDbLine
 10
67.71820799999999
 20
66.44543500000001
 30
0.0
 11
67.71820799999999
 21
61.567013
 31
0.0
  0
LINE
  5
277
330
1E
100
AcDbEntity
  8
0
  6
CONTINUOUS
100
AcDbLine
 10
69.518227
 20
67.125412
 30
0.0
 11
69.518227
 21
61.567013
 31
0.0
  0
LINE
  5
278
330
1E
100
AcDbEntity
  8
0
  6
CONTINUOUS
100
AcDbLine
 10
67.51826499999999
 20
66.369873
 30
0.0
 11
67.51826499999999
 21
61.567013
 31
0.0
  0
LINE
  5
279
330
1E
100
AcDbEntity
  8
0
  6
CONTINUOUS
100
AcDbLine
 10
69.71826199999999
 20
67.20101200000001
 30
0.0
 11
69.71820799999999
 21
61.567013
 31
0.0
  0
LINE
  5
27A
330
1E
100
AcDbEntity
  8
0
  6
CONTINUOUS
100
AcDbLine
 10
67.31822199999999
 20
66.29433399999999
 30
0.0
 11
67.31822199999999
 21
61.567013
 31
0.0
  0
LINE
  5
27B
330
1E
100
AcDbEntity
  8
0
  6
CONTINUOUS
100
AcDbLine
 10
65.71824599999999
 20
65.01411400000001
 30
0.0
 11
65.71824599999999
 21
59.79631
 31
0.0
  0
LINE
  5
27C
330
1E
100
AcDbEntity
  8
0
  6
CONTINUOUS
100
AcDbLine
 10
65.31822199999999
 20
65.181915
 30
0.0
 11
65.31822199999999
 21
59.79631
 31
0.0
  0
LINE
  5
27D
330
1E
100
AcDbEntity
  8
0
  6
CONTINUOUS
100
AcDbLine
 10
65.918228
 20
64.930115
 30
0.0
 11
65.918228
 21
59.79631
 31
0.0
  0
LINE
  5
27E
330
1E
100
AcDbEntity
  8
0
  6
CONTINUOUS
100
AcDbLine
 10
65.118225
 20
65.265671
 30
0.0
 11
65.118225
 21
59.79631
 31
0.0
  0
LINE
  5
27F
330
1E
100
AcDbEntity
  8
0
  6
CONTINUOUS
100
AcDbLine
 10
66.11824799999999
 20
64.846329
 30
0.0
 11
66.11824799999999
 21
59.79631
 31
0.0
  0
LINE
  5
280
330
1E
100
AcDbEntity
  8
0
  6
CONTINUOUS
100
AcDbLine
 10
64.91824300000001
 20
65.34944899999999
 30
0.0
 11
64.91824300000001
 21
59.79631
 31
0.0
  0
LINE
  5
281
330
1E
100
AcDbEntity
  8
0
  6
CONTINUOUS
100
AcDbLine
 10
66.31822199999999
 20
64.762573
 30
0.0
 11
66.31822199999999
 21
59.79631
 31
0.0
  0
LINE
  5
282
330
1E
100
AcDbEntity
  8
0
  6
CONTINUOUS
100
AcDbLine
 10
64.71820799999999
 20
65.43343399999999
 30
0.0
 11
64.71820799999999
 21
59.79631
 31
0.0
  0
LINE
  5
283
330
1E
100
AcDbEntity
  8
0
  6
CONTINUOUS
100
AcDbLine
 10
66.518227
 20
64.67857399999999
 30
0.0
 11
66.518227
 21
59.79631
 31
0.0
  0
LINE
  5
284
330
1E
100
AcDbEntity
  8
0
  6
CONTINUOUS
100
AcDbLine
 10
64.518227
 20
65.517212
 30
0.0
 11
64.518227
 21
59.79631
 31
0.0
  0
LINE
  5
285
330
1E
100
AcDbEntity
  8
0
  6
CONTINUOUS
100
AcDbLine
 10
66.71826199999999
 20
64.59477199999999
 30
0.0
 11
66.71820799999998
 21
59.79631
 31
0.0
  0
LINE
  5
286
330
1E
100
AcDbEntity
  8
0
  6
CONTINUOUS
100
AcDbLine
 10
64.31822199999999
 20
65.601189
 30
0.0
 11
64.31822199999999
 21
59.79631
 31
0.0
  0
LINE
  5
287
330
1E
100
AcDbEntity
  8
0
  6
CONTINUOUS
100
AcDbLine
 10
62.01822700000001
 20
82.441452
 30
0.0
 11
52.01815700084296
 21
82.441452
 31
0.0
  0
LINE
  5
288
330
1E
100
AcDbEntity
  8
0
  6
CONTINUOUS
100
AcDbLine
 10
52.01815700084296
 20
73.98299399999999
 30
0.0
 11
64.018227
 21
73.98299399999999
 31
0.0
  0
LINE
  5
289
330
1E
100
AcDbEntity
  8
0
  6
CONTINUOUS
100
AcDbLine
 10
64.01808199999999
 20
182.7690119999999
 30
0.0
 11
64.01808199999999
 21
178.482986
 31
0.0
  0
LINE
  5
28A
330
1E
100
AcDbEntity
  8
0
  6
CONTINUOUS
100
AcDbLine
 10
64.01808199999999
 20
82.18743100000001
 30
0.0
 11
64.01808199999999
 21
84.48299399999999
 31
0.0
  0
LINE
  5
28B
330
1E
100
AcDbEntity
  8
0
  6
CONTINUOUS
100
AcDbLine
 10
64.01808199999999
 20
176.482986
 30
0.0
 11
64.01808199999999
 21
171.482986
 31
0.0
  0
LINE
  5
28C
330
1E
100
AcDbEntity
  8
0
  6
CONTINUOUS
100
AcDbLine
 10
64.01808199999999
 20
169.482986
 30
0.0
 11
64.01808199999999
 21
166.482986
 31
0.0
  0
LINE
  5
28D
330
1E
100
AcDbEntity
  8
0
  6
CONTINUOUS
100
AcDbLine
 10
64.01808199999999
 20
96.48294100000001
 30
0.0
 11
64.01808199999999
 21
93.482994
 31
0.0
  0
LINE
  5
28E
330
1E
100
AcDbEntity
  8
0
  6
CONTINUOUS
100
AcDbLine
 10
64.01808199999999
 20
91.48299399999999
 30
0.0
 11
64.01808199999999
 21
86.48299399999999
 31
0.0
  0
LINE
  5
293
330
1E
100
AcDbEntity
  8
0
  6
CONTINUOUS
100
AcDbLine
 10
63.768124
 20
161.88298
 30
0.0
 11
63.768124
 21
161.082962
 31
0.0
  0
LINE
  5
294
330
1E
100
AcDbEntity
  8
0
  6
CONTINUOUS
100
AcDbLine
 10
61.618099
 20
163.232986
 30
0.0
 11
62.418118
 21
163.232986
 31
0.0
  0
LINE
  5
295
330
1E
100
AcDbEntity
  8
0
  6
CONTINUOUS
100
AcDbLine
 10
61.618099
 20
159.732986
 30
0.0
 11
62.418118
 21
159.732986
 31
0.0
  0
LINE
  5
296
330
1E
100
AcDbEntity
  8
0
  6
CONTINUOUS
100
AcDbLine
 10
60.268124
 20
161.88298
 30
0.0
 11
60.268124
 21
161.082962
 31
0.0
  0
CIRCLE
  5
297
330
1E
100
AcDbEntity
  8
0
  6
CONTINUOUS
100
AcDbCircle
 10
62.018124
 20
161.482986
 30
0.0
 40
2.75
  0
ARC
  5
298
330
1E
100
AcDbEntity
  8
0
  6
CONTINUOUS
100
AcDbCircle
 10
60.268124
 20
163.232986
 30
0.0
 40
1.35
100
AcDbArc
 50
270.0
 51
0.0
  0
ARC
  5
299
330
1E
100
AcDbEntity
  8
0
  6
CONTINUOUS
100
AcDbCircle
 10
60.268124
 20
159.732986
 30
0.0
 40
1.35
100
AcDbArc
 50
0.0
 51
90.0
  0
ARC
  5
29A
330
1E
100
AcDbEntity
  8
0
  6
CONTINUOUS
100
AcDbCircle
 10
63.768124
 20
163.232986
 30
0.0
 40
1.35
100
AcDbArc
 50
180.0
 51
270.0
  0
ARC
  5
29B
330
1E
100
AcDbEntity
  8
0
  6
CONTINUOUS
100
AcDbCircle
 10
63.768124
 20
159.732986
 30
0.0
 40
1.35
100
AcDbArc
 50
90.0
 51
180.0
  0
LINE
  5
29C
330
1E
100
AcDbEntity
  8
0
  6
CONTINUOUS
100
AcDbLine
 10
123.768127
 20
161.88298
 30
0.0
 11
123.768127
 21
161.082962
 31
0.0
  0
LINE
  5
29D
330
1E
100
AcDbEntity
  8
0
  6
CONTINUOUS
100
AcDbLine
 10
121.6181029999999
 20
163.232986
 30
0.0
 11
122.418121
 21
163.232986
 31
0.0
  0
LINE
  5
29E
330
1E
100
AcDbEntity
  8
0
  6
CONTINUOUS
100
AcDbLine
 10
121.6181029999999
 20
159.732986
 30
0.0
 11
122.418121
 21
159.732986
 31
0.0
  0
LINE
  5
29F
330
1E
100
AcDbEntity
  8
0
  6
CONTINUOUS
100
AcDbLine
 10
120.268127
 20
161.88298
 30
0.0
 11
120.268127
 21
161.082962
 31
0.0
  0
CIRCLE
  5
2A0
330
1E
100
AcDbEntity
  8
0
  6
CONTINUOUS
100
AcDbCircle
 10
122.018127
 20
161.482986
 30
0.0
 40
2.75
  0
ARC
  5
2A1
330
1E
100
AcDbEntity
  8
0
  6
CONTINUOUS
100
AcDbCircle
 10
120.268127
 20
163.232986
 30
0.0
 40
1.35
100
AcDbArc
 50
270.0
 51
0.0
  0
ARC
  5
2A2
330
1E
100
AcDbEntity
  8
0
  6
CONTINUOUS
100
AcDbCircle
 10
120.268127
 20
159.732986
 30
0.0
 40
1.35
100
AcDbArc
 50
0.0
 51
90.0
  0
ARC
  5
2A3
330
1E
100
AcDbEntity
  8
0
  6
CONTINUOUS
100
AcDbCircle
 10
123.768127
 20
163.232986
 30
0.0
 40
1.35
100
AcDbArc
 50
180.0
 51
270.0
  0
ARC
  5
2A4
330
1E
100
AcDbEntity
  8
0
  6
CONTINUOUS
100
AcDbCircle
 10
123.768127
 20
159.732986
 30
0.0
 40
1.35
100
AcDbArc
 50
90.0
 51
180.0
  0
LINE
  5
2A5
330
1E
100
AcDbEntity
  8
0
  6
CONTINUOUS
100
AcDbLine
 10
63.768124
 20
101.882935
 30
0.0
 11
63.768124
 21
101.0829159999999
 31
0.0
  0
LINE
  5
2A6
330
1E
100
AcDbEntity
  8
0
  6
CONTINUOUS
100
AcDbLine
 10
61.618099
 20
103.232941
 30
0.0
 11
62.418118
 21
103.232941
 31
0.0
  0
LINE
  5
2A7
330
1E
100
AcDbEntity
  8
0
  6
CONTINUOUS
100
AcDbLine
 10
61.618099
 20
99.732941
 30
0.0
 11
62.418118
 21
99.732941
 31
0.0
  0
LINE
  5
2A8
330
1E
100
AcDbEntity
  8
0
  6
CONTINUOUS
100
AcDbLine
 10
60.268124
 20
101.882935
 30
0.0
 11
60.268124
 21
101.0829159999999
 31
0.0
  0
CIRCLE
  5
2A9
330
1E
100
AcDbEntity
  8
0
  6
CONTINUOUS
100
AcDbCircle
 10
62.018124
 20
101.4829409999999
 30
0.0
 40
2.75
  0
ARC
  5
2AA
330
1E
100
AcDbEntity
  8
0
  6
CONTINUOUS
100
AcDbCircle
 10
60.268124
 20
103.232941
 30
0.0
 40
1.35
100
AcDbArc
 50
270.0
 51
0.0
  0
ARC
  5
2AB
330
1E
100
AcDbEntity
  8
0
  6
CONTINUOUS
100
AcDbCircle
 10
60.268124
 20
99.732941
 30
0.0
 40
1.35
100
AcDbArc
 50
0.0
 51
90.0
  0
ARC
  5
2AC
330
1E
100
AcDbEntity
  8
0
  6
CONTINUOUS
100
AcDbCircle
 10
63.768124
 20
103.232941
 30
0.0
 40
1.35
100
AcDbArc
 50
180.0
 51
270.0
  0
ARC
  5
2AD
330
1E
100
AcDbEntity
  8
0
  6
CONTINUOUS
100
AcDbCircle
 10
63.768124
 20
99.732941
 30
0.0
 40
1.35
100
AcDbArc
 50
90.0
 51
180.0
  0
LINE
  5
2AE
330
1E
100
AcDbEntity
  8
0
  6
CONTINUOUS
100
AcDbLine
 10
123.768127
 20
101.882935
 30
0.0
 11
123.768127
 21
101.0829159999999
 31
0.0
  0
LINE
  5
2AF
330
1E
100
AcDbEntity
  8
0
  6
CONTINUOUS
100
AcDbLine
 10
121.6181029999999
 20
103.232941
 30
0.0
 11
122.418121
 21
103.232941
 31
0.0
  0
LINE
  5
2B0
330
1E
100
AcDbEntity
  8
0
  6
CONTINUOUS
100
AcDbLine
 10
121.6181029999999
 20
99.732941
 30
0.0
 11
122.418121
 21
99.732941
 31
0.0
  0
LINE
  5
2B1
330
1E
100
AcDbEntity
  8
0
  6
CONTINUOUS
100
AcDbLine
 10
120.268127
 20
101.882935
 30
0.0
 11
120.268127
 21
101.0829159999999
 31
0.0
  0
CIRCLE
  5
2B2
330
1E
100
AcDbEntity
  8
0
  6
CONTINUOUS
100
AcDbCircle
 10
122.018127
 20
101.4829409999999
 30
0.0
 40
2.75
  0
ARC
  5
2B3
330
1E
100
AcDbEntity
  8
0
  6
CONTINUOUS
100
AcDbCircle
 10
120.268127
 20
103.232941
 30
0.0
 40
1.35
100
AcDbArc
 50
270.0
 51
0.0
  0
ARC
  5
2B4
330
1E
100
AcDbEntity
  8
0
  6
CONTINUOUS
100
AcDbCircle
 10
120.268127
 20
99.732941
 30
0.0
 40
1.35
100
AcDbArc
 50
0.0
 51
90.0
  0
ARC
  5
2B5
330
1E
100
AcDbEntity
  8
0
  6
CONTINUOUS
100
AcDbCircle
 10
123.768127
 20
103.232941
 30
0.0
 40
1.35
100
AcDbArc
 50
180.0
 51
270.0
  0
ARC
  5
2B6
330
1E
100
AcDbEntity
  8
0
  6
CONTINUOUS
100
AcDbCircle
 10
123.768127
 20
99.732941
 30
0.0
 40
1.35
100
AcDbArc
 50
90.0
 51
180.0
  0
TEXT
  5
2B7
330
1E
100
AcDbEntity
  8
0
100
AcDbText
 10
-17.0
 20
-42.0
 30
0.0
 40
4.0
  1
H2LB-32R-300~450-T020WA
100
AcDbText
  0
LINE
  5
314
330
1E
100
AcDbEntity
  8
1
  6
CONTINUOUS
 62
     7
100
AcDbLine
 10
52.01815699850886
 20
472.5290069999998
 30
0.0
 11
52.01815699850886
 21
339.528992
 31
0.0
  0
ARC
  5
315
330
1E
100
AcDbEntity
  8
1
  6
CONTINUOUS
 62
     7
100
AcDbCircle
 10
336.5181269985086
 20
406.029999
 30
0.0
 40
340.0
100
AcDbArc
 50
170.9665069999955
 51
189.0334930000044
  0
ARC
  5
316
330
1E
100
AcDbEntity
  8
1
  6
CONTINUOUS
 62
     7
100
AcDbCircle
 10
339.4981679985087
 20
406.0289919999999
 30
0.0
 40
325.0
100
AcDbArc
 50
168.2279455165586
 51
191.7720517696801
  0
LINE
  5
318
330
1E
100
AcDbEntity
  8
1
  6
CONTINUOUS
 62
     7
100
AcDbLine
 10
52.01815700084296
 20
71.491669
 30
0.0
 11
52.01815700084296
 21
117.9828409999999
 31
0.0
  0
ARC
  5
319
330
1E
100
AcDbEntity
  8
1
  6
CONTINUOUS
 62
     7
100
AcDbCircle
 10
336.5181270008429
 20
131.4819029999998
 30
0.0
 40
340.0
100
AcDbArc
 50
170.9665069999955
 51
189.6212784361565
  0
ARC
  5
31A
330
1E
100
AcDbEntity
  8
1
  6
CONTINUOUS
 62
     7
100
AcDbCircle
 10
-303.4818389991593
 20
131.4828799999997
 30
0.0
 40
325.0000000000022
100
AcDbArc
 50
349.395881620111
 51
11.66235952465123
  0
ARC
  5
31B
330
1E
100
AcDbEntity
  8
1
  6
CONTINUOUS
 62
     7
100
AcDbCircle
 10
610.9600219999999
 20
131.48288
 30
0.0
 40
67.5
100
AcDbArc
 50
351.5908025692468
 51
23.28954853185384
  0
LINE
  5
324
330
1E
100
AcDbEntity
  8
1
  6
CONTINUOUS
100
AcDbLine
 10
51.0094304653445
 20
70.49170707693588
 30
0.0
 11
6.230225374857241
 21
70.49170707693588
 31
0.0
  0
ARC
  5
325
330
1E
100
AcDbEntity
  8
1
  6
CONTINUOUS
100
AcDbCircle
 10
6.230225374857127
 20
75.49170707693588
 30
0.0
 40
5.0
100
AcDbArc
 50
189.6212784361565
 51
270.0
  0
ARC
  5
326
330
1E
100
AcDbEntity
  8
1
  6
CONTINUOUS
100
AcDbCircle
 10
16.95077352852399
 20
71.49170707693565
 30
0.0
 40
1.0
100
AcDbArc
 50
169.395881620111
 51
270.0
  0
ARC
  5
327
330
1E
100
AcDbEntity
  8
1
  6
CONTINUOUS
 62
     7
100
AcDbCircle
 10
51.01815700084284
 20
71.491669
 30
0.0
 40
1.0
100
AcDbArc
 50
269.5000000000019
 51
0.0
  0
ARC
  5
337
330
1E
100
AcDbEntity
  8
1
  6
CONTINUOUS
 62
     7
100
AcDbCircle
 10
12.58645600084287
 20
182.9819029999998
 30
0.0
 40
12.0
100
AcDbArc
 50
90.0
 51
170.9665069999955
  0
LINE
  5
338
330
1E
100
AcDbEntity
  8
1
  6
CONTINUOUS
100
AcDbLine
 10
51.01815700084296
 20
198.98288
 30
0.0
 11
16.27783638221433
 21
198.98288
 31
0.0
  0
ARC
  5
339
330
1E
100
AcDbEntity
  8
1
  6
CONTINUOUS
100
AcDbCircle
 10
16.27783638221421
 20
197.48288
 30
0.0
 40
1.5
100
AcDbArc
 50
90.0
 51
191.6623595246512
  0
ARC
  5
33A
330
1E
100
AcDbEntity
  8
1
  6
CONTINUOUS
 62
     7
100
AcDbCircle
 10
14.03332400084286
 20
195.9819029999998
 30
0.0
 40
1.0
100
AcDbArc
 50
270.0
 51
11.48264199999979
  0
LINE
  5
33B
330
1E
100
AcDbEntity
  8
1
  6
CONTINUOUS
 62
     7
100
AcDbLine
 10
12.58645600084298
 20
194.9819029999998
 30
0.0
 11
14.03332400084298
 21
194.9819029999998
 31
0.0
  0
ARC
  5
33C
330
1E
100
AcDbEntity
  8
1
  6
CONTINUOUS
 62
     7
100
AcDbCircle
 10
51.01815700084284
 20
197.98288
 30
0.0
 40
1.0
100
AcDbArc
 50
0.0
 51
90.0
  0
ARC
  5
33E
330
1E
100
AcDbEntity
  8
1
  6
CONTINUOUS
 62
     7
100
AcDbCircle
 10
12.58645599850865
 20
354.529999
 30
0.0
 40
12.0
100
AcDbArc
 50
189.0334930000044
 51
270.0
  0
LINE
  5
33F
330
1E
100
AcDbEntity
  8
1
  6
CONTINUOUS
100
AcDbLine
 10
51.01815699850885
 20
338.528992
 30
0.0
 11
22.80233600825363
 21
338.528992
 31
0.0
  0
ARC
  5
340
330
1E
100
AcDbEntity
  8
1
  6
CONTINUOUS
100
AcDbCircle
 10
22.80233600825352
 20
340.0289920000001
 30
0.0
 40
1.5
100
AcDbArc
 50
191.7720517696928
 51
270.0
  0
LINE
  5
341
330
1E
100
AcDbEntity
  8
1
  6
CONTINUOUS
 62
     7
100
AcDbLine
 10
12.58645599850888
 20
342.5299989999999
 30
0.0
 11
19.94241299850864
 21
342.5299989999999
 31
0.0
  0
ARC
  5
342
330
1E
100
AcDbEntity
  8
1
  6
CONTINUOUS
 62
     7
100
AcDbCircle
 10
19.94241299850853
 20
341.529999
 30
0.0
 40
1.0
100
AcDbArc
 50
11.41125500000288
 51
90.0
  0
ARC
  5
343
330
1E
100
AcDbEntity
  8
1
  6
CONTINUOUS
 62
     7
100
AcDbCircle
 10
51.01815699850885
 20
339.5289920000001
 30
0.0
 40
1.0
100
AcDbArc
 50
270.0
 51
0.0
  0
ARC
  5
344
330
1E
100
AcDbEntity
  8
1
  6
CONTINUOUS
 62
     7
100
AcDbCircle
 10
12.58645599850876
 20
457.528031
 30
0.0
 40
12.0
100
AcDbArc
 50
90.0
 51
170.9665069999955
  0
LINE
  5
345
330
1E
100
AcDbEntity
  8
1
  6
CONTINUOUS
100
AcDbLine
 10
51.01815699850885
 20
473.5290069999999
 30
0.0
 11
22.80233913428173
 21
473.5290069999996
 31
0.0
  0
LINE
  5
346
330
1E
100
AcDbEntity
  8
1
  6
CONTINUOUS
 62
     7
100
AcDbLine
 10
12.58645599850888
 20
469.5280309999999
 30
0.0
 11
19.94241299850864
 21
469.5280309999999
 31
0.0
  0
ARC
  5
347
330
1E
100
AcDbEntity
  8
1
  6
CONTINUOUS
 62
     7
100
AcDbCircle
 10
19.94241299850864
 20
470.528031
 30
0.0
 40
1.0
100
AcDbArc
 50
270.0
 51
348.5887449999971
  0
ARC
  5
348
330
1E
100
AcDbEntity
  8
1
  6
CONTINUOUS
100
AcDbCircle
 10
22.80233913428162
 20
472.029007
 30
0.0
 40
1.5
100
AcDbArc
 50
90.0
 51
168.2279455165586
  0
ARC
  5
349
330
1E
100
AcDbEntity
  8
1
  6
CONTINUOUS
 62
     7
100
AcDbCircle
 10
51.01815699850874
 20
472.529007
 30
0.0
 40
1.0
100
AcDbArc
 50
0.0
 51
90.0
  0
ARC
  5
369
330
1E
100
AcDbEntity
  8
1
  6
CONTINUOUS
 62
     7
100
AcDbCircle
 10
610.9600219999999
 20
131.48288
 30
0.0
 40
67.5
100
AcDbArc
 50
156.7104514681461
 51
157.8038991431794
  0
LINE
  5
36B
330
1E
100
AcDbEntity
  8
0
  6
CONTINUOUS
100
AcDbLine
 10
56.018326
 20
463.531738
 30
0.0
 11
56.018326
 21
348.5317379999999
 31
0.0
  0
LINE
  5
36C
330
1E
100
AcDbEntity
  8
0
  6
CONTINUOUS
100
AcDbLine
 10
56.01812699999999
 20
188.98288
 30
0.0
 11
56.01812699999999
 21
145.9829409999999
 31
0.0
  0
LINE
  5
36D
330
1E
100
AcDbEntity
  8
0
  6
CONTINUOUS
100
AcDbLine
 10
56.01812699999999
 20
116.9828409999999
 30
0.0
 11
56.01812699999999
 21
82.441452
 31
0.0
  0
LINE
  5
36E
330
1E
100
AcDbEntity
  8
1
  6
CONTINUOUS
 62
     7
100
AcDbLine
 10
52.01815700084296
 20
144.9829409999999
 30
0.0
 11
52.01815700084296
 21
197.98288
 31
0.0
  0
LINE
  5
36F
330
1E
100
AcDbEntity
  8
0
  6
CONTINUOUS
100
AcDbLine
 10
56.01812699999999
 20
76.44142899999998
 30
0.0
 11
56.01812699999999
 21
73.98288
 31
0.0
  0
ARC
  5
3C0
330
1E
100
AcDbEntity
  8
0
  6
CONTINUOUS
100
AcDbCircle
 10
610.9599910000001
 20
131.48288
 30
0.0
 40
68.800003
100
AcDbArc
 50
186.6774050346793
 51
190.4486117163764
  0
ENDSEC
  0
SECTION
  2
OBJECTS
  0
DICTIONARY
  5
C
330
0
100
AcDbDictionary
  3
ACAD_GROUP
350
D
  3
ACAD_LAYOUT
350
19
  3
ACAD_MLINESTYLE
350
16
  3
ACAD_PLOTSETTINGS
350
18
  3
ACAD_PLOTSTYLENAME
350
E
  3
ACDBHEADERROUNDTRIPXREC
350
3EB
  3
ACDBVARIABLEDICTIONARY
350
3E8
  0
DICTIONARY
  5
40D
330
1E
100
AcDbDictionary
280
     1
  3
ACAD_LAYOUTSELFREF
360
40E
  0
DICTIONARY
  5
40B
330
1A
100
AcDbDictionary
280
     1
  3
ACAD_LAYOUTSELFREF
360
40C
  0
DICTIONARY
  5
D
102
{ACAD_REACTORS
330
C
102
}
330
C
100
AcDbDictionary
  0
DICTIONARY
  5
19
102
{ACAD_REACTORS
330
C
102
}
330
C
100
AcDbDictionary
  0
DICTIONARY
  5
16
102
{ACAD_REACTORS
330
C
102
}
330
C
100
AcDbDictionary
  3
STANDARD
350
17
  0
DICTIONARY
  5
18
102
{ACAD_REACTORS
330
C
102
}
330
C
100
AcDbDictionary
  0
ACDBDICTIONARYWDFLT
  5
E
102
{ACAD_REACTORS
330
C
102
}
330
C
100
AcDbDictionary
281
     1
  3
Normal
350
F
100
AcDbDictionaryWithDefault
340
F
  0
DICTIONARY
  5
3EB
102
{ACAD_REACTORS
330
C
102
}
330
C
100
AcDbDictionary
  3
CEPSNTYPE
350
3F5
  3
FINGERPRINTGUID
350
3F6
  3
HYPERLINKBASE
350
3EE
  3
INSUNITS
350
3F4
  3
LAYOUTDICT
350
3F0
  3
LWETCUNION
350
3F3
  3
PLOTSETDICT
350
3F1
  3
PLOTSTYLNAMDICT
350
3F2
  3
PSVPSCALE
350
3F8
  3
PUCSBASE
350
3FB
  3
PUCSORGBACK
350
401
  3
PUCSORGBOTTOM
350
3FD
  3
PUCSORGFRONT
350
400
  3
PUCSORGLEFT
350
3FE
  3
PUCSORGRIGHT
350
3FF
  3
PUCSORGTOP
350
3FC
  3
PUCSORTHOREF
350
3F9
  3
PUCSORTHOVIEW
350
3FA
  3
STYLESHEET
350
3EF
  3
TSTACKALIGN
350
3EC
  3
TSTACKSIZE
350
3ED
  3
UCSBASE
350
404
  3
UCSORGBACK
350
40A
  3
UCSORGBOTTOM
350
406
  3
UCSORGFRONT
350
409
  3
UCSORGLEFT
350
407
  3
UCSORGRIGHT
350
408
  3
UCSORGTOP
350
405
  3
UCSORTHOREF
350
402
  3
UCSORTHOVIEW
350
403
  3
VERSIONGUID
350
3F7
  0
DICTIONARY
  5
3E8
102
{ACAD_REACTORS
330
C
102
}
330
C
100
AcDbDictionary
  3
DIMASSOC
350
3E9
  0
XRECORD
  5
40E
102
{ACAD_REACTORS
330
40D
102
}
330
40D
100
AcDbXrecord
340
1E
  0
XRECORD
  5
40C
102
{ACAD_REACTORS
330
40B
102
}
330
40B
100
AcDbXrecord
340
1A
  0
MLINESTYLE
  5
17
102
{ACAD_REACTORS
330
16
102
}
330
16
100
AcDbMlineStyle
  2
STANDARD
 70
     0
  3

 62
   256
 51
90.0
 52
90.0
 71
     2
 49
0.5
 62
   256
  6
BYLAYER
 49
-0.5
 62
   256
  6
BYLAYER
  0
ACDBPLACEHOLDER
  5
F
102
{ACAD_REACTORS
330
E
102
}
330
E
100
AcDbPlaceHolder
280
     0
  0
XRECORD
  5
3F5
102
{ACAD_REACTORS
330
3EB
102
}
330
3EB
100
AcDbXrecord
 90
        0
  0
XRECORD
  5
3F6
102
{ACAD_REACTORS
330
3EB
102
}
330
3EB
100
AcDbXrecord
  1
{4315869C-2905-4551-A4B5-8EB458F3417C}
  0
XRECORD
  5
3EE
102
{ACAD_REACTORS
330
3EB
102
}
330
3EB
100
AcDbXrecord
  1

  0
XRECORD
  5
3F4
102
{ACAD_REACTORS
330
3EB
102
}
330
3EB
100
AcDbXrecord
 90
        0
  0
XRECORD
  5
3F0
102
{ACAD_REACTORS
330
3EB
102
}
330
3EB
100
AcDbXrecord
340
19
  0
XRECORD
  5
3F3
102
{ACAD_REACTORS
330
3EB
102
}
330
3EB
100
AcDbXrecord
 90
    10781
  0
XRECORD
  5
3F1
102
{ACAD_REACTORS
330
3EB
102
}
330
3EB
100
AcDbXrecord
340
18
  0
XRECORD
  5
3F2
102
{ACAD_REACTORS
330
3EB
102
}
330
3EB
100
AcDbXrecord
340
E
  0
XRECORD
  5
3F8
102
{ACAD_REACTORS
330
3EB
102
}
330
3EB
100
AcDbXrecord
 40
0.0
  0
XRECORD
  5
3FB
102
{ACAD_REACTORS
330
3EB
102
}
330
3EB
100
AcDbXrecord
340
0
  0
XRECORD
  5
401
102
{ACAD_REACTORS
330
3EB
102
}
330
3EB
100
AcDbXrecord
 10
0.0
 20
0.0
 30
0.0
  0
XRECORD
  5
3FD
102
{ACAD_REACTORS
330
3EB
102
}
330
3EB
100
AcDbXrecord
 10
0.0
 20
0.0
 30
0.0
  0
XRECORD
  5
400
102
{ACAD_REACTORS
330
3EB
102
}
330
3EB
100
AcDbXrecord
 10
0.0
 20
0.0
 30
0.0
  0
XRECORD
  5
3FE
102
{ACAD_REACTORS
330
3EB
102
}
330
3EB
100
AcDbXrecord
 10
0.0
 20
0.0
 30
0.0
  0
XRECORD
  5
3FF
102
{ACAD_REACTORS
330
3EB
102
}
330
3EB
100
AcDbXrecord
 10
0.0
 20
0.0
 30
0.0
  0
XRECORD
  5
3FC
102
{ACAD_REACTORS
330
3EB
102
}
330
3EB
100
AcDbXrecord
 10
0.0
 20
0.0
 30
0.0
  0
XRECORD
  5
3F9
102
{ACAD_REACTORS
330
3EB
102
}
330
3EB
100
AcDbXrecord
340
0
  0
XRECORD
  5
3FA
102
{ACAD_REACTORS
330
3EB
102
}
330
3EB
100
AcDbXrecord
 70
     0
  0
XRECORD
  5
3EF
102
{ACAD_REACTORS
330
3EB
102
}
330
3EB
100
AcDbXrecord
  1

  0
XRECORD
  5
3EC
102
{ACAD_REACTORS
330
3EB
102
}
330
3EB
100
AcDbXrecord
 90
        1
  0
XRECORD
  5
3ED
102
{ACAD_REACTORS
330
3EB
102
}
330
3EB
100
AcDbXrecord
 90
       70
  0
XRECORD
  5
404
102
{ACAD_REACTORS
330
3EB
102
}
330
3EB
100
AcDbXrecord
340
0
  0
XRECORD
  5
40A
102
{ACAD_REACTORS
330
3EB
102
}
330
3EB
100
AcDbXrecord
 10
0.0
 20
0.0
 30
0.0
  0
XRECORD
  5
406
102
{ACAD_REACTORS
330
3EB
102
}
330
3EB
100
AcDbXrecord
 10
0.0
 20
0.0
 30
0.0
  0
XRECORD
  5
409
102
{ACAD_REACTORS
330
3EB
102
}
330
3EB
100
AcDbXrecord
 10
0.0
 20
0.0
 30
0.0
  0
XRECORD
  5
407
102
{ACAD_REACTORS
330
3EB
102
}
330
3EB
100
AcDbXrecord
 10
0.0
 20
0.0
 30
0.0
  0
XRECORD
  5
408
102
{ACAD_REACTORS
330
3EB
102
}
330
3EB
100
AcDbXrecord
 10
0.0
 20
0.0
 30
0.0
  0
XRECORD
  5
405
102
{ACAD_REACTORS
330
3EB
102
}
330
3EB
100
AcDbXrecord
 10
0.0
 20
0.0
 30
0.0
  0
XRECORD
  5
402
102
{ACAD_REACTORS
330
3EB
102
}
330
3EB
100
AcDbXrecord
340
0
  0
XRECORD
  5
403
102
{ACAD_REACTORS
330
3EB
102
}
330
3EB
100
AcDbXrecord
 70
     0
  0
XRECORD
  5
3F7
102
{ACAD_REACTORS
330
3EB
102
}
330
3EB
100
AcDbXrecord
  1
{7E955AC5-75C6-43FB-9DF9-FA4162F14B1D}
  0
DICTIONARYVAR
  5
3E9
102
{ACAD_REACTORS
330
3E8
102
}
330
3E8
100
DictionaryVariables
280
     0
  1
1
  0
ENDSEC
  0
EOF
