  0
SECTION
  2
HEADER
  9
$ACADVER
  1
AC1014
  9
$ACADMAINTVER
 70
     9
  9
$DWGCODEPAGE
  3
ANSI_932
  9
$INSBASE
 10
0.0
 20
0.0
 30
0.0
  9
$EXTMIN
 10
-15.28125
 20
-43.0
 30
0.0
  9
$EXTMAX
 10
694.921265
 20
494.6417849999999
 30
0.0
  9
$LIMMIN
 10
0.0
 20
0.0
  9
$LIMMAX
 10
12.0
 20
9.0
  9
$ORTHOMODE
 70
     1
  9
$REGENMODE
 70
     1
  9
$FILLMODE
 70
     1
  9
$QTEXTMODE
 70
     0
  9
$MIRRTEXT
 70
     1
  9
$DRAGMODE
 70
     2
  9
$LTSCALE
 40
3.0
  9
$OSMODE
 70
    45
  9
$ATTMODE
 70
     1
  9
$TEXTSIZE
 40
3.0
  9
$TRACEWID
 40
0.05
  9
$TEXTSTYLE
  7
STANDARD
  9
$CLAYER
  8
1
  9
$CELTYPE
  6
CONTINUOUS
  9
$CECOLOR
 62
   256
  9
$CELTSCALE
 40
1.0
  9
$DELOBJ
 70
     1
  9
$DISPSILH
 70
     0
  9
$DIMSCALE
 40
1.0
  9
$DIMASZ
 40
0.18
  9
$DIMEXO
 40
0.0625
  9
$DIMDLI
 40
0.38
  9
$DIMRND
 40
0.0
  9
$DIMDLE
 40
0.0
  9
$DIMEXE
 40
0.18
  9
$DIMTP
 40
0.0
  9
$DIMTM
 40
0.0
  9
$DIMTXT
 40
0.18
  9
$DIMCEN
 40
0.09
  9
$DIMTSZ
 40
0.0
  9
$DIMTOL
 70
     0
  9
$DIMLIM
 70
     0
  9
$DIMTIH
 70
     1
  9
$DIMTOH
 70
     1
  9
$DIMSE1
 70
     0
  9
$DIMSE2
 70
     0
  9
$DIMTAD
 70
     0
  9
$DIMZIN
 70
     0
  9
$DIMBLK
  1

  9
$DIMASO
 70
     1
  9
$DIMSHO
 70
     1
  9
$DIMPOST
  1

  9
$DIMAPOST
  1

  9
$DIMALT
 70
     0
  9
$DIMALTD
 70
     2
  9
$DIMALTF
 40
25.4
  9
$DIMLFAC
 40
1.0
  9
$DIMTOFL
 70
     0
  9
$DIMTVP
 40
0.0
  9
$DIMTIX
 70
     0
  9
$DIMSOXD
 70
     0
  9
$DIMSAH
 70
     0
  9
$DIMBLK1
  1

  9
$DIMBLK2
  1

  9
$DIMSTYLE
  2
STANDARD
  9
$DIMCLRD
 70
     0
  9
$DIMCLRE
 70
     0
  9
$DIMCLRT
 70
     0
  9
$DIMTFAC
 40
1.0
  9
$DIMGAP
 40
0.09
  9
$DIMJUST
 70
     0
  9
$DIMSD1
 70
     0
  9
$DIMSD2
 70
     0
  9
$DIMTOLJ
 70
     1
  9
$DIMTZIN
 70
     0
  9
$DIMALTZ
 70
     0
  9
$DIMALTTZ
 70
     0
  9
$DIMFIT
 70
     3
  9
$DIMUPT
 70
     0
  9
$DIMUNIT
 70
     2
  9
$DIMDEC
 70
     4
  9
$DIMTDEC
 70
     4
  9
$DIMALTU
 70
     2
  9
$DIMALTTD
 70
     2
  9
$DIMTXSTY
  7
STANDARD
  9
$DIMAUNIT
 70
     0
  9
$LUNITS
 70
     2
  9
$LUPREC
 70
     4
  9
$SKETCHINC
 40
0.1
  9
$FILLETRAD
 40
0.0
  9
$AUNITS
 70
     0
  9
$AUPREC
 70
     0
  9
$MENU
  1
.
  9
$ELEVATION
 40
0.0
  9
$PELEVATION
 40
0.0
  9
$THICKNESS
 40
0.0
  9
$LIMCHECK
 70
     0
  9
$BLIPMODE
 70
     0
  9
$CHAMFERA
 40
0.0
  9
$CHAMFERB
 40
0.0
  9
$CHAMFERC
 40
0.0
  9
$CHAMFERD
 40
0.0
  9
$SKPOLY
 70
     0
  9
$TDCREATE
 40
2453347.748789965
  9
$TDUPDATE
 40
2453354.763077673
  9
$TDINDWG
 40
0.0047466088
  9
$TDUSRTIMER
 40
0.0047466088
  9
$USRTIMER
 70
     1
  9
$ANGBASE
 50
0.0
  9
$ANGDIR
 70
     0
  9
$PDMODE
 70
     0
  9
$PDSIZE
 40
0.0
  9
$PLINEWID
 40
0.0
  9
$COORDS
 70
     1
  9
$SPLFRAME
 70
     0
  9
$SPLINETYPE
 70
     6
  9
$SPLINESEGS
 70
     8
  9
$ATTDIA
 70
     0
  9
$ATTREQ
 70
     1
  9
$HANDLING
 70
 22529
  9
$HANDSEED
  5
3C0
  9
$SURFTAB1
 70
     6
  9
$SURFTAB2
 70
     6
  9
$SURFTYPE
 70
     6
  9
$SURFU
 70
     6
  9
$SURFV
 70
     6
  9
$UCSNAME
  2

  9
$UCSORG
 10
0.0
 20
0.0
 30
0.0
  9
$UCSXDIR
 10
1.0
 20
0.0
 30
0.0
  9
$UCSYDIR
 10
0.0
 20
1.0
 30
0.0
  9
$PUCSNAME
  2

  9
$PUCSORG
 10
0.0
 20
0.0
 30
0.0
  9
$PUCSXDIR
 10
1.0
 20
0.0
 30
0.0
  9
$PUCSYDIR
 10
0.0
 20
1.0
 30
0.0
  9
$USERI1
 70
     0
  9
$USERI2
 70
     0
  9
$USERI3
 70
     0
  9
$USERI4
 70
     0
  9
$USERI5
 70
     0
  9
$USERR1
 40
0.0
  9
$USERR2
 40
0.0
  9
$USERR3
 40
0.0
  9
$USERR4
 40
0.0
  9
$USERR5
 40
0.0
  9
$WORLDVIEW
 70
     1
  9
$SHADEDGE
 70
     3
  9
$SHADEDIF
 70
    70
  9
$TILEMODE
 70
     1
  9
$MAXACTVP
 70
    64
  9
$PINSBASE
 10
0.0
 20
0.0
 30
0.0
  9
$PLIMCHECK
 70
     0
  9
$PEXTMIN
 10
1.000000000000000E+20
 20
1.000000000000000E+20
 30
1.000000000000000E+20
  9
$PEXTMAX
 10
-1.000000000000000E+20
 20
-1.000000000000000E+20
 30
-1.000000000000000E+20
  9
$PLIMMIN
 10
0.0
 20
0.0
  9
$PLIMMAX
 10
12.0
 20
9.0
  9
$UNITMODE
 70
     0
  9
$VISRETAIN
 70
     1
  9
$PLINEGEN
 70
     0
  9
$PSLTSCALE
 70
     1
  9
$TREEDEPTH
 70
  3020
  9
$PICKSTYLE
 70
     1
  9
$CMLSTYLE
  2
STANDARD
  9
$CMLJUST
 70
     0
  9
$CMLSCALE
 40
1.0
  9
$PROXYGRAPHICS
 70
     1
  9
$MEASUREMENT
 70
     0
  0
ENDSEC
  0
SECTION
  2
CLASSES
  0
CLASS
  1
ACDBDICTIONARYWDFLT
  2
AcDbDictionaryWithDefault
  3
AutoCAD 2000
 90
        0
280
     0
281
     0
  0
CLASS
  1
ACDBPLACEHOLDER
  2
AcDbPlaceHolder
  3
AutoCAD 2000
 90
        0
280
     0
281
     0
  0
CLASS
  1
LAYOUT
  2
AcDbLayout
  3
AutoCAD 2000
 90
        0
280
     0
281
     0
  0
CLASS
  1
DICTIONARYVAR
  2
AcDbDictionaryVar
  3
AutoCAD 2000
 90
        0
280
     0
281
     0
  0
CLASS
  1
LONG_TRANSACTION
  2
AcDbLongTransaction
  3
AutoCAD 2000
 90
        0
280
     0
281
     0
  0
CLASS
  1
LWPOLYLINE
  2
AcDbPolyline
  3
AutoCAD 2000
 90
        0
280
     0
281
     1
  0
CLASS
  1
HATCH
  2
AcDbHatch
  3
AutoCAD 2000
 90
        0
280
     0
281
     1
  0
CLASS
  1
XRECORD
  2
AcDbXrecord
  3
AutoCAD 2000
 90
        0
280
     0
281
     0
  0
ENDSEC
  0
SECTION
  2
TABLES
  0
TABLE
  2
VPORT
  5
8
330
0
100
AcDbSymbolTable
 70
     2
  0
VPORT
  5
39B
330
8
100
AcDbSymbolTableRecord
100
AcDbViewportTableRecord
  2
*ACTIVE
 70
     0
 10
0.0
 20
0.0
 11
1.0
 21
1.0
 12
507.5544024741908
 22
221.8749391943485
 13
0.0
 23
0.0
 14
1.0
 24
1.0
 15
0.0
 25
0.0
 16
0.0
 26
0.0
 36
1.0
 17
0.0
 27
0.0
 37
0.0
 40
758.7357668930244
 41
1.976793248945147
 42
50.0
 43
0.0
 44
0.0
 50
0.0
 51
0.0
 71
     0
 72
   100
 73
     1
 74
     1
 75
     0
 76
     0
 77
     0
 78
     0
  0
ENDTAB
  0
TABLE
  2
LTYPE
  5
5
330
0
100
AcDbSymbolTable
 70
     3
  0
LTYPE
  5
13
330
5
100
AcDbSymbolTableRecord
100
AcDbLinetypeTableRecord
  2
BYBLOCK
 70
     0
  3

 72
    65
 73
     0
 40
0.0
  0
LTYPE
  5
14
330
5
100
AcDbSymbolTableRecord
100
AcDbLinetypeTableRecord
  2
BYLAYER
 70
     0
  3

 72
    65
 73
     0
 40
0.0
  0
LTYPE
  5
15
330
5
100
AcDbSymbolTableRecord
100
AcDbLinetypeTableRecord
  2
CONTINUOUS
 70
     0
  3
solid line
 72
    65
 73
     0
 40
0.0
  0
LTYPE
  5
23
330
5
100
AcDbSymbolTableRecord
100
AcDbLinetypeTableRecord
  2
DASHED
 70
     0
  3
__ __ __ __ __ __ __ __ __ __ __ __ __ __ __
 72
    65
 73
     2
 40
0.75
 49
0.5
 74
     0
 49
-0.25
 74
     0
  0
LTYPE
  5
24
330
5
100
AcDbSymbolTableRecord
100
AcDbLinetypeTableRecord
  2
CENTER
 70
     0
  3
____ _ ____ _ ____ _ ____ _ ____ _ ____ _ ____
 72
    65
 73
     4
 40
2.0
 49
1.25
 74
     0
 49
-0.25
 74
     0
 49
0.25
 74
     0
 49
-0.25
 74
     0
  0
ENDTAB
  0
TABLE
  2
LAYER
  5
2
330
0
100
AcDbSymbolTable
 70
     2
  0
LAYER
  5
10
330
2
100
AcDbSymbolTableRecord
100
AcDbLayerTableRecord
  2
0
 70
     0
 62
     7
  6
CONTINUOUS
  0
LAYER
  5
22
330
2
100
AcDbSymbolTableRecord
100
AcDbLayerTableRecord
  2
1
 70
     0
 62
     7
  6
CONTINUOUS
  0
ENDTAB
  0
TABLE
  2
STYLE
  5
3
330
0
100
AcDbSymbolTable
 70
     1
  0
STYLE
  5
11
330
3
100
AcDbSymbolTableRecord
100
AcDbTextStyleTableRecord
  2
STANDARD
 70
     0
 40
0.0
 41
1.0
 50
0.0
 71
     0
 42
3.0
  3
txt
  4
BIGFONT
  0
ENDTAB
  0
TABLE
  2
VIEW
  5
6
330
0
100
AcDbSymbolTable
 70
     0
  0
ENDTAB
  0
TABLE
  2
UCS
  5
7
330
0
100
AcDbSymbolTable
 70
     0
  0
ENDTAB
  0
TABLE
  2
APPID
  5
9
330
0
100
AcDbSymbolTable
 70
     1
  0
APPID
  5
12
330
9
100
AcDbSymbolTableRecord
100
AcDbRegAppTableRecord
  2
ACAD
 70
     0
  0
ENDTAB
  0
TABLE
  2
DIMSTYLE
  5
A
330
0
100
AcDbSymbolTable
 70
     1
  0
DIMSTYLE
105
29B
330
A
100
AcDbSymbolTableRecord
100
AcDbDimStyleTableRecord
  2
STANDARD
 70
     0
  3

  4

  5

  6

  7

 40
1.0
 41
0.18
 42
0.0625
 43
0.38
 44
0.18
 45
0.0
 46
0.0
 47
0.0
 48
0.0
140
0.18
141
0.09
142
0.0
143
25.4
144
1.0
145
0.0
146
1.0
147
0.09
 71
     0
 72
     0
 73
     1
 74
     1
 75
     0
 76
     0
 77
     0
 78
     0
170
     0
171
     2
172
     0
173
     0
174
     0
175
     0
176
     0
177
     0
178
     0
270
     2
271
     4
272
     4
273
     2
274
     2
340
11
275
     0
280
     0
281
     0
282
     0
283
     1
284
     0
285
     0
286
     0
287
     3
288
     0
  0
ENDTAB
  0
TABLE
  2
BLOCK_RECORD
  5
1
330
0
100
AcDbSymbolTable
 70
     0
  0
BLOCK_RECORD
  5
1E
102
{ACAD_XDICTIONARY
360
3BE
102
}
330
1
100
AcDbSymbolTableRecord
100
AcDbBlockTableRecord
  2
*MODEL_SPACE
  0
BLOCK_RECORD
  5
1A
102
{ACAD_XDICTIONARY
360
3BC
102
}
330
1
100
AcDbSymbolTableRecord
100
AcDbBlockTableRecord
  2
*PAPER_SPACE
  0
ENDTAB
  0
ENDSEC
  0
SECTION
  2
BLOCKS
  0
BLOCK
  5
1F
330
1E
100
AcDbEntity
  8
0
100
AcDbBlockBegin
  2
*MODEL_SPACE
 70
     0
 10
0.0
 20
0.0
 30
0.0
  3
*MODEL_SPACE
  1

  0
ENDBLK
  5
20
330
1E
100
AcDbEntity
  8
0
100
AcDbBlockEnd
  0
BLOCK
  5
1B
330
1A
100
AcDbEntity
 67
     1
  8
0
100
AcDbBlockBegin
  2
*PAPER_SPACE
 70
     0
 10
0.0
 20
0.0
 30
0.0
  3
*PAPER_SPACE
  1

  0
ENDBLK
  5
1C
330
1A
100
AcDbEntity
 67
     1
  8
0
100
AcDbBlockEnd
  0
ENDSEC
  0
SECTION
  2
ENTITIES
  0
LINE
  5
29
330
1E
100
AcDbEntity
  8
0
  6
CENTER
100
AcDbLine
 10
335.418121
 20
494.6417849999999
 30
0.0
 11
335.418121
 21
271.237488
 31
0.0
  0
LINE
  5
2A
330
1E
100
AcDbEntity
  8
0
  6
CONTINUOUS
100
AcDbLine
 10
411.418335
 20
405.494232
 30
0.0
 11
410.632843
 21
450.494232
 31
0.0
  0
LINE
  5
2B
330
1E
100
AcDbEntity
  8
0
  6
CONTINUOUS
100
AcDbLine
 10
276.9680789999999
 20
480.494232
 30
0.0
 11
335.418121
 21
480.494232
 31
0.0
  0
LINE
  5
2C
330
1E
100
AcDbEntity
  8
0
  6
CONTINUOUS
100
AcDbLine
 10
401.361725
 20
475.295441
 30
0.0
 11
410.632843
 21
450.494232
 31
0.0
  0
ARC
  5
2D
330
1E
100
AcDbEntity
  8
0
  6
CONTINUOUS
100
AcDbCircle
 10
393.868164
 20
472.494232
 30
0.0
 40
8.0
100
AcDbArc
 50
20.49661799999999
 51
90.0
  0
LINE
  5
2E
330
1E
100
AcDbEntity
  8
0
  6
CONTINUOUS
100
AcDbLine
 10
411.418335
 20
405.494232
 30
0.0
 11
410.632843
 21
360.494232
 31
0.0
  0
LINE
  5
2F
330
1E
100
AcDbEntity
  8
0
  6
CONTINUOUS
100
AcDbLine
 10
276.9680789999999
 20
330.494232
 30
0.0
 11
319.4181209999999
 21
330.494232
 31
0.0
  0
LINE
  5
30
330
1E
100
AcDbEntity
  8
0
  6
CONTINUOUS
100
AcDbLine
 10
401.361725
 20
335.693024
 30
0.0
 11
410.632843
 21
360.494232
 31
0.0
  0
ARC
  5
31
330
1E
100
AcDbEntity
  8
0
  6
CONTINUOUS
100
AcDbCircle
 10
393.868164
 20
338.494232
 30
0.0
 40
8.0
100
AcDbArc
 50
270.0
 51
339.503382
  0
LINE
  5
32
330
1E
100
AcDbEntity
  8
0
  6
CONTINUOUS
100
AcDbLine
 10
269.4745179999999
 20
475.295441
 30
0.0
 11
260.439758
 21
451.126526
 31
0.0
  0
ARC
  5
33
330
1E
100
AcDbEntity
  8
0
  6
CONTINUOUS
100
AcDbCircle
 10
276.9680789999999
 20
472.494232
 30
0.0
 40
8.0
100
AcDbArc
 50
90.0
 51
159.5033869999999
  0
LINE
  5
34
330
1E
100
AcDbEntity
  8
0
  6
CONTINUOUS
100
AcDbLine
 10
269.4745179999999
 20
335.693024
 30
0.0
 11
260.439758
 21
359.861938
 31
0.0
  0
ARC
  5
35
330
1E
100
AcDbEntity
  8
0
  6
CONTINUOUS
100
AcDbCircle
 10
276.9680789999999
 20
338.494232
 30
0.0
 40
8.0
100
AcDbArc
 50
200.496613
 51
270.0
  0
LINE
  5
36
330
1E
100
AcDbEntity
  8
0
  6
CONTINUOUS
100
AcDbLine
 10
263.151489
 20
450.494232
 30
0.0
 11
407.684753
 21
450.494232
 31
0.0
  0
LINE
  5
37
330
1E
100
AcDbEntity
  8
0
  6
CONTINUOUS
100
AcDbLine
 10
407.684753
 20
360.494232
 30
0.0
 11
263.151489
 21
360.494232
 31
0.0
  0
LINE
  5
38
330
1E
100
AcDbEntity
  8
0
  6
CONTINUOUS
100
AcDbLine
 10
335.418121
 20
467.494232
 30
0.0
 11
370.676941
 21
467.494232
 31
0.0
  0
ARC
  5
39
330
1E
100
AcDbEntity
  8
0
  6
CONTINUOUS
100
AcDbCircle
 10
407.684753
 20
447.494232
 30
0.0
 40
3.0
100
AcDbArc
 50
1.0
 51
90.0
  0
ARC
  5
3A
330
1E
100
AcDbEntity
  8
0
  6
CONTINUOUS
100
AcDbCircle
 10
407.684753
 20
363.494232
 30
0.0
 40
3.0
100
AcDbArc
 50
270.0
 51
359.0
  0
LINE
  5
3B
330
1E
100
AcDbEntity
  8
0
  6
CONTINUOUS
100
AcDbLine
 10
364.4181209999999
 20
447.494232
 30
0.0
 11
364.4181209999999
 21
363.494232
 31
0.0
  0
LINE
  5
3C
330
1E
100
AcDbEntity
  8
0
  6
CONTINUOUS
100
AcDbLine
 10
306.418121
 20
447.494232
 30
0.0
 11
306.418121
 21
363.494232
 31
0.0
  0
LINE
  5
3D
330
1E
100
AcDbEntity
  8
0
  6
CONTINUOUS
100
AcDbLine
 10
236.91832
 20
476.494232
 30
0.0
 11
236.91832
 21
334.494232
 31
0.0
  0
LINE
  5
3E
330
1E
100
AcDbEntity
  8
0
  6
CONTINUOUS
100
AcDbLine
 10
244.3130339999999
 20
476.494232
 30
0.0
 11
236.91832
 21
476.494232
 31
0.0
  0
LINE
  5
3F
330
1E
100
AcDbEntity
  8
0
  6
CONTINUOUS
100
AcDbLine
 10
335.418121
 20
467.494232
 30
0.0
 11
300.159302
 21
467.494232
 31
0.0
  0
LINE
  5
40
330
1E
100
AcDbEntity
  8
0
  6
CONTINUOUS
100
AcDbLine
 10
335.418121
 20
343.494232
 30
0.0
 11
370.676941
 21
343.494232
 31
0.0
  0
LINE
  5
41
330
1E
100
AcDbEntity
  8
0
  6
CONTINUOUS
100
AcDbLine
 10
335.418121
 20
343.494232
 30
0.0
 11
300.159302
 21
343.494232
 31
0.0
  0
LINE
  5
42
330
1E
100
AcDbEntity
  8
0
  6
CONTINUOUS
100
AcDbLine
 10
335.418121
 20
480.494232
 30
0.0
 11
393.868164
 21
480.494232
 31
0.0
  0
LINE
  5
43
330
1E
100
AcDbEntity
  8
0
  6
CONTINUOUS
100
AcDbLine
 10
354.418121
 20
285.494232
 30
0.0
 11
319.4181209999999
 21
285.494232
 31
0.0
  0
LINE
  5
44
330
1E
100
AcDbEntity
  8
0
  6
CONTINUOUS
100
AcDbLine
 10
319.4181209999999
 20
340.4942319999999
 30
0.0
 11
319.4181209999999
 21
285.494232
 31
0.0
  0
LINE
  5
45
330
1E
100
AcDbEntity
  8
0
  6
CONTINUOUS
100
AcDbLine
 10
351.4181209999999
 20
340.4942319999999
 30
0.0
 11
351.4181209999999
 21
335.494232
 31
0.0
  0
LINE
  5
46
330
1E
100
AcDbEntity
  8
0
  6
CONTINUOUS
100
AcDbLine
 10
317.9181209999999
 20
340.4942319999999
 30
0.0
 11
352.9181209999999
 21
340.4942319999999
 31
0.0
  0
LINE
  5
47
330
1E
100
AcDbEntity
  8
0
  6
CONTINUOUS
100
AcDbLine
 10
317.9181209999999
 20
343.494232
 30
0.0
 11
317.9181209999999
 21
340.4942319999999
 31
0.0
  0
LINE
  5
48
330
1E
100
AcDbEntity
  8
0
  6
CONTINUOUS
100
AcDbLine
 10
352.9181209999999
 20
343.494232
 30
0.0
 11
352.9181209999999
 21
340.4942319999999
 31
0.0
  0
LINE
  5
49
330
1E
100
AcDbEntity
  8
0
  6
CONTINUOUS
100
AcDbLine
 10
354.418121
 20
285.494232
 30
0.0
 11
354.418121
 21
335.494232
 31
0.0
  0
LINE
  5
4A
330
1E
100
AcDbEntity
  8
0
  6
CONTINUOUS
100
AcDbLine
 10
350.616821
 20
335.494232
 30
0.0
 11
354.418121
 21
335.494232
 31
0.0
  0
LINE
  5
4B
330
1E
100
AcDbEntity
  8
0
  6
CONTINUOUS
100
AcDbLine
 10
350.616821
 20
335.494232
 30
0.0
 11
350.616821
 21
285.494232
 31
0.0
  0
LINE
  5
4C
330
1E
100
AcDbEntity
  8
0
  6
CONTINUOUS
100
AcDbLine
 10
354.418121
 20
330.494232
 30
0.0
 11
393.868164
 21
330.494232
 31
0.0
  0
LINE
  5
4D
330
1E
100
AcDbEntity
  8
0
  6
CENTER
100
AcDbLine
 10
373.041809
 20
465.4942319999999
 30
0.0
 11
391.979309
 21
465.4942319999999
 31
0.0
  0
LINE
  5
4E
330
1E
100
AcDbEntity
  8
0
  6
CENTER
100
AcDbLine
 10
382.9181209999999
 20
456.3418879999999
 30
0.0
 11
382.9181209999999
 21
475.8418879999999
 31
0.0
  0
ARC
  5
4F
330
1E
100
AcDbEntity
  8
0
  6
CONTINUOUS
100
AcDbCircle
 10
382.9181209999999
 20
465.4942319999999
 30
0.0
 40
6.5
100
AcDbArc
 50
308.759312
 51
230.284866
  0
ARC
  5
50
330
1E
100
AcDbEntity
  8
0
  6
CONTINUOUS
100
AcDbCircle
 10
287.918121
 20
465.4942319999999
 30
0.0
 40
6.5
100
AcDbArc
 50
309.715137
 51
231.2406919999999
  0
LINE
  5
51
330
1E
100
AcDbEntity
  8
0
  6
CENTER
100
AcDbLine
 10
287.918121
 20
456.3418879999999
 30
0.0
 11
287.918121
 21
475.8418879999999
 31
0.0
  0
LINE
  5
52
330
1E
100
AcDbEntity
  8
0
  6
CENTER
100
AcDbLine
 10
297.7944339999999
 20
465.4942319999999
 30
0.0
 11
278.8569339999999
 21
465.4942319999999
 31
0.0
  0
LINE
  5
53
330
1E
100
AcDbEntity
  8
0
  6
CENTER
100
AcDbLine
 10
-15.28125
 20
405.494232
 30
0.0
 11
429.4024959999999
 21
405.494232
 31
0.0
  0
LINE
  5
54
330
1E
100
AcDbEntity
  8
0
  6
CONTINUOUS
100
AcDbLine
 10
259.4179379999999
 20
405.494232
 30
0.0
 11
260.1519469999999
 21
447.5465699999999
 31
0.0
  0
LINE
  5
55
330
1E
100
AcDbEntity
  8
0
  6
CONTINUOUS
100
AcDbLine
 10
259.4179379999999
 20
405.494232
 30
0.0
 11
260.1519469999999
 21
363.441864
 31
0.0
  0
ARC
  5
56
330
1E
100
AcDbEntity
  8
0
  6
CONTINUOUS
100
AcDbCircle
 10
263.151489
 20
447.494232
 30
0.0
 40
3.0
100
AcDbArc
 50
90.0
 51
179.0
  0
ARC
  5
57
330
1E
100
AcDbEntity
  8
0
  6
CONTINUOUS
100
AcDbCircle
 10
263.151489
 20
363.494232
 30
0.0
 40
3.0
100
AcDbArc
 50
181.0
 51
270.0
  0
LINE
  5
58
330
1E
100
AcDbEntity
  8
0
  6
CONTINUOUS
100
AcDbLine
 10
252.040436
 20
470.5647889999999
 30
0.0
 11
255.829529
 21
456.423676
 31
0.0
  0
ARC
  5
59
330
1E
100
AcDbEntity
  8
0
  6
CONTINUOUS
100
AcDbCircle
 10
263.5569459999999
 20
458.494232
 30
0.0
 40
8.0
100
AcDbArc
 50
195.0
 51
270.0
  0
ARC
  5
5A
330
1E
100
AcDbEntity
  8
0
  6
CONTINUOUS
100
AcDbCircle
 10
244.3130339999999
 20
468.494232
 30
0.0
 40
8.0
100
AcDbArc
 50
15.0
 51
90.0
  0
LINE
  5
5B
330
1E
100
AcDbEntity
  8
0
  6
CONTINUOUS
100
AcDbLine
 10
244.3130339999999
 20
334.494232
 30
0.0
 11
236.91832
 21
334.494232
 31
0.0
  0
ARC
  5
5C
330
1E
100
AcDbEntity
  8
0
  6
CONTINUOUS
100
AcDbCircle
 10
244.3130339999999
 20
342.4942319999999
 30
0.0
 40
8.0
100
AcDbArc
 50
270.0
 51
345.0
  0
LINE
  5
5D
330
1E
100
AcDbEntity
  8
0
  6
CONTINUOUS
100
AcDbLine
 10
252.040436
 20
340.4236759999999
 30
0.0
 11
255.829529
 21
354.564789
 31
0.0
  0
ARC
  5
5E
330
1E
100
AcDbEntity
  8
0
  6
CONTINUOUS
100
AcDbCircle
 10
263.5569459999999
 20
352.494232
 30
0.0
 40
8.0
100
AcDbArc
 50
90.0
 51
164.9999999999999
  0
LINE
  5
5F
330
1E
100
AcDbEntity
  8
0
  6
CONTINUOUS
100
AcDbLine
 10
375.4737549999999
 20
463.9050599999999
 30
0.0
 11
376.4769589999999
 21
460.494232
 31
0.0
  0
ARC
  5
60
330
1E
100
AcDbEntity
  8
0
  6
CONTINUOUS
100
AcDbCircle
 10
370.676941
 20
462.494232
 30
0.0
 40
5.0
100
AcDbArc
 50
16.38954
 51
90.0
  0
LINE
  5
61
330
1E
100
AcDbEntity
  8
0
  6
CONTINUOUS
100
AcDbLine
 10
390.964264
 20
456.886841
 30
0.0
 11
391.7719729999999
 21
454.1015929999999
 31
0.0
  0
LINE
  5
62
330
1E
100
AcDbEntity
  8
0
  6
CONTINUOUS
100
AcDbLine
 10
386.1621089999999
 20
460.494232
 30
0.0
 11
376.4769589999999
 21
460.494232
 31
0.0
  0
ARC
  5
63
330
1E
100
AcDbEntity
  8
0
  6
CONTINUOUS
100
AcDbCircle
 10
386.1621089999999
 20
455.494232
 30
0.0
 40
5.0
100
AcDbArc
 50
16.172159
 51
90.0
  0
ARC
  5
64
330
1E
100
AcDbEntity
  8
0
  6
CONTINUOUS
100
AcDbCircle
 10
396.5741269999999
 20
455.494232
 30
0.0
 40
5.0
100
AcDbArc
 50
196.1721649999999
 51
270.0
  0
LINE
  5
65
330
1E
100
AcDbEntity
  8
0
  6
CONTINUOUS
100
AcDbLine
 10
392.8181149999999
 20
450.494232
 30
0.0
 11
392.82135
 21
450.483124
 31
0.0
  0
ARC
  5
66
330
1E
100
AcDbEntity
  8
0
  6
CONTINUOUS
100
AcDbCircle
 10
300.159302
 20
462.494232
 30
0.0
 40
5.0
100
AcDbArc
 50
90.0
 51
163.610458
  0
LINE
  5
67
330
1E
100
AcDbEntity
  8
0
  6
CONTINUOUS
100
AcDbLine
 10
295.3624879999999
 20
463.9050599999999
 30
0.0
 11
294.359314
 21
460.494232
 31
0.0
  0
LINE
  5
68
330
1E
100
AcDbEntity
  8
0
  6
CONTINUOUS
100
AcDbLine
 10
279.871979
 20
456.886841
 30
0.0
 11
279.06427
 21
454.1015929999999
 31
0.0
  0
LINE
  5
69
330
1E
100
AcDbEntity
  8
0
  6
CONTINUOUS
100
AcDbLine
 10
284.674133
 20
460.494232
 30
0.0
 11
294.359314
 21
460.494232
 31
0.0
  0
ARC
  5
6A
330
1E
100
AcDbEntity
  8
0
  6
CONTINUOUS
100
AcDbCircle
 10
284.674133
 20
455.494232
 30
0.0
 40
5.0
100
AcDbArc
 50
90.0
 51
163.827835
  0
ARC
  5
6B
330
1E
100
AcDbEntity
  8
0
  6
CONTINUOUS
100
AcDbCircle
 10
274.262115
 20
455.494232
 30
0.0
 40
5.0
100
AcDbArc
 50
270.0
 51
343.827841
  0
LINE
  5
6C
330
1E
100
AcDbEntity
  8
0
  6
CONTINUOUS
100
AcDbLine
 10
278.0181269999999
 20
450.494232
 30
0.0
 11
278.014923
 21
450.483124
 31
0.0
  0
ARC
  5
6D
330
1E
100
AcDbEntity
  8
0
  6
CONTINUOUS
100
AcDbCircle
 10
287.918121
 20
345.494232
 30
0.0
 40
6.5
100
AcDbArc
 50
128.759308
 51
50.28486299999999
  0
LINE
  5
6E
330
1E
100
AcDbEntity
  8
0
  6
CENTER
100
AcDbLine
 10
287.918121
 20
354.6465759999999
 30
0.0
 11
287.918121
 21
335.1465759999999
 31
0.0
  0
LINE
  5
6F
330
1E
100
AcDbEntity
  8
0
  6
CENTER
100
AcDbLine
 10
297.7944339999999
 20
345.494232
 30
0.0
 11
278.8569339999999
 21
345.494232
 31
0.0
  0
ARC
  5
70
330
1E
100
AcDbEntity
  8
0
  6
CONTINUOUS
100
AcDbCircle
 10
300.159302
 20
348.494232
 30
0.0
 40
5.0
100
AcDbArc
 50
196.389542
 51
270.0
  0
LINE
  5
71
330
1E
100
AcDbEntity
  8
0
  6
CONTINUOUS
100
AcDbLine
 10
295.3624879999999
 20
347.0834049999999
 30
0.0
 11
294.359314
 21
350.494232
 31
0.0
  0
LINE
  5
72
330
1E
100
AcDbEntity
  8
0
  6
CONTINUOUS
100
AcDbLine
 10
279.871979
 20
354.101593
 30
0.0
 11
279.06427
 21
356.886841
 31
0.0
  0
LINE
  5
73
330
1E
100
AcDbEntity
  8
0
  6
CONTINUOUS
100
AcDbLine
 10
284.674133
 20
350.494232
 30
0.0
 11
294.359314
 21
350.494232
 31
0.0
  0
ARC
  5
74
330
1E
100
AcDbEntity
  8
0
  6
CONTINUOUS
100
AcDbCircle
 10
284.674133
 20
355.494232
 30
0.0
 40
5.0
100
AcDbArc
 50
196.1721649999999
 51
270.0
  0
ARC
  5
75
330
1E
100
AcDbEntity
  8
0
  6
CONTINUOUS
100
AcDbCircle
 10
274.262115
 20
355.494232
 30
0.0
 40
5.0
100
AcDbArc
 50
16.172159
 51
90.0
  0
LINE
  5
76
330
1E
100
AcDbEntity
  8
0
  6
CONTINUOUS
100
AcDbLine
 10
278.0181269999999
 20
360.494232
 30
0.0
 11
278.014923
 21
360.50531
 31
0.0
  0
LINE
  5
77
330
1E
100
AcDbEntity
  8
0
  6
CENTER
100
AcDbLine
 10
373.041809
 20
345.494232
 30
0.0
 11
391.979309
 21
345.494232
 31
0.0
  0
LINE
  5
78
330
1E
100
AcDbEntity
  8
0
  6
CENTER
100
AcDbLine
 10
382.9181209999999
 20
354.6465759999999
 30
0.0
 11
382.9181209999999
 21
335.1465759999999
 31
0.0
  0
ARC
  5
79
330
1E
100
AcDbEntity
  8
0
  6
CONTINUOUS
100
AcDbCircle
 10
382.9181209999999
 20
345.494232
 30
0.0
 40
6.5
100
AcDbArc
 50
129.7151339999999
 51
51.24068799999999
  0
LINE
  5
7A
330
1E
100
AcDbEntity
  8
0
  6
CONTINUOUS
100
AcDbLine
 10
375.4737549999999
 20
347.0834049999999
 30
0.0
 11
376.4769589999999
 21
350.494232
 31
0.0
  0
ARC
  5
7B
330
1E
100
AcDbEntity
  8
0
  6
CONTINUOUS
100
AcDbCircle
 10
370.676941
 20
348.494232
 30
0.0
 40
5.0
100
AcDbArc
 50
270.0
 51
343.61046
  0
LINE
  5
7C
330
1E
100
AcDbEntity
  8
0
  6
CONTINUOUS
100
AcDbLine
 10
390.964264
 20
354.101593
 30
0.0
 11
391.7719729999999
 21
356.886841
 31
0.0
  0
LINE
  5
7D
330
1E
100
AcDbEntity
  8
0
  6
CONTINUOUS
100
AcDbLine
 10
386.1621089999999
 20
350.494232
 30
0.0
 11
376.4769589999999
 21
350.494232
 31
0.0
  0
ARC
  5
7E
330
1E
100
AcDbEntity
  8
0
  6
CONTINUOUS
100
AcDbCircle
 10
386.1621089999999
 20
355.494232
 30
0.0
 40
5.0
100
AcDbArc
 50
270.0
 51
343.827841
  0
ARC
  5
7F
330
1E
100
AcDbEntity
  8
0
  6
CONTINUOUS
100
AcDbCircle
 10
396.5741269999999
 20
355.494232
 30
0.0
 40
5.0
100
AcDbArc
 50
90.0
 51
163.827835
  0
LINE
  5
80
330
1E
100
AcDbEntity
  8
0
  6
CONTINUOUS
100
AcDbLine
 10
392.8181149999999
 20
360.494232
 30
0.0
 11
392.82135
 21
360.50531
 31
0.0
  0
LINE
  5
81
330
1E
100
AcDbEntity
  8
0
  6
CENTER
100
AcDbLine
 10
274.107513
 20
130.9453739999999
 30
0.0
 11
215.9133299999999
 21
130.9453739999999
 31
0.0
  0
LINE
  5
82
330
1E
100
AcDbEntity
  8
0
  6
CONTINUOUS
100
AcDbLine
 10
236.9181209999999
 20
167.9453739999999
 30
0.0
 11
236.9181209999999
 21
25.94543999999999
 31
0.0
  0
LINE
  5
83
330
1E
100
AcDbEntity
  8
0
  6
CENTER
100
AcDbLine
 10
264.4181209999999
 20
96.94538100000002
 30
0.0
 11
236.9181209999999
 21
96.94538100000002
 31
0.0
  0
LINE
  5
84
330
1E
100
AcDbEntity
  8
0
  6
CENTER
100
AcDbLine
 10
335.418121
 20
222.322495
 30
0.0
 11
335.418121
 21
-11.68749999999999
 31
0.0
  0
LINE
  5
85
330
1E
100
AcDbEntity
  8
0
  6
CENTER
100
AcDbLine
 10
266.967499
 20
138.9453739999999
 30
0.0
 11
395.933746
 21
138.9453739999999
 31
0.0
  0
LINE
  5
86
330
1E
100
AcDbEntity
  8
0
  6
CENTER
100
AcDbLine
 10
382.9181209999999
 20
24.22083999999999
 30
0.0
 11
382.9181209999999
 21
-9.643919999999999
 31
0.0
  0
LINE
  5
87
330
1E
100
AcDbEntity
  8
0
  6
CENTER
100
AcDbLine
 10
287.918121
 20
24.22083999999999
 30
0.0
 11
287.918121
 21
-9.935839999999998
 31
0.0
  0
LINE
  5
88
330
1E
100
AcDbEntity
  8
0
  6
CONTINUOUS
100
AcDbLine
 10
259.4181209999999
 20
-1.05462
 30
0.0
 11
411.4181209999999
 21
-1.05462
 31
0.0
  0
LINE
  5
89
330
1E
100
AcDbEntity
  8
0
  6
CONTINUOUS
100
AcDbLine
 10
259.4181209999999
 20
16.945379
 30
0.0
 11
411.4181209999999
 21
16.945379
 31
0.0
  0
LINE
  5
8A
330
1E
100
AcDbEntity
  8
0
  6
CONTINUOUS
100
AcDbLine
 10
411.4181209999999
 20
167.250961
 30
0.0
 11
411.4181209999999
 21
-1.05462
 31
0.0
  0
LINE
  5
8B
330
1E
100
AcDbEntity
  8
0
  6
CONTINUOUS
100
AcDbLine
 10
308.914734
 20
203.9453739999999
 30
0.0
 11
361.9215389999999
 21
203.9453739999999
 31
0.0
  0
LINE
  5
8C
330
1E
100
AcDbEntity
  8
0
  6
CONTINUOUS
100
AcDbLine
 10
407.96814
 20
173.830994
 30
0.0
 11
366.4715269999999
 21
202.5254669999999
 31
0.0
  0
LINE
  5
8D
330
1E
100
AcDbEntity
  8
0
  6
CONTINUOUS
100
AcDbLine
 10
262.8681339999999
 20
173.830994
 30
0.0
 11
304.3647159999999
 21
202.5254669999999
 31
0.0
  0
ARC
  5
8E
330
1E
100
AcDbEntity
  8
0
  6
CONTINUOUS
100
AcDbCircle
 10
361.9215389999999
 20
195.9453739999999
 30
0.0
 40
8.0
100
AcDbArc
 50
55.336689
 51
90.0
  0
ARC
  5
8F
330
1E
100
AcDbEntity
  8
0
  6
CONTINUOUS
100
AcDbCircle
 10
403.4181209999999
 20
167.2508999999999
 30
0.0
 40
8.0
100
AcDbArc
 50
0.0
 51
55.336739
  0
ARC
  5
90
330
1E
100
AcDbEntity
  8
0
  6
CONTINUOUS
100
AcDbCircle
 10
308.914734
 20
195.9453739999999
 30
0.0
 40
8.0
100
AcDbArc
 50
90.0
 51
124.663696
  0
ARC
  5
91
330
1E
100
AcDbEntity
  8
0
  6
CONTINUOUS
100
AcDbCircle
 10
267.4181209999999
 20
167.250977
 30
0.0
 40
8.0
100
AcDbArc
 50
124.6638029999999
 51
180.0
  0
LINE
  5
92
330
1E
100
AcDbEntity
  8
0
  6
CONTINUOUS
100
AcDbLine
 10
259.4181209999999
 20
167.250961
 30
0.0
 11
259.4181209999999
 21
-1.05462
 31
0.0
  0
LINE
  5
93
330
1E
100
AcDbEntity
  8
0
  6
DASHED
100
AcDbLine
 10
281.418121
 20
16.945379
 30
0.0
 11
281.418121
 21
-1.05462
 31
0.0
  0
LINE
  5
94
330
1E
100
AcDbEntity
  8
0
  6
DASHED
100
AcDbLine
 10
294.4181209999999
 20
16.945379
 30
0.0
 11
294.4181209999999
 21
-1.05462
 31
0.0
  0
LINE
  5
95
330
1E
100
AcDbEntity
  8
0
  6
DASHED
100
AcDbLine
 10
376.4181209999999
 20
16.945379
 30
0.0
 11
376.4181209999999
 21
-1.05462
 31
0.0
  0
LINE
  5
96
330
1E
100
AcDbEntity
  8
0
  6
DASHED
100
AcDbLine
 10
389.4181209999999
 20
16.945379
 30
0.0
 11
389.4181209999999
 21
-1.05462
 31
0.0
  0
CIRCLE
  5
97
330
1E
100
AcDbEntity
  8
0
  6
CONTINUOUS
100
AcDbCircle
 10
335.418121
 20
138.9453739999999
 30
0.0
 40
39.0
  0
ARC
  5
98
330
1E
100
AcDbEntity
  8
0
  6
CONTINUOUS
100
AcDbCircle
 10
335.418121
 20
138.9453739999999
 30
0.0
 40
44.0
100
AcDbArc
 50
12.52323999999999
 51
167.476898
  0
ARC
  5
99
330
1E
100
AcDbEntity
  8
0
  6
CONTINUOUS
100
AcDbCircle
 10
309.9181209999999
 20
79.94538100000001
 30
0.0
 40
29.0
100
AcDbArc
 50
167.476898
 51
270.0
  0
ARC
  5
9A
330
1E
100
AcDbEntity
  8
0
  6
CONTINUOUS
100
AcDbCircle
 10
360.918121
 20
79.94538100000001
 30
0.0
 40
29.0
100
AcDbArc
 50
270.0
 51
12.52323999999999
  0
ARC
  5
9B
330
1E
100
AcDbEntity
  8
0
  6
CONTINUOUS
100
AcDbCircle
 10
309.9181209999999
 20
79.94538100000001
 30
0.0
 40
31.89999999999999
100
AcDbArc
 50
167.476898
 51
270.0
  0
ARC
  5
9C
330
1E
100
AcDbEntity
  8
0
  6
CONTINUOUS
100
AcDbCircle
 10
360.918121
 20
79.94538100000001
 30
0.0
 40
31.89999999999999
100
AcDbArc
 50
270.0
 51
12.52323999999999
  0
ARC
  5
9D
330
1E
100
AcDbEntity
  8
0
  6
CONTINUOUS
100
AcDbCircle
 10
335.418121
 20
138.9453739999999
 30
0.0
 40
41.09999799999999
100
AcDbArc
 50
167.476898
 51
12.52323999999999
  0
LINE
  5
9E
330
1E
100
AcDbEntity
  8
0
  6
CONTINUOUS
100
AcDbLine
 10
278.77713
 20
86.862381
 30
0.0
 11
292.464935
 21
148.486084
 31
0.0
  0
LINE
  5
9F
330
1E
100
AcDbEntity
  8
0
  6
CONTINUOUS
100
AcDbLine
 10
281.608124
 20
86.233582
 30
0.0
 11
295.2959289999999
 21
147.8572389999999
 31
0.0
  0
LINE
  5
A0
330
1E
100
AcDbEntity
  8
0
  6
CONTINUOUS
100
AcDbLine
 10
309.9181209999999
 20
48.04536099999999
 30
0.0
 11
360.918121
 21
48.04536099999999
 31
0.0
  0
LINE
  5
A1
330
1E
100
AcDbEntity
  8
0
  6
CONTINUOUS
100
AcDbLine
 10
360.918121
 20
50.945381
 30
0.0
 11
309.9181209999999
 21
50.945381
 31
0.0
  0
LINE
  5
A2
330
1E
100
AcDbEntity
  8
0
  6
CONTINUOUS
100
AcDbLine
 10
378.371338
 20
148.4861449999999
 30
0.0
 11
392.0591129999999
 21
86.862442
 31
0.0
  0
LINE
  5
A3
330
1E
100
AcDbEntity
  8
0
  6
CONTINUOUS
100
AcDbLine
 10
375.540314
 20
147.8573609999999
 30
0.0
 11
389.2281189999999
 21
86.233582
 31
0.0
  0
LINE
  5
A4
330
1E
100
AcDbEntity
  8
0
  6
CONTINUOUS
100
AcDbLine
 10
323.191132
 20
62.945381
 30
0.0
 11
318.2507319999999
 21
62.945381
 31
0.0
  0
LINE
  5
A5
330
1E
100
AcDbEntity
  8
0
  6
CONTINUOUS
100
AcDbLine
 10
325.9181209999999
 20
71.220779
 30
0.0
 11
325.9181209999999
 21
62.945381
 31
0.0
  0
LINE
  5
A6
330
1E
100
AcDbEntity
  8
0
  6
CONTINUOUS
100
AcDbLine
 10
330.6681209999999
 20
74.226624
 30
0.0
 11
330.6681209999999
 21
77.19538100000001
 31
0.0
  0
LINE
  5
A7
330
1E
100
AcDbEntity
  8
0
  6
CONTINUOUS
100
AcDbLine
 10
340.168121
 20
74.226624
 30
0.0
 11
340.168121
 21
77.19538100000001
 31
0.0
  0
LINE
  5
A8
330
1E
100
AcDbEntity
  8
0
  6
CONTINUOUS
100
AcDbLine
 10
334.4903259999999
 20
75.45124100000001
 30
0.0
 11
334.4903259999999
 21
64.50398299999999
 31
0.0
  0
LINE
  5
A9
330
1E
100
AcDbEntity
  8
0
  6
CONTINUOUS
100
AcDbLine
 10
336.2717289999999
 20
75.45124100000001
 30
0.0
 11
336.2717289999999
 21
64.50398299999999
 31
0.0
  0
LINE
  5
AA
330
1E
100
AcDbEntity
  8
0
  6
CONTINUOUS
100
AcDbLine
 10
345.6231379999999
 20
75.45124100000001
 30
0.0
 11
345.6231379999999
 21
64.429764
 31
0.0
  0
LINE
  5
AB
330
1E
100
AcDbEntity
  8
0
  6
CONTINUOUS
100
AcDbLine
 10
347.2561339999999
 20
69.606522
 30
0.0
 11
347.2561339999999
 21
64.429764
 31
0.0
  0
LINE
  5
AC
330
1E
100
AcDbEntity
  8
0
  6
CONTINUOUS
100
AcDbLine
 10
323.664124
 20
75.302803
 30
0.0
 11
319.086517
 21
75.302803
 31
0.0
  0
LINE
  5
AD
330
1E
100
AcDbEntity
  8
0
  6
CONTINUOUS
100
AcDbLine
 10
319.086517
 20
75.302803
 30
0.0
 11
318.0139159999999
 21
73.97277800000001
 31
0.0
  0
LINE
  5
AE
330
1E
100
AcDbEntity
  8
0
  6
CONTINUOUS
100
AcDbLine
 10
318.142914
 20
77.19538100000001
 30
0.0
 11
316.4181209999999
 21
74.98693799999999
 31
0.0
  0
LINE
  5
AF
330
1E
100
AcDbEntity
  8
0
  6
CONTINUOUS
100
AcDbLine
 10
318.0139159999999
 20
65.76326
 30
0.0
 11
319.103729
 21
64.61530299999999
 31
0.0
  0
LINE
  5
B0
330
1E
100
AcDbEntity
  8
0
  6
CONTINUOUS
100
AcDbLine
 10
316.4181209999999
 20
64.79450200000001
 30
0.0
 11
318.2507319999999
 21
62.945381
 31
0.0
  0
LINE
  5
B1
330
1E
100
AcDbEntity
  8
0
  6
CONTINUOUS
100
AcDbLine
 10
316.4181209999999
 20
74.98693799999999
 30
0.0
 11
316.4181209999999
 21
64.79450200000001
 31
0.0
  0
LINE
  5
B2
330
1E
100
AcDbEntity
  8
0
  6
CONTINUOUS
100
AcDbLine
 10
318.0139159999999
 20
73.97277800000001
 30
0.0
 11
318.0139159999999
 21
65.76326
 31
0.0
  0
LINE
  5
B3
330
1E
100
AcDbEntity
  8
0
  6
CONTINUOUS
100
AcDbLine
 10
324.545135
 20
74.45124100000001
 30
0.0
 11
323.646118
 21
75.302803
 31
0.0
  0
LINE
  5
B4
330
1E
100
AcDbEntity
  8
0
  6
CONTINUOUS
100
AcDbLine
 10
324.5309139999999
 20
77.19538100000001
 30
0.0
 11
325.9181209999999
 21
75.65582299999999
 31
0.0
  0
LINE
  5
B5
330
1E
100
AcDbEntity
  8
0
  6
CONTINUOUS
100
AcDbLine
 10
324.545135
 20
74.226624
 30
0.0
 11
325.9181209999999
 21
74.226624
 31
0.0
  0
LINE
  5
B6
330
1E
100
AcDbEntity
  8
0
  6
CONTINUOUS
100
AcDbLine
 10
318.142914
 20
77.19538100000001
 30
0.0
 11
324.5309139999999
 21
77.19538100000001
 31
0.0
  0
LINE
  5
B7
330
1E
100
AcDbEntity
  8
0
  6
CONTINUOUS
100
AcDbLine
 10
322.058716
 20
71.220779
 30
0.0
 11
325.9181209999999
 21
71.220779
 31
0.0
  0
LINE
  5
B8
330
1E
100
AcDbEntity
  8
0
  6
CONTINUOUS
100
AcDbLine
 10
324.545135
 20
69.66217799999999
 30
0.0
 11
322.058716
 21
69.66217799999999
 31
0.0
  0
LINE
  5
B9
330
1E
100
AcDbEntity
  8
0
  6
CONTINUOUS
100
AcDbLine
 10
321.576324
 20
64.61530299999999
 30
0.0
 11
319.103729
 21
64.61530299999999
 31
0.0
  0
LINE
  5
BA
330
1E
100
AcDbEntity
  8
0
  6
CONTINUOUS
100
AcDbLine
 10
324.545135
 20
68.17780299999999
 30
0.0
 11
324.545135
 21
69.365303
 31
0.0
  0
ARC
  5
BB
330
1E
100
AcDbEntity
  8
0
  6
CONTINUOUS
100
AcDbCircle
 10
321.576324
 20
67.58406100000001
 30
0.0
 40
2.96875
100
AcDbArc
 50
270.0002139999999
 51
0.000109
  0
LINE
  5
BC
330
1E
100
AcDbEntity
  8
0
  6
CONTINUOUS
100
AcDbLine
 10
324.545135
 20
64.081299
 30
0.0
 11
324.545135
 21
62.945381
 31
0.0
  0
LINE
  5
BD
330
1E
100
AcDbEntity
  8
0
  6
CONTINUOUS
100
AcDbLine
 10
325.9181209999999
 20
75.65582299999999
 30
0.0
 11
325.9181209999999
 21
74.226624
 31
0.0
  0
LINE
  5
BE
330
1E
100
AcDbEntity
  8
0
  6
CONTINUOUS
100
AcDbLine
 10
324.545135
 20
69.66217799999999
 30
0.0
 11
324.545135
 21
67.58406100000001
 31
0.0
  0
LINE
  5
BF
330
1E
100
AcDbEntity
  8
0
  6
CONTINUOUS
100
AcDbLine
 10
322.058716
 20
71.220779
 30
0.0
 11
322.058716
 21
69.66217799999999
 31
0.0
  0
LINE
  5
C0
330
1E
100
AcDbEntity
  8
0
  6
CONTINUOUS
100
AcDbLine
 10
324.545135
 20
62.945381
 30
0.0
 11
325.9181209999999
 21
62.945381
 31
0.0
  0
LINE
  5
C1
330
1E
100
AcDbEntity
  8
0
  6
CONTINUOUS
100
AcDbLine
 10
324.545135
 20
64.081299
 30
0.0
 11
323.191132
 21
62.945381
 31
0.0
  0
LINE
  5
C2
330
1E
100
AcDbEntity
  8
0
  6
CONTINUOUS
100
AcDbLine
 10
336.2717289999999
 20
64.50398299999999
 30
0.0
 11
336.8653259999999
 21
64.50398299999999
 31
0.0
  0
LINE
  5
C3
330
1E
100
AcDbEntity
  8
0
  6
CONTINUOUS
100
AcDbLine
 10
333.785339
 20
64.50398299999999
 30
0.0
 11
333.785339
 21
62.945381
 31
0.0
  0
LINE
  5
C4
330
1E
100
AcDbEntity
  8
0
  6
CONTINUOUS
100
AcDbLine
 10
336.8653259999999
 20
64.50398299999999
 30
0.0
 11
336.8653259999999
 21
62.945381
 31
0.0
  0
LINE
  5
C5
330
1E
100
AcDbEntity
  8
0
  6
CONTINUOUS
100
AcDbLine
 10
339.177124
 20
74.226624
 30
0.0
 11
340.168121
 21
74.226624
 31
0.0
  0
LINE
  5
C6
330
1E
100
AcDbEntity
  8
0
  6
CONTINUOUS
100
AcDbLine
 10
330.6681209999999
 20
74.226624
 30
0.0
 11
331.7227169999999
 21
74.226624
 31
0.0
  0
LINE
  5
C7
330
1E
100
AcDbEntity
  8
0
  6
CONTINUOUS
100
AcDbLine
 10
330.6681209999999
 20
77.19538100000001
 30
0.0
 11
340.168121
 21
77.19538100000001
 31
0.0
  0
LINE
  5
C8
330
1E
100
AcDbEntity
  8
0
  6
CONTINUOUS
100
AcDbLine
 10
333.785339
 20
62.945381
 30
0.0
 11
336.8653259999999
 21
62.945381
 31
0.0
  0
LINE
  5
C9
330
1E
100
AcDbEntity
  8
0
  6
CONTINUOUS
100
AcDbLine
 10
333.785339
 20
64.50398299999999
 30
0.0
 11
334.4903259999999
 21
64.50398299999999
 31
0.0
  0
ARC
  5
CA
330
1E
100
AcDbEntity
  8
0
  6
CONTINUOUS
100
AcDbCircle
 10
350.6143189999999
 20
73.39166299999999
 30
0.0
 40
3.803712
100
AcDbArc
 50
286.0181269999999
 51
90.00351
  0
ARC
  5
CB
330
1E
100
AcDbEntity
  8
0
  6
CONTINUOUS
100
AcDbCircle
 10
350.6143189999999
 20
73.39166299999999
 30
0.0
 40
2.320524
100
AcDbArc
 50
277.414726
 51
62.41185
  0
LINE
  5
CC
330
1E
100
AcDbEntity
  8
0
  6
CONTINUOUS
100
AcDbLine
 10
344.9181209999999
 20
77.19538100000001
 30
0.0
 11
350.6143189999999
 21
77.19538100000001
 31
0.0
  0
LINE
  5
CD
330
1E
100
AcDbEntity
  8
0
  6
CONTINUOUS
100
AcDbLine
 10
350.91391
 20
71.090523
 30
0.0
 11
347.2561339999999
 21
71.090523
 31
0.0
  0
LINE
  5
CE
330
1E
100
AcDbEntity
  8
0
  6
CONTINUOUS
100
AcDbLine
 10
344.9181209999999
 20
77.19538100000001
 30
0.0
 11
344.9181209999999
 21
75.45124100000001
 31
0.0
  0
LINE
  5
CF
330
1E
100
AcDbEntity
  8
0
  6
CONTINUOUS
100
AcDbLine
 10
347.2561339999999
 20
75.45124100000001
 30
0.0
 11
347.2561339999999
 21
71.090523
 31
0.0
  0
LINE
  5
D0
330
1E
100
AcDbEntity
  8
0
  6
CONTINUOUS
100
AcDbLine
 10
351.6639099999999
 20
69.73565699999999
 30
0.0
 11
354.018311
 21
64.429764
 31
0.0
  0
LINE
  5
D1
330
1E
100
AcDbEntity
  8
0
  6
CONTINUOUS
100
AcDbLine
 10
350.296722
 20
69.606522
 30
0.0
 11
352.5247189999999
 21
64.429764
 31
0.0
  0
LINE
  5
D2
330
1E
100
AcDbEntity
  8
0
  6
CONTINUOUS
100
AcDbLine
 10
344.9181209999999
 20
64.429764
 30
0.0
 11
345.6231379999999
 21
64.429764
 31
0.0
  0
LINE
  5
D3
330
1E
100
AcDbEntity
  8
0
  6
CONTINUOUS
100
AcDbLine
 10
347.2561339999999
 20
64.429764
 30
0.0
 11
347.905518
 21
64.429764
 31
0.0
  0
LINE
  5
D4
330
1E
100
AcDbEntity
  8
0
  6
CONTINUOUS
100
AcDbLine
 10
347.905518
 20
62.945381
 30
0.0
 11
344.9181209999999
 21
62.945381
 31
0.0
  0
LINE
  5
D5
330
1E
100
AcDbEntity
  8
0
  6
CONTINUOUS
100
AcDbLine
 10
352.2287289999999
 20
64.429764
 30
0.0
 11
352.5247189999999
 21
64.429764
 31
0.0
  0
LINE
  5
D6
330
1E
100
AcDbEntity
  8
0
  6
CONTINUOUS
100
AcDbLine
 10
354.018311
 20
64.429764
 30
0.0
 11
354.418121
 21
64.429764
 31
0.0
  0
LINE
  5
D7
330
1E
100
AcDbEntity
  8
0
  6
CONTINUOUS
100
AcDbLine
 10
352.2287289999999
 20
62.945381
 30
0.0
 11
354.418121
 21
62.945381
 31
0.0
  0
LINE
  5
D8
330
1E
100
AcDbEntity
  8
0
  6
CONTINUOUS
100
AcDbLine
 10
354.418121
 20
64.429764
 30
0.0
 11
354.418121
 21
62.945381
 31
0.0
  0
LINE
  5
D9
330
1E
100
AcDbEntity
  8
0
  6
CONTINUOUS
100
AcDbLine
 10
352.2287289999999
 20
64.429764
 30
0.0
 11
352.2287289999999
 21
62.945381
 31
0.0
  0
LINE
  5
DA
330
1E
100
AcDbEntity
  8
0
  6
CONTINUOUS
100
AcDbLine
 10
347.905518
 20
64.429764
 30
0.0
 11
347.905518
 21
62.945381
 31
0.0
  0
LINE
  5
DB
330
1E
100
AcDbEntity
  8
0
  6
CONTINUOUS
100
AcDbLine
 10
344.9181209999999
 20
64.429764
 30
0.0
 11
344.9181209999999
 21
62.945381
 31
0.0
  0
LINE
  5
DC
330
1E
100
AcDbEntity
  8
0
  6
CONTINUOUS
100
AcDbLine
 10
332.23291
 20
75.45124100000001
 30
0.0
 11
331.7227169999999
 21
74.226624
 31
0.0
  0
LINE
  5
DD
330
1E
100
AcDbEntity
  8
0
  6
CONTINUOUS
100
AcDbLine
 10
338.746918
 20
75.45124100000001
 30
0.0
 11
339.177124
 21
74.226624
 31
0.0
  0
LINE
  5
DE
330
1E
100
AcDbEntity
  8
0
  6
CONTINUOUS
100
AcDbLine
 10
336.2717289999999
 20
75.45124100000001
 30
0.0
 11
338.746918
 21
75.45124100000001
 31
0.0
  0
LINE
  5
DF
330
1E
100
AcDbEntity
  8
0
  6
CONTINUOUS
100
AcDbLine
 10
334.4903259999999
 20
75.45124100000001
 30
0.0
 11
332.23291
 21
75.45124100000001
 31
0.0
  0
LINE
  5
E0
330
1E
100
AcDbEntity
  8
0
  6
CONTINUOUS
100
AcDbLine
 10
347.2561339999999
 20
69.606522
 30
0.0
 11
350.296722
 21
69.606522
 31
0.0
  0
LINE
  5
E1
330
1E
100
AcDbEntity
  8
0
  6
CONTINUOUS
100
AcDbLine
 10
344.9181209999999
 20
75.45124100000001
 30
0.0
 11
345.6231379999999
 21
75.45124100000001
 31
0.0
  0
LINE
  5
E2
330
1E
100
AcDbEntity
  8
0
  6
CONTINUOUS
100
AcDbLine
 10
347.2561339999999
 20
75.45124100000001
 30
0.0
 11
351.689117
 21
75.44838
 31
0.0
  0
LINE
  5
E3
330
1E
100
AcDbEntity
  8
0
  6
CONTINUOUS
100
AcDbLine
 10
324.545135
 20
74.45124100000001
 30
0.0
 11
324.545135
 21
74.226624
 31
0.0
  0
LINE
  5
E4
330
1E
100
AcDbEntity
  8
0
  6
CONTINUOUS
100
AcDbLine
 10
273.418121
 20
14.87886
 30
0.0
 11
273.418121
 21
-1.05462
 31
0.0
  0
LINE
  5
E5
330
1E
100
AcDbEntity
  8
0
  6
CONTINUOUS
100
AcDbLine
 10
397.4181209999999
 20
14.87886
 30
0.0
 11
397.4181209999999
 21
-1.05462
 31
0.0
  0
LINE
  5
E6
330
1E
100
AcDbEntity
  8
0
  6
CONTINUOUS
100
AcDbLine
 10
310.418121
 20
19.54537999999999
 30
0.0
 11
310.418121
 21
17.94537899999999
 31
0.0
  0
LINE
  5
E7
330
1E
100
AcDbEntity
  8
0
  6
CONTINUOUS
100
AcDbLine
 10
309.705566
 20
19.517838
 30
0.0
 11
306.6058649999999
 21
17.65794899999999
 31
0.0
  0
ARC
  5
E8
330
1E
100
AcDbEntity
  8
0
  6
CONTINUOUS
100
AcDbCircle
 10
309.4181209999999
 20
17.94537899999999
 30
0.0
 40
1.0
100
AcDbArc
 50
270.0
 51
0.0
  0
LINE
  5
E9
330
1E
100
AcDbEntity
  8
0
  6
CONTINUOUS
100
AcDbLine
 10
236.9181209999999
 20
167.9453739999999
 30
0.0
 11
236.9181209999999
 21
25.945379
 31
0.0
  0
LINE
  5
EA
330
1E
100
AcDbEntity
  8
0
  6
CONTINUOUS
100
AcDbLine
 10
236.9181209999999
 20
167.9453739999999
 30
0.0
 11
255.73172
 21
167.9453739999999
 31
0.0
  0
LINE
  5
EB
330
1E
100
AcDbEntity
  8
0
  6
CONTINUOUS
100
AcDbLine
 10
236.9181209999999
 20
25.945379
 30
0.0
 11
254.418121
 21
25.945379
 31
0.0
  0
ARC
  5
EC
330
1E
100
AcDbEntity
  8
0
  6
CONTINUOUS
100
AcDbCircle
 10
255.73172
 20
172.9453739999999
 30
0.0
 40
5.0
100
AcDbArc
 50
270.0
 51
334.021606
  0
ARC
  5
ED
330
1E
100
AcDbEntity
  8
0
  6
CONTINUOUS
100
AcDbCircle
 10
254.418121
 20
20.94532
 30
0.0
 40
5.0
100
AcDbArc
 50
0.0
 51
90.0
  0
ARC
  5
EE
330
1E
100
AcDbEntity
  8
0
  6
CONTINUOUS
100
AcDbCircle
 10
422.4855349999999
 20
96.94538100000002
 30
0.0
 40
172.0674739999999
100
AcDbArc
 50
161.386795
 51
198.6132049999999
  0
LINE
  5
EF
330
1E
100
AcDbEntity
  8
0
  6
CONTINUOUS
100
AcDbLine
 10
346.418121
 20
133.945435
 30
0.0
 11
346.418121
 21
143.945435
 31
0.0
  0
LINE
  5
F0
330
1E
100
AcDbEntity
  8
0
  6
CONTINUOUS
100
AcDbLine
 10
354.418121
 20
133.945435
 30
0.0
 11
354.418121
 21
143.945435
 31
0.0
  0
LINE
  5
F1
330
1E
100
AcDbEntity
  8
0
  6
CONTINUOUS
100
AcDbLine
 10
354.418121
 20
133.945435
 30
0.0
 11
346.418121
 21
133.945435
 31
0.0
  0
LINE
  5
F2
330
1E
100
AcDbEntity
  8
0
  6
CONTINUOUS
100
AcDbLine
 10
354.418121
 20
143.945435
 30
0.0
 11
346.418121
 21
143.945435
 31
0.0
  0
ARC
  5
F3
330
1E
100
AcDbEntity
  8
0
  6
CONTINUOUS
100
AcDbCircle
 10
335.418121
 20
138.9453739999999
 30
0.0
 40
16.0
100
AcDbArc
 50
18.2099
 51
341.7901
  0
LINE
  5
F4
330
1E
100
AcDbEntity
  8
0
  6
CENTER
100
AcDbLine
 10
613.3599849999999
 20
-15.4442
 30
0.0
 11
613.3599849999999
 21
220.537506
 31
0.0
  0
LINE
  5
F5
330
1E
100
AcDbEntity
  8
0
  6
CENTER
100
AcDbLine
 10
477.649994
 20
138.9453739999999
 30
0.0
 11
691.7974849999999
 21
138.9453739999999
 31
0.0
  0
LINE
  5
F6
330
1E
100
AcDbEntity
  8
0
  6
CENTER
100
AcDbLine
 10
673.3599849999999
 20
25.54408099999999
 30
0.0
 11
673.3599849999999
 21
-12.35497999999999
 31
0.0
  0
LINE
  5
F7
330
1E
100
AcDbEntity
  8
0
  6
CENTER
100
AcDbLine
 10
553.3599849999999
 20
25.54408099999999
 30
0.0
 11
553.3599849999999
 21
-12.35497999999999
 31
0.0
  0
LINE
  5
F8
330
1E
100
AcDbEntity
  8
0
  6
CONTINUOUS
100
AcDbLine
 10
538.3599849999999
 20
-1.05462
 30
0.0
 11
583.3599849999999
 21
-1.05462
 31
0.0
  0
LINE
  5
F9
330
1E
100
AcDbEntity
  8
0
  6
CONTINUOUS
100
AcDbLine
 10
643.3599849999999
 20
-1.05462
 30
0.0
 11
688.3599849999999
 21
-1.05462
 31
0.0
  0
LINE
  5
FA
330
1E
100
AcDbEntity
  8
0
  6
CONTINUOUS
100
AcDbLine
 10
685.8599849999999
 20
16.945379
 30
0.0
 11
662.3599849999999
 21
16.945379
 31
0.0
  0
LINE
  5
FB
330
1E
100
AcDbEntity
  8
0
  6
CONTINUOUS
100
AcDbLine
 10
658.3599849999999
 20
200.212158
 30
0.0
 11
658.3599849999999
 21
-1.05462
 31
0.0
  0
LINE
  5
FC
330
1E
100
AcDbEntity
  8
0
  6
CONTINUOUS
100
AcDbLine
 10
568.3599849999999
 20
186.6865999999999
 30
0.0
 11
568.3599849999999
 21
200.2116239999999
 31
0.0
  0
LINE
  5
FD
330
1E
100
AcDbEntity
  8
0
  6
CONTINUOUS
100
AcDbLine
 10
688.3599849999999
 20
14.682883
 30
0.0
 11
688.3599849999999
 21
-1.05462
 31
0.0
  0
LINE
  5
FE
330
1E
100
AcDbEntity
  8
0
  6
CONTINUOUS
100
AcDbLine
 10
538.3599849999999
 20
14.682883
 30
0.0
 11
538.3599849999999
 21
-1.05462
 31
0.0
  0
LINE
  5
FF
330
1E
100
AcDbEntity
  8
0
  6
CONTINUOUS
100
AcDbLine
 10
584.8599849999999
 20
0.4453800000000001
 30
0.0
 11
641.8599849999999
 21
0.4453800000000001
 31
0.0
  0
LINE
  5
100
330
1E
100
AcDbEntity
  8
0
  6
CONTINUOUS
100
AcDbLine
 10
655.4124149999999
 20
203.211807
 30
0.0
 11
613.3599849999999
 21
203.945435
 31
0.0
  0
LINE
  5
101
330
1E
100
AcDbEntity
  8
0
  6
CONTINUOUS
100
AcDbLine
 10
571.3076169999999
 20
203.2111819999999
 30
0.0
 11
613.3599849999999
 21
203.945435
 31
0.0
  0
LINE
  5
102
330
1E
100
AcDbEntity
  8
0
  6
CONTINUOUS
100
AcDbLine
 10
551.3599849999999
 20
103.6865229999999
 30
0.0
 11
551.3599849999999
 21
174.2042389999999
 31
0.0
  0
LINE
  5
103
330
1E
100
AcDbEntity
  8
0
  6
CONTINUOUS
100
AcDbLine
 10
675.3599849999999
 20
103.6865229999999
 30
0.0
 11
675.3599849999999
 21
174.2042389999999
 31
0.0
  0
LINE
  5
104
330
1E
100
AcDbEntity
  8
0
  6
CONTINUOUS
100
AcDbLine
 10
558.3599849999999
 20
54.70135899999999
 30
0.0
 11
558.3599849999999
 21
142.855774
 31
0.0
  0
LINE
  5
105
330
1E
100
AcDbEntity
  8
0
  6
CONTINUOUS
100
AcDbLine
 10
668.3599849999999
 20
54.70142
 30
0.0
 11
668.3599849999999
 21
142.855774
 31
0.0
  0
LINE
  5
106
330
1E
100
AcDbEntity
  8
0
  6
DASHED
100
AcDbLine
 10
679.8599849999999
 20
16.945379
 30
0.0
 11
679.8599849999999
 21
-1.05462
 31
0.0
  0
LINE
  5
107
330
1E
100
AcDbEntity
  8
0
  6
DASHED
100
AcDbLine
 10
666.8599849999999
 20
16.945379
 30
0.0
 11
666.8599849999999
 21
-1.05462
 31
0.0
  0
LINE
  5
108
330
1E
100
AcDbEntity
  8
0
  6
DASHED
100
AcDbLine
 10
559.8599849999999
 20
16.945379
 30
0.0
 11
559.8599849999999
 21
-1.05462
 31
0.0
  0
LINE
  5
109
330
1E
100
AcDbEntity
  8
0
  6
DASHED
100
AcDbLine
 10
546.8599849999999
 20
16.945379
 30
0.0
 11
546.8599849999999
 21
-1.05462
 31
0.0
  0
ARC
  5
10A
330
1E
100
AcDbEntity
  8
0
  6
CONTINUOUS
100
AcDbCircle
 10
571.3599849999999
 20
200.2116239999999
 30
0.0
 40
3.0
100
AcDbArc
 50
91.000603
 51
180.0
  0
ARC
  5
10B
330
1E
100
AcDbEntity
  8
0
  6
CONTINUOUS
100
AcDbCircle
 10
655.3599849999999
 20
200.212158
 30
0.0
 40
3.0
100
AcDbArc
 50
0.0
 51
89.00057999999999
  0
LINE
  5
10C
330
1E
100
AcDbEntity
  8
0
  6
CONTINUOUS
100
AcDbLine
 10
564.7708129999999
 20
181.889786
 30
0.0
 11
554.9492190000001
 21
179.000977
 31
0.0
  0
LINE
  5
10D
330
1E
100
AcDbEntity
  8
0
  6
CONTINUOUS
100
AcDbLine
 10
554.9492190000001
 20
98.88977800000001
 30
0.0
 11
555.48877
 21
98.731079
 31
0.0
  0
LINE
  5
10E
330
1E
100
AcDbEntity
  8
0
  6
CONTINUOUS
100
AcDbLine
 10
561.967407
 20
49.899239
 30
0.0
 11
564.7526249999999
 21
49.091499
 31
0.0
  0
LINE
  5
10F
330
1E
100
AcDbEntity
  8
0
  6
CONTINUOUS
100
AcDbLine
 10
686.108765
 20
17.17047699999999
 30
0.0
 11
661.0614619999999
 21
19.675228
 31
0.0
  0
LINE
  5
110
330
1E
100
AcDbEntity
  8
0
  6
CONTINUOUS
100
AcDbLine
 10
664.7526249999999
 20
49.899239
 30
0.0
 11
661.967407
 21
49.091499
 31
0.0
  0
LINE
  5
111
330
1E
100
AcDbEntity
  8
0
  6
CONTINUOUS
100
AcDbLine
 10
671.770813
 20
98.88977800000001
 30
0.0
 11
671.2313839999999
 21
98.731079
 31
0.0
  0
LINE
  5
112
330
1E
100
AcDbEntity
  8
0
  6
CONTINUOUS
100
AcDbLine
 10
671.770813
 20
179.000977
 30
0.0
 11
661.949219
 21
181.889786
 31
0.0
  0
LINE
  5
113
330
1E
100
AcDbEntity
  8
0
  6
CONTINUOUS
100
AcDbLine
 10
570.934387
 20
171.4453739999999
 30
0.0
 11
655.61261
 21
171.4453739999999
 31
0.0
  0
ARC
  5
114
330
1E
100
AcDbEntity
  8
0
  6
CONTINUOUS
100
AcDbCircle
 10
556.3599849999999
 20
174.2042389999999
 30
0.0
 40
5.0
100
AcDbArc
 50
106.3898999999999
 51
180.0
  0
ARC
  5
115
330
1E
100
AcDbEntity
  8
0
  6
CONTINUOUS
100
AcDbCircle
 10
670.3599849999999
 20
174.2042389999999
 30
0.0
 40
5.0
100
AcDbArc
 50
0.0
 51
73.61052700000001
  0
ARC
  5
116
330
1E
100
AcDbEntity
  8
0
  6
CONTINUOUS
100
AcDbCircle
 10
556.3599849999999
 20
103.6866
 30
0.0
 40
5.0
100
AcDbArc
 50
180.0
 51
253.6107939999999
  0
ARC
  5
117
330
1E
100
AcDbEntity
  8
0
  6
CONTINUOUS
100
AcDbCircle
 10
670.3599849999999
 20
103.6865229999999
 30
0.0
 40
5.0
100
AcDbArc
 50
286.389679
 51
0.0
  0
ARC
  5
118
330
1E
100
AcDbEntity
  8
0
  6
CONTINUOUS
100
AcDbCircle
 10
663.3599849999999
 20
54.70135899999999
 30
0.0
 40
5.0
100
AcDbArc
 50
286.1723019999999
 51
0.0
  0
ARC
  5
119
330
1E
100
AcDbEntity
  8
0
  6
CONTINUOUS
100
AcDbCircle
 10
563.3599849999999
 20
54.70142
 30
0.0
 40
5.0
100
AcDbArc
 50
180.0
 51
253.8282009999999
  0
LINE
  5
11A
330
1E
100
AcDbEntity
  8
0
  6
CONTINUOUS
100
AcDbLine
 10
568.3599849999999
 20
186.6865999999999
 30
0.0
 11
568.3599849999999
 21
-1.05462
 31
0.0
  0
ARC
  5
11B
330
1E
100
AcDbEntity
  8
0
  6
CONTINUOUS
100
AcDbCircle
 10
563.3599849999999
 20
186.6865999999999
 30
0.0
 40
5.0
100
AcDbArc
 50
286.3897709999999
 51
0.0
  0
ARC
  5
11C
330
1E
100
AcDbEntity
  8
0
  6
CONTINUOUS
100
AcDbCircle
 10
554.3599849999999
 20
94.89356200000001
 30
0.0
 40
4.0
100
AcDbArc
 50
0.0
 51
73.61064899999999
  0
ARC
  5
11D
330
1E
100
AcDbEntity
  8
0
  6
CONTINUOUS
100
AcDbCircle
 10
563.3599849999999
 20
44.289322
 30
0.0
 40
5.0
100
AcDbArc
 50
0.0
 51
73.82791899999999
  0
ARC
  5
11E
330
1E
100
AcDbEntity
  8
0
  6
CONTINUOUS
100
AcDbCircle
 10
663.3599849999999
 20
44.289379
 30
0.0
 40
5.0
100
AcDbArc
 50
106.1725009999999
 51
180.0
  0
ARC
  5
11F
330
1E
100
AcDbEntity
  8
0
  6
CONTINUOUS
100
AcDbCircle
 10
672.3599849999999
 20
94.89362300000001
 30
0.0
 40
4.0
100
AcDbArc
 50
106.3899989999999
 51
180.0
  0
ARC
  5
120
330
1E
100
AcDbEntity
  8
0
  6
CONTINUOUS
100
AcDbCircle
 10
663.3599849999999
 20
186.6865999999999
 30
0.0
 40
5.0
100
AcDbArc
 50
180.0
 51
253.6107939999999
  0
LINE
  5
121
330
1E
100
AcDbEntity
  8
0
  6
CONTINUOUS
100
AcDbLine
 10
583.3599849999999
 20
-1.05462
 30
0.0
 11
584.8599849999999
 21
0.4453800000000001
 31
0.0
  0
LINE
  5
122
330
1E
100
AcDbEntity
  8
0
  6
CONTINUOUS
100
AcDbLine
 10
643.3599849999999
 20
-1.05462
 30
0.0
 11
641.8599849999999
 21
0.4453800000000001
 31
0.0
  0
ARC
  5
123
330
1E
100
AcDbEntity
  8
0
  6
CONTINUOUS
100
AcDbCircle
 10
662.3599849999999
 20
20.945379
 30
0.0
 40
4.0
100
AcDbArc
 50
180.0
 51
270.0
  0
ARC
  5
124
330
1E
100
AcDbEntity
  8
0
  6
CONTINUOUS
100
AcDbCircle
 10
685.8599849999999
 20
14.44537999999999
 30
0.0
 40
2.5
100
AcDbArc
 50
0.0
 51
90.0
  0
LINE
  5
125
330
1E
100
AcDbEntity
  8
0
  6
CENTER
100
AcDbLine
 10
510.8900150000001
 20
96.94538100000002
 30
0.0
 11
694.921265
 21
96.94538100000002
 31
0.0
  0
ARC
  5
126
330
1E
100
AcDbEntity
  8
0
  6
CONTINUOUS
100
AcDbCircle
 10
613.3599849999999
 20
96.94538100000002
 30
0.0
 40
71.0
100
AcDbArc
 50
309.331299
 51
29.162706
  0
ARC
  5
127
330
1E
100
AcDbEntity
  8
0
  6
CONTINUOUS
100
AcDbCircle
 10
613.3599849999999
 20
96.94538100000002
 30
0.0
 40
71.0
100
AcDbArc
 50
158.518707
 51
230.6687009999999
  0
LINE
  5
128
330
1E
100
AcDbEntity
  8
0
  6
CONTINUOUS
100
AcDbLine
 10
493.3599849999999
 20
122.945381
 30
0.0
 11
493.3599849999999
 21
154.9453739999999
 31
0.0
  0
LINE
  5
129
330
1E
100
AcDbEntity
  8
0
  6
CONTINUOUS
100
AcDbLine
 10
548.3599849999999
 20
154.9453739999999
 30
0.0
 11
493.3599849999999
 21
154.9453739999999
 31
0.0
  0
LINE
  5
12A
330
1E
100
AcDbEntity
  8
0
  6
CONTINUOUS
100
AcDbLine
 10
548.3599849999999
 20
122.945381
 30
0.0
 11
493.3599849999999
 21
122.945381
 31
0.0
  0
LINE
  5
12B
330
1E
100
AcDbEntity
  8
0
  6
CONTINUOUS
100
AcDbLine
 10
548.3599849999999
 20
156.4453739999999
 30
0.0
 11
548.3599849999999
 21
121.445381
 31
0.0
  0
LINE
  5
12C
330
1E
100
AcDbEntity
  8
0
  6
CONTINUOUS
100
AcDbLine
 10
551.3599849999999
 20
156.4453739999999
 30
0.0
 11
548.3599849999999
 21
156.4453739999999
 31
0.0
  0
LINE
  5
12D
330
1E
100
AcDbEntity
  8
0
  6
CONTINUOUS
100
AcDbLine
 10
551.3599849999999
 20
121.445381
 30
0.0
 11
548.3599849999999
 21
121.445381
 31
0.0
  0
ARC
  5
12E
330
1E
100
AcDbEntity
  8
0
  6
CONTINUOUS
100
AcDbCircle
 10
538.3599849999999
 20
138.9453739999999
 30
0.0
 40
5.0
100
AcDbArc
 50
270.0
 51
90.0
  0
LINE
  5
12F
330
1E
100
AcDbEntity
  8
0
  6
CONTINUOUS
100
AcDbLine
 10
538.3599849999999
 20
143.9453739999999
 30
0.0
 11
493.3599849999999
 21
143.9453739999999
 31
0.0
  0
LINE
  5
130
330
1E
100
AcDbEntity
  8
0
  6
CONTINUOUS
100
AcDbLine
 10
538.3599849999999
 20
133.9453739999999
 30
0.0
 11
493.3599849999999
 21
133.9453739999999
 31
0.0
  0
LINE
  5
133
330
1E
100
AcDbEntity
  8
0
  6
CONTINUOUS
100
AcDbLine
 10
225.9181209999999
 20
136.6953739999999
 30
0.0
 11
225.9181209999999
 21
29.15575999999999
 31
0.0
  0
LINE
  5
134
330
1E
100
AcDbEntity
  8
0
  6
CONTINUOUS
100
AcDbLine
 10
228.8395229999999
 20
26.15686
 30
0.0
 11
236.9181209999999
 21
25.945379
 31
0.0
  0
ARC
  5
135
330
1E
100
AcDbEntity
  8
0
  6
CONTINUOUS
100
AcDbCircle
 10
228.9181209999999
 20
29.155899
 30
0.0
 40
3.0
100
AcDbArc
 50
180.0
 51
268.5004879999999
  0
LINE
  5
136
330
1E
100
AcDbEntity
  8
0
  6
CONTINUOUS
100
AcDbLine
 10
236.9181209999999
 20
167.9453739999999
 30
0.0
 11
191.787231
 21
169.1275019999999
 31
0.0
  0
LINE
  5
137
330
1E
100
AcDbEntity
  8
0
  6
CENTER
100
AcDbLine
 10
-14.16999999999999
 20
130.9453739999999
 30
0.0
 11
215.673416
 21
130.9453739999999
 31
0.0
  0
LINE
  5
138
330
1E
100
AcDbEntity
  8
0
  6
CENTER
100
AcDbLine
 10
205.6681209999999
 20
96.94538100000002
 30
0.0
 11
236.9181209999999
 21
96.94538100000002
 31
0.0
  0
LINE
  5
139
330
1E
100
AcDbEntity
  8
0
  6
CONTINUOUS
100
AcDbLine
 10
178.4181209999999
 20
188.4453739999999
 30
0.0
 11
178.4181209999999
 21
73.44538100000001
 31
0.0
  0
LINE
  5
13A
330
1E
100
AcDbEntity
  8
0
  6
CONTINUOUS
100
AcDbLine
 10
186.9181209999999
 20
185.4453739999999
 30
0.0
 11
186.9181209999999
 21
143.1953739999999
 31
0.0
  0
LINE
  5
13B
330
1E
100
AcDbEntity
  8
0
  6
CONTINUOUS
100
AcDbLine
 10
183.9181209999999
 20
188.4453739999999
 30
0.0
 11
178.4181209999999
 21
188.4453739999999
 31
0.0
  0
LINE
  5
13C
330
1E
100
AcDbEntity
  8
0
  6
CONTINUOUS
100
AcDbLine
 10
178.4181209999999
 20
73.44538100000001
 30
0.0
 11
182.789001
 21
73.44538100000001
 31
0.0
  0
ARC
  5
13D
330
1E
100
AcDbEntity
  8
0
  6
CONTINUOUS
100
AcDbCircle
 10
183.9181209999999
 20
185.4453429999999
 30
0.0
 40
3.0
100
AcDbArc
 50
0.0
 51
90.0
  0
LINE
  5
13E
330
1E
100
AcDbEntity
  8
0
  6
CONTINUOUS
100
AcDbLine
 10
225.9181209999999
 20
40.945381
 30
0.0
 11
182.789001
 21
73.44538100000001
 31
0.0
  0
ARC
  5
13F
330
1E
100
AcDbEntity
  8
0
  6
CONTINUOUS
100
AcDbCircle
 10
191.918091
 20
174.1258389999999
 30
0.0
 40
5.0
100
AcDbArc
 50
180.0
 51
268.499908
  0
ARC
  5
140
330
1E
100
AcDbEntity
  8
0
  6
CONTINUOUS
100
AcDbCircle
 10
661.3599849999999
 20
22.660339
 30
0.0
 40
3.0
100
AcDbArc
 50
180.0
 51
264.2893369999999
  0
ARC
  5
141
330
1E
100
AcDbEntity
  8
0
  6
CONTINUOUS
100
AcDbCircle
 10
685.8599849999999
 20
14.682883
 30
0.0
 40
2.5
100
AcDbArc
 50
0.0
 51
84.28935200000001
  0
LINE
  5
142
330
1E
100
AcDbEntity
  8
0
  6
CONTINUOUS
100
AcDbLine
 10
540.8599849999999
 20
16.945379
 30
0.0
 11
564.3599849999999
 21
16.945379
 31
0.0
  0
LINE
  5
143
330
1E
100
AcDbEntity
  8
0
  6
CONTINUOUS
100
AcDbLine
 10
540.6112669999999
 20
17.17047699999999
 30
0.0
 11
565.658508
 21
19.675228
 31
0.0
  0
ARC
  5
144
330
1E
100
AcDbEntity
  8
0
  6
CONTINUOUS
100
AcDbCircle
 10
564.3599849999999
 20
20.945379
 30
0.0
 40
4.0
100
AcDbArc
 50
270.0
 51
0.0
  0
ARC
  5
145
330
1E
100
AcDbEntity
  8
0
  6
CONTINUOUS
100
AcDbCircle
 10
540.8599849999999
 20
14.44537999999999
 30
0.0
 40
2.5
100
AcDbArc
 50
90.0
 51
180.0
  0
ARC
  5
146
330
1E
100
AcDbEntity
  8
0
  6
CONTINUOUS
100
AcDbCircle
 10
565.3599849999999
 20
22.660339
 30
0.0
 40
3.0
100
AcDbArc
 50
275.710648
 51
0.0
  0
ARC
  5
147
330
1E
100
AcDbEntity
  8
0
  6
CONTINUOUS
100
AcDbCircle
 10
540.8599849999999
 20
14.682883
 30
0.0
 40
2.5
100
AcDbArc
 50
95.710648
 51
180.0
  0
LINE
  5
148
330
1E
100
AcDbEntity
  8
0
  6
CONTINUOUS
100
AcDbLine
 10
225.918198
 20
473.702667
 30
0.0
 11
225.918198
 21
464.238403
 31
0.0
  0
LINE
  5
149
330
1E
100
AcDbEntity
  8
0
  6
CONTINUOUS
100
AcDbLine
 10
236.91832
 20
334.494232
 30
0.0
 11
228.839828
 21
334.7057799999999
 31
0.0
  0
ARC
  5
14A
330
1E
100
AcDbEntity
  8
0
  6
CONTINUOUS
100
AcDbCircle
 10
228.91832
 20
337.7048029999999
 30
0.0
 40
3.0
100
AcDbArc
 50
180.0
 51
268.5003049999999
  0
LINE
  5
14B
330
1E
100
AcDbEntity
  8
0
  6
CONTINUOUS
100
AcDbLine
 10
236.91832
 20
476.494171
 30
0.0
 11
228.996689
 21
476.7016299999999
 31
0.0
  0
ARC
  5
14C
330
1E
100
AcDbEntity
  8
0
  6
CONTINUOUS
100
AcDbCircle
 10
228.9181979999999
 20
473.702667
 30
0.0
 40
3.0
100
AcDbArc
 50
88.50013699999999
 51
180.0
  0
LINE
  5
14D
330
1E
100
AcDbEntity
  8
0
  6
CONTINUOUS
100
AcDbLine
 10
225.9179689999999
 20
346.750397
 30
0.0
 11
225.9179689999999
 21
337.7048029999999
 31
0.0
  0
LINE
  5
14E
330
1E
100
AcDbEntity
  8
0
  6
CONTINUOUS
100
AcDbLine
 10
186.9182889999999
 20
460.13739
 30
0.0
 11
186.918106
 21
350.851288
 31
0.0
  0
LINE
  5
14F
330
1E
100
AcDbEntity
  8
0
  6
CONTINUOUS
100
AcDbLine
 10
178.41832
 20
462.994232
 30
0.0
 11
225.918198
 21
464.238403
 31
0.0
  0
LINE
  5
150
330
1E
100
AcDbEntity
  8
0
  6
CONTINUOUS
100
AcDbLine
 10
178.41832
 20
347.994232
 30
0.0
 11
225.9179689999999
 21
346.750397
 31
0.0
  0
ARC
  5
151
330
1E
100
AcDbEntity
  8
0
  6
CONTINUOUS
100
AcDbCircle
 10
183.91835
 20
460.13739
 30
0.0
 40
3.0
100
AcDbArc
 50
0.0
 51
91.50055700000001
  0
ARC
  5
152
330
1E
100
AcDbEntity
  8
0
  6
CONTINUOUS
100
AcDbCircle
 10
183.91835
 20
350.851288
 30
0.0
 40
3.0
100
AcDbArc
 50
268.500122
 51
0.0
  0
LINE
  5
153
330
1E
100
AcDbEntity
  8
0
  6
CONTINUOUS
100
AcDbLine
 10
178.41832
 20
462.994232
 30
0.0
 11
178.41832
 21
347.994232
 31
0.0
  0
LINE
  5
154
330
1E
100
AcDbEntity
  8
0
  6
CONTINUOUS
100
AcDbLine
 10
54.41815099850896
 20
462.994232
 30
0.0
 11
178.41832
 21
462.994232
 31
0.0
  0
LINE
  5
155
330
1E
100
AcDbEntity
  8
0
  6
CONTINUOUS
100
AcDbLine
 10
178.41832
 20
347.994232
 30
0.0
 11
133.8926999999999
 21
347.994232
 31
0.0
  0
LINE
  5
156
330
1E
100
AcDbEntity
  8
0
  6
CONTINUOUS
100
AcDbLine
 10
66.41832700000001
 20
431.493713
 30
0.0
 11
170.392136
 21
431.493713
 31
0.0
  0
LINE
  5
157
330
1E
100
AcDbEntity
  8
0
  6
CONTINUOUS
100
AcDbLine
 10
66.41832700000001
 20
439.2642519999999
 30
0.0
 11
170.392136
 21
439.2642519999999
 31
0.0
  0
LINE
  5
158
330
1E
100
AcDbEntity
  8
0
  6
CONTINUOUS
100
AcDbLine
 10
67.418327
 20
442.54364
 30
0.0
 11
169.392151
 21
442.54364
 31
0.0
  0
LINE
  5
159
330
1E
100
AcDbEntity
  8
0
  6
CONTINUOUS
100
AcDbLine
 10
66.41832700000001
 20
447.358582
 30
0.0
 11
170.392136
 21
447.358582
 31
0.0
  0
LINE
  5
15A
330
1E
100
AcDbEntity
  8
0
  6
CONTINUOUS
100
AcDbLine
 10
67.418327
 20
449.346436
 30
0.0
 11
169.392151
 21
449.346436
 31
0.0
  0
LINE
  5
15B
330
1E
100
AcDbEntity
  8
0
  6
CONTINUOUS
100
AcDbLine
 10
66.41832700000001
 20
453.389069
 30
0.0
 11
170.392136
 21
453.389069
 31
0.0
  0
LINE
  5
15C
330
1E
100
AcDbEntity
  8
0
  6
CONTINUOUS
100
AcDbLine
 10
66.41832700000001
 20
457.9199219999999
 30
0.0
 11
170.392136
 21
457.9199219999999
 31
0.0
  0
LINE
  5
15D
330
1E
100
AcDbEntity
  8
0
  6
CONTINUOUS
100
AcDbLine
 10
66.41832700000001
 20
460.796997
 30
0.0
 11
170.392136
 21
460.796997
 31
0.0
  0
LINE
  5
15E
330
1E
100
AcDbEntity
  8
0
  6
CONTINUOUS
100
AcDbLine
 10
66.41832700000001
 20
462.4523009999999
 30
0.0
 11
170.392136
 21
462.4523009999999
 31
0.0
  0
LINE
  5
15F
330
1E
100
AcDbEntity
  8
0
  6
CONTINUOUS
100
AcDbLine
 10
170.392136
 20
462.994232
 30
0.0
 11
170.392136
 21
431.493713
 31
0.0
  0
LINE
  5
160
330
1E
100
AcDbEntity
  8
0
  6
CONTINUOUS
100
AcDbLine
 10
66.41832700000001
 20
379.49472
 30
0.0
 11
170.392136
 21
379.49472
 31
0.0
  0
LINE
  5
161
330
1E
100
AcDbEntity
  8
0
  6
CONTINUOUS
100
AcDbLine
 10
66.41832700000001
 20
371.7242129999999
 30
0.0
 11
170.392136
 21
371.7242129999999
 31
0.0
  0
LINE
  5
162
330
1E
100
AcDbEntity
  8
0
  6
CONTINUOUS
100
AcDbLine
 10
66.41832700000001
 20
363.629852
 30
0.0
 11
170.392136
 21
363.629852
 31
0.0
  0
LINE
  5
163
330
1E
100
AcDbEntity
  8
0
  6
CONTINUOUS
100
AcDbLine
 10
133.3926999999999
 20
353.068512
 30
0.0
 11
170.392136
 21
353.068512
 31
0.0
  0
LINE
  5
164
330
1E
100
AcDbEntity
  8
0
  6
CONTINUOUS
100
AcDbLine
 10
133.3926999999999
 20
350.191467
 30
0.0
 11
170.392136
 21
350.191467
 31
0.0
  0
LINE
  5
165
330
1E
100
AcDbEntity
  8
0
  6
CONTINUOUS
100
AcDbLine
 10
133.892685
 20
348.5361629999999
 30
0.0
 11
170.392136
 21
348.5361629999999
 31
0.0
  0
LINE
  5
166
330
1E
100
AcDbEntity
  8
0
  6
CONTINUOUS
100
AcDbLine
 10
170.392136
 20
347.994232
 30
0.0
 11
170.392136
 21
379.49472
 31
0.0
  0
LINE
  5
167
330
1E
100
AcDbEntity
  8
0
  6
CONTINUOUS
100
AcDbLine
 10
133.3926999999999
 20
348.494232
 30
0.0
 11
133.3926999999999
 21
354.693665
 31
0.0
  0
ARC
  5
168
330
1E
100
AcDbEntity
  8
0
  6
CONTINUOUS
100
AcDbCircle
 10
133.892685
 20
349.036133
 30
0.0
 40
0.499992
100
AcDbArc
 50
180.0
 51
270.0
  0
ARC
  5
169
330
1E
100
AcDbEntity
  8
0
  6
CONTINUOUS
100
AcDbCircle
 10
132.3927149999999
 20
350.495087
 30
0.0
 40
0.9999839999999998
100
AcDbArc
 50
270.0
 51
0.0
  0
LINE
  5
16A
330
1E
100
AcDbEntity
  8
0
  6
CONTINUOUS
100
AcDbLine
 10
67.418327
 20
368.444824
 30
0.0
 11
169.392151
 21
368.444824
 31
0.0
  0
LINE
  5
16B
330
1E
100
AcDbEntity
  8
0
  6
CONTINUOUS
100
AcDbLine
 10
67.418327
 20
361.6420289999999
 30
0.0
 11
169.392151
 21
361.6420289999999
 31
0.0
  0
LINE
  5
16C
330
1E
100
AcDbEntity
  8
0
  6
CONTINUOUS
100
AcDbLine
 10
66.41832700000001
 20
357.599396
 30
0.0
 11
170.392136
 21
357.599396
 31
0.0
  0
LINE
  5
16D
330
1E
100
AcDbEntity
  8
0
  6
CONTINUOUS
100
AcDbLine
 10
66.41832700000001
 20
354.693665
 30
0.0
 11
133.3926999999999
 21
354.693665
 31
0.0
  0
LINE
  5
16E
330
1E
100
AcDbEntity
  8
0
  6
CONTINUOUS
100
AcDbLine
 10
67.418327
 20
349.495117
 30
0.0
 11
112.940697
 21
349.495117
 31
0.0
  0
LINE
  5
16F
330
1E
100
AcDbEntity
  8
0
  6
CONTINUOUS
100
AcDbLine
 10
132.3927149999999
 20
349.495117
 30
0.0
 11
112.940697
 21
349.4950259999999
 31
0.0
  0
ARC
  5
170
330
1E
100
AcDbEntity
  8
0
  6
CONTINUOUS
100
AcDbCircle
 10
133.8926999999999
 20
348.494232
 30
0.0
 40
0.5
100
AcDbArc
 50
180.0
 51
270.0
  0
LINE
  5
171
330
1E
100
AcDbEntity
  8
0
  6
CONTINUOUS
100
AcDbLine
 10
311.2490839999999
 20
19.945379
 30
0.0
 11
359.5871579999999
 21
19.945379
 31
0.0
  0
ARC
  5
172
330
1E
100
AcDbEntity
  8
0
  6
CONTINUOUS
100
AcDbCircle
 10
311.2490839999999
 20
16.945379
 30
0.0
 40
3.0
100
AcDbArc
 50
90.0
 51
120.964531
  0
ARC
  5
173
330
1E
100
AcDbEntity
  8
0
  6
CONTINUOUS
100
AcDbCircle
 10
304.0333249999999
 20
21.94537899999999
 30
0.0
 40
5.0
100
AcDbArc
 50
270.0
 51
300.964539
  0
LINE
  5
174
330
1E
100
AcDbEntity
  8
0
  6
CONTINUOUS
100
AcDbLine
 10
360.418121
 20
19.54537999999999
 30
0.0
 11
360.418121
 21
17.94537899999999
 31
0.0
  0
LINE
  5
175
330
1E
100
AcDbEntity
  8
0
  6
CONTINUOUS
100
AcDbLine
 10
361.130676
 20
19.517838
 30
0.0
 11
364.2303769999999
 21
17.65794899999999
 31
0.0
  0
ARC
  5
176
330
1E
100
AcDbEntity
  8
0
  6
CONTINUOUS
100
AcDbCircle
 10
361.4181209999999
 20
17.94537899999999
 30
0.0
 40
1.0
100
AcDbArc
 50
180.0
 51
270.0
  0
ARC
  5
177
330
1E
100
AcDbEntity
  8
0
  6
CONTINUOUS
100
AcDbCircle
 10
359.5871579999999
 20
16.945379
 30
0.0
 40
3.0
100
AcDbArc
 50
59.035465
 51
90.0
  0
ARC
  5
178
330
1E
100
AcDbEntity
  8
0
  6
CONTINUOUS
100
AcDbCircle
 10
366.802917
 20
21.94537899999999
 30
0.0
 40
5.0
100
AcDbArc
 50
239.0354689999999
 51
270.0
  0
LINE
  5
179
330
1E
100
AcDbEntity
  8
0
  6
CENTER
100
AcDbLine
 10
562.8381349999999
 20
130.9453739999999
 30
0.0
 11
665.1568599999999
 21
130.9453739999999
 31
0.0
  0
LINE
  5
17A
330
1E
100
AcDbEntity
  8
0
  6
CONTINUOUS
100
AcDbLine
 10
60.480724
 20
335.072418
 30
0.0
 11
59.418324
 21
294.994232
 31
0.0
  0
LINE
  5
17B
330
1E
100
AcDbEntity
  8
0
  6
CONTINUOUS
100
AcDbLine
 10
128.355331
 20
335.072418
 30
0.0
 11
129.4183199999999
 21
294.994232
 31
0.0
  0
LINE
  5
17C
330
1E
100
AcDbEntity
  8
0
  6
CONTINUOUS
100
AcDbLine
 10
70.392525
 20
347.994232
 30
0.0
 11
82.918327
 21
347.994232
 31
0.0
  0
LINE
  5
17D
330
1E
100
AcDbEntity
  8
0
  6
CONTINUOUS
100
AcDbLine
 10
118.4441219999999
 20
347.994232
 30
0.0
 11
82.918327
 21
347.994232
 31
0.0
  0
LINE
  5
17E
330
1E
100
AcDbEntity
  8
0
  6
CONTINUOUS
100
AcDbLine
 10
125.3695219999999
 20
337.994232
 30
0.0
 11
107.729523
 21
337.994232
 31
0.0
  0
ARC
  5
17F
330
1E
100
AcDbEntity
  8
0
  6
CONTINUOUS
100
AcDbCircle
 10
63.466324
 20
334.994232
 30
0.0
 40
3.0
100
AcDbArc
 50
90.0
 51
178.5002749999999
  0
ARC
  5
180
330
1E
100
AcDbEntity
  8
0
  6
CONTINUOUS
100
AcDbCircle
 10
125.3695219999999
 20
334.994232
 30
0.0
 40
3.0
100
AcDbArc
 50
1.4999
 51
90.0
  0
LINE
  5
181
330
1E
100
AcDbEntity
  8
0
  6
CONTINUOUS
100
AcDbLine
 10
69.392769
 20
347.020416
 30
0.0
 11
69.20742
 21
339.941864
 31
0.0
  0
LINE
  5
182
330
1E
100
AcDbEntity
  8
0
  6
CONTINUOUS
100
AcDbLine
 10
119.443436
 20
347.0203859999999
 30
0.0
 11
119.629211
 21
339.9417419999999
 31
0.0
  0
ARC
  5
183
330
1E
100
AcDbEntity
  8
0
  6
CONTINUOUS
100
AcDbCircle
 10
118.4441219999999
 20
346.994232
 30
0.0
 40
1.0
100
AcDbArc
 50
1.4993
 51
90.0
  0
ARC
  5
184
330
1E
100
AcDbEntity
  8
0
  6
CONTINUOUS
100
AcDbCircle
 10
70.392525
 20
346.994232
 30
0.0
 40
1.0
100
AcDbArc
 50
90.0
 51
178.4994049999999
  0
LINE
  5
185
330
1E
100
AcDbEntity
  8
0
  6
CONTINUOUS
100
AcDbLine
 10
63.466526
 20
337.994232
 30
0.0
 11
81.107124
 21
337.994232
 31
0.0
  0
ARC
  5
186
330
1E
100
AcDbEntity
  8
0
  6
CONTINUOUS
100
AcDbCircle
 10
94.418327
 20
405.494232
 30
0.0
 40
68.800003
100
AcDbArc
 50
258.8442
 51
281.1558
  0
LINE
  5
187
330
1E
100
AcDbEntity
  8
0
  6
CENTER
100
AcDbLine
 10
94.418327
 20
351.820435
 30
0.0
 11
94.418327
 21
276.900635
 31
0.0
  0
LINE
  5
188
330
1E
100
AcDbEntity
  8
0
  6
CONTINUOUS
100
AcDbLine
 10
61.918324
 20
288.994232
 30
0.0
 11
126.918327
 21
288.994232
 31
0.0
  0
LINE
  5
189
330
1E
100
AcDbEntity
  8
0
  6
CONTINUOUS
100
AcDbLine
 10
129.4183199999999
 20
291.494232
 30
0.0
 11
129.4183199999999
 21
293.994232
 31
0.0
  0
LINE
  5
18A
330
1E
100
AcDbEntity
  8
0
  6
CONTINUOUS
100
AcDbLine
 10
59.418324
 20
291.494232
 30
0.0
 11
59.418324
 21
293.994232
 31
0.0
  0
LINE
  5
18B
330
1E
100
AcDbEntity
  8
0
  6
CONTINUOUS
100
AcDbLine
 10
129.4183199999999
 20
293.994232
 30
0.0
 11
59.418324
 21
293.994232
 31
0.0
  0
LINE
  5
18C
330
1E
100
AcDbEntity
  8
0
  6
CONTINUOUS
100
AcDbLine
 10
129.4183199999999
 20
294.994232
 30
0.0
 11
59.418324
 21
294.994232
 31
0.0
  0
LINE
  5
18D
330
1E
100
AcDbEntity
  8
0
  6
CONTINUOUS
100
AcDbLine
 10
129.4183199999999
 20
293.994232
 30
0.0
 11
129.4183199999999
 21
294.994232
 31
0.0
  0
LINE
  5
18E
330
1E
100
AcDbEntity
  8
0
  6
CONTINUOUS
100
AcDbLine
 10
59.418324
 20
293.994232
 30
0.0
 11
59.418324
 21
294.994232
 31
0.0
  0
LINE
  5
18F
330
1E
100
AcDbEntity
  8
0
  6
CENTER
100
AcDbLine
 10
64.418327
 20
310.994232
 30
0.0
 11
24.731325
 21
310.994232
 31
0.0
  0
LINE
  5
190
330
1E
100
AcDbEntity
  8
0
  6
CONTINUOUS
100
AcDbLine
 10
120.905525
 20
291.994232
 30
0.0
 11
128.4183199999999
 21
291.994232
 31
0.0
  0
LINE
  5
191
330
1E
100
AcDbEntity
  8
0
  6
CONTINUOUS
100
AcDbLine
 10
67.93132800000001
 20
291.994232
 30
0.0
 11
60.418324
 21
291.994232
 31
0.0
  0
LINE
  5
192
330
1E
100
AcDbEntity
  8
0
  6
CONTINUOUS
100
AcDbLine
 10
120.4055249999999
 20
291.507416
 30
0.0
 11
120.365326
 21
289.968018
 31
0.0
  0
ARC
  5
193
330
1E
100
AcDbEntity
  8
0
  6
CONTINUOUS
100
AcDbCircle
 10
120.905525
 20
291.494232
 30
0.0
 40
0.5
100
AcDbArc
 50
90.0
 51
178.5
  0
ARC
  5
194
330
1E
100
AcDbEntity
  8
0
  6
CONTINUOUS
100
AcDbCircle
 10
119.365723
 20
289.994232
 30
0.0
 40
1.0
100
AcDbArc
 50
270.0
 51
358.5002
  0
ARC
  5
195
330
1E
100
AcDbEntity
  8
0
  6
CONTINUOUS
100
AcDbCircle
 10
128.4183199999999
 20
292.994232
 30
0.0
 40
1.0
100
AcDbArc
 50
270.0
 51
0.0
  0
ARC
  5
196
330
1E
100
AcDbEntity
  8
0
  6
CONTINUOUS
100
AcDbCircle
 10
126.918327
 20
291.494232
 30
0.0
 40
2.5
100
AcDbArc
 50
270.0
 51
0.0
  0
LINE
  5
197
330
1E
100
AcDbEntity
  8
0
  6
CONTINUOUS
100
AcDbLine
 10
68.431122
 20
291.507416
 30
0.0
 11
68.471329
 21
289.968018
 31
0.0
  0
ARC
  5
198
330
1E
100
AcDbEntity
  8
0
  6
CONTINUOUS
100
AcDbCircle
 10
69.47112299999999
 20
289.994232
 30
0.0
 40
1.0
100
AcDbArc
 50
181.500397
 51
270.0
  0
ARC
  5
199
330
1E
100
AcDbEntity
  8
0
  6
CONTINUOUS
100
AcDbCircle
 10
67.93132800000001
 20
291.494232
 30
0.0
 40
0.5
100
AcDbArc
 50
1.500199999999999
 51
90.0
  0
ARC
  5
19A
330
1E
100
AcDbEntity
  8
0
  6
CONTINUOUS
100
AcDbCircle
 10
60.418324
 20
292.994232
 30
0.0
 40
1.0
100
AcDbArc
 50
180.0
 51
270.0
  0
ARC
  5
19B
330
1E
100
AcDbEntity
  8
0
  6
CONTINUOUS
100
AcDbCircle
 10
61.918324
 20
291.494232
 30
0.0
 40
2.5
100
AcDbArc
 50
180.0
 51
270.0
  0
ARC
  5
19C
330
1E
100
AcDbEntity
  8
0
  6
CONTINUOUS
100
AcDbCircle
 10
124.418327
 20
291.994232
 30
0.0
 40
3.0
100
AcDbArc
 50
180.0
 51
0.0
  0
LINE
  5
19D
330
1E
100
AcDbEntity
  8
0
  6
CONTINUOUS
100
AcDbLine
 10
127.376328
 20
291.494232
 30
0.0
 11
121.460327
 21
291.494232
 31
0.0
  0
LINE
  5
19E
330
1E
100
AcDbEntity
  8
0
  6
CONTINUOUS
100
AcDbLine
 10
124.418327
 20
289.494232
 30
0.0
 11
124.137321
 21
289.007416
 31
0.0
  0
LINE
  5
19F
330
1E
100
AcDbEntity
  8
0
  6
CONTINUOUS
100
AcDbLine
 10
124.418327
 20
289.494232
 30
0.0
 11
124.6995239999999
 21
289.007416
 31
0.0
  0
ARC
  5
1A0
330
1E
100
AcDbEntity
  8
0
  6
CONTINUOUS
100
AcDbCircle
 10
64.418327
 20
291.994232
 30
0.0
 40
3.0
100
AcDbArc
 50
180.0
 51
0.0
  0
LINE
  5
1A1
330
1E
100
AcDbEntity
  8
0
  6
CONTINUOUS
100
AcDbLine
 10
67.376328
 20
291.494232
 30
0.0
 11
61.46032299999999
 21
291.494232
 31
0.0
  0
LINE
  5
1A2
330
1E
100
AcDbEntity
  8
0
  6
CONTINUOUS
100
AcDbLine
 10
64.418327
 20
289.494232
 30
0.0
 11
64.137321
 21
289.007416
 31
0.0
  0
LINE
  5
1A3
330
1E
100
AcDbEntity
  8
0
  6
CONTINUOUS
100
AcDbLine
 10
64.418327
 20
289.494232
 30
0.0
 11
64.699524
 21
289.007416
 31
0.0
  0
LINE
  5
1A4
330
1E
100
AcDbEntity
  8
0
  6
CONTINUOUS
100
AcDbLine
 10
117.418327
 20
347.994232
 30
0.0
 11
117.418327
 21
349.494232
 31
0.0
  0
LINE
  5
1A5
330
1E
100
AcDbEntity
  8
0
  6
CONTINUOUS
100
AcDbLine
 10
71.41832700000001
 20
347.994232
 30
0.0
 11
71.41832700000001
 21
349.494232
 31
0.0
  0
LINE
  5
1A6
330
1E
100
AcDbEntity
  8
0
  6
CONTINUOUS
100
AcDbLine
 10
31.418325
 20
325.494415
 30
0.0
 11
31.418325
 21
296.494232
 31
0.0
  0
LINE
  5
1A7
330
1E
100
AcDbEntity
  8
0
  6
CONTINUOUS
100
AcDbLine
 10
39.418324
 20
325.494415
 30
0.0
 11
39.418324
 21
296.494232
 31
0.0
  0
LINE
  5
1A8
330
1E
100
AcDbEntity
  8
0
  6
CONTINUOUS
100
AcDbLine
 10
31.418325
 20
325.494415
 30
0.0
 11
39.418324
 21
325.494415
 31
0.0
  0
LINE
  5
1A9
330
1E
100
AcDbEntity
  8
0
  6
CONTINUOUS
100
AcDbLine
 10
31.418325
 20
296.494232
 30
0.0
 11
39.418324
 21
296.494232
 31
0.0
  0
LINE
  5
1AA
330
1E
100
AcDbEntity
  8
0
  6
CONTINUOUS
100
AcDbLine
 10
48.418324
 20
323.9944149999999
 30
0.0
 11
48.418324
 21
297.994232
 31
0.0
  0
LINE
  5
1AB
330
1E
100
AcDbEntity
  8
0
  6
CONTINUOUS
100
AcDbLine
 10
39.418324
 20
323.9944149999999
 30
0.0
 11
48.418324
 21
323.9944149999999
 31
0.0
  0
LINE
  5
1AC
330
1E
100
AcDbEntity
  8
0
  6
CONTINUOUS
100
AcDbLine
 10
39.418324
 20
297.994232
 30
0.0
 11
48.418324
 21
297.994232
 31
0.0
  0
LINE
  5
1AD
330
1E
100
AcDbEntity
  8
0
  6
CONTINUOUS
100
AcDbLine
 10
48.418324
 20
322.494415
 30
0.0
 11
53.418324
 21
322.494415
 31
0.0
  0
LINE
  5
1AE
330
1E
100
AcDbEntity
  8
0
  6
CONTINUOUS
100
AcDbLine
 10
48.418324
 20
299.494232
 30
0.0
 11
53.418324
 21
299.494232
 31
0.0
  0
LINE
  5
1AF
330
1E
100
AcDbEntity
  8
0
  6
CONTINUOUS
100
AcDbLine
 10
53.418324
 20
324.494415
 30
0.0
 11
53.418324
 21
297.494232
 31
0.0
  0
LINE
  5
1B0
330
1E
100
AcDbEntity
  8
0
  6
CONTINUOUS
100
AcDbLine
 10
57.918324
 20
325.494415
 30
0.0
 11
57.918324
 21
296.494232
 31
0.0
  0
LINE
  5
1B1
330
1E
100
AcDbEntity
  8
0
  6
CONTINUOUS
100
AcDbLine
 10
53.418324
 20
324.494415
 30
0.0
 11
57.918324
 21
324.494415
 31
0.0
  0
LINE
  5
1B2
330
1E
100
AcDbEntity
  8
0
  6
CONTINUOUS
100
AcDbLine
 10
53.418324
 20
297.494232
 30
0.0
 11
57.918324
 21
297.494232
 31
0.0
  0
LINE
  5
1B3
330
1E
100
AcDbEntity
  8
0
  6
CONTINUOUS
100
AcDbLine
 10
57.918324
 20
325.494415
 30
0.0
 11
60.226925
 21
325.494415
 31
0.0
  0
LINE
  5
1B4
330
1E
100
AcDbEntity
  8
0
  6
CONTINUOUS
100
AcDbLine
 10
57.918324
 20
296.494232
 30
0.0
 11
59.458126
 21
296.494232
 31
0.0
  0
LINE
  5
1B5
330
1E
100
AcDbEntity
  8
0
  6
CONTINUOUS
100
AcDbLine
 10
31.418325
 20
318.994415
 30
0.0
 11
39.418324
 21
318.994415
 31
0.0
  0
LINE
  5
1B6
330
1E
100
AcDbEntity
  8
0
  6
CONTINUOUS
100
AcDbLine
 10
31.418325
 20
302.9942319999999
 30
0.0
 11
39.418324
 21
302.9942319999999
 31
0.0
  0
LINE
  5
1B7
330
1E
100
AcDbEntity
  8
0
  6
CONTINUOUS
100
AcDbLine
 10
48.418324
 20
320.994415
 30
0.0
 11
53.418324
 21
320.994415
 31
0.0
  0
LINE
  5
1B8
330
1E
100
AcDbEntity
  8
0
  6
CONTINUOUS
100
AcDbLine
 10
48.418324
 20
300.994232
 30
0.0
 11
53.418324
 21
300.994232
 31
0.0
  0
ARC
  5
1B9
330
1E
100
AcDbEntity
  8
0
  6
CONTINUOUS
100
AcDbCircle
 10
67.208107
 20
339.994232
 30
0.0
 40
2.0
100
AcDbArc
 50
270.0
 51
358.500092
  0
ARC
  5
1BA
330
1E
100
AcDbEntity
  8
0
  6
CONTINUOUS
100
AcDbCircle
 10
121.628525
 20
339.994232
 30
0.0
 40
2.0
100
AcDbArc
 50
181.5033719999999
 51
270.0
  0
LINE
  5
1BB
330
1E
100
AcDbEntity
  8
0
  6
CONTINUOUS
100
AcDbLine
 10
54.41815100089776
 20
188.445496
 30
0.0
 11
178.4181209999999
 21
188.445496
 31
0.0
  0
LINE
  5
1BC
330
1E
100
AcDbEntity
  8
0
  6
CONTINUOUS
100
AcDbLine
 10
170.4181209999999
 20
182.231491
 30
0.0
 11
170.4181209999999
 21
177.9454959999999
 31
0.0
  0
LINE
  5
1BD
330
1E
100
AcDbEntity
  8
0
  6
CONTINUOUS
100
AcDbLine
 10
131.4181209999999
 20
157.9454959999999
 30
0.0
 11
129.4181209999999
 21
157.9454959999999
 31
0.0
  0
LINE
  5
1BE
330
1E
100
AcDbEntity
  8
0
  6
CONTINUOUS
100
AcDbLine
 10
131.4181209999999
 20
103.945496
 30
0.0
 11
129.4181209999999
 21
103.945496
 31
0.0
  0
LINE
  5
1BF
330
1E
100
AcDbEntity
  8
0
  6
CONTINUOUS
100
AcDbLine
 10
133.4181209999999
 20
105.9454959999999
 30
0.0
 11
133.4181209999999
 21
155.945496
 31
0.0
  0
LINE
  5
1C0
330
1E
100
AcDbEntity
  8
0
  6
CONTINUOUS
100
AcDbLine
 10
66.418121
 20
168.9454959999999
 30
0.0
 11
170.4181209999999
 21
168.9454959999999
 31
0.0
  0
LINE
  5
1C1
330
1E
100
AcDbEntity
  8
0
  6
CONTINUOUS
100
AcDbLine
 10
66.418121
 20
170.9454959999999
 30
0.0
 11
170.4181209999999
 21
170.9454959999999
 31
0.0
  0
LINE
  5
1C2
330
1E
100
AcDbEntity
  8
0
  6
CONTINUOUS
100
AcDbLine
 10
66.418121
 20
175.945496
 30
0.0
 11
170.4181209999999
 21
175.945496
 31
0.0
  0
LINE
  5
1C3
330
1E
100
AcDbEntity
  8
0
  6
CONTINUOUS
100
AcDbLine
 10
66.418121
 20
177.9454959999999
 30
0.0
 11
170.4181209999999
 21
177.9454959999999
 31
0.0
  0
LINE
  5
1C4
330
1E
100
AcDbEntity
  8
0
  6
CONTINUOUS
100
AcDbLine
 10
66.418121
 20
182.231491
 30
0.0
 11
170.4181209999999
 21
182.231491
 31
0.0
  0
LINE
  5
1C5
330
1E
100
AcDbEntity
  8
0
  6
CONTINUOUS
100
AcDbLine
 10
170.4181209999999
 20
79.659492
 30
0.0
 11
170.4181209999999
 21
83.94549599999999
 31
0.0
  0
LINE
  5
1C6
330
1E
100
AcDbEntity
  8
0
  6
CONTINUOUS
100
AcDbLine
 10
170.4181209999999
 20
85.94549599999998
 30
0.0
 11
170.4181209999999
 21
90.94549599999998
 31
0.0
  0
LINE
  5
1C7
330
1E
100
AcDbEntity
  8
0
  6
CONTINUOUS
100
AcDbLine
 10
170.4181209999999
 20
92.94549599999999
 30
0.0
 11
170.4181209999999
 21
98.445496
 31
0.0
  0
LINE
  5
1C8
330
1E
100
AcDbEntity
  8
0
  6
CONTINUOUS
100
AcDbLine
 10
170.4181209999999
 20
100.4454959999999
 30
0.0
 11
170.4181209999999
 21
106.5454939999999
 31
0.0
  0
LINE
  5
1C9
330
1E
100
AcDbEntity
  8
0
  6
CONTINUOUS
100
AcDbLine
 10
170.4181209999999
 20
108.5454939999999
 30
0.0
 11
170.4181209999999
 21
114.345497
 31
0.0
  0
LINE
  5
1CA
330
1E
100
AcDbEntity
  8
0
  6
CONTINUOUS
100
AcDbLine
 10
170.4181209999999
 20
116.3454969999999
 30
0.0
 11
170.4181209999999
 21
122.1454929999999
 31
0.0
  0
LINE
  5
1CB
330
1E
100
AcDbEntity
  8
0
  6
CONTINUOUS
100
AcDbLine
 10
170.4181209999999
 20
124.1454929999999
 30
0.0
 11
170.4181209999999
 21
129.945496
 31
0.0
  0
LINE
  5
1CC
330
1E
100
AcDbEntity
  8
0
  6
CONTINUOUS
100
AcDbLine
 10
170.4181209999999
 20
131.9454959999999
 30
0.0
 11
170.4181209999999
 21
137.7454989999999
 31
0.0
  0
LINE
  5
1CD
330
1E
100
AcDbEntity
  8
0
  6
CONTINUOUS
100
AcDbLine
 10
170.4181209999999
 20
139.7454989999999
 30
0.0
 11
170.4181209999999
 21
145.545486
 31
0.0
  0
LINE
  5
1CE
330
1E
100
AcDbEntity
  8
0
  6
CONTINUOUS
100
AcDbLine
 10
170.4181209999999
 20
147.545486
 30
0.0
 11
170.4181209999999
 21
153.3454899999999
 31
0.0
  0
LINE
  5
1CF
330
1E
100
AcDbEntity
  8
0
  6
CONTINUOUS
100
AcDbLine
 10
170.4181209999999
 20
155.34549
 30
0.0
 11
170.4181209999999
 21
161.4454959999999
 31
0.0
  0
LINE
  5
1D0
330
1E
100
AcDbEntity
  8
0
  6
CONTINUOUS
100
AcDbLine
 10
170.4181209999999
 20
163.445496
 30
0.0
 11
170.4181209999999
 21
168.9454959999999
 31
0.0
  0
LINE
  5
1D1
330
1E
100
AcDbEntity
  8
0
  6
CONTINUOUS
100
AcDbLine
 10
170.4181209999999
 20
170.9454959999999
 30
0.0
 11
170.4181209999999
 21
175.945496
 31
0.0
  0
ARC
  5
1D2
330
1E
100
AcDbEntity
  8
0
  6
CONTINUOUS
100
AcDbCircle
 10
131.4181209999999
 20
155.945496
 30
0.0
 40
2.0
100
AcDbArc
 50
0.0
 51
90.0
  0
ARC
  5
1D3
330
1E
100
AcDbEntity
  8
0
  6
CONTINUOUS
100
AcDbCircle
 10
131.4181209999999
 20
105.9454959999999
 30
0.0
 40
2.0
100
AcDbArc
 50
270.0
 51
0.0
  0
LINE
  5
1D4
330
1E
100
AcDbEntity
  8
0
  6
CONTINUOUS
100
AcDbLine
 10
170.4181209999999
 20
100.4454959999999
 30
0.0
 11
129.4181209999999
 21
100.4454959999999
 31
0.0
  0
LINE
  5
1D5
330
1E
100
AcDbEntity
  8
0
  6
CONTINUOUS
100
AcDbLine
 10
170.4181209999999
 20
98.445496
 30
0.0
 11
129.4181209999999
 21
98.44554100000001
 31
0.0
  0
LINE
  5
1D6
330
1E
100
AcDbEntity
  8
0
  6
CONTINUOUS
100
AcDbLine
 10
170.4181209999999
 20
92.94549599999999
 30
0.0
 11
96.91816700000002
 21
92.94549599999999
 31
0.0
  0
LINE
  5
1D7
330
1E
100
AcDbEntity
  8
0
  6
CONTINUOUS
100
AcDbLine
 10
170.4181209999999
 20
90.94549599999998
 30
0.0
 11
107.918274
 21
90.94549599999998
 31
0.0
  0
LINE
  5
1D8
330
1E
100
AcDbEntity
  8
0
  6
CONTINUOUS
100
AcDbLine
 10
170.4181209999999
 20
85.94549599999998
 30
0.0
 11
96.074379
 21
85.94549599999998
 31
0.0
  0
LINE
  5
1D9
330
1E
100
AcDbEntity
  8
0
  6
CONTINUOUS
100
AcDbLine
 10
170.4181209999999
 20
83.94549599999999
 30
0.0
 11
107.4182739999999
 21
83.94549599999999
 31
0.0
  0
LINE
  5
1DA
330
1E
100
AcDbEntity
  8
0
  6
CONTINUOUS
100
AcDbLine
 10
170.4181209999999
 20
79.659492
 30
0.0
 11
91.844269
 21
79.659492
 31
0.0
  0
LINE
  5
1DB
330
1E
100
AcDbEntity
  8
0
  6
CONTINUOUS
100
AcDbLine
 10
178.4181209999999
 20
73.44549599999999
 30
0.0
 11
108.918274
 21
73.44549599999999
 31
0.0
  0
LINE
  5
1DC
330
1E
100
AcDbEntity
  8
0
  6
CONTINUOUS
100
AcDbLine
 10
129.4181209999999
 20
163.44548
 30
0.0
 11
129.4181209999999
 21
98.44554100000001
 31
0.0
  0
LINE
  5
1DD
330
1E
100
AcDbEntity
  8
0
  6
CONTINUOUS
100
AcDbLine
 10
59.41812500000001
 20
98.44544200000001
 30
0.0
 11
59.41812500000001
 21
163.445496
 31
0.0
  0
LINE
  5
1DE
330
1E
100
AcDbEntity
  8
0
  6
CONTINUOUS
100
AcDbLine
 10
61.91812500000001
 20
165.9454959999999
 30
0.0
 11
126.9181209999999
 21
165.9454959999999
 31
0.0
  0
LINE
  5
1DF
330
1E
100
AcDbEntity
  8
0
  6
CONTINUOUS
100
AcDbLine
 10
61.918114
 20
95.94544199999999
 30
0.0
 11
126.9181209999999
 21
95.94544199999999
 31
0.0
  0
ARC
  5
1E0
330
1E
100
AcDbEntity
  8
0
  6
CONTINUOUS
100
AcDbCircle
 10
126.9181209999999
 20
98.44544200000001
 30
0.0
 40
2.5
100
AcDbArc
 50
270.0
 51
0.0
  0
ARC
  5
1E1
330
1E
100
AcDbEntity
  8
0
  6
CONTINUOUS
100
AcDbCircle
 10
126.9181209999999
 20
163.4454649999999
 30
0.0
 40
2.5
100
AcDbArc
 50
0.0
 51
90.0
  0
ARC
  5
1E2
330
1E
100
AcDbEntity
  8
0
  6
CONTINUOUS
100
AcDbCircle
 10
61.91812500000001
 20
163.44548
 30
0.0
 40
2.5
100
AcDbArc
 50
90.0
 51
180.0
  0
ARC
  5
1E3
330
1E
100
AcDbEntity
  8
0
  6
CONTINUOUS
100
AcDbCircle
 10
61.918114
 20
98.44544200000001
 30
0.0
 40
2.5
100
AcDbArc
 50
180.0
 51
270.0
  0
ARC
  5
1E4
330
1E
100
AcDbEntity
  8
0
  6
CONTINUOUS
100
AcDbCircle
 10
124.418121
 20
160.9454799999999
 30
0.0
 40
4.0
100
AcDbArc
 50
180.0
 51
270.0
  0
ARC
  5
1E5
330
1E
100
AcDbEntity
  8
0
  6
CONTINUOUS
100
AcDbCircle
 10
124.418121
 20
100.9454419999999
 30
0.0
 40
4.0
100
AcDbArc
 50
90.0
 51
180.0
  0
ARC
  5
1E6
330
1E
100
AcDbEntity
  8
0
  6
CONTINUOUS
100
AcDbCircle
 10
64.41812099999999
 20
100.9454419999999
 30
0.0
 40
4.0
100
AcDbArc
 50
0.0
 51
90.0
  0
ARC
  5
1E7
330
1E
100
AcDbEntity
  8
0
  6
CONTINUOUS
100
AcDbCircle
 10
64.41812099999999
 20
160.9454799999999
 30
0.0
 40
4.0
100
AcDbArc
 50
270.0
 51
0.0
  0
LINE
  5
1E8
330
1E
100
AcDbEntity
  8
0
  6
CONTINUOUS
100
AcDbLine
 10
120.418121
 20
100.9454419999999
 30
0.0
 11
120.418121
 21
98.44544200000001
 31
0.0
  0
LINE
  5
1E9
330
1E
100
AcDbEntity
  8
0
  6
CONTINUOUS
100
AcDbLine
 10
120.418121
 20
160.9454959999999
 30
0.0
 11
120.418121
 21
163.445496
 31
0.0
  0
LINE
  5
1EA
330
1E
100
AcDbEntity
  8
0
  6
CONTINUOUS
100
AcDbLine
 10
68.418121
 20
160.9454959999999
 30
0.0
 11
68.418121
 21
163.4454649999999
 31
0.0
  0
LINE
  5
1EB
330
1E
100
AcDbEntity
  8
0
  6
CONTINUOUS
100
AcDbLine
 10
68.418121
 20
100.9454419999999
 30
0.0
 11
68.418121
 21
98.44544200000001
 31
0.0
  0
LINE
  5
1EC
330
1E
100
AcDbEntity
  8
0
  6
CONTINUOUS
100
AcDbLine
 10
124.418121
 20
104.9454419999999
 30
0.0
 11
126.9181209999999
 21
104.9454419999999
 31
0.0
  0
LINE
  5
1ED
330
1E
100
AcDbEntity
  8
0
  6
CONTINUOUS
100
AcDbLine
 10
124.418121
 20
156.94548
 30
0.0
 11
126.9181209999999
 21
156.94548
 31
0.0
  0
LINE
  5
1EE
330
1E
100
AcDbEntity
  8
0
  6
CONTINUOUS
100
AcDbLine
 10
64.41812099999999
 20
156.94548
 30
0.0
 11
61.918114
 21
156.94548
 31
0.0
  0
LINE
  5
1EF
330
1E
100
AcDbEntity
  8
0
  6
CONTINUOUS
100
AcDbLine
 10
64.41810600000001
 20
104.9454419999999
 30
0.0
 11
61.918114
 21
104.9454419999999
 31
0.0
  0
ARC
  5
1F0
330
1E
100
AcDbEntity
  8
0
  6
CONTINUOUS
100
AcDbCircle
 10
117.918121
 20
163.44548
 30
0.0
 40
2.5
100
AcDbArc
 50
0.0
 51
90.0
  0
ARC
  5
1F1
330
1E
100
AcDbEntity
  8
0
  6
CONTINUOUS
100
AcDbCircle
 10
126.9181209999999
 20
154.4454649999999
 30
0.0
 40
2.5
100
AcDbArc
 50
0.0
 51
90.0
  0
ARC
  5
1F2
330
1E
100
AcDbEntity
  8
0
  6
CONTINUOUS
100
AcDbCircle
 10
126.9181209999999
 20
107.4454419999999
 30
0.0
 40
2.5
100
AcDbArc
 50
270.0
 51
0.0
  0
ARC
  5
1F3
330
1E
100
AcDbEntity
  8
0
  6
CONTINUOUS
100
AcDbCircle
 10
117.918121
 20
98.44544200000001
 30
0.0
 40
2.5
100
AcDbArc
 50
270.0
 51
0.0
  0
ARC
  5
1F4
330
1E
100
AcDbEntity
  8
0
  6
CONTINUOUS
100
AcDbCircle
 10
70.918121
 20
163.44548
 30
0.0
 40
2.5
100
AcDbArc
 50
90.0
 51
180.0
  0
ARC
  5
1F5
330
1E
100
AcDbEntity
  8
0
  6
CONTINUOUS
100
AcDbCircle
 10
61.91812500000001
 20
154.44548
 30
0.0
 40
2.5
100
AcDbArc
 50
90.0
 51
180.0
  0
ARC
  5
1F6
330
1E
100
AcDbEntity
  8
0
  6
CONTINUOUS
100
AcDbCircle
 10
70.918114
 20
98.44544200000001
 30
0.0
 40
2.5
100
AcDbArc
 50
180.0
 51
270.0
  0
ARC
  5
1F7
330
1E
100
AcDbEntity
  8
0
  6
CONTINUOUS
100
AcDbCircle
 10
61.918114
 20
107.4454419999999
 30
0.0
 40
2.5
100
AcDbArc
 50
180.0
 51
270.0
  0
LINE
  5
1F8
330
1E
100
AcDbEntity
  8
0
  6
CONTINUOUS
100
AcDbLine
 10
31.418175
 20
116.445343
 30
0.0
 11
31.418175
 21
145.4454499999999
 31
0.0
  0
LINE
  5
1F9
330
1E
100
AcDbEntity
  8
0
  6
CONTINUOUS
100
AcDbLine
 10
39.41817499999999
 20
116.445343
 30
0.0
 11
39.41817499999999
 21
145.4454499999999
 31
0.0
  0
LINE
  5
1FA
330
1E
100
AcDbEntity
  8
0
  6
CONTINUOUS
100
AcDbLine
 10
31.418175
 20
116.445343
 30
0.0
 11
39.41817499999999
 21
116.445343
 31
0.0
  0
LINE
  5
1FB
330
1E
100
AcDbEntity
  8
0
  6
CONTINUOUS
100
AcDbLine
 10
31.418175
 20
145.4454499999999
 30
0.0
 11
39.41817499999999
 21
145.4454499999999
 31
0.0
  0
LINE
  5
1FC
330
1E
100
AcDbEntity
  8
0
  6
CONTINUOUS
100
AcDbLine
 10
48.418175
 20
117.9453429999999
 30
0.0
 11
48.418175
 21
143.9454499999999
 31
0.0
  0
LINE
  5
1FD
330
1E
100
AcDbEntity
  8
0
  6
CONTINUOUS
100
AcDbLine
 10
39.41817499999999
 20
117.9453429999999
 30
0.0
 11
48.418175
 21
117.9453429999999
 31
0.0
  0
LINE
  5
1FE
330
1E
100
AcDbEntity
  8
0
  6
CONTINUOUS
100
AcDbLine
 10
39.41817499999999
 20
143.9454499999999
 30
0.0
 11
48.418175
 21
143.9454499999999
 31
0.0
  0
LINE
  5
1FF
330
1E
100
AcDbEntity
  8
0
  6
CONTINUOUS
100
AcDbLine
 10
48.418175
 20
119.445343
 30
0.0
 11
53.418175
 21
119.445343
 31
0.0
  0
LINE
  5
200
330
1E
100
AcDbEntity
  8
0
  6
CONTINUOUS
100
AcDbLine
 10
48.418175
 20
142.4454499999999
 30
0.0
 11
53.418175
 21
142.4454499999999
 31
0.0
  0
LINE
  5
201
330
1E
100
AcDbEntity
  8
0
  6
CONTINUOUS
100
AcDbLine
 10
53.418175
 20
117.445343
 30
0.0
 11
53.418175
 21
144.4454499999999
 31
0.0
  0
LINE
  5
202
330
1E
100
AcDbEntity
  8
0
  6
CONTINUOUS
100
AcDbLine
 10
57.918175
 20
116.445343
 30
0.0
 11
57.918175
 21
145.4454499999999
 31
0.0
  0
LINE
  5
203
330
1E
100
AcDbEntity
  8
0
  6
CONTINUOUS
100
AcDbLine
 10
53.418175
 20
117.445343
 30
0.0
 11
57.918175
 21
117.445343
 31
0.0
  0
LINE
  5
204
330
1E
100
AcDbEntity
  8
0
  6
CONTINUOUS
100
AcDbLine
 10
53.418175
 20
144.4454499999999
 30
0.0
 11
57.918175
 21
144.4454499999999
 31
0.0
  0
LINE
  5
205
330
1E
100
AcDbEntity
  8
0
  6
CONTINUOUS
100
AcDbLine
 10
57.918175
 20
116.445343
 30
0.0
 11
59.41812500000001
 21
116.445343
 31
0.0
  0
LINE
  5
206
330
1E
100
AcDbEntity
  8
0
  6
CONTINUOUS
100
AcDbLine
 10
57.918175
 20
145.4454499999999
 30
0.0
 11
59.41812500000001
 21
145.4454499999999
 31
0.0
  0
LINE
  5
207
330
1E
100
AcDbEntity
  8
0
  6
CONTINUOUS
100
AcDbLine
 10
31.418175
 20
122.9453429999999
 30
0.0
 11
39.41817499999999
 21
122.9453429999999
 31
0.0
  0
LINE
  5
208
330
1E
100
AcDbEntity
  8
0
  6
CONTINUOUS
100
AcDbLine
 10
31.418175
 20
138.94545
 30
0.0
 11
39.41817499999999
 21
138.94545
 31
0.0
  0
LINE
  5
209
330
1E
100
AcDbEntity
  8
0
  6
CONTINUOUS
100
AcDbLine
 10
129.4181209999999
 20
163.44548
 30
0.0
 11
170.4181209999999
 21
163.445496
 31
0.0
  0
LINE
  5
20A
330
1E
100
AcDbEntity
  8
0
  6
CONTINUOUS
100
AcDbLine
 10
129.4181209999999
 20
161.4454959999999
 30
0.0
 11
170.4181209999999
 21
161.4454959999999
 31
0.0
  0
LINE
  5
20B
330
1E
100
AcDbEntity
  8
0
  6
CONTINUOUS
100
AcDbLine
 10
133.4181209999999
 20
155.34549
 30
0.0
 11
170.4181209999999
 21
155.34549
 31
0.0
  0
LINE
  5
20C
330
1E
100
AcDbEntity
  8
0
  6
CONTINUOUS
100
AcDbLine
 10
133.4181209999999
 20
153.3454899999999
 30
0.0
 11
170.4181209999999
 21
153.3454899999999
 31
0.0
  0
LINE
  5
20D
330
1E
100
AcDbEntity
  8
0
  6
CONTINUOUS
100
AcDbLine
 10
133.4181209999999
 20
147.545486
 30
0.0
 11
170.4181209999999
 21
147.545486
 31
0.0
  0
LINE
  5
20E
330
1E
100
AcDbEntity
  8
0
  6
CONTINUOUS
100
AcDbLine
 10
133.4181209999999
 20
145.545486
 30
0.0
 11
170.4181209999999
 21
145.545486
 31
0.0
  0
LINE
  5
20F
330
1E
100
AcDbEntity
  8
0
  6
CONTINUOUS
100
AcDbLine
 10
133.4181209999999
 20
139.7454989999999
 30
0.0
 11
170.4181209999999
 21
139.7454989999999
 31
0.0
  0
LINE
  5
210
330
1E
100
AcDbEntity
  8
0
  6
CONTINUOUS
100
AcDbLine
 10
133.4181209999999
 20
137.7454989999999
 30
0.0
 11
170.4181209999999
 21
137.7454989999999
 31
0.0
  0
LINE
  5
211
330
1E
100
AcDbEntity
  8
0
  6
CONTINUOUS
100
AcDbLine
 10
133.4181209999999
 20
131.9454959999999
 30
0.0
 11
170.4181209999999
 21
131.9454959999999
 31
0.0
  0
LINE
  5
212
330
1E
100
AcDbEntity
  8
0
  6
CONTINUOUS
100
AcDbLine
 10
133.4181209999999
 20
129.945496
 30
0.0
 11
170.4181209999999
 21
129.945496
 31
0.0
  0
LINE
  5
213
330
1E
100
AcDbEntity
  8
0
  6
CONTINUOUS
100
AcDbLine
 10
133.4181209999999
 20
124.1454929999999
 30
0.0
 11
170.4181209999999
 21
124.1454929999999
 31
0.0
  0
LINE
  5
214
330
1E
100
AcDbEntity
  8
0
  6
CONTINUOUS
100
AcDbLine
 10
133.4181209999999
 20
122.1454929999999
 30
0.0
 11
170.4181209999999
 21
122.1454929999999
 31
0.0
  0
LINE
  5
215
330
1E
100
AcDbEntity
  8
0
  6
CONTINUOUS
100
AcDbLine
 10
133.4181209999999
 20
116.3454969999999
 30
0.0
 11
170.4181209999999
 21
116.3454969999999
 31
0.0
  0
LINE
  5
216
330
1E
100
AcDbEntity
  8
0
  6
CONTINUOUS
100
AcDbLine
 10
133.4181209999999
 20
114.345497
 30
0.0
 11
170.4181209999999
 21
114.345497
 31
0.0
  0
LINE
  5
217
330
1E
100
AcDbEntity
  8
0
  6
CONTINUOUS
100
AcDbLine
 10
133.4181209999999
 20
108.5454939999999
 30
0.0
 11
170.4181209999999
 21
108.5454939999999
 31
0.0
  0
LINE
  5
218
330
1E
100
AcDbEntity
  8
0
  6
CONTINUOUS
100
AcDbLine
 10
133.4181209999999
 20
106.5454939999999
 30
0.0
 11
170.4181209999999
 21
106.5454939999999
 31
0.0
  0
LINE
  5
219
330
1E
100
AcDbEntity
  8
0
  6
CONTINUOUS
100
AcDbLine
 10
80.91817500000001
 20
92.94549599999999
 30
0.0
 11
66.418121
 21
92.94549599999999
 31
0.0
  0
LINE
  5
21A
330
1E
100
AcDbEntity
  8
0
  6
CONTINUOUS
100
AcDbLine
 10
107.918274
 20
90.94549599999998
 30
0.0
 11
96.91816700000002
 21
90.94549599999998
 31
0.0
  0
LINE
  5
21B
330
1E
100
AcDbEntity
  8
0
  6
CONTINUOUS
100
AcDbLine
 10
107.4182739999999
 20
83.94549599999999
 30
0.0
 11
95.20569599999999
 21
83.94549599999999
 31
0.0
  0
LINE
  5
21C
330
1E
100
AcDbEntity
  8
0
  6
CONTINUOUS
100
AcDbLine
 10
82.918175
 20
85.94549599999998
 30
0.0
 11
66.418121
 21
85.94549599999998
 31
0.0
  0
LINE
  5
21D
330
1E
100
AcDbEntity
  8
0
  6
CONTINUOUS
100
AcDbLine
 10
108.918274
 20
73.44549599999999
 30
0.0
 11
54.41815100089776
 21
73.44549599999999
 31
0.0
  0
LINE
  5
21E
330
1E
100
AcDbEntity
  8
0
  6
CENTER
100
AcDbLine
 10
94.41812099999999
 20
168.820496
 30
0.0
 11
94.41812099999999
 21
87.19549599999998
 31
0.0
  0
LINE
  5
21F
330
1E
100
AcDbEntity
  8
0
  6
CONTINUOUS
100
AcDbLine
 10
496.8599849999999
 20
98.44538100000001
 30
0.0
 11
496.8599849999999
 21
122.945381
 31
0.0
  0
LINE
  5
220
330
1E
100
AcDbEntity
  8
0
  6
CONTINUOUS
100
AcDbLine
 10
499.3599849999999
 20
165.945374
 30
0.0
 11
501.8599849999999
 21
165.945374
 31
0.0
  0
LINE
  5
221
330
1E
100
AcDbEntity
  8
0
  6
CONTINUOUS
100
AcDbLine
 10
499.3599849999999
 20
95.94538100000001
 30
0.0
 11
501.8599849999999
 21
95.94538100000001
 31
0.0
  0
LINE
  5
222
330
1E
100
AcDbEntity
  8
0
  6
CONTINUOUS
100
AcDbLine
 10
501.8599849999999
 20
165.945374
 30
0.0
 11
501.8599849999999
 21
154.9453739999999
 31
0.0
  0
LINE
  5
223
330
1E
100
AcDbEntity
  8
0
  6
CONTINUOUS
100
AcDbLine
 10
502.8599849999999
 20
165.945374
 30
0.0
 11
502.8599849999999
 21
154.9453739999999
 31
0.0
  0
LINE
  5
224
330
1E
100
AcDbEntity
  8
0
  6
CONTINUOUS
100
AcDbLine
 10
501.8599849999999
 20
165.945374
 30
0.0
 11
502.8599849999999
 21
165.945374
 31
0.0
  0
LINE
  5
225
330
1E
100
AcDbEntity
  8
0
  6
CONTINUOUS
100
AcDbLine
 10
501.8599849999999
 20
95.94538100000001
 30
0.0
 11
502.8599849999999
 21
95.94538100000001
 31
0.0
  0
LINE
  5
226
330
1E
100
AcDbEntity
  8
0
  6
CONTINUOUS
100
AcDbLine
 10
499.8599849999999
 20
157.43248
 30
0.0
 11
499.8599849999999
 21
164.945374
 31
0.0
  0
LINE
  5
227
330
1E
100
AcDbEntity
  8
0
  6
CONTINUOUS
100
AcDbLine
 10
499.8599849999999
 20
104.458321
 30
0.0
 11
499.8599849999999
 21
96.94538100000002
 31
0.0
  0
LINE
  5
228
330
1E
100
AcDbEntity
  8
0
  6
CONTINUOUS
100
AcDbLine
 10
499.3731079999999
 20
156.932678
 30
0.0
 11
497.8338009999999
 21
156.89238
 31
0.0
  0
ARC
  5
229
330
1E
100
AcDbEntity
  8
0
  6
CONTINUOUS
100
AcDbCircle
 10
499.3599849999999
 20
157.43248
 30
0.0
 40
0.5
100
AcDbArc
 50
271.4999999999999
 51
0.0
  0
ARC
  5
22A
330
1E
100
AcDbEntity
  8
0
  6
CONTINUOUS
100
AcDbCircle
 10
497.8599849999999
 20
155.8926849999999
 30
0.0
 40
1.0
100
AcDbArc
 50
91.49980199999999
 51
180.0
  0
ARC
  5
22B
330
1E
100
AcDbEntity
  8
0
  6
CONTINUOUS
100
AcDbCircle
 10
500.8599849999999
 20
164.945374
 30
0.0
 40
1.0
100
AcDbArc
 50
90.0
 51
180.0
  0
ARC
  5
22C
330
1E
100
AcDbEntity
  8
0
  6
CONTINUOUS
100
AcDbCircle
 10
499.3599849999999
 20
163.4453739999999
 30
0.0
 40
2.5
100
AcDbArc
 50
90.0
 51
180.0
  0
LINE
  5
22D
330
1E
100
AcDbEntity
  8
0
  6
CONTINUOUS
100
AcDbLine
 10
499.3731079999999
 20
104.9581989999999
 30
0.0
 11
497.8338009999999
 21
104.998482
 31
0.0
  0
ARC
  5
22E
330
1E
100
AcDbEntity
  8
0
  6
CONTINUOUS
100
AcDbCircle
 10
497.8599849999999
 20
105.998108
 30
0.0
 40
1.0
100
AcDbArc
 50
180.0
 51
268.4996029999999
  0
ARC
  5
22F
330
1E
100
AcDbEntity
  8
0
  6
CONTINUOUS
100
AcDbCircle
 10
499.3599849999999
 20
104.458321
 30
0.0
 40
0.5
100
AcDbArc
 50
0.0
 51
88.49980200000002
  0
ARC
  5
230
330
1E
100
AcDbEntity
  8
0
  6
CONTINUOUS
100
AcDbCircle
 10
500.8599849999999
 20
96.94538100000002
 30
0.0
 40
1.0
100
AcDbArc
 50
180.0
 51
270.0
  0
ARC
  5
231
330
1E
100
AcDbEntity
  8
0
  6
CONTINUOUS
100
AcDbCircle
 10
499.3599849999999
 20
98.44538100000001
 30
0.0
 40
2.5
100
AcDbArc
 50
180.0
 51
270.0
  0
ARC
  5
232
330
1E
100
AcDbEntity
  8
0
  6
CONTINUOUS
100
AcDbCircle
 10
499.8599849999999
 20
160.945374
 30
0.0
 40
3.0
100
AcDbArc
 50
90.0
 51
270.0
  0
LINE
  5
233
330
1E
100
AcDbEntity
  8
0
  6
CONTINUOUS
100
AcDbLine
 10
499.3599849999999
 20
163.9033809999999
 30
0.0
 11
499.3599849999999
 21
157.987381
 31
0.0
  0
LINE
  5
234
330
1E
100
AcDbEntity
  8
0
  6
CONTINUOUS
100
AcDbLine
 10
497.3599849999999
 20
160.945374
 30
0.0
 11
496.873199
 21
160.6642759999999
 31
0.0
  0
LINE
  5
235
330
1E
100
AcDbEntity
  8
0
  6
CONTINUOUS
100
AcDbLine
 10
497.3599849999999
 20
160.945374
 30
0.0
 11
496.873199
 21
161.226486
 31
0.0
  0
ARC
  5
236
330
1E
100
AcDbEntity
  8
0
  6
CONTINUOUS
100
AcDbCircle
 10
499.8599849999999
 20
100.945381
 30
0.0
 40
3.0
100
AcDbArc
 50
90.0
 51
270.0
  0
LINE
  5
237
330
1E
100
AcDbEntity
  8
0
  6
CONTINUOUS
100
AcDbLine
 10
499.3599849999999
 20
103.903389
 30
0.0
 11
499.3599849999999
 21
97.987373
 31
0.0
  0
LINE
  5
238
330
1E
100
AcDbEntity
  8
0
  6
CONTINUOUS
100
AcDbLine
 10
497.3599849999999
 20
100.945381
 30
0.0
 11
496.873199
 21
100.6643069999999
 31
0.0
  0
LINE
  5
239
330
1E
100
AcDbEntity
  8
0
  6
CONTINUOUS
100
AcDbLine
 10
497.3599849999999
 20
100.945381
 30
0.0
 11
496.873199
 21
101.2265089999999
 31
0.0
  0
LINE
  5
23A
330
1E
100
AcDbEntity
  8
0
  6
CENTER
100
AcDbLine
 10
518.8599849999999
 20
173.402374
 30
0.0
 11
518.8599849999999
 21
87.55500000000001
 31
0.0
  0
LINE
  5
23B
330
1E
100
AcDbEntity
  8
0
  6
CONTINUOUS
100
AcDbLine
 10
542.360046
 20
96.99250000000001
 30
0.0
 11
502.8599849999999
 21
95.94538100000001
 31
0.0
  0
LINE
  5
23C
330
1E
100
AcDbEntity
  8
0
  6
CONTINUOUS
100
AcDbLine
 10
545.8599849999999
 20
161.8966829999999
 30
0.0
 11
545.8599849999999
 21
154.9453739999999
 31
0.0
  0
LINE
  5
23D
330
1E
100
AcDbEntity
  8
0
  6
CONTINUOUS
100
AcDbLine
 10
542.938171
 20
164.882431
 30
0.0
 11
502.8599849999999
 21
165.945374
 31
0.0
  0
ARC
  5
23E
330
1E
100
AcDbEntity
  8
0
  6
CONTINUOUS
100
AcDbCircle
 10
547.8599849999999
 20
158.155502
 30
0.0
 40
2.0
100
AcDbArc
 50
180.0
 51
268.5000309999999
  0
ARC
  5
23F
330
1E
100
AcDbEntity
  8
0
  6
CONTINUOUS
100
AcDbCircle
 10
542.8599849999999
 20
161.8966829999999
 30
0.0
 40
3.0
100
AcDbArc
 50
0.0
 51
88.50009900000001
  0
LINE
  5
240
330
1E
100
AcDbEntity
  8
0
  6
CONTINUOUS
100
AcDbLine
 10
548.3599849999999
 20
156.141724
 30
0.0
 11
547.807678
 21
156.1561889999999
 31
0.0
  0
LINE
  5
242
330
1E
100
AcDbEntity
  8
0
  6
CONTINUOUS
100
AcDbLine
 10
496.8599849999999
 20
154.9453739999999
 30
0.0
 11
496.8599849999999
 21
163.4453739999999
 31
0.0
  0
LINE
  5
243
330
1E
100
AcDbEntity
  8
0
  6
CONTINUOUS
100
AcDbLine
 10
501.8599849999999
 20
122.945381
 30
0.0
 11
501.8599849999999
 21
95.94538100000001
 31
0.0
  0
LINE
  5
244
330
1E
100
AcDbEntity
  8
0
  6
CONTINUOUS
100
AcDbLine
 10
502.8599849999999
 20
122.945381
 30
0.0
 11
502.8599849999999
 21
95.94538100000001
 31
0.0
  0
LINE
  5
24A
330
1E
100
AcDbEntity
  8
0
  6
CONTINUOUS
100
AcDbLine
 10
66.41832700000001
 20
462.994232
 30
0.0
 11
66.41832700000001
 21
431.494141
 31
0.0
  0
LINE
  5
24B
330
1E
100
AcDbEntity
  8
0
  6
CONTINUOUS
100
AcDbLine
 10
66.41832700000001
 20
347.994232
 30
0.0
 11
54.41815099850896
 21
347.994232
 31
0.0
  0
LINE
  5
24C
330
1E
100
AcDbEntity
  8
0
  6
CONTINUOUS
100
AcDbLine
 10
66.41832700000001
 20
347.994232
 30
0.0
 11
66.41832700000001
 21
379.494324
 31
0.0
  0
ARC
  5
256
330
1E
100
AcDbEntity
  8
0
  6
CONTINUOUS
100
AcDbCircle
 10
67.418327
 20
350.495117
 30
0.0
 40
1.0
100
AcDbArc
 50
180.0
 51
270.0
  0
LINE
  5
262
330
1E
100
AcDbEntity
  8
0
  6
CONTINUOUS
100
AcDbLine
 10
66.418083
 20
182.231506
 30
0.0
 11
66.418083
 21
177.9454959999999
 31
0.0
  0
LINE
  5
263
330
1E
100
AcDbEntity
  8
0
  6
CONTINUOUS
100
AcDbLine
 10
66.418083
 20
80.90549499999999
 30
0.0
 11
66.418083
 21
83.94549599999999
 31
0.0
  0
LINE
  5
264
330
1E
100
AcDbEntity
  8
0
  6
CONTINUOUS
100
AcDbLine
 10
66.418083
 20
175.945496
 30
0.0
 11
66.418083
 21
170.9454959999999
 31
0.0
  0
LINE
  5
265
330
1E
100
AcDbEntity
  8
0
  6
CONTINUOUS
100
AcDbLine
 10
66.418083
 20
168.9454959999999
 30
0.0
 11
66.418083
 21
165.9454959999999
 31
0.0
  0
LINE
  5
266
330
1E
100
AcDbEntity
  8
0
  6
CONTINUOUS
100
AcDbLine
 10
66.418083
 20
95.94544199999999
 30
0.0
 11
66.418083
 21
92.94549599999999
 31
0.0
  0
LINE
  5
267
330
1E
100
AcDbEntity
  8
0
  6
CONTINUOUS
100
AcDbLine
 10
66.418083
 20
90.94549599999998
 30
0.0
 11
66.418083
 21
85.94549599999998
 31
0.0
  0
LINE
  5
26C
330
1E
100
AcDbEntity
  8
0
  6
CONTINUOUS
100
AcDbLine
 10
66.168121
 20
161.3454739999999
 30
0.0
 11
66.168121
 21
160.545456
 31
0.0
  0
LINE
  5
26D
330
1E
100
AcDbEntity
  8
0
  6
CONTINUOUS
100
AcDbLine
 10
64.018105
 20
162.69548
 30
0.0
 11
64.818115
 21
162.69548
 31
0.0
  0
LINE
  5
26E
330
1E
100
AcDbEntity
  8
0
  6
CONTINUOUS
100
AcDbLine
 10
64.018105
 20
159.19548
 30
0.0
 11
64.818115
 21
159.19548
 31
0.0
  0
LINE
  5
26F
330
1E
100
AcDbEntity
  8
0
  6
CONTINUOUS
100
AcDbLine
 10
62.668125
 20
161.3454739999999
 30
0.0
 11
62.668125
 21
160.545456
 31
0.0
  0
CIRCLE
  5
270
330
1E
100
AcDbEntity
  8
0
  6
CONTINUOUS
100
AcDbCircle
 10
64.41812099999999
 20
160.9454799999999
 30
0.0
 40
2.75
  0
ARC
  5
271
330
1E
100
AcDbEntity
  8
0
  6
CONTINUOUS
100
AcDbCircle
 10
62.668125
 20
162.69548
 30
0.0
 40
1.35
100
AcDbArc
 50
270.0
 51
0.0
  0
ARC
  5
272
330
1E
100
AcDbEntity
  8
0
  6
CONTINUOUS
100
AcDbCircle
 10
62.668125
 20
159.19548
 30
0.0
 40
1.35
100
AcDbArc
 50
0.0
 51
90.0
  0
ARC
  5
273
330
1E
100
AcDbEntity
  8
0
  6
CONTINUOUS
100
AcDbCircle
 10
66.168121
 20
162.69548
 30
0.0
 40
1.35
100
AcDbArc
 50
180.0
 51
270.0
  0
ARC
  5
274
330
1E
100
AcDbEntity
  8
0
  6
CONTINUOUS
100
AcDbCircle
 10
66.168121
 20
159.19548
 30
0.0
 40
1.35
100
AcDbArc
 50
90.0
 51
180.0
  0
LINE
  5
275
330
1E
100
AcDbEntity
  8
0
  6
CONTINUOUS
100
AcDbLine
 10
126.168121
 20
161.3454739999999
 30
0.0
 11
126.168121
 21
160.545456
 31
0.0
  0
LINE
  5
276
330
1E
100
AcDbEntity
  8
0
  6
CONTINUOUS
100
AcDbLine
 10
124.018105
 20
162.69548
 30
0.0
 11
124.8181149999999
 21
162.69548
 31
0.0
  0
LINE
  5
277
330
1E
100
AcDbEntity
  8
0
  6
CONTINUOUS
100
AcDbLine
 10
124.018105
 20
159.19548
 30
0.0
 11
124.8181149999999
 21
159.19548
 31
0.0
  0
LINE
  5
278
330
1E
100
AcDbEntity
  8
0
  6
CONTINUOUS
100
AcDbLine
 10
122.6681209999999
 20
161.3454739999999
 30
0.0
 11
122.6681209999999
 21
160.545456
 31
0.0
  0
CIRCLE
  5
279
330
1E
100
AcDbEntity
  8
0
  6
CONTINUOUS
100
AcDbCircle
 10
124.418121
 20
160.9454799999999
 30
0.0
 40
2.75
  0
ARC
  5
27A
330
1E
100
AcDbEntity
  8
0
  6
CONTINUOUS
100
AcDbCircle
 10
122.6681209999999
 20
162.69548
 30
0.0
 40
1.35
100
AcDbArc
 50
270.0
 51
0.0
  0
ARC
  5
27B
330
1E
100
AcDbEntity
  8
0
  6
CONTINUOUS
100
AcDbCircle
 10
122.6681209999999
 20
159.19548
 30
0.0
 40
1.35
100
AcDbArc
 50
0.0
 51
90.0
  0
ARC
  5
27C
330
1E
100
AcDbEntity
  8
0
  6
CONTINUOUS
100
AcDbCircle
 10
126.168121
 20
162.69548
 30
0.0
 40
1.35
100
AcDbArc
 50
180.0
 51
270.0
  0
ARC
  5
27D
330
1E
100
AcDbEntity
  8
0
  6
CONTINUOUS
100
AcDbCircle
 10
126.168121
 20
159.19548
 30
0.0
 40
1.35
100
AcDbArc
 50
90.0
 51
180.0
  0
LINE
  5
27E
330
1E
100
AcDbEntity
  8
0
  6
CONTINUOUS
100
AcDbLine
 10
66.168121
 20
101.3454359999999
 30
0.0
 11
66.168121
 21
100.545418
 31
0.0
  0
LINE
  5
27F
330
1E
100
AcDbEntity
  8
0
  6
CONTINUOUS
100
AcDbLine
 10
64.018105
 20
102.695442
 30
0.0
 11
64.818115
 21
102.695442
 31
0.0
  0
LINE
  5
280
330
1E
100
AcDbEntity
  8
0
  6
CONTINUOUS
100
AcDbLine
 10
64.018105
 20
99.195442
 30
0.0
 11
64.818115
 21
99.195442
 31
0.0
  0
LINE
  5
281
330
1E
100
AcDbEntity
  8
0
  6
CONTINUOUS
100
AcDbLine
 10
62.668125
 20
101.3454359999999
 30
0.0
 11
62.668125
 21
100.545418
 31
0.0
  0
CIRCLE
  5
282
330
1E
100
AcDbEntity
  8
0
  6
CONTINUOUS
100
AcDbCircle
 10
64.41812099999999
 20
100.9454419999999
 30
0.0
 40
2.75
  0
ARC
  5
283
330
1E
100
AcDbEntity
  8
0
  6
CONTINUOUS
100
AcDbCircle
 10
62.668125
 20
102.695442
 30
0.0
 40
1.35
100
AcDbArc
 50
270.0
 51
0.0
  0
ARC
  5
284
330
1E
100
AcDbEntity
  8
0
  6
CONTINUOUS
100
AcDbCircle
 10
62.668125
 20
99.195442
 30
0.0
 40
1.35
100
AcDbArc
 50
0.0
 51
90.0
  0
ARC
  5
285
330
1E
100
AcDbEntity
  8
0
  6
CONTINUOUS
100
AcDbCircle
 10
66.168121
 20
102.695442
 30
0.0
 40
1.35
100
AcDbArc
 50
180.0
 51
270.0
  0
ARC
  5
286
330
1E
100
AcDbEntity
  8
0
  6
CONTINUOUS
100
AcDbCircle
 10
66.168121
 20
99.195442
 30
0.0
 40
1.35
100
AcDbArc
 50
90.0
 51
180.0
  0
LINE
  5
287
330
1E
100
AcDbEntity
  8
0
  6
CONTINUOUS
100
AcDbLine
 10
126.168121
 20
101.3454359999999
 30
0.0
 11
126.168121
 21
100.545418
 31
0.0
  0
LINE
  5
288
330
1E
100
AcDbEntity
  8
0
  6
CONTINUOUS
100
AcDbLine
 10
124.018105
 20
102.695442
 30
0.0
 11
124.8181149999999
 21
102.695442
 31
0.0
  0
LINE
  5
289
330
1E
100
AcDbEntity
  8
0
  6
CONTINUOUS
100
AcDbLine
 10
124.018105
 20
99.195442
 30
0.0
 11
124.8181149999999
 21
99.195442
 31
0.0
  0
LINE
  5
28A
330
1E
100
AcDbEntity
  8
0
  6
CONTINUOUS
100
AcDbLine
 10
122.6681209999999
 20
101.3454359999999
 30
0.0
 11
122.6681209999999
 21
100.545418
 31
0.0
  0
CIRCLE
  5
28B
330
1E
100
AcDbEntity
  8
0
  6
CONTINUOUS
100
AcDbCircle
 10
124.418121
 20
100.9454419999999
 30
0.0
 40
2.75
  0
ARC
  5
28C
330
1E
100
AcDbEntity
  8
0
  6
CONTINUOUS
100
AcDbCircle
 10
122.6681209999999
 20
102.695442
 30
0.0
 40
1.35
100
AcDbArc
 50
270.0
 51
0.0
  0
ARC
  5
28D
330
1E
100
AcDbEntity
  8
0
  6
CONTINUOUS
100
AcDbCircle
 10
122.6681209999999
 20
99.195442
 30
0.0
 40
1.35
100
AcDbArc
 50
0.0
 51
90.0
  0
ARC
  5
28E
330
1E
100
AcDbEntity
  8
0
  6
CONTINUOUS
100
AcDbCircle
 10
126.168121
 20
102.695442
 30
0.0
 40
1.35
100
AcDbArc
 50
180.0
 51
270.0
  0
ARC
  5
28F
330
1E
100
AcDbEntity
  8
0
  6
CONTINUOUS
100
AcDbCircle
 10
126.168121
 20
99.195442
 30
0.0
 40
1.35
100
AcDbArc
 50
90.0
 51
180.0
  0
LINE
  5
290
330
1E
100
AcDbEntity
  8
0
  6
CONTINUOUS
100
AcDbLine
 10
96.91816700000002
 20
90.947075
 30
0.0
 11
96.91816700000002
 21
95.94706700000001
 31
0.0
  0
LINE
  5
291
330
1E
100
AcDbEntity
  8
0
  6
CONTINUOUS
100
AcDbLine
 10
91.91816700000002
 20
90.90549499999999
 30
0.0
 11
91.91816700000002
 21
95.94706700000001
 31
0.0
  0
ARC
  5
292
330
1E
100
AcDbEntity
  8
0
  6
CONTINUOUS
100
AcDbCircle
 10
81.91816700000002
 20
90.90549499999999
 30
0.0
 40
10.0
100
AcDbArc
 50
270.0
 51
0.0
  0
ARC
  5
293
330
1E
100
AcDbEntity
  8
0
  6
CONTINUOUS
100
AcDbCircle
 10
81.91816700000002
 20
90.90549499999999
 30
0.0
 40
15.0
100
AcDbArc
 50
270.0
 51
0.158824
  0
LINE
  5
294
330
1E
100
AcDbEntity
  8
0
  6
CONTINUOUS
100
AcDbLine
 10
81.91816700000002
 20
80.90549499999999
 30
0.0
 11
54.41815100089775
 21
80.90549499999999
 31
0.0
  0
LINE
  5
295
330
1E
100
AcDbEntity
  8
0
  6
CONTINUOUS
100
AcDbLine
 10
81.91816700000002
 20
75.905495
 30
0.0
 11
54.41815100089775
 21
75.905495
 31
0.0
  0
LINE
  5
296
330
1E
100
AcDbEntity
  8
0
  6
CONTINUOUS
100
AcDbLine
 10
89.098579
 20
83.94549599999999
 30
0.0
 11
66.418121
 21
83.94549599999999
 31
0.0
  0
LINE
  5
297
330
1E
100
AcDbEntity
  8
0
  6
CONTINUOUS
100
AcDbLine
 10
90.60138700000001
 20
85.94549599999998
 30
0.0
 11
82.918175
 21
85.94549599999998
 31
0.0
  0
LINE
  5
298
330
1E
100
AcDbEntity
  8
0
  6
CONTINUOUS
100
AcDbLine
 10
91.91816700000002
 20
90.94549599999998
 30
0.0
 11
66.418121
 21
90.94549599999998
 31
0.0
  0
LINE
  5
299
330
1E
100
AcDbEntity
  8
0
  6
CONTINUOUS
100
AcDbLine
 10
91.91816700000002
 20
92.94549599999999
 30
0.0
 11
80.91817500000001
 21
92.94549599999999
 31
0.0
  0
TEXT
  5
29A
330
1E
100
AcDbEntity
  8
0
100
AcDbText
 10
-15.0
 20
-43.0
 30
0.0
 40
4.0
  1
H2LB-32R-300~450-T020WZ
100
AcDbText
  0
LINE
  5
2F8
330
1E
100
AcDbEntity
  8
1
  6
CONTINUOUS
 62
     7
100
AcDbLine
 10
54.41815099850896
 20
471.9969939999999
 30
0.0
 11
54.41815099850896
 21
338.996979
 31
0.0
  0
ARC
  5
2F9
330
1E
100
AcDbEntity
  8
1
  6
CONTINUOUS
 62
     7
100
AcDbCircle
 10
338.9181209985088
 20
405.497986
 30
0.0
 40
340.0
100
AcDbArc
 50
170.966506999995
 51
189.0334930000049
  0
ARC
  5
2FA
330
1E
100
AcDbEntity
  8
1
  6
CONTINUOUS
 62
     7
100
AcDbCircle
 10
341.8981619985088
 20
405.4969789999999
 30
0.0
 40
325.0
100
AcDbArc
 50
168.2279455165586
 51
191.7720517696801
  0
LINE
  5
2FC
330
1E
100
AcDbEntity
  8
1
  6
CONTINUOUS
 62
     7
100
AcDbLine
 10
54.41815100089775
 20
70.954163
 30
0.0
 11
54.41815100089776
 21
117.445343
 31
0.0
  0
ARC
  5
2FD
330
1E
100
AcDbEntity
  8
1
  6
CONTINUOUS
 62
     7
100
AcDbCircle
 10
338.9181210008977
 20
130.9443969999998
 30
0.0
 40
340.0
100
AcDbArc
 50
170.966506999995
 51
189.6212784361565
  0
ARC
  5
2FE
330
1E
100
AcDbEntity
  8
1
  6
CONTINUOUS
 62
     7
100
AcDbCircle
 10
-301.0818449991045
 20
130.9453739999997
 30
0.0
 40
325.0000000000022
100
AcDbArc
 50
349.395881620111
 51
11.66235952465123
  0
ARC
  5
2FF
330
1E
100
AcDbEntity
  8
1
  6
CONTINUOUS
 62
     7
100
AcDbCircle
 10
613.3599849999999
 20
130.945374
 30
0.0
 40
67.5
100
AcDbArc
 50
351.5908068317621
 51
23.28954853185386
  0
LINE
  5
308
330
1E
100
AcDbEntity
  8
1
  6
CONTINUOUS
100
AcDbLine
 10
53.4094244653993
 20
69.95420107693587
 30
0.0
 11
8.63021937491203
 21
69.95420107693587
 31
0.0
  0
ARC
  5
309
330
1E
100
AcDbEntity
  8
1
  6
CONTINUOUS
100
AcDbCircle
 10
8.630219374911916
 20
74.95420107693587
 30
0.0
 40
5.0
100
AcDbArc
 50
189.6212784361565
 51
270.0
  0
ARC
  5
30A
330
1E
100
AcDbEntity
  8
1
  6
CONTINUOUS
100
AcDbCircle
 10
19.35076752857878
 20
70.95420107693565
 30
0.0
 40
1.0
100
AcDbArc
 50
169.395881620111
 51
270.0
  0
ARC
  5
30B
330
1E
100
AcDbEntity
  8
1
  6
CONTINUOUS
 62
     7
100
AcDbCircle
 10
53.41815100089764
 20
70.954163
 30
0.0
 40
1.0
100
AcDbArc
 50
269.5000000000019
 51
0.0
  0
ARC
  5
31B
330
1E
100
AcDbEntity
  8
1
  6
CONTINUOUS
 62
     7
100
AcDbCircle
 10
14.98645000089766
 20
182.4443969999998
 30
0.0
 40
12.0
100
AcDbArc
 50
90.0
 51
170.966506999995
  0
LINE
  5
31C
330
1E
100
AcDbEntity
  8
1
  6
CONTINUOUS
100
AcDbLine
 10
53.41815100089775
 20
198.445374
 30
0.0
 11
18.67783038226912
 21
198.445374
 31
0.0
  0
ARC
  5
31D
330
1E
100
AcDbEntity
  8
1
  6
CONTINUOUS
100
AcDbCircle
 10
18.677830382269
 20
196.945374
 30
0.0
 40
1.5
100
AcDbArc
 50
90.0
 51
191.6623595246512
  0
ARC
  5
31E
330
1E
100
AcDbEntity
  8
1
  6
CONTINUOUS
 62
     7
100
AcDbCircle
 10
16.43331800089765
 20
195.4443969999998
 30
0.0
 40
1.0
100
AcDbArc
 50
270.0
 51
11.48264199999979
  0
LINE
  5
31F
330
1E
100
AcDbEntity
  8
1
  6
CONTINUOUS
 62
     7
100
AcDbLine
 10
14.98645000089777
 20
194.4443969999998
 30
0.0
 11
16.43331800089777
 21
194.4443969999998
 31
0.0
  0
ARC
  5
320
330
1E
100
AcDbEntity
  8
1
  6
CONTINUOUS
 62
     7
100
AcDbCircle
 10
53.41815100089764
 20
197.445374
 30
0.0
 40
1.0
100
AcDbArc
 50
0.0
 51
90.0
  0
ARC
  5
322
330
1E
100
AcDbEntity
  8
1
  6
CONTINUOUS
 62
     7
100
AcDbCircle
 10
14.98644999850876
 20
353.997986
 30
0.0
 40
12.0
100
AcDbArc
 50
189.0334930000049
 51
270.0
  0
LINE
  5
323
330
1E
100
AcDbEntity
  8
1
  6
CONTINUOUS
100
AcDbLine
 10
53.41815099850896
 20
337.996979
 30
0.0
 11
25.20233000825374
 21
337.996979
 31
0.0
  0
ARC
  5
324
330
1E
100
AcDbEntity
  8
1
  6
CONTINUOUS
100
AcDbCircle
 10
25.20233000825362
 20
339.4969790000001
 30
0.0
 40
1.5
100
AcDbArc
 50
191.7720517696935
 51
270.0
  0
LINE
  5
325
330
1E
100
AcDbEntity
  8
1
  6
CONTINUOUS
 62
     7
100
AcDbLine
 10
14.98644999850898
 20
341.9979859999999
 30
0.0
 11
22.34240699850875
 21
341.9979859999999
 31
0.0
  0
ARC
  5
326
330
1E
100
AcDbEntity
  8
1
  6
CONTINUOUS
 62
     7
100
AcDbCircle
 10
22.34240699850863
 20
340.997986
 30
0.0
 40
1.0
100
AcDbArc
 50
11.41125500000288
 51
90.0
  0
ARC
  5
327
330
1E
100
AcDbEntity
  8
1
  6
CONTINUOUS
 62
     7
100
AcDbCircle
 10
53.41815099850896
 20
338.9969790000002
 30
0.0
 40
1.0
100
AcDbArc
 50
270.0
 51
0.0
  0
ARC
  5
328
330
1E
100
AcDbEntity
  8
1
  6
CONTINUOUS
 62
     7
100
AcDbCircle
 10
14.98644999850887
 20
456.9960179999999
 30
0.0
 40
12.0
100
AcDbArc
 50
90.0
 51
170.966506999995
  0
LINE
  5
329
330
1E
100
AcDbEntity
  8
1
  6
CONTINUOUS
100
AcDbLine
 10
53.41815099850896
 20
472.9969939999999
 30
0.0
 11
25.20233313428184
 21
472.9969939999996
 31
0.0
  0
LINE
  5
32A
330
1E
100
AcDbEntity
  8
1
  6
CONTINUOUS
 62
     7
100
AcDbLine
 10
14.98644999850898
 20
468.9960179999999
 30
0.0
 11
22.34240699850875
 21
468.9960179999999
 31
0.0
  0
ARC
  5
32B
330
1E
100
AcDbEntity
  8
1
  6
CONTINUOUS
 62
     7
100
AcDbCircle
 10
22.34240699850875
 20
469.9960179999999
 30
0.0
 40
1.0
100
AcDbArc
 50
270.0
 51
348.5887449999971
  0
ARC
  5
32C
330
1E
100
AcDbEntity
  8
1
  6
CONTINUOUS
100
AcDbCircle
 10
25.20233313428173
 20
471.496994
 30
0.0
 40
1.5
100
AcDbArc
 50
90.0
 51
168.2279455165586
  0
ARC
  5
32D
330
1E
100
AcDbEntity
  8
1
  6
CONTINUOUS
 62
     7
100
AcDbCircle
 10
53.41815099850885
 20
471.996994
 30
0.0
 40
1.0
100
AcDbArc
 50
0.0
 51
90.0
  0
ARC
  5
34C
330
1E
100
AcDbEntity
  8
1
  6
CONTINUOUS
 62
     7
100
AcDbCircle
 10
613.3599849999999
 20
130.945374
 30
0.0
 40
67.5
100
AcDbArc
 50
156.7104514681461
 51
157.8038991431794
  0
ARC
  5
367
330
1E
100
AcDbEntity
  8
0
  6
CONTINUOUS
100
AcDbCircle
 10
613.3599849999999
 20
130.9453739999999
 30
0.0
 40
68.800003
100
AcDbArc
 50
186.6773991653531
 51
190.4485557236349
  0
LINE
  5
38A
330
1E
100
AcDbEntity
  8
0
  6
CONTINUOUS
100
AcDbLine
 10
58.41832
 20
462.994232
 30
0.0
 11
58.41832
 21
347.994232
 31
0.0
  0
LINE
  5
38B
330
1E
100
AcDbEntity
  8
0
  6
CONTINUOUS
100
AcDbLine
 10
58.41812099999998
 20
188.4453739999999
 30
0.0
 11
58.41812099999998
 21
145.4454499999999
 31
0.0
  0
LINE
  5
38C
330
1E
100
AcDbEntity
  8
0
  6
CONTINUOUS
100
AcDbLine
 10
58.41812099999998
 20
116.445343
 30
0.0
 11
58.41812099999998
 21
80.90549499999999
 31
0.0
  0
LINE
  5
38D
330
1E
100
AcDbEntity
  8
1
  6
CONTINUOUS
 62
     7
100
AcDbLine
 10
54.41815100089776
 20
144.4454499999999
 30
0.0
 11
54.41815100089775
 21
197.445374
 31
0.0
  0
LINE
  5
38E
330
1E
100
AcDbEntity
  8
0
  6
CONTINUOUS
100
AcDbLine
 10
58.41812099999998
 20
75.90549499999998
 30
0.0
 11
58.41812099999998
 21
73.44538100000001
 31
0.0
  0
ENDSEC
  0
SECTION
  2
OBJECTS
  0
DICTIONARY
  5
C
330
0
100
AcDbDictionary
  3
ACAD_GROUP
350
D
  3
ACAD_LAYOUT
350
19
  3
ACAD_MLINESTYLE
350
16
  3
ACAD_PLOTSETTINGS
350
18
  3
ACAD_PLOTSTYLENAME
350
E
  3
ACDBHEADERROUNDTRIPXREC
350
39C
  3
ACDBVARIABLEDICTIONARY
350
399
  0
DICTIONARY
  5
3BE
330
1E
100
AcDbDictionary
280
     1
  3
ACAD_LAYOUTSELFREF
360
3BF
  0
DICTIONARY
  5
3BC
330
1A
100
AcDbDictionary
280
     1
  3
ACAD_LAYOUTSELFREF
360
3BD
  0
DICTIONARY
  5
D
102
{ACAD_REACTORS
330
C
102
}
330
C
100
AcDbDictionary
  0
DICTIONARY
  5
19
102
{ACAD_REACTORS
330
C
102
}
330
C
100
AcDbDictionary
  0
DICTIONARY
  5
16
102
{ACAD_REACTORS
330
C
102
}
330
C
100
AcDbDictionary
  3
STANDARD
350
17
  0
DICTIONARY
  5
18
102
{ACAD_REACTORS
330
C
102
}
330
C
100
AcDbDictionary
  0
ACDBDICTIONARYWDFLT
  5
E
102
{ACAD_REACTORS
330
C
102
}
330
C
100
AcDbDictionary
281
     1
  3
Normal
350
F
100
AcDbDictionaryWithDefault
340
F
  0
DICTIONARY
  5
39C
102
{ACAD_REACTORS
330
C
102
}
330
C
100
AcDbDictionary
  3
CEPSNTYPE
350
3A6
  3
FINGERPRINTGUID
350
3A7
  3
HYPERLINKBASE
350
39F
  3
INSUNITS
350
3A5
  3
LAYOUTDICT
350
3A1
  3
LWETCUNION
350
3A4
  3
PLOTSETDICT
350
3A2
  3
PLOTSTYLNAMDICT
350
3A3
  3
PSVPSCALE
350
3A9
  3
PUCSBASE
350
3AC
  3
PUCSORGBACK
350
3B2
  3
PUCSORGBOTTOM
350
3AE
  3
PUCSORGFRONT
350
3B1
  3
PUCSORGLEFT
350
3AF
  3
PUCSORGRIGHT
350
3B0
  3
PUCSORGTOP
350
3AD
  3
PUCSORTHOREF
350
3AA
  3
PUCSORTHOVIEW
350
3AB
  3
STYLESHEET
350
3A0
  3
TSTACKALIGN
350
39D
  3
TSTACKSIZE
350
39E
  3
UCSBASE
350
3B5
  3
UCSORGBACK
350
3BB
  3
UCSORGBOTTOM
350
3B7
  3
UCSORGFRONT
350
3BA
  3
UCSORGLEFT
350
3B8
  3
UCSORGRIGHT
350
3B9
  3
UCSORGTOP
350
3B6
  3
UCSORTHOREF
350
3B3
  3
UCSORTHOVIEW
350
3B4
  3
VERSIONGUID
350
3A8
  0
DICTIONARY
  5
399
102
{ACAD_REACTORS
330
C
102
}
330
C
100
AcDbDictionary
  3
DIMASSOC
350
39A
  0
XRECORD
  5
3BF
102
{ACAD_REACTORS
330
3BE
102
}
330
3BE
100
AcDbXrecord
340
1E
  0
XRECORD
  5
3BD
102
{ACAD_REACTORS
330
3BC
102
}
330
3BC
100
AcDbXrecord
340
1A
  0
MLINESTYLE
  5
17
102
{ACAD_REACTORS
330
16
102
}
330
16
100
AcDbMlineStyle
  2
STANDARD
 70
     0
  3

 62
   256
 51
90.0
 52
90.0
 71
     2
 49
0.5
 62
   256
  6
BYLAYER
 49
-0.5
 62
   256
  6
BYLAYER
  0
ACDBPLACEHOLDER
  5
F
102
{ACAD_REACTORS
330
E
102
}
330
E
100
AcDbPlaceHolder
280
     0
  0
XRECORD
  5
3A6
102
{ACAD_REACTORS
330
39C
102
}
330
39C
100
AcDbXrecord
 90
        0
  0
XRECORD
  5
3A7
102
{ACAD_REACTORS
330
39C
102
}
330
39C
100
AcDbXrecord
  1
{7BFC431E-2CF6-4C06-BA9B-9C0E53BED5AD}
  0
XRECORD
  5
39F
102
{ACAD_REACTORS
330
39C
102
}
330
39C
100
AcDbXrecord
  1

  0
XRECORD
  5
3A5
102
{ACAD_REACTORS
330
39C
102
}
330
39C
100
AcDbXrecord
 90
        0
  0
XRECORD
  5
3A1
102
{ACAD_REACTORS
330
39C
102
}
330
39C
100
AcDbXrecord
340
19
  0
XRECORD
  5
3A4
102
{ACAD_REACTORS
330
39C
102
}
330
39C
100
AcDbXrecord
 90
    10781
  0
XRECORD
  5
3A2
102
{ACAD_REACTORS
330
39C
102
}
330
39C
100
AcDbXrecord
340
18
  0
XRECORD
  5
3A3
102
{ACAD_REACTORS
330
39C
102
}
330
39C
100
AcDbXrecord
340
E
  0
XRECORD
  5
3A9
102
{ACAD_REACTORS
330
39C
102
}
330
39C
100
AcDbXrecord
 40
0.0
  0
XRECORD
  5
3AC
102
{ACAD_REACTORS
330
39C
102
}
330
39C
100
AcDbXrecord
340
0
  0
XRECORD
  5
3B2
102
{ACAD_REACTORS
330
39C
102
}
330
39C
100
AcDbXrecord
 10
0.0
 20
0.0
 30
0.0
  0
XRECORD
  5
3AE
102
{ACAD_REACTORS
330
39C
102
}
330
39C
100
AcDbXrecord
 10
0.0
 20
0.0
 30
0.0
  0
XRECORD
  5
3B1
102
{ACAD_REACTORS
330
39C
102
}
330
39C
100
AcDbXrecord
 10
0.0
 20
0.0
 30
0.0
  0
XRECORD
  5
3AF
102
{ACAD_REACTORS
330
39C
102
}
330
39C
100
AcDbXrecord
 10
0.0
 20
0.0
 30
0.0
  0
XRECORD
  5
3B0
102
{ACAD_REACTORS
330
39C
102
}
330
39C
100
AcDbXrecord
 10
0.0
 20
0.0
 30
0.0
  0
XRECORD
  5
3AD
102
{ACAD_REACTORS
330
39C
102
}
330
39C
100
AcDbXrecord
 10
0.0
 20
0.0
 30
0.0
  0
XRECORD
  5
3AA
102
{ACAD_REACTORS
330
39C
102
}
330
39C
100
AcDbXrecord
340
0
  0
XRECORD
  5
3AB
102
{ACAD_REACTORS
330
39C
102
}
330
39C
100
AcDbXrecord
 70
     0
  0
XRECORD
  5
3A0
102
{ACAD_REACTORS
330
39C
102
}
330
39C
100
AcDbXrecord
  1

  0
XRECORD
  5
39D
102
{ACAD_REACTORS
330
39C
102
}
330
39C
100
AcDbXrecord
 90
        1
  0
XRECORD
  5
39E
102
{ACAD_REACTORS
330
39C
102
}
330
39C
100
AcDbXrecord
 90
       70
  0
XRECORD
  5
3B5
102
{ACAD_REACTORS
330
39C
102
}
330
39C
100
AcDbXrecord
340
0
  0
XRECORD
  5
3BB
102
{ACAD_REACTORS
330
39C
102
}
330
39C
100
AcDbXrecord
 10
0.0
 20
0.0
 30
0.0
  0
XRECORD
  5
3B7
102
{ACAD_REACTORS
330
39C
102
}
330
39C
100
AcDbXrecord
 10
0.0
 20
0.0
 30
0.0
  0
XRECORD
  5
3BA
102
{ACAD_REACTORS
330
39C
102
}
330
39C
100
AcDbXrecord
 10
0.0
 20
0.0
 30
0.0
  0
XRECORD
  5
3B8
102
{ACAD_REACTORS
330
39C
102
}
330
39C
100
AcDbXrecord
 10
0.0
 20
0.0
 30
0.0
  0
XRECORD
  5
3B9
102
{ACAD_REACTORS
330
39C
102
}
330
39C
100
AcDbXrecord
 10
0.0
 20
0.0
 30
0.0
  0
XRECORD
  5
3B6
102
{ACAD_REACTORS
330
39C
102
}
330
39C
100
AcDbXrecord
 10
0.0
 20
0.0
 30
0.0
  0
XRECORD
  5
3B3
102
{ACAD_REACTORS
330
39C
102
}
330
39C
100
AcDbXrecord
340
0
  0
XRECORD
  5
3B4
102
{ACAD_REACTORS
330
39C
102
}
330
39C
100
AcDbXrecord
 70
     0
  0
XRECORD
  5
3A8
102
{ACAD_REACTORS
330
39C
102
}
330
39C
100
AcDbXrecord
  1
{8EAD19BA-C418-473D-B65A-179277804645}
  0
DICTIONARYVAR
  5
39A
102
{ACAD_REACTORS
330
399
102
}
330
399
100
DictionaryVariables
280
     0
  1
1
  0
ENDSEC
  0
EOF
