  0
SECTION
  2
HEADER
  9
$CLAYER
  8
1
  9
$LTSCALE
 40
3.0
  0
ENDSEC
  0
SECTION
  2
TABLES
  0
TABLE
  2
LTYPE
 70
     4
  0
LTYPE
  2
CONTINUOUS
  3
solid line
 70
    64
 72
    65
 73
     0
 40
0.0
  0
LTYPE
  2
DASHED
  3
__ __ __ __ __ __ __ __ __ __ __ __ __ __ __
 70
    64
 72
    65
 73
     2
 40
0.75
 49
0.5
 49
-0.25
  0
LTYPE
  2
CENTER
  3
____ _ ____ _ ____ _ ____ _ ____ _ ____ _ ____
 70
    64
 72
    65
 73
     4
 40
2.0
 49
1.25
 49
-0.25
 49
0.25
 49
-0.25
  0
LTYPE
  2
PHANTOM
  3
_____ _ _ _____ _ _ _____ _ _ _____ _ _ ____
 70
    64
 72
    65
 73
     6
 40
2.5
 49
1.25
 49
-0.25
 49
0.25
 49
-0.25
 49
0.25
 49
-0.25
  0
ENDTAB
  0
TABLE
  2
LAYER
 70
     1
  0
LAYER
  2
0
 70
    64
 62
     7
  6
CONTINUOUS
  0
ENDTAB
  0
TABLE
  2
STYLE
 70
     1
  0
STYLE
  2
STANDARD
 70
     0
 40
0.000000
 41
1.000000
 50
0.000000
 71
     0
 42
3.000000
  3
txt
  4
BIGFONT
  0
ENDTAB
  0
ENDSEC
  0
SECTION
  2
BLOCKS
  0
ENDSEC
  0
SECTION
  2
ENTITIES
  0
LINE
  8
0
  6
CENTER
 10
204.663757
 20
96.761871
 11
232.167496
 21
96.761871
  0
LINE
  8
0
  6
CENTER
 10
292.663757
 20
221.320007
 11
292.663757
 21
-8.871005
  0
LINE
  8
0
  6
CENTER
 10
228.779144
 20
141.761871
 11
357.008759
 21
141.761871
  0
LINE
  8
0
  6
CENTER
 10
340.163757
 20
27.037315
 11
340.163757
 21
-6.827425
  0
LINE
  8
0
  6
CENTER
 10
245.163757
 20
27.037315
 11
245.163757
 21
-7.119365
  0
LINE
  8
0
  6
CONTINUOUS
 10
216.663757
 20
1.761875
 11
368.663757
 21
1.761875
  0
LINE
  8
0
  6
CONTINUOUS
 10
216.663757
 20
19.761875
 11
368.663757
 21
19.761875
  0
LINE
  8
0
  6
CONTINUOUS
 10
368.663757
 20
170.067429
 11
368.663757
 21
1.761875
  0
LINE
  8
0
  6
CONTINUOUS
 10
216.663757
 20
165.261871
 11
216.663757
 21
170.067429
  0
LINE
  8
0
  6
CONTINUOUS
 10
266.160339
 20
206.761871
 11
319.167145
 21
206.761871
  0
LINE
  8
0
  6
CONTINUOUS
 10
211.663757
 20
160.761871
 11
204.663757
 21
160.761871
  0
LINE
  8
0
  6
CONTINUOUS
 10
211.663757
 20
32.761875
 11
204.663757
 21
32.761875
  0
LINE
  8
0
  6
CONTINUOUS
 10
365.213745
 20
176.647491
 11
323.717163
 21
205.341934
  0
LINE
  8
0
  6
CONTINUOUS
 10
220.113708
 20
176.647491
 11
261.610352
 21
205.341934
  0
ARC
  8
0
  6
CONTINUOUS
 10
319.167145
 20
198.761871
 40
8.000000
 50
55.336689
 51
90.000000
  0
ARC
  8
0
  6
CONTINUOUS
 10
360.663757
 20
170.067398
 40
8.000000
 50
0.000000
 51
55.336739
  0
ARC
  8
0
  6
CONTINUOUS
 10
266.160339
 20
198.761871
 40
8.000000
 50
90.000000
 51
124.663696
  0
ARC
  8
0
  6
CONTINUOUS
 10
224.663757
 20
170.067474
 40
8.000000
 50
124.663803
 51
180.000000
  0
LINE
  8
0
  6
CONTINUOUS
 10
216.663757
 20
28.261875
 11
216.663757
 21
1.761875
  0
ARC
  8
0
  6
CONTINUOUS
 10
211.663727
 20
165.761871
 40
5.000000
 50
-90.000000
 51
0.000000
  0
LINE
  8
0
  6
CONTINUOUS
 10
216.663757
 20
28.261875
 11
216.663757
 21
165.261871
  0
ARC
  8
0
  6
CONTINUOUS
 10
211.663773
 20
27.761854
 40
5.000000
 50
0.000000
 51
90.000000
  0
LINE
  8
0
  6
DASHED
 10
238.663757
 20
19.761875
 11
238.663757
 21
1.761875
  0
LINE
  8
0
  6
DASHED
 10
251.663757
 20
19.761875
 11
251.663757
 21
1.761875
  0
LINE
  8
0
  6
DASHED
 10
333.663757
 20
19.761875
 11
333.663757
 21
1.761875
  0
LINE
  8
0
  6
DASHED
 10
346.663757
 20
19.761875
 11
346.663757
 21
1.761875
  0
CIRCLE
  8
0
  6
CONTINUOUS
 10
292.663757
 20
141.761871
 40
39.000000
  0
ARC
  8
0
  6
CONTINUOUS
 10
292.663757
 20
141.761871
 40
44.000000
 50
12.523240
 51
167.476898
  0
ARC
  8
0
  6
CONTINUOUS
 10
267.163757
 20
82.761871
 40
29.000000
 50
167.476898
 51
270.000000
  0
ARC
  8
0
  6
CONTINUOUS
 10
318.163757
 20
82.761871
 40
29.000000
 50
-90.000000
 51
12.523240
  0
ARC
  8
0
  6
CONTINUOUS
 10
267.163757
 20
82.761871
 40
31.900000
 50
167.476898
 51
270.000000
  0
ARC
  8
0
  6
CONTINUOUS
 10
318.163757
 20
82.761871
 40
31.900000
 50
-90.000000
 51
12.523240
  0
ARC
  8
0
  6
CONTINUOUS
 10
292.663757
 20
141.761871
 40
41.099998
 50
-192.523102
 51
12.523240
  0
LINE
  8
0
  6
CONTINUOUS
 10
236.022751
 20
89.678879
 11
249.710556
 21
151.302582
  0
LINE
  8
0
  6
CONTINUOUS
 10
238.853745
 20
89.050064
 11
252.541550
 21
150.673752
  0
LINE
  8
0
  6
CONTINUOUS
 10
267.163757
 20
50.861874
 11
318.163757
 21
50.861874
  0
LINE
  8
0
  6
CONTINUOUS
 10
318.163757
 20
53.761875
 11
267.163757
 21
53.761875
  0
LINE
  8
0
  6
CONTINUOUS
 10
335.616943
 20
151.302658
 11
349.304749
 21
89.678940
  0
LINE
  8
0
  6
CONTINUOUS
 10
332.785950
 20
150.673828
 11
346.473755
 21
89.050117
  0
LINE
  8
0
  6
CONTINUOUS
 10
280.436737
 20
65.761871
 11
275.496338
 21
65.761871
  0
LINE
  8
0
  6
CONTINUOUS
 10
283.163757
 20
74.037277
 11
283.163757
 21
65.761871
  0
LINE
  8
0
  6
CONTINUOUS
 10
287.913757
 20
77.043121
 11
287.913757
 21
80.011871
  0
LINE
  8
0
  6
CONTINUOUS
 10
297.413757
 20
77.043121
 11
297.413757
 21
80.011871
  0
LINE
  8
0
  6
CONTINUOUS
 10
291.735962
 20
78.267738
 11
291.735962
 21
67.320473
  0
LINE
  8
0
  6
CONTINUOUS
 10
293.517365
 20
78.267738
 11
293.517365
 21
67.320473
  0
LINE
  8
0
  6
CONTINUOUS
 10
302.868958
 20
78.267738
 11
302.868958
 21
67.246254
  0
LINE
  8
0
  6
CONTINUOUS
 10
304.501740
 20
72.423012
 11
304.501740
 21
67.246254
  0
LINE
  8
0
  6
CONTINUOUS
 10
280.909760
 20
78.119293
 11
276.332153
 21
78.119293
  0
LINE
  8
0
  6
CONTINUOUS
 10
276.332153
 20
78.119293
 11
275.259552
 21
76.789299
  0
LINE
  8
0
  6
CONTINUOUS
 10
275.388550
 20
80.011871
 11
273.663757
 21
77.803406
  0
LINE
  8
0
  6
CONTINUOUS
 10
275.259552
 20
68.579712
 11
276.349365
 21
67.431793
  0
LINE
  8
0
  6
CONTINUOUS
 10
273.663757
 20
67.610992
 11
275.496338
 21
65.761871
  0
LINE
  8
0
  6
CONTINUOUS
 10
273.663757
 20
77.803406
 11
273.663757
 21
67.610992
  0
LINE
  8
0
  6
CONTINUOUS
 10
275.259552
 20
76.789299
 11
275.259552
 21
68.579712
  0
LINE
  8
0
  6
CONTINUOUS
 10
281.790741
 20
77.267738
 11
280.891754
 21
78.119293
  0
LINE
  8
0
  6
CONTINUOUS
 10
281.776550
 20
80.011871
 11
283.163757
 21
78.472290
  0
LINE
  8
0
  6
CONTINUOUS
 10
281.790741
 20
77.043121
 11
283.163757
 21
77.043121
  0
LINE
  8
0
  6
CONTINUOUS
 10
275.388550
 20
80.011871
 11
281.776550
 21
80.011871
  0
LINE
  8
0
  6
CONTINUOUS
 10
279.304352
 20
74.037277
 11
283.163757
 21
74.037277
  0
LINE
  8
0
  6
CONTINUOUS
 10
281.790741
 20
72.478676
 11
279.304352
 21
72.478676
  0
LINE
  8
0
  6
CONTINUOUS
 10
278.821960
 20
67.431793
 11
276.349365
 21
67.431793
  0
LINE
  8
0
  6
CONTINUOUS
 10
281.790741
 20
70.994293
 11
281.790741
 21
72.181793
  0
ARC
  8
0
  6
CONTINUOUS
 10
278.821960
 20
70.400536
 40
2.968750
 50
-89.999786
 51
0.000109
  0
LINE
  8
0
  6
CONTINUOUS
 10
281.790741
 20
66.897797
 11
281.790741
 21
65.761871
  0
LINE
  8
0
  6
CONTINUOUS
 10
283.163757
 20
78.472290
 11
283.163757
 21
77.043121
  0
LINE
  8
0
  6
CONTINUOUS
 10
281.790741
 20
72.478676
 11
281.790741
 21
70.400536
  0
LINE
  8
0
  6
CONTINUOUS
 10
279.304352
 20
74.037277
 11
279.304352
 21
72.478676
  0
LINE
  8
0
  6
CONTINUOUS
 10
281.790741
 20
65.761871
 11
283.163757
 21
65.761871
  0
LINE
  8
0
  6
CONTINUOUS
 10
281.790741
 20
66.897797
 11
280.436737
 21
65.761871
  0
LINE
  8
0
  6
CONTINUOUS
 10
293.517365
 20
67.320473
 11
294.110962
 21
67.320473
  0
LINE
  8
0
  6
CONTINUOUS
 10
291.030945
 20
67.320473
 11
291.030945
 21
65.761871
  0
LINE
  8
0
  6
CONTINUOUS
 10
294.110962
 20
67.320473
 11
294.110962
 21
65.761871
  0
LINE
  8
0
  6
CONTINUOUS
 10
296.422760
 20
77.043121
 11
297.413757
 21
77.043121
  0
LINE
  8
0
  6
CONTINUOUS
 10
287.913757
 20
77.043121
 11
288.968353
 21
77.043121
  0
LINE
  8
0
  6
CONTINUOUS
 10
287.913757
 20
80.011871
 11
297.413757
 21
80.011871
  0
LINE
  8
0
  6
CONTINUOUS
 10
291.030945
 20
65.761871
 11
294.110962
 21
65.761871
  0
LINE
  8
0
  6
CONTINUOUS
 10
291.030945
 20
67.320473
 11
291.735962
 21
67.320473
  0
ARC
  8
0
  6
CONTINUOUS
 10
307.859955
 20
76.208153
 40
3.803712
 50
-73.981873
 51
90.003510
  0
ARC
  8
0
  6
CONTINUOUS
 10
307.859955
 20
76.208153
 40
2.320524
 50
-82.585274
 51
62.411850
  0
LINE
  8
0
  6
CONTINUOUS
 10
302.163757
 20
80.011871
 11
307.859955
 21
80.011871
  0
LINE
  8
0
  6
CONTINUOUS
 10
308.159546
 20
73.907036
 11
304.501740
 21
73.907036
  0
LINE
  8
0
  6
CONTINUOUS
 10
302.163757
 20
80.011871
 11
302.163757
 21
78.267738
  0
LINE
  8
0
  6
CONTINUOUS
 10
304.501740
 20
78.267738
 11
304.501740
 21
73.907036
  0
LINE
  8
0
  6
CONTINUOUS
 10
308.909546
 20
72.552132
 11
311.263947
 21
67.246254
  0
LINE
  8
0
  6
CONTINUOUS
 10
307.542358
 20
72.423012
 11
309.770355
 21
67.246254
  0
LINE
  8
0
  6
CONTINUOUS
 10
302.163757
 20
67.246254
 11
302.868958
 21
67.246254
  0
LINE
  8
0
  6
CONTINUOUS
 10
304.501740
 20
67.246254
 11
305.151154
 21
67.246254
  0
LINE
  8
0
  6
CONTINUOUS
 10
305.151154
 20
65.761871
 11
302.163757
 21
65.761871
  0
LINE
  8
0
  6
CONTINUOUS
 10
309.474365
 20
67.246254
 11
309.770355
 21
67.246254
  0
LINE
  8
0
  6
CONTINUOUS
 10
311.263947
 20
67.246254
 11
311.663757
 21
67.246254
  0
LINE
  8
0
  6
CONTINUOUS
 10
309.474365
 20
65.761871
 11
311.663757
 21
65.761871
  0
LINE
  8
0
  6
CONTINUOUS
 10
311.663757
 20
67.246254
 11
311.663757
 21
65.761871
  0
LINE
  8
0
  6
CONTINUOUS
 10
309.474365
 20
67.246254
 11
309.474365
 21
65.761871
  0
LINE
  8
0
  6
CONTINUOUS
 10
305.151154
 20
67.246254
 11
305.151154
 21
65.761871
  0
LINE
  8
0
  6
CONTINUOUS
 10
302.163757
 20
67.246254
 11
302.163757
 21
65.761871
  0
LINE
  8
0
  6
CONTINUOUS
 10
289.478546
 20
78.267738
 11
288.968353
 21
77.043121
  0
LINE
  8
0
  6
CONTINUOUS
 10
295.992554
 20
78.267738
 11
296.422760
 21
77.043121
  0
LINE
  8
0
  6
CONTINUOUS
 10
293.517365
 20
78.267738
 11
295.992554
 21
78.267738
  0
LINE
  8
0
  6
CONTINUOUS
 10
291.735962
 20
78.267738
 11
289.478546
 21
78.267738
  0
LINE
  8
0
  6
CONTINUOUS
 10
304.501740
 20
72.423012
 11
307.542358
 21
72.423012
  0
LINE
  8
0
  6
CONTINUOUS
 10
302.163757
 20
78.267738
 11
302.868958
 21
78.267738
  0
LINE
  8
0
  6
CONTINUOUS
 10
304.501740
 20
78.267738
 11
308.934753
 21
78.264847
  0
LINE
  8
0
  6
CONTINUOUS
 10
281.790741
 20
77.267738
 11
281.790741
 21
77.043121
  0
ARC
  8
0
  6
CONTINUOUS
 10
396.372559
 20
96.761871
 40
185.208893
 50
166.001907
 51
193.998093
  0
LINE
  8
0
  6
CONTINUOUS
 10
230.663757
 20
17.695314
 11
230.663757
 21
1.761875
  0
LINE
  8
0
  6
CONTINUOUS
 10
354.663757
 20
17.695314
 11
354.663757
 21
1.761875
  0
LINE
  8
0
  6
CONTINUOUS
 10
316.421143
 20
24.761875
 11
268.906342
 21
24.761875
  0
LINE
  8
0
  6
CONTINUOUS
 10
267.663757
 20
23.825994
 11
267.663757
 21
20.761875
  0
LINE
  8
0
  6
CONTINUOUS
 10
318.542358
 20
23.883196
 11
321.199341
 21
21.226336
  0
LINE
  8
0
  6
CONTINUOUS
 10
266.785156
 20
23.883196
 11
264.128357
 21
21.226376
  0
LINE
  8
0
  6
CONTINUOUS
 10
317.663757
 20
23.825994
 11
317.663757
 21
20.761875
  0
ARC
  8
0
  6
CONTINUOUS
 10
260.592743
 20
24.761875
 40
5.000000
 50
270.000000
 51
315.000092
  0
ARC
  8
0
  6
CONTINUOUS
 10
268.906342
 20
21.761875
 40
3.000000
 50
90.000000
 51
135.000305
  0
ARC
  8
0
  6
CONTINUOUS
 10
266.663757
 20
20.761875
 40
1.000000
 50
-90.000000
 51
0.000000
  0
ARC
  8
0
  6
CONTINUOUS
 10
324.734741
 20
24.761875
 40
5.000000
 50
225.000000
 51
270.000000
  0
ARC
  8
0
  6
CONTINUOUS
 10
316.421143
 20
21.761875
 40
3.000000
 50
45.000160
 51
90.000000
  0
ARC
  8
0
  6
CONTINUOUS
 10
318.663757
 20
20.761875
 40
1.000000
 50
180.000000
 51
270.000000
  0
LINE
  8
0
  6
CONTINUOUS
 10
303.663757
 20
136.761917
 11
303.663757
 21
146.761917
  0
LINE
  8
0
  6
CONTINUOUS
 10
311.663757
 20
136.761932
 11
311.663757
 21
146.761932
  0
LINE
  8
0
  6
CONTINUOUS
 10
311.663757
 20
136.761932
 11
303.663757
 21
136.761917
  0
LINE
  8
0
  6
CONTINUOUS
 10
311.663757
 20
146.761932
 11
303.663757
 21
146.761917
  0
ARC
  8
0
  6
CONTINUOUS
 10
292.663757
 20
141.761871
 40
16.000000
 50
18.209900
 51
341.790100
  0
LINE
  8
0
  6
CENTER
 10
569.740479
 20
-14.683125
 11
569.740479
 21
226.457504
  0
LINE
  8
0
  6
CENTER
 10
438.742493
 20
96.761871
 11
652.414978
 21
96.761871
  0
LINE
  8
0
  6
CENTER
 10
437.077881
 20
141.761871
 11
641.790466
 21
141.761871
  0
LINE
  8
0
  6
CENTER
 10
629.740479
 20
28.360615
 11
629.740479
 21
-9.538505
  0
LINE
  8
0
  6
CENTER
 10
509.740479
 20
28.360615
 11
509.740479
 21
-9.538505
  0
LINE
  8
0
  6
CONTINUOUS
 10
494.740479
 20
1.761875
 11
539.740479
 21
1.761875
  0
LINE
  8
0
  6
CONTINUOUS
 10
599.740479
 20
1.761875
 11
644.740479
 21
1.761875
  0
LINE
  8
0
  6
CONTINUOUS
 10
642.240479
 20
19.761875
 11
618.740479
 21
19.761875
  0
LINE
  8
0
  6
CONTINUOUS
 10
497.240479
 20
19.761875
 11
520.740479
 21
19.761875
  0
LINE
  8
0
  6
CONTINUOUS
 10
614.740479
 20
203.028641
 11
614.740479
 21
1.761875
  0
LINE
  8
0
  6
CONTINUOUS
 10
524.740479
 20
189.503082
 11
524.740479
 21
203.028152
  0
LINE
  8
0
  6
CONTINUOUS
 10
644.740479
 20
17.644054
 11
644.740479
 21
1.761875
  0
LINE
  8
0
  6
CONTINUOUS
 10
494.740479
 20
17.644054
 11
494.740479
 21
1.761875
  0
LINE
  8
0
  6
CONTINUOUS
 10
541.240479
 20
3.261875
 11
598.240479
 21
3.261875
  0
LINE
  8
0
  6
CONTINUOUS
 10
611.792847
 20
206.028168
 11
569.740479
 21
206.761871
  0
LINE
  8
0
  6
CONTINUOUS
 10
527.688049
 20
206.027695
 11
569.740479
 21
206.761871
  0
LINE
  8
0
  6
CONTINUOUS
 10
507.740479
 20
106.503067
 11
507.740479
 21
177.020691
  0
LINE
  8
0
  6
CONTINUOUS
 10
631.740479
 20
106.503067
 11
631.740479
 21
177.020691
  0
LINE
  8
0
  6
CONTINUOUS
 10
514.740479
 20
57.517876
 11
514.740479
 21
145.672272
  0
LINE
  8
0
  6
CONTINUOUS
 10
624.740479
 20
57.517895
 11
624.740479
 21
145.672272
  0
LINE
  8
0
  6
DASHED
 10
636.240479
 20
19.761875
 11
636.240479
 21
1.761875
  0
LINE
  8
0
  6
DASHED
 10
623.240479
 20
19.761875
 11
623.240479
 21
1.761875
  0
LINE
  8
0
  6
DASHED
 10
516.240479
 20
19.761875
 11
516.240479
 21
1.761875
  0
LINE
  8
0
  6
DASHED
 10
503.240479
 20
19.761875
 11
503.240479
 21
1.761875
  0
ARC
  8
0
  6
CONTINUOUS
 10
527.740479
 20
203.028152
 40
3.000000
 50
91.000603
 51
180.000000
  0
ARC
  8
0
  6
CONTINUOUS
 10
611.740479
 20
203.028610
 40
3.000000
 50
0.000000
 51
89.000580
  0
LINE
  8
0
  6
CONTINUOUS
 10
521.151245
 20
184.706238
 11
511.329681
 21
181.817490
  0
LINE
  8
0
  6
CONTINUOUS
 10
511.329681
 20
101.706238
 11
511.869080
 21
101.547569
  0
LINE
  8
0
  6
CONTINUOUS
 10
518.347839
 20
52.715736
 11
521.133057
 21
51.908016
  0
LINE
  8
0
  6
CONTINUOUS
 10
496.829468
 20
20.110035
 11
522.233643
 21
24.344074
  0
LINE
  8
0
  6
CONTINUOUS
 10
642.651489
 20
20.110056
 11
617.247253
 21
24.344095
  0
LINE
  8
0
  6
CONTINUOUS
 10
621.133057
 20
52.715736
 11
618.347839
 21
51.908016
  0
LINE
  8
0
  6
CONTINUOUS
 10
628.151245
 20
101.706238
 11
627.611877
 21
101.547562
  0
LINE
  8
0
  6
CONTINUOUS
 10
628.151245
 20
181.817520
 11
618.329651
 21
184.706238
  0
LINE
  8
0
  6
CONTINUOUS
 10
527.314880
 20
174.261871
 11
611.993042
 21
174.261871
  0
ARC
  8
0
  6
CONTINUOUS
 10
512.740479
 20
177.020721
 40
5.000000
 50
106.389900
 51
180.000000
  0
ARC
  8
0
  6
CONTINUOUS
 10
626.740479
 20
177.020676
 40
5.000000
 50
0.000000
 51
73.610527
  0
ARC
  8
0
  6
CONTINUOUS
 10
512.740479
 20
106.503105
 40
5.000000
 50
180.000000
 51
253.610794
  0
ARC
  8
0
  6
CONTINUOUS
 10
626.740479
 20
106.503059
 40
5.000000
 50
-73.610321
 51
0.000000
  0
ARC
  8
0
  6
CONTINUOUS
 10
619.740479
 20
57.517876
 40
5.000000
 50
-73.827698
 51
0.000000
  0
ARC
  8
0
  6
CONTINUOUS
 10
519.740479
 20
57.517914
 40
5.000000
 50
180.000000
 51
253.828201
  0
LINE
  8
0
  6
CONTINUOUS
 10
524.740479
 20
189.503082
 11
524.740479
 21
1.761875
  0
ARC
  8
0
  6
CONTINUOUS
 10
519.740479
 20
189.503052
 40
5.000000
 50
-73.610229
 51
0.000000
  0
ARC
  8
0
  6
CONTINUOUS
 10
510.740479
 20
97.710091
 40
4.000000
 50
0.000000
 51
73.610649
  0
ARC
  8
0
  6
CONTINUOUS
 10
519.740479
 20
47.105854
 40
5.000000
 50
0.000000
 51
73.827919
  0
ARC
  8
0
  6
CONTINUOUS
 10
619.740479
 20
47.105896
 40
5.000000
 50
106.172501
 51
180.000000
  0
ARC
  8
0
  6
CONTINUOUS
 10
628.740479
 20
97.710121
 40
4.000000
 50
106.389999
 51
180.000000
  0
ARC
  8
0
  6
CONTINUOUS
 10
619.740479
 20
189.503098
 40
5.000000
 50
180.000000
 51
253.610794
  0
ARC
  8
0
  6
CONTINUOUS
 10
521.740479
 20
27.303255
 40
3.000000
 50
-80.537483
 51
0.000000
  0
ARC
  8
0
  6
CONTINUOUS
 10
520.740479
 20
23.761835
 40
4.000000
 50
-90.000000
 51
0.000000
  0
ARC
  8
0
  6
CONTINUOUS
 10
497.240479
 20
17.261894
 40
2.500000
 50
90.000000
 51
180.000000
  0
LINE
  8
0
  6
CONTINUOUS
 10
539.740479
 20
1.761875
 11
541.240479
 21
3.261875
  0
LINE
  8
0
  6
CONTINUOUS
 10
599.740479
 20
1.761875
 11
598.240479
 21
3.261875
  0
ARC
  8
0
  6
CONTINUOUS
 10
617.740479
 20
27.303295
 40
3.000000
 50
180.000000
 51
260.537903
  0
ARC
  8
0
  6
CONTINUOUS
 10
618.740479
 20
23.761875
 40
4.000000
 50
180.000000
 51
270.000000
  0
ARC
  8
0
  6
CONTINUOUS
 10
642.240479
 20
17.261875
 40
2.500000
 50
0.000000
 51
90.000000
  0
LINE
  8
0
  6
CONTINUOUS
 10
449.740479
 20
125.761871
 11
449.740479
 21
157.761871
  0
LINE
  8
0
  6
CONTINUOUS
 10
504.740479
 20
157.761871
 11
449.740479
 21
157.761871
  0
LINE
  8
0
  6
CONTINUOUS
 10
504.740479
 20
125.761871
 11
449.740479
 21
125.761871
  0
LINE
  8
0
  6
CONTINUOUS
 10
504.740479
 20
159.261871
 11
504.740479
 21
124.261871
  0
LINE
  8
0
  6
CONTINUOUS
 10
507.740479
 20
159.261871
 11
504.740479
 21
159.261871
  0
LINE
  8
0
  6
CONTINUOUS
 10
507.740479
 20
124.261871
 11
504.740479
 21
124.261871
  0
ARC
  8
0
  6
CONTINUOUS
 10
494.740479
 20
141.761871
 40
5.000000
 50
-90.000000
 51
90.000000
  0
LINE
  8
0
  6
CONTINUOUS
 10
494.740479
 20
146.761871
 11
449.740479
 21
146.761871
  0
LINE
  8
0
  6
CONTINUOUS
 10
494.740479
 20
136.761871
 11
449.740479
 21
136.761871
  0
ARC
  8
0
  6
CONTINUOUS
 10
497.240479
 20
17.644075
 40
2.500000
 50
99.462753
 51
180.000000
  0
ARC
  8
0
  6
CONTINUOUS
 10
642.240479
 20
17.644054
 40
2.500000
 50
0.000000
 51
80.537682
  0
LINE
  8
0
  6
CENTER
 10
-7.753750
 20
96.761871
 11
204.663757
 21
96.761871
  0
LINE
  8
0
  6
CONTINUOUS
 10
204.663757
 20
160.761871
 11
204.663757
 21
32.761875
  0
LINE
  8
0
  6
CONTINUOUS
 10
507.740479
 20
70.727554
 11
507.740448
 21
80.887436
  0
LINE
  8
0
  6
CONTINUOUS
 10
508.705566
 20
69.728172
 11
511.780457
 21
69.620796
  0
ARC
  8
0
  6
CONTINUOUS
 10
508.740479
 20
70.727577
 40
1.000000
 50
180.000000
 51
268.000214
  0
ARC
  8
0
  6
CONTINUOUS
 10
569.740479
 20
96.761871
 40
70.500000
 50
200.824066
 51
230.334991
  0
ARC
  8
0
  6
CONTINUOUS
 10
569.740479
 20
96.761871
 40
64.000000
 50
-30.753519
 51
14.361512
  0
ARC
  8
0
  6
CONTINUOUS
 10
569.740479
 20
96.761871
 40
70.500000
 50
-50.334988
 51
28.426003
  0
ARC
  8
0
  6
CONTINUOUS
 10
569.740479
 20
96.761871
 40
70.500000
 50
157.041092
 51
159.175964
  0
ARC
  8
0
  6
CONTINUOUS
 10
569.740479
 20
96.761871
 40
64.000000
 50
165.638489
 51
210.753525
  0
LINE
  8
0
  6
CONTINUOUS
 10
70.663788
 20
160.761871
 11
204.663757
 21
160.761871
  0
LINE
  8
0
  6
CONTINUOUS
 10
70.663788
 20
32.761875
 11
72.663750
 21
32.761875
  0
LINE
  8
0
  6
CONTINUOUS
 10
80.663750
 20
155.242874
 11
80.663750
 21
151.261871
  0
LINE
  8
0
  6
CONTINUOUS
 10
196.663757
 20
155.242874
 11
196.663727
 21
151.261871
  0
LINE
  8
0
  6
CONTINUOUS
 10
80.663727
 20
134.761871
 11
196.663757
 21
134.761871
  0
LINE
  8
0
  6
CONTINUOUS
 10
80.663750
 20
136.761871
 11
196.663757
 21
136.761871
  0
LINE
  8
0
  6
CONTINUOUS
 10
80.663750
 20
142.261871
 11
196.663757
 21
142.261871
  0
LINE
  8
0
  6
CONTINUOUS
 10
80.663750
 20
144.261871
 11
196.663757
 21
144.261871
  0
LINE
  8
0
  6
CONTINUOUS
 10
80.663750
 20
149.261871
 11
196.663757
 21
149.261871
  0
LINE
  8
0
  6
CONTINUOUS
 10
80.663750
 20
151.261871
 11
196.663727
 21
151.261871
  0
LINE
  8
0
  6
CONTINUOUS
 10
80.663750
 20
155.242874
 11
196.663757
 21
155.242874
  0
LINE
  8
0
  6
CONTINUOUS
 10
80.663750
 20
149.261871
 11
80.663750
 21
144.261871
  0
LINE
  8
0
  6
CONTINUOUS
 10
80.663750
 20
142.261871
 11
80.663750
 21
136.761871
  0
LINE
  8
0
  6
CONTINUOUS
 10
80.663727
 20
134.761871
 11
80.663727
 21
131.761871
  0
LINE
  8
0
  6
CONTINUOUS
 10
196.663757
 20
38.280876
 11
196.663757
 21
42.261875
  0
LINE
  8
0
  6
CONTINUOUS
 10
196.663757
 20
44.261875
 11
196.663757
 21
49.261875
  0
LINE
  8
0
  6
CONTINUOUS
 10
196.663757
 20
51.261875
 11
196.663757
 21
56.761875
  0
LINE
  8
0
  6
CONTINUOUS
 10
196.663757
 20
58.761875
 11
196.663757
 21
64.561897
  0
LINE
  8
0
  6
CONTINUOUS
 10
196.663757
 20
66.561874
 11
196.663757
 21
72.361877
  0
LINE
  8
0
  6
CONTINUOUS
 10
196.663757
 20
74.361877
 11
196.663757
 21
80.161880
  0
LINE
  8
0
  6
CONTINUOUS
 10
196.663757
 20
82.161880
 11
196.663757
 21
87.961868
  0
LINE
  8
0
  6
CONTINUOUS
 10
196.663757
 20
89.961876
 11
196.663757
 21
95.761871
  0
LINE
  8
0
  6
CONTINUOUS
 10
196.663727
 20
97.761871
 11
196.663727
 21
103.561874
  0
LINE
  8
0
  6
CONTINUOUS
 10
196.663727
 20
105.561874
 11
196.663727
 21
111.361877
  0
LINE
  8
0
  6
CONTINUOUS
 10
196.663727
 20
113.361870
 11
196.663727
 21
119.161873
  0
LINE
  8
0
  6
CONTINUOUS
 10
196.663757
 20
121.161873
 11
196.663757
 21
126.961876
  0
LINE
  8
0
  6
CONTINUOUS
 10
196.663757
 20
128.961868
 11
196.663757
 21
134.761871
  0
LINE
  8
0
  6
CONTINUOUS
 10
196.663757
 20
136.761871
 11
196.663757
 21
142.261871
  0
LINE
  8
0
  6
CONTINUOUS
 10
196.663757
 20
144.261871
 11
196.663757
 21
149.261871
  0
LINE
  8
0
  6
CONTINUOUS
 10
196.663757
 20
66.561874
 11
143.663803
 21
66.561874
  0
LINE
  8
0
  6
CONTINUOUS
 10
196.663757
 20
64.561874
 11
143.663803
 21
64.561874
  0
LINE
  8
0
  6
CONTINUOUS
 10
196.663757
 20
58.761875
 11
80.663727
 21
58.761875
  0
LINE
  8
0
  6
CONTINUOUS
 10
196.663757
 20
56.761875
 11
80.663727
 21
56.761875
  0
LINE
  8
0
  6
CONTINUOUS
 10
196.663757
 20
51.261875
 11
80.663727
 21
51.261875
  0
LINE
  8
0
  6
CONTINUOUS
 10
196.663757
 20
49.261875
 11
80.663727
 21
49.261875
  0
LINE
  8
0
  6
CONTINUOUS
 10
196.663757
 20
44.261875
 11
80.663727
 21
44.261875
  0
LINE
  8
0
  6
CONTINUOUS
 10
196.663757
 20
42.261875
 11
80.663727
 21
42.261875
  0
LINE
  8
0
  6
CONTINUOUS
 10
196.663757
 20
38.280876
 11
81.537193
 21
38.280876
  0
LINE
  8
0
  6
CONTINUOUS
 10
204.663757
 20
32.761875
 11
81.554131
 21
32.761875
  0
LINE
  8
0
  6
CENTER
 10
292.663757
 20
493.055634
 11
292.663757
 21
266.529999
  0
LINE
  8
0
  6
CONTINUOUS
 10
368.663940
 20
400.737915
 11
367.878479
 21
445.737915
  0
LINE
  8
0
  6
CONTINUOUS
 10
234.213699
 20
475.737915
 11
292.663757
 21
475.737915
  0
LINE
  8
0
  6
CONTINUOUS
 10
358.607330
 20
470.539154
 11
367.878479
 21
445.737915
  0
ARC
  8
0
  6
CONTINUOUS
 10
351.113800
 20
467.737915
 40
8.000000
 50
20.496618
 51
90.000000
  0
LINE
  8
0
  6
CONTINUOUS
 10
368.663940
 20
400.737915
 11
367.878479
 21
355.737915
  0
LINE
  8
0
  6
CONTINUOUS
 10
234.213699
 20
325.737915
 11
276.663757
 21
325.737915
  0
LINE
  8
0
  6
CONTINUOUS
 10
358.607330
 20
330.936707
 11
367.878479
 21
355.737915
  0
ARC
  8
0
  6
CONTINUOUS
 10
351.113800
 20
333.737915
 40
8.000000
 50
-90.000000
 51
-20.496618
  0
LINE
  8
0
  6
CONTINUOUS
 10
226.720154
 20
470.539154
 11
217.665359
 21
446.316650
  0
ARC
  8
0
  6
CONTINUOUS
 10
234.213699
 20
467.737915
 40
8.000000
 50
90.000000
 51
159.503387
  0
LINE
  8
0
  6
CONTINUOUS
 10
226.720154
 20
330.936707
 11
217.665359
 21
355.159210
  0
ARC
  8
0
  6
CONTINUOUS
 10
234.213699
 20
333.737915
 40
8.000000
 50
200.496613
 51
270.000000
  0
LINE
  8
0
  6
CONTINUOUS
 10
220.000381
 20
445.737915
 11
364.930389
 21
445.737915
  0
LINE
  8
0
  6
CONTINUOUS
 10
364.930389
 20
355.737915
 11
220.000381
 21
355.737915
  0
LINE
  8
0
  6
CONTINUOUS
 10
292.663757
 20
462.737915
 11
327.922546
 21
462.737915
  0
ARC
  8
0
  6
CONTINUOUS
 10
364.930389
 20
442.737915
 40
3.000000
 50
1.000000
 51
90.000000
  0
ARC
  8
0
  6
CONTINUOUS
 10
364.930389
 20
358.737915
 40
3.000000
 50
270.000000
 51
359.000000
  0
LINE
  8
0
  6
CONTINUOUS
 10
321.663757
 20
442.737915
 11
321.663757
 21
358.737915
  0
LINE
  8
0
  6
CONTINUOUS
 10
263.663757
 20
442.737915
 11
263.663757
 21
358.737915
  0
LINE
  8
0
  6
CONTINUOUS
 10
204.663757
 20
464.737915
 11
204.663757
 21
336.737915
  0
LINE
  8
0
  6
CONTINUOUS
 10
207.236084
 20
464.737915
 11
204.663757
 21
464.737915
  0
LINE
  8
0
  6
CONTINUOUS
 10
332.719391
 20
459.148773
 11
333.722565
 21
455.737915
  0
ARC
  8
0
  6
CONTINUOUS
 10
327.922546
 20
457.737915
 40
5.000000
 50
16.389540
 51
90.000000
  0
LINE
  8
0
  6
CONTINUOUS
 10
348.209900
 20
452.130554
 11
349.017609
 21
449.345306
  0
LINE
  8
0
  6
CONTINUOUS
 10
343.407745
 20
455.737915
 11
333.722565
 21
455.737915
  0
LINE
  8
0
  6
CONTINUOUS
 10
292.663757
 20
462.737915
 11
257.404938
 21
462.737915
  0
LINE
  8
0
  6
CONTINUOUS
 10
292.663757
 20
338.737915
 11
327.922546
 21
338.737915
  0
LINE
  8
0
  6
CONTINUOUS
 10
292.663757
 20
338.737915
 11
257.404938
 21
338.737915
  0
LINE
  8
0
  6
CONTINUOUS
 10
292.663757
 20
475.737915
 11
351.113800
 21
475.737915
  0
LINE
  8
0
  6
CONTINUOUS
 10
311.663757
 20
280.737915
 11
276.663757
 21
280.737915
  0
LINE
  8
0
  6
CONTINUOUS
 10
276.663757
 20
335.737915
 11
276.663757
 21
280.737915
  0
LINE
  8
0
  6
CONTINUOUS
 10
308.663757
 20
335.737915
 11
308.663757
 21
330.737915
  0
LINE
  8
0
  6
CONTINUOUS
 10
275.163757
 20
335.737915
 11
310.163757
 21
335.737915
  0
LINE
  8
0
  6
CONTINUOUS
 10
275.163757
 20
338.737915
 11
275.163757
 21
335.737915
  0
LINE
  8
0
  6
CONTINUOUS
 10
310.163757
 20
338.737915
 11
310.163757
 21
335.737915
  0
LINE
  8
0
  6
CONTINUOUS
 10
311.663757
 20
280.737915
 11
311.663757
 21
330.737915
  0
LINE
  8
0
  6
CONTINUOUS
 10
307.862427
 20
330.737915
 11
311.663757
 21
330.737915
  0
LINE
  8
0
  6
CONTINUOUS
 10
307.862427
 20
330.737915
 11
307.862427
 21
280.737915
  0
LINE
  8
0
  6
CONTINUOUS
 10
311.663757
 20
325.737915
 11
351.113800
 21
325.737915
  0
LINE
  8
0
  6
CENTER
 10
330.287415
 20
460.737915
 11
349.224915
 21
460.737915
  0
LINE
  8
0
  6
CENTER
 10
340.163757
 20
451.585602
 11
340.163757
 21
471.085602
  0
ARC
  8
0
  6
CONTINUOUS
 10
340.163757
 20
460.737915
 40
6.500000
 50
-51.240688
 51
230.284866
  0
ARC
  8
0
  6
CONTINUOUS
 10
245.163757
 20
460.737915
 40
6.500000
 50
-50.284863
 51
231.240692
  0
LINE
  8
0
  6
CENTER
 10
245.163757
 20
451.585602
 11
245.163757
 21
471.085602
  0
LINE
  8
0
  6
CENTER
 10
255.040070
 20
460.737915
 11
236.102570
 21
460.737915
  0
LINE
  8
0
  6
CENTER
 10
-9.295000
 20
400.737915
 11
380.084778
 21
400.737915
  0
LINE
  8
0
  6
CONTINUOUS
 10
212.065704
 20
461.032013
 11
215.170761
 21
449.443848
  0
ARC
  8
0
  6
CONTINUOUS
 10
220.000381
 20
450.737915
 40
5.000000
 50
195.000000
 51
270.000000
  0
ARC
  8
0
  6
CONTINUOUS
 10
207.236084
 20
459.737915
 40
5.000000
 50
15.000000
 51
90.000000
  0
LINE
  8
0
  6
CONTINUOUS
 10
207.236084
 20
336.737915
 11
204.663757
 21
336.737915
  0
LINE
  8
0
  6
CONTINUOUS
 10
212.065704
 20
340.443848
 11
215.170761
 21
352.032013
  0
ARC
  8
0
  6
CONTINUOUS
 10
207.236084
 20
341.737915
 40
5.000000
 50
-90.000000
 51
-15.000000
  0
ARC
  8
0
  6
CONTINUOUS
 10
220.000381
 20
350.737915
 40
5.000000
 50
-270.000000
 51
-195.000000
  0
LINE
  8
0
  6
CONTINUOUS
 10
216.663544
 20
400.737915
 11
217.397583
 21
442.790283
  0
LINE
  8
0
  6
CONTINUOUS
 10
216.663544
 20
400.737915
 11
217.397583
 21
358.685577
  0
ARC
  8
0
  6
CONTINUOUS
 10
220.397125
 20
442.737915
 40
3.000000
 50
90.000000
 51
179.000000
  0
ARC
  8
0
  6
CONTINUOUS
 10
220.397125
 20
358.737915
 40
3.000000
 50
-179.000000
 51
-90.000000
  0
ARC
  8
0
  6
CONTINUOUS
 10
343.407745
 20
450.737915
 40
5.000000
 50
16.172159
 51
90.000000
  0
ARC
  8
0
  6
CONTINUOUS
 10
353.819763
 20
450.737915
 40
5.000000
 50
196.172165
 51
270.000000
  0
LINE
  8
0
  6
CONTINUOUS
 10
350.063751
 20
445.737915
 11
350.066956
 21
445.726837
  0
ARC
  8
0
  6
CONTINUOUS
 10
257.404938
 20
457.737915
 40
5.000000
 50
90.000000
 51
163.610458
  0
LINE
  8
0
  6
CONTINUOUS
 10
252.608109
 20
459.148773
 11
251.604935
 21
455.737915
  0
LINE
  8
0
  6
CONTINUOUS
 10
237.117615
 20
452.130554
 11
236.309891
 21
449.345306
  0
LINE
  8
0
  6
CONTINUOUS
 10
241.919754
 20
455.737915
 11
251.604935
 21
455.737915
  0
ARC
  8
0
  6
CONTINUOUS
 10
241.919754
 20
450.737915
 40
5.000000
 50
90.000000
 51
163.827835
  0
ARC
  8
0
  6
CONTINUOUS
 10
231.507751
 20
450.737915
 40
5.000000
 50
-90.000000
 51
-16.172159
  0
LINE
  8
0
  6
CONTINUOUS
 10
235.263748
 20
445.737915
 11
235.260529
 21
445.726837
  0
ARC
  8
0
  6
CONTINUOUS
 10
245.163757
 20
340.737915
 40
6.500000
 50
-231.240692
 51
50.284863
  0
LINE
  8
0
  6
CENTER
 10
255.040070
 20
340.737915
 11
236.102570
 21
340.737915
  0
ARC
  8
0
  6
CONTINUOUS
 10
257.404938
 20
343.737915
 40
5.000000
 50
196.389542
 51
270.000000
  0
LINE
  8
0
  6
CONTINUOUS
 10
252.608109
 20
342.327087
 11
251.604935
 21
345.737915
  0
LINE
  8
0
  6
CONTINUOUS
 10
237.117615
 20
349.345306
 11
236.309891
 21
352.130554
  0
LINE
  8
0
  6
CONTINUOUS
 10
241.919754
 20
345.737915
 11
251.604935
 21
345.737915
  0
ARC
  8
0
  6
CONTINUOUS
 10
241.919754
 20
350.737915
 40
5.000000
 50
-163.827835
 51
-90.000000
  0
ARC
  8
0
  6
CONTINUOUS
 10
231.507751
 20
350.737915
 40
5.000000
 50
16.172159
 51
90.000000
  0
LINE
  8
0
  6
CONTINUOUS
 10
235.263748
 20
355.737915
 11
235.260529
 21
355.749023
  0
LINE
  8
0
  6
CENTER
 10
245.163757
 20
349.890259
 11
245.163757
 21
330.390259
  0
LINE
  8
0
  6
CONTINUOUS
 10
332.719391
 20
342.327087
 11
333.722565
 21
345.737915
  0
ARC
  8
0
  6
CONTINUOUS
 10
327.922546
 20
343.737915
 40
5.000000
 50
-90.000000
 51
-16.389540
  0
LINE
  8
0
  6
CONTINUOUS
 10
348.209900
 20
349.345306
 11
349.017609
 21
352.130554
  0
LINE
  8
0
  6
CONTINUOUS
 10
343.407745
 20
345.737915
 11
333.722565
 21
345.737915
  0
LINE
  8
0
  6
CENTER
 10
330.287415
 20
340.737915
 11
349.224915
 21
340.737915
  0
LINE
  8
0
  6
CENTER
 10
340.163757
 20
349.890259
 11
340.163757
 21
330.390259
  0
ARC
  8
0
  6
CONTINUOUS
 10
340.163757
 20
340.737915
 40
6.500000
 50
-230.284866
 51
51.240688
  0
ARC
  8
0
  6
CONTINUOUS
 10
343.407745
 20
350.737915
 40
5.000000
 50
-90.000000
 51
-16.172159
  0
ARC
  8
0
  6
CONTINUOUS
 10
353.819763
 20
350.737915
 40
5.000000
 50
-270.000000
 51
-196.172165
  0
LINE
  8
0
  6
CONTINUOUS
 10
350.063751
 20
355.737915
 11
350.066956
 21
355.749023
  0
LINE
  8
0
  6
CONTINUOUS
 10
70.663750
 20
336.737915
 11
80.663750
 21
336.737915
  0
LINE
  8
0
  6
CONTINUOUS
 10
70.663750
 20
464.737915
 11
204.663757
 21
464.737915
  0
LINE
  8
0
  6
CONTINUOUS
 10
80.663750
 20
427.237915
 11
80.663750
 21
464.737915
  0
LINE
  8
0
  6
CONTINUOUS
 10
196.663757
 20
427.237915
 11
196.663757
 21
464.737915
  0
LINE
  8
0
  6
CONTINUOUS
 10
81.163750
 20
426.737915
 11
196.163757
 21
426.737915
  0
LINE
  8
0
  6
CONTINUOUS
 10
80.663750
 20
434.954681
 11
196.663757
 21
434.954681
  0
LINE
  8
0
  6
CONTINUOUS
 10
81.663750
 20
438.914673
 11
195.663757
 21
438.914673
  0
LINE
  8
0
  6
CONTINUOUS
 10
80.663750
 20
444.305939
 11
196.663757
 21
444.305939
  0
LINE
  8
0
  6
CONTINUOUS
 10
81.663750
 20
447.736420
 11
195.663757
 21
447.736420
  0
LINE
  8
0
  6
CONTINUOUS
 10
80.663750
 20
451.217682
 11
196.663757
 21
451.217682
  0
LINE
  8
0
  6
CONTINUOUS
 10
81.663750
 20
452.744934
 11
195.663757
 21
452.744934
  0
LINE
  8
0
  6
CONTINUOUS
 10
80.663750
 20
456.472168
 11
196.663757
 21
456.472168
  0
LINE
  8
0
  6
CONTINUOUS
 10
80.663750
 20
460.233429
 11
196.663757
 21
460.233429
  0
LINE
  8
0
  6
CONTINUOUS
 10
80.663750
 20
462.778442
 11
196.663757
 21
462.778442
  0
LINE
  8
0
  6
CONTINUOUS
 10
80.663750
 20
464.255676
 11
196.663757
 21
464.255676
  0
LINE
  8
0
  6
CONTINUOUS
 10
81.163750
 20
374.737915
 11
196.163757
 21
374.737915
  0
LINE
  8
0
  6
CONTINUOUS
 10
80.663750
 20
366.521179
 11
196.663757
 21
366.521179
  0
LINE
  8
0
  6
CONTINUOUS
 10
80.663750
 20
362.561432
 11
195.663757
 21
362.561432
  0
LINE
  8
0
  6
CONTINUOUS
 10
80.663750
 20
345.003937
 11
196.663757
 21
345.003937
  0
LINE
  8
0
  6
CONTINUOUS
 10
147.663757
 20
341.242432
 11
196.663757
 21
341.242432
  0
LINE
  8
0
  6
CONTINUOUS
 10
147.663757
 20
338.697418
 11
196.663757
 21
338.697418
  0
LINE
  8
0
  6
CONTINUOUS
 10
148.163757
 20
337.220184
 11
196.663757
 21
337.220184
  0
LINE
  8
0
  6
CONTINUOUS
 10
81.663750
 20
338.737915
 11
146.663757
 21
338.737915
  0
LINE
  8
0
  6
CONTINUOUS
 10
148.163757
 20
336.737915
 11
204.663757
 21
336.737915
  0
LINE
  8
0
  6
CONTINUOUS
 10
147.663757
 20
337.237915
 11
147.663757
 21
344.003693
  0
ARC
  8
0
  6
CONTINUOUS
 10
148.163757
 20
337.237915
 40
0.500000
 50
180.000000
 51
270.000000
  0
ARC
  8
0
  6
CONTINUOUS
 10
148.163757
 20
337.720184
 40
0.500000
 50
180.000000
 51
270.000000
  0
ARC
  8
0
  6
CONTINUOUS
 10
146.663757
 20
339.737915
 40
1.000000
 50
-90.000000
 51
0.000000
  0
ARC
  8
0
  6
CONTINUOUS
 10
81.663750
 20
339.737915
 40
1.000000
 50
180.000000
 51
270.000000
  0
LINE
  8
0
  6
CONTINUOUS
 10
80.663750
 20
374.237915
 11
80.663750
 21
336.737915
  0
LINE
  8
0
  6
CONTINUOUS
 10
196.663757
 20
374.237915
 11
196.663757
 21
336.737915
  0
ARC
  8
0
  6
CONTINUOUS
 10
196.163757
 20
374.237915
 40
0.500000
 50
0.000000
 51
90.000000
  0
ARC
  8
0
  6
CONTINUOUS
 10
196.163757
 20
427.237915
 40
0.500000
 50
-90.000000
 51
0.000000
  0
ARC
  8
0
  6
CONTINUOUS
 10
81.163750
 20
427.237915
 40
0.500000
 50
180.000000
 51
270.000000
  0
ARC
  8
0
  6
CONTINUOUS
 10
81.163750
 20
374.237915
 40
0.500000
 50
90.000000
 51
180.000000
  0
ARC
  8
0
  6
CONTINUOUS
 10
148.663757
 20
344.003693
 40
1.000000
 50
90.000000
 51
180.000000
  0
LINE
  8
0
  6
CONTINUOUS
 10
80.663750
 20
357.169922
 11
196.663757
 21
357.169922
  0
LINE
  8
0
  6
CONTINUOUS
 10
80.663750
 20
353.739685
 11
195.663757
 21
353.739685
  0
LINE
  8
0
  6
CONTINUOUS
 10
80.663750
 20
348.730927
 11
195.663757
 21
348.730927
  0
LINE
  8
0
  6
CONTINUOUS
 10
80.663750
 20
350.258179
 11
196.663757
 21
350.258179
  0
LINE
  8
0
  6
CONTINUOUS
 10
80.663727
 20
42.261875
 11
80.663727
 21
41.428528
  0
LINE
  8
0
  6
CONTINUOUS
 10
80.663727
 20
49.261875
 11
80.663727
 21
44.261875
  0
LINE
  8
0
  6
CONTINUOUS
 10
80.663727
 20
56.761875
 11
80.663727
 21
51.261875
  0
LINE
  8
0
  6
CONTINUOUS
 10
80.663727
 20
61.761875
 11
80.663727
 21
58.761875
  0
LINE
  8
0
  6
CONTINUOUS
 10
74.726250
 20
324.316193
 11
73.663750
 21
284.237915
  0
LINE
  8
0
  6
CONTINUOUS
 10
142.600754
 20
324.316193
 11
143.663757
 21
284.237915
  0
LINE
  8
0
  6
CONTINUOUS
 10
139.615250
 20
327.237915
 11
121.974998
 21
327.237915
  0
ARC
  8
0
  6
CONTINUOUS
 10
77.711998
 20
324.237915
 40
3.000000
 50
90.000000
 51
178.500275
  0
ARC
  8
0
  6
CONTINUOUS
 10
139.615250
 20
324.237915
 40
3.000000
 50
1.499900
 51
90.000000
  0
LINE
  8
0
  6
CONTINUOUS
 10
77.711998
 20
327.237915
 11
95.352501
 21
327.237915
  0
ARC
  8
0
  6
CONTINUOUS
 10
135.886993
 20
329.237915
 40
2.000000
 50
-178.500504
 51
-90.000000
  0
ARC
  8
0
  6
CONTINUOUS
 10
81.440247
 20
329.237915
 40
2.000000
 50
-90.000000
 51
-1.500400
  0
ARC
  8
0
  6
CONTINUOUS
 10
108.663750
 20
394.737915
 40
68.800003
 50
-101.155800
 51
-78.844200
  0
LINE
  8
0
  6
CONTINUOUS
 10
76.163750
 20
278.237915
 11
141.163757
 21
278.237915
  0
LINE
  8
0
  6
CONTINUOUS
 10
143.663757
 20
280.737915
 11
143.663757
 21
283.237915
  0
LINE
  8
0
  6
CONTINUOUS
 10
73.663750
 20
280.737915
 11
73.663750
 21
283.237915
  0
LINE
  8
0
  6
CONTINUOUS
 10
143.663757
 20
283.237915
 11
73.663750
 21
283.237915
  0
LINE
  8
0
  6
CONTINUOUS
 10
143.663757
 20
284.237915
 11
73.663750
 21
284.237915
  0
LINE
  8
0
  6
CONTINUOUS
 10
143.663757
 20
283.237915
 11
143.663757
 21
284.237915
  0
LINE
  8
0
  6
CONTINUOUS
 10
73.663750
 20
283.237915
 11
73.663750
 21
284.237915
  0
LINE
  8
0
  6
CENTER
 10
78.663750
 20
300.237915
 11
41.008659
 21
300.237915
  0
LINE
  8
0
  6
CONTINUOUS
 10
135.150757
 20
281.237915
 11
142.663757
 21
281.237915
  0
LINE
  8
0
  6
CONTINUOUS
 10
82.176750
 20
281.237915
 11
74.663750
 21
281.237915
  0
LINE
  8
0
  6
CONTINUOUS
 10
134.651245
 20
280.751190
 11
134.610748
 21
279.211670
  0
ARC
  8
0
  6
CONTINUOUS
 10
135.150757
 20
280.737915
 40
0.500000
 50
90.000000
 51
178.500000
  0
ARC
  8
0
  6
CONTINUOUS
 10
133.610992
 20
279.237915
 40
1.000000
 50
-90.000000
 51
-1.499800
  0
ARC
  8
0
  6
CONTINUOUS
 10
142.663757
 20
282.237915
 40
1.000000
 50
-90.000000
 51
0.000000
  0
ARC
  8
0
  6
CONTINUOUS
 10
141.163757
 20
280.737915
 40
2.500000
 50
-90.000000
 51
0.000000
  0
LINE
  8
0
  6
CONTINUOUS
 10
82.676498
 20
280.751190
 11
82.717003
 21
279.211670
  0
ARC
  8
0
  6
CONTINUOUS
 10
83.716499
 20
279.237915
 40
1.000000
 50
-178.499603
 51
-90.000000
  0
ARC
  8
0
  6
CONTINUOUS
 10
82.176750
 20
280.737915
 40
0.500000
 50
1.500200
 51
90.000000
  0
ARC
  8
0
  6
CONTINUOUS
 10
74.663750
 20
282.237915
 40
1.000000
 50
180.000000
 51
270.000000
  0
ARC
  8
0
  6
CONTINUOUS
 10
76.163750
 20
280.737915
 40
2.500000
 50
180.000000
 51
270.000000
  0
ARC
  8
0
  6
CONTINUOUS
 10
138.663757
 20
281.237915
 40
3.000000
 50
-180.000000
 51
0.000000
  0
LINE
  8
0
  6
CONTINUOUS
 10
141.621750
 20
280.737915
 11
135.705750
 21
280.737915
  0
LINE
  8
0
  6
CONTINUOUS
 10
138.663757
 20
278.737915
 11
138.382507
 21
278.251190
  0
LINE
  8
0
  6
CONTINUOUS
 10
138.663757
 20
278.737915
 11
138.944748
 21
278.251190
  0
ARC
  8
0
  6
CONTINUOUS
 10
78.663750
 20
281.237915
 40
3.000000
 50
-180.000000
 51
0.000000
  0
LINE
  8
0
  6
CONTINUOUS
 10
81.621750
 20
280.737915
 11
75.705750
 21
280.737915
  0
LINE
  8
0
  6
CONTINUOUS
 10
78.663750
 20
278.737915
 11
78.382751
 21
278.251190
  0
LINE
  8
0
  6
CONTINUOUS
 10
78.663750
 20
278.737915
 11
78.945000
 21
278.251190
  0
LINE
  8
0
  6
CONTINUOUS
 10
45.663750
 20
314.738190
 11
45.663750
 21
285.737915
  0
LINE
  8
0
  6
CONTINUOUS
 10
53.663750
 20
314.738190
 11
53.663750
 21
285.737915
  0
LINE
  8
0
  6
CONTINUOUS
 10
45.663750
 20
314.738190
 11
53.663750
 21
314.738190
  0
LINE
  8
0
  6
CONTINUOUS
 10
45.663750
 20
285.737915
 11
53.663750
 21
285.737915
  0
LINE
  8
0
  6
CONTINUOUS
 10
62.663750
 20
313.238190
 11
62.663750
 21
287.237915
  0
LINE
  8
0
  6
CONTINUOUS
 10
53.663750
 20
313.238190
 11
62.663750
 21
313.238190
  0
LINE
  8
0
  6
CONTINUOUS
 10
53.663750
 20
287.237915
 11
62.663750
 21
287.237915
  0
LINE
  8
0
  6
CONTINUOUS
 10
62.663750
 20
311.738190
 11
67.663750
 21
311.738190
  0
LINE
  8
0
  6
CONTINUOUS
 10
62.663750
 20
288.737915
 11
67.663750
 21
288.737915
  0
LINE
  8
0
  6
CONTINUOUS
 10
67.663750
 20
313.738190
 11
67.663750
 21
286.737915
  0
LINE
  8
0
  6
CONTINUOUS
 10
72.163750
 20
314.738190
 11
72.163750
 21
285.737915
  0
LINE
  8
0
  6
CONTINUOUS
 10
67.663750
 20
313.738190
 11
72.163750
 21
313.738190
  0
LINE
  8
0
  6
CONTINUOUS
 10
67.663750
 20
286.737915
 11
72.163750
 21
286.737915
  0
LINE
  8
0
  6
CONTINUOUS
 10
72.163750
 20
314.738190
 11
74.472252
 21
314.738190
  0
LINE
  8
0
  6
CONTINUOUS
 10
72.163750
 20
285.737915
 11
73.663750
 21
285.737915
  0
LINE
  8
0
  6
CONTINUOUS
 10
45.663750
 20
308.238190
 11
53.663750
 21
308.238190
  0
LINE
  8
0
  6
CONTINUOUS
 10
45.663750
 20
292.237915
 11
53.663750
 21
292.237915
  0
LINE
  8
0
  6
CONTINUOUS
 10
62.663750
 20
310.238190
 11
67.663750
 21
310.238190
  0
LINE
  8
0
  6
CONTINUOUS
 10
62.663750
 20
290.237915
 11
67.663750
 21
290.237915
  0
LINE
  8
0
  6
CENTER
 10
108.663750
 20
274.917694
 11
108.663750
 21
341.848694
  0
LINE
  8
0
  6
CONTINUOUS
 10
83.638252
 20
336.264191
 11
83.452881
 21
329.185211
  0
LINE
  8
0
  6
CONTINUOUS
 10
132.689499
 20
337.237915
 11
84.637749
 21
337.237915
  0
ARC
  8
0
  6
CONTINUOUS
 10
84.637749
 20
336.237915
 40
1.000000
 50
90.000000
 51
178.499405
  0
LINE
  8
0
  6
CONTINUOUS
 10
85.663750
 20
337.237915
 11
85.663750
 21
338.737915
  0
LINE
  8
0
  6
CONTINUOUS
 10
131.663757
 20
337.237915
 11
131.663757
 21
338.737915
  0
ARC
  8
0
  6
CONTINUOUS
 10
132.689499
 20
336.237915
 40
1.000000
 50
1.499300
 51
90.000000
  0
LINE
  8
0
  6
CONTINUOUS
 10
133.689255
 20
336.264191
 11
133.874619
 21
329.185242
  0
LINE
  8
0
  6
CONTINUOUS
 10
145.663712
 20
123.761871
 11
143.663803
 21
123.761871
  0
LINE
  8
0
  6
CONTINUOUS
 10
145.663757
 20
69.761871
 11
143.663803
 21
69.761871
  0
LINE
  8
0
  6
CONTINUOUS
 10
147.663757
 20
71.761871
 11
147.663727
 21
121.761871
  0
ARC
  8
0
  6
CONTINUOUS
 10
145.663727
 20
121.761871
 40
2.000000
 50
0.000000
 51
90.000000
  0
ARC
  8
0
  6
CONTINUOUS
 10
145.663757
 20
71.761871
 40
2.000000
 50
-90.000000
 51
0.000000
  0
LINE
  8
0
  6
CONTINUOUS
 10
76.163757
 20
131.761871
 11
141.163696
 21
131.761871
  0
LINE
  8
0
  6
CONTINUOUS
 10
141.163803
 20
61.761875
 11
76.163750
 21
61.761875
  0
LINE
  8
0
  6
CONTINUOUS
 10
73.663750
 20
64.261871
 11
73.663750
 21
129.261871
  0
LINE
  8
0
  6
CONTINUOUS
 10
143.663803
 20
64.261864
 11
143.663803
 21
129.261871
  0
ARC
  8
0
  6
CONTINUOUS
 10
141.163803
 20
129.261871
 40
2.500000
 50
0.000000
 51
90.000000
  0
ARC
  8
0
  6
CONTINUOUS
 10
76.163780
 20
129.261871
 40
2.500000
 50
90.000000
 51
180.000000
  0
ARC
  8
0
  6
CONTINUOUS
 10
76.163757
 20
64.261871
 40
2.500000
 50
180.000000
 51
270.000000
  0
ARC
  8
0
  6
CONTINUOUS
 10
141.163803
 20
64.261864
 40
2.500000
 50
-90.000000
 51
0.000000
  0
ARC
  8
0
  6
CONTINUOUS
 10
78.663757
 20
126.761871
 40
4.000000
 50
-90.000000
 51
0.000000
  0
ARC
  8
0
  6
CONTINUOUS
 10
138.663803
 20
126.761871
 40
4.000000
 50
180.000000
 51
270.000000
  0
ARC
  8
0
  6
CONTINUOUS
 10
138.663803
 20
66.761871
 40
4.000000
 50
90.000000
 51
180.000000
  0
ARC
  8
0
  6
CONTINUOUS
 10
78.663757
 20
66.761871
 40
4.000000
 50
0.000000
 51
90.000000
  0
LINE
  8
0
  6
CONTINUOUS
 10
138.663803
 20
122.761871
 11
141.163803
 21
122.761871
  0
LINE
  8
0
  6
CONTINUOUS
 10
78.663750
 20
122.761871
 11
76.163750
 21
122.761871
  0
LINE
  8
0
  6
CONTINUOUS
 10
78.663750
 20
70.761871
 11
76.163780
 21
70.761871
  0
LINE
  8
0
  6
CONTINUOUS
 10
138.663803
 20
70.761871
 11
141.163803
 21
70.761871
  0
LINE
  8
0
  6
CONTINUOUS
 10
134.663803
 20
126.761871
 11
134.663803
 21
129.261871
  0
LINE
  8
0
  6
CONTINUOUS
 10
82.663757
 20
126.761871
 11
82.663757
 21
129.261871
  0
LINE
  8
0
  6
CONTINUOUS
 10
82.663757
 20
66.761871
 11
82.663757
 21
64.261864
  0
LINE
  8
0
  6
CONTINUOUS
 10
134.663803
 20
66.761856
 11
134.663803
 21
64.261864
  0
ARC
  8
0
  6
CONTINUOUS
 10
76.163757
 20
120.261871
 40
2.500000
 50
90.000000
 51
180.000000
  0
ARC
  8
0
  6
CONTINUOUS
 10
85.163780
 20
129.261871
 40
2.500000
 50
90.000000
 51
180.000000
  0
ARC
  8
0
  6
CONTINUOUS
 10
132.163803
 20
129.261871
 40
2.500000
 50
0.000000
 51
90.000000
  0
ARC
  8
0
  6
CONTINUOUS
 10
141.163803
 20
120.261871
 40
2.500000
 50
0.000000
 51
90.000000
  0
ARC
  8
0
  6
CONTINUOUS
 10
76.163757
 20
73.261871
 40
2.500000
 50
180.000000
 51
270.000000
  0
ARC
  8
0
  6
CONTINUOUS
 10
85.163757
 20
64.261871
 40
2.500000
 50
180.000000
 51
270.000000
  0
ARC
  8
0
  6
CONTINUOUS
 10
141.163803
 20
73.261864
 40
2.500000
 50
-90.000000
 51
0.000000
  0
ARC
  8
0
  6
CONTINUOUS
 10
132.163803
 20
64.261864
 40
2.500000
 50
-90.000000
 51
0.000000
  0
LINE
  8
0
  6
CONTINUOUS
 10
45.663799
 20
82.261726
 11
45.663799
 21
111.261826
  0
LINE
  8
0
  6
CONTINUOUS
 10
53.663799
 20
82.261726
 11
53.663799
 21
111.261826
  0
LINE
  8
0
  6
CONTINUOUS
 10
45.663799
 20
82.261726
 11
53.663799
 21
82.261726
  0
LINE
  8
0
  6
CONTINUOUS
 10
45.663799
 20
111.261826
 11
53.663799
 21
111.261826
  0
LINE
  8
0
  6
CONTINUOUS
 10
62.663799
 20
83.761726
 11
62.663799
 21
109.761826
  0
LINE
  8
0
  6
CONTINUOUS
 10
53.663799
 20
83.761726
 11
62.663799
 21
83.761726
  0
LINE
  8
0
  6
CONTINUOUS
 10
53.663799
 20
109.761826
 11
62.663799
 21
109.761826
  0
LINE
  8
0
  6
CONTINUOUS
 10
62.663799
 20
85.261726
 11
67.663803
 21
85.261726
  0
LINE
  8
0
  6
CONTINUOUS
 10
62.663799
 20
108.261826
 11
67.663803
 21
108.261826
  0
LINE
  8
0
  6
CONTINUOUS
 10
67.663803
 20
83.261726
 11
67.663803
 21
110.261826
  0
LINE
  8
0
  6
CONTINUOUS
 10
72.163803
 20
82.261726
 11
72.163803
 21
111.261826
  0
LINE
  8
0
  6
CONTINUOUS
 10
67.663803
 20
83.261726
 11
72.163803
 21
83.261726
  0
LINE
  8
0
  6
CONTINUOUS
 10
67.663803
 20
110.261826
 11
72.163803
 21
110.261826
  0
LINE
  8
0
  6
CONTINUOUS
 10
72.163803
 20
82.261726
 11
73.703102
 21
82.261726
  0
LINE
  8
0
  6
CONTINUOUS
 10
72.163803
 20
111.261826
 11
73.663750
 21
111.261826
  0
LINE
  8
0
  6
CONTINUOUS
 10
45.663799
 20
88.761726
 11
53.663799
 21
88.761726
  0
LINE
  8
0
  6
CONTINUOUS
 10
45.663799
 20
104.761826
 11
53.663799
 21
104.761826
  0
LINE
  8
0
  6
CENTER
 10
108.663750
 20
47.778751
 11
108.663750
 21
143.239273
  0
LINE
  8
0
  6
CONTINUOUS
 10
196.663757
 20
128.961868
 11
143.663803
 21
128.961868
  0
LINE
  8
0
  6
CONTINUOUS
 10
196.663757
 20
126.961876
 11
143.663803
 21
126.961876
  0
LINE
  8
0
  6
CONTINUOUS
 10
196.663757
 20
121.161873
 11
147.663727
 21
121.161873
  0
LINE
  8
0
  6
CONTINUOUS
 10
196.663727
 20
119.161873
 11
147.663727
 21
119.161873
  0
LINE
  8
0
  6
CONTINUOUS
 10
196.663727
 20
113.361870
 11
147.663727
 21
113.361870
  0
LINE
  8
0
  6
CONTINUOUS
 10
196.663727
 20
111.361877
 11
147.663727
 21
111.361877
  0
LINE
  8
0
  6
CONTINUOUS
 10
196.663727
 20
105.561874
 11
147.663742
 21
105.561874
  0
LINE
  8
0
  6
CONTINUOUS
 10
196.663727
 20
103.561874
 11
147.663742
 21
103.561874
  0
LINE
  8
0
  6
CONTINUOUS
 10
196.663727
 20
97.761871
 11
147.663742
 21
97.761871
  0
LINE
  8
0
  6
CONTINUOUS
 10
196.663757
 20
95.761871
 11
147.663742
 21
95.761871
  0
LINE
  8
0
  6
CONTINUOUS
 10
196.663757
 20
89.961876
 11
147.663742
 21
89.961876
  0
LINE
  8
0
  6
CONTINUOUS
 10
196.663757
 20
87.961876
 11
147.663742
 21
87.961876
  0
LINE
  8
0
  6
CONTINUOUS
 10
196.663757
 20
82.161873
 11
147.663742
 21
82.161873
  0
LINE
  8
0
  6
CONTINUOUS
 10
196.663757
 20
80.161880
 11
147.663742
 21
80.161880
  0
LINE
  8
0
  6
CONTINUOUS
 10
196.663757
 20
74.361877
 11
147.663742
 21
74.361877
  0
LINE
  8
0
  6
CONTINUOUS
 10
196.663757
 20
72.361877
 11
147.663757
 21
72.361877
  0
LINE
  8
0
  6
CONTINUOUS
 10
508.705475
 20
69.728134
 11
511.780365
 21
69.620758
  0
LINE
  8
0
  6
CONTINUOUS
 10
507.740479
 20
70.727554
 11
507.740448
 21
80.887444
  0
ARC
  8
0
  6
CONTINUOUS
 10
508.740479
 20
70.727577
 40
1.000000
 50
180.000000
 51
268.000214
  0
LINE
  8
0
  6
CONTINUOUS
 10
493.318542
 20
62.824322
 11
453.240387
 21
61.761875
  0
LINE
  8
0
  6
CONTINUOUS
 10
506.240387
 20
72.735977
 11
506.240387
 21
88.777367
  0
LINE
  8
0
  6
CONTINUOUS
 10
506.240387
 20
120.787674
 11
506.240387
 21
104.745598
  0
LINE
  8
0
  6
CONTINUOUS
 10
496.240387
 20
125.761871
 11
496.240387
 21
110.073151
  0
ARC
  8
0
  6
CONTINUOUS
 10
493.240387
 20
65.809975
 40
3.000000
 50
-88.500267
 51
0.000000
  0
LINE
  8
0
  6
CONTINUOUS
 10
501.094574
 20
71.627075
 11
498.188049
 21
71.550972
  0
LINE
  8
0
  6
CONTINUOUS
 10
501.094574
 20
121.896576
 11
498.188049
 21
121.972687
  0
ARC
  8
0
  6
CONTINUOUS
 10
505.240387
 20
120.787674
 40
1.000000
 50
0.000000
 51
88.500702
  0
ARC
  8
0
  6
CONTINUOUS
 10
505.240387
 20
72.735977
 40
1.000000
 50
-88.499397
 51
0.000000
  0
LINE
  8
0
  6
CONTINUOUS
 10
496.240387
 20
65.810074
 11
496.240387
 21
83.450600
  0
LINE
  8
0
  6
CONTINUOUS
 10
505.266602
 20
121.787376
 11
501.094574
 21
121.896576
  0
LINE
  8
0
  6
CONTINUOUS
 10
505.266602
 20
71.736374
 11
501.094574
 21
71.627075
  0
ARC
  8
0
  6
CONTINUOUS
 10
563.740417
 20
96.761879
 40
68.800003
 50
168.844193
 51
191.155807
  0
LINE
  8
0
  6
CONTINUOUS
 10
447.240387
 20
64.261879
 11
447.240387
 21
129.261871
  0
LINE
  8
0
  6
CONTINUOUS
 10
449.740387
 20
61.761875
 11
452.240387
 21
61.761875
  0
LINE
  8
0
  6
CONTINUOUS
 10
452.240387
 20
61.761875
 11
453.240387
 21
61.761875
  0
LINE
  8
0
  6
CONTINUOUS
 10
450.240387
 20
123.248978
 11
450.240387
 21
125.761871
  0
LINE
  8
0
  6
CONTINUOUS
 10
450.240387
 20
70.274818
 11
450.240387
 21
62.761875
  0
LINE
  8
0
  6
CONTINUOUS
 10
449.753479
 20
122.749176
 11
448.214172
 21
122.708878
  0
ARC
  8
0
  6
CONTINUOUS
 10
449.740387
 20
123.248978
 40
0.500000
 50
-88.500000
 51
0.000000
  0
ARC
  8
0
  6
CONTINUOUS
 10
448.240387
 20
121.709175
 40
1.000000
 50
91.499802
 51
180.000000
  0
ARC
  8
0
  6
CONTINUOUS
 10
449.740387
 20
129.261871
 40
2.500000
 50
90.000000
 51
180.000000
  0
LINE
  8
0
  6
CONTINUOUS
 10
449.753479
 20
70.774696
 11
448.214172
 21
70.814980
  0
ARC
  8
0
  6
CONTINUOUS
 10
448.240387
 20
71.814606
 40
1.000000
 50
180.000000
 51
268.499603
  0
ARC
  8
0
  6
CONTINUOUS
 10
449.740387
 20
70.274818
 40
0.500000
 50
0.000000
 51
88.499802
  0
ARC
  8
0
  6
CONTINUOUS
 10
451.240387
 20
62.761875
 40
1.000000
 50
180.000000
 51
270.000000
  0
ARC
  8
0
  6
CONTINUOUS
 10
449.740387
 20
64.261879
 40
2.500000
 50
180.000000
 51
270.000000
  0
ARC
  8
0
  6
CONTINUOUS
 10
450.240387
 20
126.761879
 40
3.000000
 50
99.592522
 51
270.000000
  0
LINE
  8
0
  6
CONTINUOUS
 10
449.740387
 20
129.719879
 11
449.740387
 21
123.803879
  0
LINE
  8
0
  6
CONTINUOUS
 10
447.740387
 20
126.761879
 11
447.253601
 21
126.480774
  0
LINE
  8
0
  6
CONTINUOUS
 10
447.740387
 20
126.761879
 11
447.253601
 21
127.042976
  0
ARC
  8
0
  6
CONTINUOUS
 10
450.240387
 20
66.761879
 40
3.000000
 50
90.000000
 51
270.000000
  0
LINE
  8
0
  6
CONTINUOUS
 10
449.740387
 20
69.719887
 11
449.740387
 21
63.803867
  0
LINE
  8
0
  6
CONTINUOUS
 10
447.740387
 20
66.761879
 11
447.253601
 21
66.480804
  0
LINE
  8
0
  6
CONTINUOUS
 10
447.740387
 20
66.761879
 11
447.253601
 21
67.043007
  0
LINE
  8
0
  6
CONTINUOUS
 10
506.240387
 20
119.761879
 11
507.740387
 21
119.761879
  0
LINE
  8
0
  6
CONTINUOUS
 10
506.240387
 20
73.761879
 11
507.740387
 21
73.761879
  0
ARC
  8
0
  6
CONTINUOUS
 10
498.240387
 20
69.551659
 40
2.000000
 50
91.499916
 51
180.000000
  0
ARC
  8
0
  6
CONTINUOUS
 10
498.240387
 20
123.972000
 40
2.000000
 50
180.000000
 51
268.500031
  0
LINE
  8
0
  6
CENTER
 10
469.240387
 20
139.218872
 11
469.240387
 21
49.833752
  0
LINE
  8
0
  6
CONTINUOUS
 10
452.240387
 20
125.761871
 11
452.240387
 21
61.761875
  0
LINE
  8
0
  6
CONTINUOUS
 10
453.240387
 20
125.761871
 11
453.240387
 21
61.761875
  0
LINE
  8
0
  6
CONTINUOUS
 10
72.663750
 20
464.737915
 11
72.663750
 21
336.737915
  0
ARC
  8
0
  6
CONTINUOUS
 10
364.663452
 20
400.740936
 40
360.000000
 50
180.000000
 51
188.618607
  0
ARC
  8
0
  6
CONTINUOUS
 10
21.582150
 20
348.740936
 40
13.000000
 50
-171.381805
 51
-90.000000
  0
LINE
  8
0
  6
CONTINUOUS
 10
33.964951
 20
330.239532
 11
70.663750
 21
330.237549
  0
LINE
  8
0
  6
CONTINUOUS
 10
21.582150
 20
335.740936
 11
31.016291
 21
335.740936
  0
LINE
  8
0
  6
CONTINUOUS
 10
70.663750
 20
471.238312
 11
70.663750
 21
330.237549
  0
ARC
  8
0
  6
CONTINUOUS
 10
370.463501
 20
400.739319
 40
345.000000
 50
-179.999771
 51
-168.412003
  0
ARC
  8
0
  6
CONTINUOUS
 10
30.816530
 20
334.740936
 40
1.000000
 50
10.996500
 51
90.000000
  0
ARC
  8
0
  6
CONTINUOUS
 10
33.965092
 20
331.739502
 40
1.500000
 50
191.587906
 51
270.000000
  0
LINE
  8
0
  6
CONTINUOUS
 10
33.964951
 20
471.236328
 11
70.663750
 21
471.238312
  0
ARC
  8
0
  6
CONTINUOUS
 10
370.463501
 20
400.736511
 40
345.000000
 50
168.412003
 51
179.999771
  0
ARC
  8
0
  6
CONTINUOUS
 10
364.663452
 20
400.734894
 40
360.000000
 50
171.381393
 51
180.000000
  0
ARC
  8
0
  6
CONTINUOUS
 10
21.582150
 20
452.734924
 40
13.000000
 50
90.000000
 51
171.381805
  0
LINE
  8
0
  6
CONTINUOUS
 10
21.582150
 20
465.734924
 11
31.016291
 21
465.734924
  0
ARC
  8
0
  6
CONTINUOUS
 10
30.816530
 20
466.734924
 40
1.000000
 50
270.000000
 51
349.003510
  0
ARC
  8
0
  6
CONTINUOUS
 10
33.965092
 20
469.736359
 40
1.500000
 50
90.000000
 51
168.412094
  0
ARC
  8
0
  6
CONTINUOUS
 10
364.663757
 20
96.761871
 40
360.000000
 50
171.381500
 51
188.618607
  0
LINE
  8
0
  6
CONTINUOUS
 10
70.663727
 20
167.261871
 11
70.663727
 21
110.261826
  0
LINE
  8
0
  6
CONTINUOUS
 10
27.224091
 20
167.261871
 11
70.663727
 21
167.261871
  0
LINE
  8
0
  6
CONTINUOUS
 10
21.582125
 20
161.761810
 11
26.485210
 21
161.761810
  0
LINE
  8
0
  6
CONTINUOUS
 10
21.582214
 20
31.761875
 11
26.485210
 21
31.761875
  0
ARC
  8
0
  6
CONTINUOUS
 10
-312.336243
 20
96.761871
 40
345.000000
 50
-11.486330
 51
11.486320
  0
ARC
  8
0
  6
CONTINUOUS
 10
21.582153
 20
148.761642
 40
13.000000
 50
90.000000
 51
171.381805
  0
ARC
  8
0
  6
CONTINUOUS
 10
27.224091
 20
165.761642
 40
1.500000
 50
90.000000
 51
191.486496
  0
ARC
  8
0
  6
CONTINUOUS
 10
21.582153
 20
44.761875
 40
13.000000
 50
188.618607
 51
270.000000
  0
ARC
  8
0
  6
CONTINUOUS
 10
27.224091
 20
27.761635
 40
1.500000
 50
168.513794
 51
199.461502
  0
LINE
  8
0
  6
CONTINUOUS
 10
70.663727
 20
27.261875
 11
25.809790
 21
27.261875
  0
LINE
  8
0
  6
CONTINUOUS
 10
70.663727
 20
83.261726
 11
70.663727
 21
27.261875
  0
LINE
  8
0
  6
CONTINUOUS
 10
72.663788
 20
82.261726
 11
72.663788
 21
45.760616
  0
LINE
  8
0
  6
CONTINUOUS
 10
72.663788
 20
39.760616
 11
72.663788
 21
32.761875
  0
LINE
  8
0
  6
CONTINUOUS
 10
72.663788
 20
160.761871
 11
72.663788
 21
111.261826
  0
LINE
  8
0
  6
CONTINUOUS
 10
73.554092
 20
45.760616
 11
70.663727
 21
45.760616
  0
LINE
  8
0
  6
CONTINUOUS
 10
73.554131
 20
42.760616
 11
70.663727
 21
42.760616
  0
LINE
  8
0
  6
CONTINUOUS
 10
73.554131
 20
39.760616
 11
70.663727
 21
39.760616
  0
ARC
  8
0
  6
CONTINUOUS
 10
73.554131
 20
37.760616
 40
2.000000
 50
0.000000
 51
90.000000
  0
ARC
  8
0
  6
CONTINUOUS
 10
73.554131
 20
37.760616
 40
5.000000
 50
0.000000
 51
90.000000
  0
ARC
  8
0
  6
CONTINUOUS
 10
73.554131
 20
37.760616
 40
8.000000
 50
0.000000
 51
90.000000
  0
LINE
  8
0
  6
CONTINUOUS
 10
75.554131
 20
37.760616
 11
75.554131
 21
29.046175
  0
LINE
  8
0
  6
CONTINUOUS
 10
78.554131
 20
37.760616
 11
78.554131
 21
27.788115
  0
LINE
  8
0
  6
CONTINUOUS
 10
81.554131
 20
37.760616
 11
81.554131
 21
30.633696
  0
LINE
  8
0
  6
CONTINUOUS
 10
78.554131
 20
29.500336
 11
81.554131
 21
30.633696
  0
LINE
  8
0
  6
CONTINUOUS
 10
79.054131
 20
29.689236
 11
79.054131
 21
24.385756
  0
LINE
  8
0
  6
CONTINUOUS
 10
79.254112
 20
29.764795
 11
79.254112
 21
24.385756
  0
LINE
  8
0
  6
CONTINUOUS
 10
79.454109
 20
29.840395
 11
79.454109
 21
24.385756
  0
LINE
  8
0
  6
CONTINUOUS
 10
79.654129
 20
29.915955
 11
79.654129
 21
24.385756
  0
LINE
  8
0
  6
CONTINUOUS
 10
79.854134
 20
29.995054
 11
79.854134
 21
24.385756
  0
LINE
  8
0
  6
CONTINUOUS
 10
80.054131
 20
30.067076
 11
80.054131
 21
24.385756
  0
LINE
  8
0
  6
CONTINUOUS
 10
80.254112
 20
30.142574
 11
80.254112
 21
24.385756
  0
LINE
  8
0
  6
CONTINUOUS
 10
80.454109
 20
30.218136
 11
80.454109
 21
24.385756
  0
LINE
  8
0
  6
CONTINUOUS
 10
80.654114
 20
30.293776
 11
80.654114
 21
24.385756
  0
LINE
  8
0
  6
CONTINUOUS
 10
80.854111
 20
30.369274
 11
80.854149
 21
24.385756
  0
LINE
  8
0
  6
CONTINUOUS
 10
81.054131
 20
30.444796
 11
81.054131
 21
24.385756
  0
LINE
  8
0
  6
CONTINUOUS
 10
75.554131
 20
29.046175
 11
78.554131
 21
27.788115
  0
LINE
  8
0
  6
CONTINUOUS
 10
76.054131
 20
28.836575
 11
76.054131
 21
23.104395
  0
LINE
  8
0
  6
CONTINUOUS
 10
76.254128
 20
28.752775
 11
76.254112
 21
23.104395
  0
LINE
  8
0
  6
CONTINUOUS
 10
76.454086
 20
28.668795
 11
76.454086
 21
23.104395
  0
LINE
  8
0
  6
CONTINUOUS
 10
76.654129
 20
28.585054
 11
76.654129
 21
23.104395
  0
LINE
  8
0
  6
CONTINUOUS
 10
76.854111
 20
28.501036
 11
76.854134
 21
23.104395
  0
LINE
  8
0
  6
CONTINUOUS
 10
77.054131
 20
28.417295
 11
77.054131
 21
23.104395
  0
LINE
  8
0
  6
CONTINUOUS
 10
77.254128
 20
28.333315
 11
77.254128
 21
23.104395
  0
LINE
  8
0
  6
CONTINUOUS
 10
77.454109
 20
28.249475
 11
77.454109
 21
23.104395
  0
LINE
  8
0
  6
CONTINUOUS
 10
77.654152
 20
28.165674
 11
77.654152
 21
23.104395
  0
LINE
  8
0
  6
CONTINUOUS
 10
77.854134
 20
28.081696
 11
77.854111
 21
23.104395
  0
LINE
  8
0
  6
CONTINUOUS
 10
78.054131
 20
27.997894
 11
78.054131
 21
23.104395
  0
LINE
  8
0
  6
CONTINUOUS
 10
75.554131
 20
32.761875
 11
72.663750
 21
32.761875
  0
LINE
  8
0
  6
CONTINUOUS
 10
80.413757
 20
127.161865
 11
80.413757
 21
126.361855
  0
LINE
  8
0
  6
CONTINUOUS
 10
78.263733
 20
128.511871
 11
79.063751
 21
128.511871
  0
LINE
  8
0
  6
CONTINUOUS
 10
78.263733
 20
125.011871
 11
79.063751
 21
125.011871
  0
LINE
  8
0
  6
CONTINUOUS
 10
76.913757
 20
127.161865
 11
76.913757
 21
126.361855
  0
CIRCLE
  8
0
  6
CONTINUOUS
 10
78.663757
 20
126.761871
 40
2.750000
  0
ARC
  8
0
  6
CONTINUOUS
 10
76.913757
 20
128.511871
 40
1.350000
 50
-90.000000
 51
0.000000
  0
ARC
  8
0
  6
CONTINUOUS
 10
76.913757
 20
125.011871
 40
1.350000
 50
0.000000
 51
90.000000
  0
ARC
  8
0
  6
CONTINUOUS
 10
80.413757
 20
128.511871
 40
1.350000
 50
180.000000
 51
270.000000
  0
ARC
  8
0
  6
CONTINUOUS
 10
80.413757
 20
125.011871
 40
1.350000
 50
90.000000
 51
180.000000
  0
LINE
  8
0
  6
CONTINUOUS
 10
140.413803
 20
127.161865
 11
140.413803
 21
126.361855
  0
LINE
  8
0
  6
CONTINUOUS
 10
138.263779
 20
128.511871
 11
139.063797
 21
128.511871
  0
LINE
  8
0
  6
CONTINUOUS
 10
138.263779
 20
125.011871
 11
139.063797
 21
125.011871
  0
LINE
  8
0
  6
CONTINUOUS
 10
136.913803
 20
127.161865
 11
136.913803
 21
126.361855
  0
CIRCLE
  8
0
  6
CONTINUOUS
 10
138.663803
 20
126.761871
 40
2.750000
  0
ARC
  8
0
  6
CONTINUOUS
 10
136.913803
 20
128.511871
 40
1.350000
 50
-90.000000
 51
0.000000
  0
ARC
  8
0
  6
CONTINUOUS
 10
136.913803
 20
125.011871
 40
1.350000
 50
0.000000
 51
90.000000
  0
ARC
  8
0
  6
CONTINUOUS
 10
140.413803
 20
128.511871
 40
1.350000
 50
180.000000
 51
270.000000
  0
ARC
  8
0
  6
CONTINUOUS
 10
140.413803
 20
125.011871
 40
1.350000
 50
90.000000
 51
180.000000
  0
LINE
  8
0
  6
CONTINUOUS
 10
140.413803
 20
67.161865
 11
140.413803
 21
66.361855
  0
LINE
  8
0
  6
CONTINUOUS
 10
138.263779
 20
68.511871
 11
139.063797
 21
68.511871
  0
LINE
  8
0
  6
CONTINUOUS
 10
138.263779
 20
65.011871
 11
139.063797
 21
65.011871
  0
LINE
  8
0
  6
CONTINUOUS
 10
136.913803
 20
67.161865
 11
136.913803
 21
66.361855
  0
CIRCLE
  8
0
  6
CONTINUOUS
 10
138.663803
 20
66.761871
 40
2.750000
  0
ARC
  8
0
  6
CONTINUOUS
 10
136.913803
 20
68.511871
 40
1.350000
 50
-90.000000
 51
0.000000
  0
ARC
  8
0
  6
CONTINUOUS
 10
136.913803
 20
65.011871
 40
1.350000
 50
0.000000
 51
90.000000
  0
ARC
  8
0
  6
CONTINUOUS
 10
140.413803
 20
68.511871
 40
1.350000
 50
180.000000
 51
270.000000
  0
ARC
  8
0
  6
CONTINUOUS
 10
140.413803
 20
65.011871
 40
1.350000
 50
90.000000
 51
180.000000
  0
LINE
  8
0
  6
CONTINUOUS
 10
80.413757
 20
67.161865
 11
80.413757
 21
66.361855
  0
LINE
  8
0
  6
CONTINUOUS
 10
78.263733
 20
68.511871
 11
79.063751
 21
68.511871
  0
LINE
  8
0
  6
CONTINUOUS
 10
78.263733
 20
65.011871
 11
79.063751
 21
65.011871
  0
LINE
  8
0
  6
CONTINUOUS
 10
76.913757
 20
67.161865
 11
76.913757
 21
66.361855
  0
CIRCLE
  8
0
  6
CONTINUOUS
 10
78.663757
 20
66.761871
 40
2.750000
  0
ARC
  8
0
  6
CONTINUOUS
 10
76.913757
 20
68.511871
 40
1.350000
 50
-90.000000
 51
0.000000
  0
ARC
  8
0
  6
CONTINUOUS
 10
76.913757
 20
65.011871
 40
1.350000
 50
0.000000
 51
90.000000
  0
ARC
  8
0
  6
CONTINUOUS
 10
80.413757
 20
68.511871
 40
1.350000
 50
180.000000
 51
270.000000
  0
ARC
  8
0
  6
CONTINUOUS
 10
80.413757
 20
65.011871
 40
1.350000
 50
90.000000
 51
180.000000
  0
TEXT
  8
0
 10
-9.000000
 20
-44.000000
 40
4.000000
 41
1.000000
  1
H2LB-32R-80~240-T040WA
 50
0.000000
  0
ENDSEC
  0
EOF
