  0
SECTION
  2
HEADER
  9
$CLAYER
  8
1
  9
$LTSCALE
 40
3.0
  0
ENDSEC
  0
SECTION
  2
TABLES
  0
TABLE
  2
LTYPE
 70
     4
  0
LTYPE
  2
CONTINUOUS
  3
solid line
 70
    64
 72
    65
 73
     0
 40
0.0
  0
LTYPE
  2
DASHED
  3
__ __ __ __ __ __ __ __ __ __ __ __ __ __ __
 70
    64
 72
    65
 73
     2
 40
0.75
 49
0.5
 49
-0.25
  0
LTYPE
  2
CENTER
  3
____ _ ____ _ ____ _ ____ _ ____ _ ____ _ ____
 70
    64
 72
    65
 73
     4
 40
2.0
 49
1.25
 49
-0.25
 49
0.25
 49
-0.25
  0
LTYPE
  2
PHANTOM
  3
_____ _ _ _____ _ _ _____ _ _ _____ _ _ ____
 70
    64
 72
    65
 73
     6
 40
2.5
 49
1.25
 49
-0.25
 49
0.25
 49
-0.25
 49
0.25
 49
-0.25
  0
ENDTAB
  0
TABLE
  2
LAYER
 70
     1
  0
LAYER
  2
0
 70
    64
 62
     7
  6
CONTINUOUS
  0
ENDTAB
  0
TABLE
  2
STYLE
 70
     1
  0
STYLE
  2
STANDARD
 70
     0
 40
0.000000
 41
1.000000
 50
0.000000
 71
     0
 42
3.000000
  3
txt
  4
BIGFONT
  0
ENDTAB
  0
ENDSEC
  0
SECTION
  2
BLOCKS
  0
ENDSEC
  0
SECTION
  2
ENTITIES
  0
LINE
  8
0
  6
CENTER
 10
200.463745
 20
103.161873
 11
227.967499
 21
103.161873
  0
LINE
  8
0
  6
CENTER
 10
288.463745
 20
227.720001
 11
288.463745
 21
-2.471005
  0
LINE
  8
0
  6
CENTER
 10
224.579147
 20
148.161880
 11
352.808746
 21
148.161880
  0
LINE
  8
0
  6
CENTER
 10
335.963745
 20
33.437317
 11
335.963745
 21
-0.427425
  0
LINE
  8
0
  6
CENTER
 10
240.963745
 20
33.437317
 11
240.963745
 21
-0.719365
  0
LINE
  8
0
  6
CONTINUOUS
 10
212.463745
 20
8.161875
 11
364.463745
 21
8.161875
  0
LINE
  8
0
  6
CONTINUOUS
 10
212.463745
 20
26.161875
 11
364.463745
 21
26.161875
  0
LINE
  8
0
  6
CONTINUOUS
 10
364.463745
 20
176.467438
 11
364.463745
 21
8.161875
  0
LINE
  8
0
  6
CONTINUOUS
 10
212.463745
 20
171.661880
 11
212.463745
 21
176.467438
  0
LINE
  8
0
  6
CONTINUOUS
 10
261.960358
 20
213.161880
 11
314.967163
 21
213.161880
  0
LINE
  8
0
  6
CONTINUOUS
 10
207.463745
 20
167.161880
 11
200.463745
 21
167.161880
  0
LINE
  8
0
  6
CONTINUOUS
 10
207.463745
 20
39.161877
 11
200.463745
 21
39.161877
  0
LINE
  8
0
  6
CONTINUOUS
 10
361.013763
 20
183.047501
 11
319.517151
 21
211.741928
  0
LINE
  8
0
  6
CONTINUOUS
 10
215.913712
 20
183.047501
 11
257.410339
 21
211.741928
  0
ARC
  8
0
  6
CONTINUOUS
 10
314.967163
 20
205.161880
 40
8.000000
 50
55.336689
 51
90.000000
  0
ARC
  8
0
  6
CONTINUOUS
 10
356.463745
 20
176.467392
 40
8.000000
 50
0.000000
 51
55.336739
  0
ARC
  8
0
  6
CONTINUOUS
 10
261.960358
 20
205.161880
 40
8.000000
 50
90.000000
 51
124.663696
  0
ARC
  8
0
  6
CONTINUOUS
 10
220.463745
 20
176.467468
 40
8.000000
 50
124.663803
 51
180.000000
  0
LINE
  8
0
  6
CONTINUOUS
 10
212.463745
 20
34.661877
 11
212.463745
 21
8.161875
  0
ARC
  8
0
  6
CONTINUOUS
 10
207.463730
 20
172.161880
 40
5.000000
 50
-90.000000
 51
0.000000
  0
LINE
  8
0
  6
CONTINUOUS
 10
212.463745
 20
34.661877
 11
212.463745
 21
171.661880
  0
ARC
  8
0
  6
CONTINUOUS
 10
207.463776
 20
34.161854
 40
5.000000
 50
0.000000
 51
90.000000
  0
LINE
  8
0
  6
DASHED
 10
234.463745
 20
26.161875
 11
234.463745
 21
8.161875
  0
LINE
  8
0
  6
DASHED
 10
247.463745
 20
26.161875
 11
247.463745
 21
8.161875
  0
LINE
  8
0
  6
DASHED
 10
329.463745
 20
26.161875
 11
329.463745
 21
8.161875
  0
LINE
  8
0
  6
DASHED
 10
342.463745
 20
26.161875
 11
342.463745
 21
8.161875
  0
CIRCLE
  8
0
  6
CONTINUOUS
 10
288.463745
 20
148.161880
 40
39.000000
  0
ARC
  8
0
  6
CONTINUOUS
 10
288.463745
 20
148.161880
 40
44.000000
 50
12.523240
 51
167.476898
  0
ARC
  8
0
  6
CONTINUOUS
 10
262.963745
 20
89.161873
 40
29.000000
 50
167.476898
 51
270.000000
  0
ARC
  8
0
  6
CONTINUOUS
 10
313.963745
 20
89.161873
 40
29.000000
 50
-90.000000
 51
12.523240
  0
ARC
  8
0
  6
CONTINUOUS
 10
262.963745
 20
89.161873
 40
31.900000
 50
167.476898
 51
270.000000
  0
ARC
  8
0
  6
CONTINUOUS
 10
313.963745
 20
89.161873
 40
31.900000
 50
-90.000000
 51
12.523240
  0
ARC
  8
0
  6
CONTINUOUS
 10
288.463745
 20
148.161880
 40
41.099998
 50
-192.523102
 51
12.523240
  0
LINE
  8
0
  6
CONTINUOUS
 10
231.822754
 20
96.078880
 11
245.510544
 21
157.702576
  0
LINE
  8
0
  6
CONTINUOUS
 10
234.653748
 20
95.450058
 11
248.341553
 21
157.073761
  0
LINE
  8
0
  6
CONTINUOUS
 10
262.963745
 20
57.261875
 11
313.963745
 21
57.261875
  0
LINE
  8
0
  6
CONTINUOUS
 10
313.963745
 20
60.161877
 11
262.963745
 21
60.161877
  0
LINE
  8
0
  6
CONTINUOUS
 10
331.416962
 20
157.702652
 11
345.104736
 21
96.078941
  0
LINE
  8
0
  6
CONTINUOUS
 10
328.585938
 20
157.073837
 11
342.273743
 21
95.450111
  0
LINE
  8
0
  6
CONTINUOUS
 10
276.236755
 20
72.161873
 11
271.296356
 21
72.161873
  0
LINE
  8
0
  6
CONTINUOUS
 10
278.963745
 20
80.437279
 11
278.963745
 21
72.161873
  0
LINE
  8
0
  6
CONTINUOUS
 10
283.713745
 20
83.443123
 11
283.713745
 21
86.411873
  0
LINE
  8
0
  6
CONTINUOUS
 10
293.213745
 20
83.443123
 11
293.213745
 21
86.411873
  0
LINE
  8
0
  6
CONTINUOUS
 10
287.535950
 20
84.667732
 11
287.535950
 21
73.720474
  0
LINE
  8
0
  6
CONTINUOUS
 10
289.317352
 20
84.667732
 11
289.317352
 21
73.720474
  0
LINE
  8
0
  6
CONTINUOUS
 10
298.668945
 20
84.667732
 11
298.668945
 21
73.646255
  0
LINE
  8
0
  6
CONTINUOUS
 10
300.301758
 20
78.823013
 11
300.301758
 21
73.646255
  0
LINE
  8
0
  6
CONTINUOUS
 10
276.709747
 20
84.519295
 11
272.132141
 21
84.519295
  0
LINE
  8
0
  6
CONTINUOUS
 10
272.132141
 20
84.519295
 11
271.059540
 21
83.189301
  0
LINE
  8
0
  6
CONTINUOUS
 10
271.188538
 20
86.411873
 11
269.463745
 21
84.203407
  0
LINE
  8
0
  6
CONTINUOUS
 10
271.059540
 20
74.979713
 11
272.149353
 21
73.831795
  0
LINE
  8
0
  6
CONTINUOUS
 10
269.463745
 20
74.010994
 11
271.296356
 21
72.161873
  0
LINE
  8
0
  6
CONTINUOUS
 10
269.463745
 20
84.203407
 11
269.463745
 21
74.010994
  0
LINE
  8
0
  6
CONTINUOUS
 10
271.059540
 20
83.189301
 11
271.059540
 21
74.979713
  0
LINE
  8
0
  6
CONTINUOUS
 10
277.590759
 20
83.667732
 11
276.691742
 21
84.519295
  0
LINE
  8
0
  6
CONTINUOUS
 10
277.576538
 20
86.411873
 11
278.963745
 21
84.872292
  0
LINE
  8
0
  6
CONTINUOUS
 10
277.590759
 20
83.443123
 11
278.963745
 21
83.443123
  0
LINE
  8
0
  6
CONTINUOUS
 10
271.188538
 20
86.411873
 11
277.576538
 21
86.411873
  0
LINE
  8
0
  6
CONTINUOUS
 10
275.104340
 20
80.437279
 11
278.963745
 21
80.437279
  0
LINE
  8
0
  6
CONTINUOUS
 10
277.590759
 20
78.878677
 11
275.104340
 21
78.878677
  0
LINE
  8
0
  6
CONTINUOUS
 10
274.621948
 20
73.831795
 11
272.149353
 21
73.831795
  0
LINE
  8
0
  6
CONTINUOUS
 10
277.590759
 20
77.394295
 11
277.590759
 21
78.581795
  0
ARC
  8
0
  6
CONTINUOUS
 10
274.621948
 20
76.800537
 40
2.968750
 50
-89.999786
 51
0.000109
  0
LINE
  8
0
  6
CONTINUOUS
 10
277.590759
 20
73.297798
 11
277.590759
 21
72.161873
  0
LINE
  8
0
  6
CONTINUOUS
 10
278.963745
 20
84.872292
 11
278.963745
 21
83.443123
  0
LINE
  8
0
  6
CONTINUOUS
 10
277.590759
 20
78.878677
 11
277.590759
 21
76.800537
  0
LINE
  8
0
  6
CONTINUOUS
 10
275.104340
 20
80.437279
 11
275.104340
 21
78.878677
  0
LINE
  8
0
  6
CONTINUOUS
 10
277.590759
 20
72.161873
 11
278.963745
 21
72.161873
  0
LINE
  8
0
  6
CONTINUOUS
 10
277.590759
 20
73.297798
 11
276.236755
 21
72.161873
  0
LINE
  8
0
  6
CONTINUOUS
 10
289.317352
 20
73.720474
 11
289.910950
 21
73.720474
  0
LINE
  8
0
  6
CONTINUOUS
 10
286.830963
 20
73.720474
 11
286.830963
 21
72.161873
  0
LINE
  8
0
  6
CONTINUOUS
 10
289.910950
 20
73.720474
 11
289.910950
 21
72.161873
  0
LINE
  8
0
  6
CONTINUOUS
 10
292.222748
 20
83.443123
 11
293.213745
 21
83.443123
  0
LINE
  8
0
  6
CONTINUOUS
 10
283.713745
 20
83.443123
 11
284.768341
 21
83.443123
  0
LINE
  8
0
  6
CONTINUOUS
 10
283.713745
 20
86.411873
 11
293.213745
 21
86.411873
  0
LINE
  8
0
  6
CONTINUOUS
 10
286.830963
 20
72.161873
 11
289.910950
 21
72.161873
  0
LINE
  8
0
  6
CONTINUOUS
 10
286.830963
 20
73.720474
 11
287.535950
 21
73.720474
  0
ARC
  8
0
  6
CONTINUOUS
 10
303.659943
 20
82.608154
 40
3.803712
 50
-73.981873
 51
90.003510
  0
ARC
  8
0
  6
CONTINUOUS
 10
303.659943
 20
82.608154
 40
2.320524
 50
-82.585274
 51
62.411850
  0
LINE
  8
0
  6
CONTINUOUS
 10
297.963745
 20
86.411873
 11
303.659943
 21
86.411873
  0
LINE
  8
0
  6
CONTINUOUS
 10
303.959564
 20
80.307037
 11
300.301758
 21
80.307037
  0
LINE
  8
0
  6
CONTINUOUS
 10
297.963745
 20
86.411873
 11
297.963745
 21
84.667732
  0
LINE
  8
0
  6
CONTINUOUS
 10
300.301758
 20
84.667732
 11
300.301758
 21
80.307037
  0
LINE
  8
0
  6
CONTINUOUS
 10
304.709564
 20
78.952133
 11
307.063965
 21
73.646255
  0
LINE
  8
0
  6
CONTINUOUS
 10
303.342346
 20
78.823013
 11
305.570343
 21
73.646255
  0
LINE
  8
0
  6
CONTINUOUS
 10
297.963745
 20
73.646255
 11
298.668945
 21
73.646255
  0
LINE
  8
0
  6
CONTINUOUS
 10
300.301758
 20
73.646255
 11
300.951141
 21
73.646255
  0
LINE
  8
0
  6
CONTINUOUS
 10
300.951141
 20
72.161873
 11
297.963745
 21
72.161873
  0
LINE
  8
0
  6
CONTINUOUS
 10
305.274353
 20
73.646255
 11
305.570343
 21
73.646255
  0
LINE
  8
0
  6
CONTINUOUS
 10
307.063965
 20
73.646255
 11
307.463745
 21
73.646255
  0
LINE
  8
0
  6
CONTINUOUS
 10
305.274353
 20
72.161873
 11
307.463745
 21
72.161873
  0
LINE
  8
0
  6
CONTINUOUS
 10
307.463745
 20
73.646255
 11
307.463745
 21
72.161873
  0
LINE
  8
0
  6
CONTINUOUS
 10
305.274353
 20
73.646255
 11
305.274353
 21
72.161873
  0
LINE
  8
0
  6
CONTINUOUS
 10
300.951141
 20
73.646255
 11
300.951141
 21
72.161873
  0
LINE
  8
0
  6
CONTINUOUS
 10
297.963745
 20
73.646255
 11
297.963745
 21
72.161873
  0
LINE
  8
0
  6
CONTINUOUS
 10
285.278564
 20
84.667732
 11
284.768341
 21
83.443123
  0
LINE
  8
0
  6
CONTINUOUS
 10
291.792542
 20
84.667732
 11
292.222748
 21
83.443123
  0
LINE
  8
0
  6
CONTINUOUS
 10
289.317352
 20
84.667732
 11
291.792542
 21
84.667732
  0
LINE
  8
0
  6
CONTINUOUS
 10
287.535950
 20
84.667732
 11
285.278564
 21
84.667732
  0
LINE
  8
0
  6
CONTINUOUS
 10
300.301758
 20
78.823013
 11
303.342346
 21
78.823013
  0
LINE
  8
0
  6
CONTINUOUS
 10
297.963745
 20
84.667732
 11
298.668945
 21
84.667732
  0
LINE
  8
0
  6
CONTINUOUS
 10
300.301758
 20
84.667732
 11
304.734741
 21
84.664848
  0
LINE
  8
0
  6
CONTINUOUS
 10
277.590759
 20
83.667732
 11
277.590759
 21
83.443123
  0
ARC
  8
0
  6
CONTINUOUS
 10
392.172546
 20
103.161873
 40
185.208893
 50
166.001907
 51
193.998093
  0
LINE
  8
0
  6
CONTINUOUS
 10
226.463745
 20
24.095316
 11
226.463745
 21
8.161875
  0
LINE
  8
0
  6
CONTINUOUS
 10
350.463745
 20
24.095316
 11
350.463745
 21
8.161875
  0
LINE
  8
0
  6
CONTINUOUS
 10
312.221161
 20
31.161875
 11
264.706360
 21
31.161875
  0
LINE
  8
0
  6
CONTINUOUS
 10
263.463745
 20
30.225994
 11
263.463745
 21
27.161875
  0
LINE
  8
0
  6
CONTINUOUS
 10
314.342346
 20
30.283195
 11
316.999359
 21
27.626335
  0
LINE
  8
0
  6
CONTINUOUS
 10
262.585144
 20
30.283195
 11
259.928345
 21
27.626375
  0
LINE
  8
0
  6
CONTINUOUS
 10
313.463745
 20
30.225994
 11
313.463745
 21
27.161875
  0
ARC
  8
0
  6
CONTINUOUS
 10
256.392761
 20
31.161875
 40
5.000000
 50
270.000000
 51
315.000092
  0
ARC
  8
0
  6
CONTINUOUS
 10
264.706360
 20
28.161875
 40
3.000000
 50
90.000000
 51
135.000305
  0
ARC
  8
0
  6
CONTINUOUS
 10
262.463745
 20
27.161875
 40
1.000000
 50
-90.000000
 51
0.000000
  0
ARC
  8
0
  6
CONTINUOUS
 10
320.534760
 20
31.161875
 40
5.000000
 50
225.000000
 51
270.000000
  0
ARC
  8
0
  6
CONTINUOUS
 10
312.221161
 20
28.161875
 40
3.000000
 50
45.000160
 51
90.000000
  0
ARC
  8
0
  6
CONTINUOUS
 10
314.463745
 20
27.161875
 40
1.000000
 50
180.000000
 51
270.000000
  0
LINE
  8
0
  6
CONTINUOUS
 10
299.463745
 20
143.161911
 11
299.463745
 21
153.161911
  0
LINE
  8
0
  6
CONTINUOUS
 10
307.463745
 20
143.161942
 11
307.463745
 21
153.161942
  0
LINE
  8
0
  6
CONTINUOUS
 10
307.463745
 20
143.161942
 11
299.463745
 21
143.161911
  0
LINE
  8
0
  6
CONTINUOUS
 10
307.463745
 20
153.161942
 11
299.463745
 21
153.161911
  0
ARC
  8
0
  6
CONTINUOUS
 10
288.463745
 20
148.161880
 40
16.000000
 50
18.209900
 51
341.790100
  0
LINE
  8
0
  6
CENTER
 10
565.540466
 20
-8.283125
 11
565.540466
 21
232.857498
  0
LINE
  8
0
  6
CENTER
 10
434.542511
 20
103.161873
 11
648.215027
 21
103.161873
  0
LINE
  8
0
  6
CENTER
 10
432.877869
 20
148.161880
 11
637.590454
 21
148.161880
  0
LINE
  8
0
  6
CENTER
 10
625.540466
 20
34.760616
 11
625.540466
 21
-3.138505
  0
LINE
  8
0
  6
CENTER
 10
505.540466
 20
34.760616
 11
505.540466
 21
-3.138505
  0
LINE
  8
0
  6
CONTINUOUS
 10
490.540466
 20
8.161875
 11
535.540466
 21
8.161875
  0
LINE
  8
0
  6
CONTINUOUS
 10
595.540466
 20
8.161875
 11
640.540466
 21
8.161875
  0
LINE
  8
0
  6
CONTINUOUS
 10
638.040466
 20
26.161875
 11
614.540466
 21
26.161875
  0
LINE
  8
0
  6
CONTINUOUS
 10
493.040466
 20
26.161875
 11
516.540466
 21
26.161875
  0
LINE
  8
0
  6
CONTINUOUS
 10
610.540466
 20
209.428635
 11
610.540466
 21
8.161875
  0
LINE
  8
0
  6
CONTINUOUS
 10
520.540466
 20
195.903076
 11
520.540466
 21
209.428162
  0
LINE
  8
0
  6
CONTINUOUS
 10
640.540466
 20
24.044056
 11
640.540466
 21
8.161875
  0
LINE
  8
0
  6
CONTINUOUS
 10
490.540466
 20
24.044056
 11
490.540466
 21
8.161875
  0
LINE
  8
0
  6
CONTINUOUS
 10
537.040466
 20
9.661875
 11
594.040466
 21
9.661875
  0
LINE
  8
0
  6
CONTINUOUS
 10
607.592896
 20
212.428177
 11
565.540466
 21
213.161880
  0
LINE
  8
0
  6
CONTINUOUS
 10
523.488098
 20
212.427689
 11
565.540466
 21
213.161880
  0
LINE
  8
0
  6
CONTINUOUS
 10
503.540466
 20
112.903069
 11
503.540466
 21
183.420700
  0
LINE
  8
0
  6
CONTINUOUS
 10
627.540466
 20
112.903069
 11
627.540466
 21
183.420700
  0
LINE
  8
0
  6
CONTINUOUS
 10
510.540466
 20
63.917873
 11
510.540466
 21
152.072281
  0
LINE
  8
0
  6
CONTINUOUS
 10
620.540466
 20
63.917896
 11
620.540466
 21
152.072281
  0
LINE
  8
0
  6
DASHED
 10
632.040466
 20
26.161875
 11
632.040466
 21
8.161875
  0
LINE
  8
0
  6
DASHED
 10
619.040466
 20
26.161875
 11
619.040466
 21
8.161875
  0
LINE
  8
0
  6
DASHED
 10
512.040466
 20
26.161875
 11
512.040466
 21
8.161875
  0
LINE
  8
0
  6
DASHED
 10
499.040466
 20
26.161875
 11
499.040466
 21
8.161875
  0
ARC
  8
0
  6
CONTINUOUS
 10
523.540466
 20
209.428162
 40
3.000000
 50
91.000603
 51
180.000000
  0
ARC
  8
0
  6
CONTINUOUS
 10
607.540466
 20
209.428619
 40
3.000000
 50
0.000000
 51
89.000580
  0
LINE
  8
0
  6
CONTINUOUS
 10
516.951294
 20
191.106232
 11
507.129669
 21
188.217499
  0
LINE
  8
0
  6
CONTINUOUS
 10
507.129669
 20
108.106239
 11
507.669067
 21
107.947571
  0
LINE
  8
0
  6
CONTINUOUS
 10
514.147888
 20
59.115734
 11
516.933044
 21
58.308014
  0
LINE
  8
0
  6
CONTINUOUS
 10
492.629456
 20
26.510035
 11
518.033691
 21
30.744076
  0
LINE
  8
0
  6
CONTINUOUS
 10
638.451477
 20
26.510056
 11
613.047241
 21
30.744095
  0
LINE
  8
0
  6
CONTINUOUS
 10
616.933044
 20
59.115734
 11
614.147888
 21
58.308014
  0
LINE
  8
0
  6
CONTINUOUS
 10
623.951294
 20
108.106239
 11
623.411865
 21
107.947563
  0
LINE
  8
0
  6
CONTINUOUS
 10
623.951294
 20
188.217514
 11
614.129639
 21
191.106232
  0
LINE
  8
0
  6
CONTINUOUS
 10
523.114868
 20
180.661880
 11
607.793091
 21
180.661880
  0
ARC
  8
0
  6
CONTINUOUS
 10
508.540466
 20
183.420715
 40
5.000000
 50
106.389900
 51
180.000000
  0
ARC
  8
0
  6
CONTINUOUS
 10
622.540466
 20
183.420670
 40
5.000000
 50
0.000000
 51
73.610527
  0
ARC
  8
0
  6
CONTINUOUS
 10
508.540466
 20
112.903107
 40
5.000000
 50
180.000000
 51
253.610794
  0
ARC
  8
0
  6
CONTINUOUS
 10
622.540466
 20
112.903061
 40
5.000000
 50
-73.610321
 51
0.000000
  0
ARC
  8
0
  6
CONTINUOUS
 10
615.540466
 20
63.917873
 40
5.000000
 50
-73.827698
 51
0.000000
  0
ARC
  8
0
  6
CONTINUOUS
 10
515.540466
 20
63.917915
 40
5.000000
 50
180.000000
 51
253.828201
  0
LINE
  8
0
  6
CONTINUOUS
 10
520.540466
 20
195.903076
 11
520.540466
 21
8.161875
  0
ARC
  8
0
  6
CONTINUOUS
 10
515.540466
 20
195.903061
 40
5.000000
 50
-73.610229
 51
0.000000
  0
ARC
  8
0
  6
CONTINUOUS
 10
506.540466
 20
104.110092
 40
4.000000
 50
0.000000
 51
73.610649
  0
ARC
  8
0
  6
CONTINUOUS
 10
515.540466
 20
53.505856
 40
5.000000
 50
0.000000
 51
73.827919
  0
ARC
  8
0
  6
CONTINUOUS
 10
615.540466
 20
53.505894
 40
5.000000
 50
106.172501
 51
180.000000
  0
ARC
  8
0
  6
CONTINUOUS
 10
624.540466
 20
104.110123
 40
4.000000
 50
106.389999
 51
180.000000
  0
ARC
  8
0
  6
CONTINUOUS
 10
615.540466
 20
195.903091
 40
5.000000
 50
180.000000
 51
253.610794
  0
ARC
  8
0
  6
CONTINUOUS
 10
517.540466
 20
33.703255
 40
3.000000
 50
-80.537483
 51
0.000000
  0
ARC
  8
0
  6
CONTINUOUS
 10
516.540466
 20
30.161835
 40
4.000000
 50
-90.000000
 51
0.000000
  0
ARC
  8
0
  6
CONTINUOUS
 10
493.040466
 20
23.661896
 40
2.500000
 50
90.000000
 51
180.000000
  0
LINE
  8
0
  6
CONTINUOUS
 10
535.540466
 20
8.161875
 11
537.040466
 21
9.661875
  0
LINE
  8
0
  6
CONTINUOUS
 10
595.540466
 20
8.161875
 11
594.040466
 21
9.661875
  0
ARC
  8
0
  6
CONTINUOUS
 10
613.540466
 20
33.703297
 40
3.000000
 50
180.000000
 51
260.537903
  0
ARC
  8
0
  6
CONTINUOUS
 10
614.540466
 20
30.161875
 40
4.000000
 50
180.000000
 51
270.000000
  0
ARC
  8
0
  6
CONTINUOUS
 10
638.040466
 20
23.661875
 40
2.500000
 50
0.000000
 51
90.000000
  0
LINE
  8
0
  6
CONTINUOUS
 10
445.540466
 20
132.161880
 11
445.540466
 21
164.161880
  0
LINE
  8
0
  6
CONTINUOUS
 10
500.540466
 20
164.161880
 11
445.540466
 21
164.161880
  0
LINE
  8
0
  6
CONTINUOUS
 10
500.540466
 20
132.161880
 11
445.540466
 21
132.161880
  0
LINE
  8
0
  6
CONTINUOUS
 10
500.540466
 20
165.661880
 11
500.540466
 21
130.661880
  0
LINE
  8
0
  6
CONTINUOUS
 10
503.540466
 20
165.661880
 11
500.540466
 21
165.661880
  0
LINE
  8
0
  6
CONTINUOUS
 10
503.540466
 20
130.661880
 11
500.540466
 21
130.661880
  0
ARC
  8
0
  6
CONTINUOUS
 10
490.540466
 20
148.161880
 40
5.000000
 50
-90.000000
 51
90.000000
  0
LINE
  8
0
  6
CONTINUOUS
 10
490.540466
 20
153.161880
 11
445.540466
 21
153.161880
  0
LINE
  8
0
  6
CONTINUOUS
 10
490.540466
 20
143.161880
 11
445.540466
 21
143.161880
  0
ARC
  8
0
  6
CONTINUOUS
 10
493.040466
 20
24.044075
 40
2.500000
 50
99.462753
 51
180.000000
  0
ARC
  8
0
  6
CONTINUOUS
 10
638.040466
 20
24.044056
 40
2.500000
 50
0.000000
 51
80.537682
  0
LINE
  8
0
  6
CENTER
 10
-11.953750
 20
103.161873
 11
200.463745
 21
103.161873
  0
LINE
  8
0
  6
CONTINUOUS
 10
200.463745
 20
167.161880
 11
200.463745
 21
39.161877
  0
LINE
  8
0
  6
CONTINUOUS
 10
503.540466
 20
77.127556
 11
503.540436
 21
87.287437
  0
LINE
  8
0
  6
CONTINUOUS
 10
504.505554
 20
76.128174
 11
507.580444
 21
76.020798
  0
ARC
  8
0
  6
CONTINUOUS
 10
504.540466
 20
77.127579
 40
1.000000
 50
180.000000
 51
268.000214
  0
ARC
  8
0
  6
CONTINUOUS
 10
565.540466
 20
103.161873
 40
70.500000
 50
200.824066
 51
227.025131
  0
ARC
  8
0
  6
CONTINUOUS
 10
565.540466
 20
103.161873
 40
64.000000
 50
-30.753519
 51
14.361512
  0
ARC
  8
0
  6
CONTINUOUS
 10
565.540466
 20
103.161873
 40
70.500000
 50
-50.334988
 51
28.426003
  0
ARC
  8
0
  6
CONTINUOUS
 10
565.540466
 20
103.161873
 40
70.500000
 50
157.041092
 51
159.175964
  0
ARC
  8
0
  6
CONTINUOUS
 10
565.540466
 20
103.161873
 40
64.000000
 50
165.638489
 51
210.753525
  0
LINE
  8
0
  6
CONTINUOUS
 10
66.463791
 20
167.161880
 11
200.463745
 21
167.161880
  0
LINE
  8
0
  6
CONTINUOUS
 10
76.463753
 20
161.642868
 11
76.463753
 21
157.661880
  0
LINE
  8
0
  6
CONTINUOUS
 10
192.463745
 20
161.642868
 11
192.463730
 21
157.661880
  0
LINE
  8
0
  6
CONTINUOUS
 10
76.463730
 20
141.161880
 11
192.463745
 21
141.161880
  0
LINE
  8
0
  6
CONTINUOUS
 10
76.463753
 20
143.161880
 11
192.463745
 21
143.161880
  0
LINE
  8
0
  6
CONTINUOUS
 10
76.463753
 20
148.661880
 11
192.463745
 21
148.661880
  0
LINE
  8
0
  6
CONTINUOUS
 10
76.463753
 20
150.661880
 11
192.463745
 21
150.661880
  0
LINE
  8
0
  6
CONTINUOUS
 10
76.463753
 20
155.661880
 11
192.463745
 21
155.661880
  0
LINE
  8
0
  6
CONTINUOUS
 10
76.463753
 20
157.661880
 11
192.463730
 21
157.661880
  0
LINE
  8
0
  6
CONTINUOUS
 10
76.463753
 20
161.642868
 11
192.463745
 21
161.642868
  0
LINE
  8
0
  6
CONTINUOUS
 10
76.463753
 20
155.661880
 11
76.463753
 21
150.661880
  0
LINE
  8
0
  6
CONTINUOUS
 10
76.463753
 20
148.661880
 11
76.463753
 21
143.161880
  0
LINE
  8
0
  6
CONTINUOUS
 10
76.463730
 20
141.161880
 11
76.463730
 21
138.161880
  0
LINE
  8
0
  6
CONTINUOUS
 10
192.463745
 20
44.680874
 11
192.463745
 21
48.661877
  0
LINE
  8
0
  6
CONTINUOUS
 10
192.463745
 20
50.661877
 11
192.463745
 21
55.661877
  0
LINE
  8
0
  6
CONTINUOUS
 10
192.463745
 20
57.661877
 11
192.463745
 21
63.161877
  0
LINE
  8
0
  6
CONTINUOUS
 10
192.463745
 20
65.161873
 11
192.463745
 21
70.961899
  0
LINE
  8
0
  6
CONTINUOUS
 10
192.463745
 20
72.961876
 11
192.463745
 21
78.761871
  0
LINE
  8
0
  6
CONTINUOUS
 10
192.463745
 20
80.761871
 11
192.463745
 21
86.561882
  0
LINE
  8
0
  6
CONTINUOUS
 10
192.463745
 20
88.561882
 11
192.463745
 21
94.361870
  0
LINE
  8
0
  6
CONTINUOUS
 10
192.463745
 20
96.361870
 11
192.463745
 21
102.161873
  0
LINE
  8
0
  6
CONTINUOUS
 10
192.463730
 20
104.161873
 11
192.463730
 21
109.961876
  0
LINE
  8
0
  6
CONTINUOUS
 10
192.463730
 20
111.961876
 11
192.463730
 21
117.761871
  0
LINE
  8
0
  6
CONTINUOUS
 10
192.463730
 20
119.761871
 11
192.463730
 21
125.561874
  0
LINE
  8
0
  6
CONTINUOUS
 10
192.463745
 20
127.561874
 11
192.463745
 21
133.361877
  0
LINE
  8
0
  6
CONTINUOUS
 10
192.463745
 20
135.361877
 11
192.463745
 21
141.161880
  0
LINE
  8
0
  6
CONTINUOUS
 10
192.463745
 20
143.161880
 11
192.463745
 21
148.661880
  0
LINE
  8
0
  6
CONTINUOUS
 10
192.463745
 20
150.661880
 11
192.463745
 21
155.661880
  0
LINE
  8
0
  6
CONTINUOUS
 10
192.463745
 20
72.961876
 11
139.463806
 21
72.961876
  0
LINE
  8
0
  6
CONTINUOUS
 10
192.463745
 20
70.961876
 11
139.463806
 21
70.961876
  0
LINE
  8
0
  6
CONTINUOUS
 10
192.463745
 20
65.161873
 11
106.963753
 21
65.161873
  0
LINE
  8
0
  6
CONTINUOUS
 10
192.463745
 20
63.161877
 11
106.963753
 21
63.161877
  0
LINE
  8
0
  6
CONTINUOUS
 10
192.463745
 20
57.661877
 11
106.442894
 21
57.661877
  0
LINE
  8
0
  6
CONTINUOUS
 10
192.463745
 20
55.661877
 11
105.746773
 21
55.661877
  0
LINE
  8
0
  6
CONTINUOUS
 10
192.463745
 20
50.661877
 11
102.249023
 21
50.661877
  0
LINE
  8
0
  6
CONTINUOUS
 10
192.463745
 20
48.661877
 11
99.586937
 21
48.661877
  0
LINE
  8
0
  6
CONTINUOUS
 10
192.463745
 20
44.680874
 11
76.463730
 21
44.680874
  0
LINE
  8
0
  6
CONTINUOUS
 10
200.463745
 20
39.161877
 11
66.463730
 21
39.161877
  0
LINE
  8
0
  6
CENTER
 10
288.463745
 20
499.455627
 11
288.463745
 21
272.929993
  0
LINE
  8
0
  6
CONTINUOUS
 10
364.463959
 20
407.137939
 11
363.678467
 21
452.137939
  0
LINE
  8
0
  6
CONTINUOUS
 10
230.013702
 20
482.137939
 11
288.463745
 21
482.137939
  0
LINE
  8
0
  6
CONTINUOUS
 10
354.407349
 20
476.939148
 11
363.678467
 21
452.137939
  0
ARC
  8
0
  6
CONTINUOUS
 10
346.913788
 20
474.137939
 40
8.000000
 50
20.496618
 51
90.000000
  0
LINE
  8
0
  6
CONTINUOUS
 10
364.463959
 20
407.137939
 11
363.678467
 21
362.137939
  0
LINE
  8
0
  6
CONTINUOUS
 10
230.013702
 20
332.137939
 11
272.463745
 21
332.137939
  0
LINE
  8
0
  6
CONTINUOUS
 10
354.407349
 20
337.336700
 11
363.678467
 21
362.137939
  0
ARC
  8
0
  6
CONTINUOUS
 10
346.913788
 20
340.137939
 40
8.000000
 50
-90.000000
 51
-20.496618
  0
LINE
  8
0
  6
CONTINUOUS
 10
222.520157
 20
476.939148
 11
213.465363
 21
452.716644
  0
ARC
  8
0
  6
CONTINUOUS
 10
230.013702
 20
474.137939
 40
8.000000
 50
90.000000
 51
159.503387
  0
LINE
  8
0
  6
CONTINUOUS
 10
222.520157
 20
337.336700
 11
213.465363
 21
361.559204
  0
ARC
  8
0
  6
CONTINUOUS
 10
230.013702
 20
340.137939
 40
8.000000
 50
200.496613
 51
270.000000
  0
LINE
  8
0
  6
CONTINUOUS
 10
215.800385
 20
452.137939
 11
360.730377
 21
452.137939
  0
LINE
  8
0
  6
CONTINUOUS
 10
360.730377
 20
362.137939
 11
215.800385
 21
362.137939
  0
LINE
  8
0
  6
CONTINUOUS
 10
288.463745
 20
469.137939
 11
323.722565
 21
469.137939
  0
ARC
  8
0
  6
CONTINUOUS
 10
360.730377
 20
449.137939
 40
3.000000
 50
1.000000
 51
90.000000
  0
ARC
  8
0
  6
CONTINUOUS
 10
360.730377
 20
365.137939
 40
3.000000
 50
270.000000
 51
359.000000
  0
LINE
  8
0
  6
CONTINUOUS
 10
317.463745
 20
449.137939
 11
317.463745
 21
365.137939
  0
LINE
  8
0
  6
CONTINUOUS
 10
259.463745
 20
449.137939
 11
259.463745
 21
365.137939
  0
LINE
  8
0
  6
CONTINUOUS
 10
200.463745
 20
471.137939
 11
200.463745
 21
343.137939
  0
LINE
  8
0
  6
CONTINUOUS
 10
203.036087
 20
471.137939
 11
200.463745
 21
471.137939
  0
LINE
  8
0
  6
CONTINUOUS
 10
328.519379
 20
465.548767
 11
329.522583
 21
462.137939
  0
ARC
  8
0
  6
CONTINUOUS
 10
323.722565
 20
464.137939
 40
5.000000
 50
16.389540
 51
90.000000
  0
LINE
  8
0
  6
CONTINUOUS
 10
344.009888
 20
458.530548
 11
344.817596
 21
455.745300
  0
LINE
  8
0
  6
CONTINUOUS
 10
339.207733
 20
462.137939
 11
329.522583
 21
462.137939
  0
LINE
  8
0
  6
CONTINUOUS
 10
288.463745
 20
469.137939
 11
253.204941
 21
469.137939
  0
LINE
  8
0
  6
CONTINUOUS
 10
288.463745
 20
345.137939
 11
323.722565
 21
345.137939
  0
LINE
  8
0
  6
CONTINUOUS
 10
288.463745
 20
345.137939
 11
253.204941
 21
345.137939
  0
LINE
  8
0
  6
CONTINUOUS
 10
288.463745
 20
482.137939
 11
346.913788
 21
482.137939
  0
LINE
  8
0
  6
CONTINUOUS
 10
307.463745
 20
287.137939
 11
272.463745
 21
287.137939
  0
LINE
  8
0
  6
CONTINUOUS
 10
272.463745
 20
342.137939
 11
272.463745
 21
287.137939
  0
LINE
  8
0
  6
CONTINUOUS
 10
304.463745
 20
342.137939
 11
304.463745
 21
337.137939
  0
LINE
  8
0
  6
CONTINUOUS
 10
270.963745
 20
342.137939
 11
305.963745
 21
342.137939
  0
LINE
  8
0
  6
CONTINUOUS
 10
270.963745
 20
345.137939
 11
270.963745
 21
342.137939
  0
LINE
  8
0
  6
CONTINUOUS
 10
305.963745
 20
345.137939
 11
305.963745
 21
342.137939
  0
LINE
  8
0
  6
CONTINUOUS
 10
307.463745
 20
287.137939
 11
307.463745
 21
337.137939
  0
LINE
  8
0
  6
CONTINUOUS
 10
303.662445
 20
337.137939
 11
307.463745
 21
337.137939
  0
LINE
  8
0
  6
CONTINUOUS
 10
303.662445
 20
337.137939
 11
303.662445
 21
287.137939
  0
LINE
  8
0
  6
CONTINUOUS
 10
307.463745
 20
332.137939
 11
346.913788
 21
332.137939
  0
LINE
  8
0
  6
CENTER
 10
326.087433
 20
467.137939
 11
345.024933
 21
467.137939
  0
LINE
  8
0
  6
CENTER
 10
335.963745
 20
457.985596
 11
335.963745
 21
477.485596
  0
ARC
  8
0
  6
CONTINUOUS
 10
335.963745
 20
467.137939
 40
6.500000
 50
-51.240688
 51
230.284866
  0
ARC
  8
0
  6
CONTINUOUS
 10
240.963745
 20
467.137939
 40
6.500000
 50
-50.284863
 51
231.240692
  0
LINE
  8
0
  6
CENTER
 10
240.963745
 20
457.985596
 11
240.963745
 21
477.485596
  0
LINE
  8
0
  6
CENTER
 10
250.840073
 20
467.137939
 11
231.902573
 21
467.137939
  0
LINE
  8
0
  6
CENTER
 10
-13.495000
 20
407.137939
 11
375.884766
 21
407.137939
  0
LINE
  8
0
  6
CONTINUOUS
 10
207.865707
 20
467.432037
 11
210.970749
 21
455.843842
  0
ARC
  8
0
  6
CONTINUOUS
 10
215.800385
 20
457.137939
 40
5.000000
 50
195.000000
 51
270.000000
  0
ARC
  8
0
  6
CONTINUOUS
 10
203.036087
 20
466.137939
 40
5.000000
 50
15.000000
 51
90.000000
  0
LINE
  8
0
  6
CONTINUOUS
 10
203.036087
 20
343.137939
 11
200.463745
 21
343.137939
  0
LINE
  8
0
  6
CONTINUOUS
 10
207.865707
 20
346.843842
 11
210.970749
 21
358.432037
  0
ARC
  8
0
  6
CONTINUOUS
 10
203.036087
 20
348.137939
 40
5.000000
 50
-90.000000
 51
-15.000000
  0
ARC
  8
0
  6
CONTINUOUS
 10
215.800385
 20
357.137939
 40
5.000000
 50
-270.000000
 51
-195.000000
  0
LINE
  8
0
  6
CONTINUOUS
 10
212.463547
 20
407.137939
 11
213.197571
 21
449.190277
  0
LINE
  8
0
  6
CONTINUOUS
 10
212.463547
 20
407.137939
 11
213.197571
 21
365.085571
  0
ARC
  8
0
  6
CONTINUOUS
 10
216.197113
 20
449.137939
 40
3.000000
 50
90.000000
 51
179.000000
  0
ARC
  8
0
  6
CONTINUOUS
 10
216.197113
 20
365.137939
 40
3.000000
 50
-179.000000
 51
-90.000000
  0
ARC
  8
0
  6
CONTINUOUS
 10
339.207733
 20
457.137939
 40
5.000000
 50
16.172159
 51
90.000000
  0
ARC
  8
0
  6
CONTINUOUS
 10
349.619751
 20
457.137939
 40
5.000000
 50
196.172165
 51
270.000000
  0
LINE
  8
0
  6
CONTINUOUS
 10
345.863739
 20
452.137939
 11
345.866974
 21
452.126831
  0
ARC
  8
0
  6
CONTINUOUS
 10
253.204941
 20
464.137939
 40
5.000000
 50
90.000000
 51
163.610458
  0
LINE
  8
0
  6
CONTINUOUS
 10
248.408112
 20
465.548767
 11
247.404922
 21
462.137939
  0
LINE
  8
0
  6
CONTINUOUS
 10
232.917603
 20
458.530548
 11
232.109894
 21
455.745300
  0
LINE
  8
0
  6
CONTINUOUS
 10
237.719757
 20
462.137939
 11
247.404922
 21
462.137939
  0
ARC
  8
0
  6
CONTINUOUS
 10
237.719757
 20
457.137939
 40
5.000000
 50
90.000000
 51
163.827835
  0
ARC
  8
0
  6
CONTINUOUS
 10
227.307739
 20
457.137939
 40
5.000000
 50
-90.000000
 51
-16.172159
  0
LINE
  8
0
  6
CONTINUOUS
 10
231.063751
 20
452.137939
 11
231.060532
 21
452.126831
  0
ARC
  8
0
  6
CONTINUOUS
 10
240.963745
 20
347.137939
 40
6.500000
 50
-231.240692
 51
50.284863
  0
LINE
  8
0
  6
CENTER
 10
250.840073
 20
347.137939
 11
231.902573
 21
347.137939
  0
ARC
  8
0
  6
CONTINUOUS
 10
253.204941
 20
350.137939
 40
5.000000
 50
196.389542
 51
270.000000
  0
LINE
  8
0
  6
CONTINUOUS
 10
248.408112
 20
348.727112
 11
247.404922
 21
352.137939
  0
LINE
  8
0
  6
CONTINUOUS
 10
232.917603
 20
355.745300
 11
232.109894
 21
358.530548
  0
LINE
  8
0
  6
CONTINUOUS
 10
237.719757
 20
352.137939
 11
247.404922
 21
352.137939
  0
ARC
  8
0
  6
CONTINUOUS
 10
237.719757
 20
357.137939
 40
5.000000
 50
-163.827835
 51
-90.000000
  0
ARC
  8
0
  6
CONTINUOUS
 10
227.307739
 20
357.137939
 40
5.000000
 50
16.172159
 51
90.000000
  0
LINE
  8
0
  6
CONTINUOUS
 10
231.063751
 20
362.137939
 11
231.060532
 21
362.149017
  0
LINE
  8
0
  6
CENTER
 10
240.963745
 20
356.290283
 11
240.963745
 21
336.790283
  0
LINE
  8
0
  6
CONTINUOUS
 10
328.519379
 20
348.727112
 11
329.522583
 21
352.137939
  0
ARC
  8
0
  6
CONTINUOUS
 10
323.722565
 20
350.137939
 40
5.000000
 50
-90.000000
 51
-16.389540
  0
LINE
  8
0
  6
CONTINUOUS
 10
344.009888
 20
355.745300
 11
344.817596
 21
358.530548
  0
LINE
  8
0
  6
CONTINUOUS
 10
339.207733
 20
352.137939
 11
329.522583
 21
352.137939
  0
LINE
  8
0
  6
CENTER
 10
326.087433
 20
347.137939
 11
345.024933
 21
347.137939
  0
LINE
  8
0
  6
CENTER
 10
335.963745
 20
356.290283
 11
335.963745
 21
336.790283
  0
ARC
  8
0
  6
CONTINUOUS
 10
335.963745
 20
347.137939
 40
6.500000
 50
-230.284866
 51
51.240688
  0
ARC
  8
0
  6
CONTINUOUS
 10
339.207733
 20
357.137939
 40
5.000000
 50
-90.000000
 51
-16.172159
  0
ARC
  8
0
  6
CONTINUOUS
 10
349.619751
 20
357.137939
 40
5.000000
 50
-270.000000
 51
-196.172165
  0
LINE
  8
0
  6
CONTINUOUS
 10
345.863739
 20
362.137939
 11
345.866974
 21
362.149017
  0
LINE
  8
0
  6
CONTINUOUS
 10
66.463753
 20
343.137939
 11
76.463753
 21
343.137939
  0
LINE
  8
0
  6
CONTINUOUS
 10
66.463753
 20
471.137939
 11
200.463745
 21
471.137939
  0
LINE
  8
0
  6
CONTINUOUS
 10
76.463753
 20
433.637939
 11
76.463753
 21
471.137939
  0
LINE
  8
0
  6
CONTINUOUS
 10
192.463745
 20
433.637939
 11
192.463745
 21
471.137939
  0
LINE
  8
0
  6
CONTINUOUS
 10
76.963753
 20
433.137939
 11
191.963745
 21
433.137939
  0
LINE
  8
0
  6
CONTINUOUS
 10
76.463753
 20
441.354675
 11
192.463745
 21
441.354675
  0
LINE
  8
0
  6
CONTINUOUS
 10
77.463753
 20
445.314667
 11
191.463745
 21
445.314667
  0
LINE
  8
0
  6
CONTINUOUS
 10
76.463753
 20
450.705933
 11
192.463745
 21
450.705933
  0
LINE
  8
0
  6
CONTINUOUS
 10
77.463753
 20
454.136444
 11
191.463745
 21
454.136444
  0
LINE
  8
0
  6
CONTINUOUS
 10
76.463753
 20
457.617676
 11
192.463745
 21
457.617676
  0
LINE
  8
0
  6
CONTINUOUS
 10
77.463753
 20
459.144928
 11
191.463745
 21
459.144928
  0
LINE
  8
0
  6
CONTINUOUS
 10
76.463753
 20
462.872192
 11
192.463745
 21
462.872192
  0
LINE
  8
0
  6
CONTINUOUS
 10
76.463753
 20
466.633423
 11
192.463745
 21
466.633423
  0
LINE
  8
0
  6
CONTINUOUS
 10
76.463753
 20
469.178436
 11
192.463745
 21
469.178436
  0
LINE
  8
0
  6
CONTINUOUS
 10
76.463753
 20
470.655670
 11
192.463745
 21
470.655670
  0
LINE
  8
0
  6
CONTINUOUS
 10
76.963753
 20
381.137939
 11
191.963745
 21
381.137939
  0
LINE
  8
0
  6
CONTINUOUS
 10
76.463753
 20
372.921173
 11
192.463745
 21
372.921173
  0
LINE
  8
0
  6
CONTINUOUS
 10
76.463753
 20
368.961426
 11
191.463745
 21
368.961426
  0
LINE
  8
0
  6
CONTINUOUS
 10
76.463753
 20
351.403931
 11
192.463745
 21
351.403931
  0
LINE
  8
0
  6
CONTINUOUS
 10
143.463745
 20
347.642426
 11
192.463745
 21
347.642426
  0
LINE
  8
0
  6
CONTINUOUS
 10
143.463745
 20
345.097443
 11
192.463745
 21
345.097443
  0
LINE
  8
0
  6
CONTINUOUS
 10
143.963745
 20
343.620178
 11
192.463745
 21
343.620178
  0
LINE
  8
0
  6
CONTINUOUS
 10
77.463753
 20
345.137939
 11
142.463745
 21
345.137939
  0
LINE
  8
0
  6
CONTINUOUS
 10
143.963745
 20
343.137939
 11
200.463745
 21
343.137939
  0
LINE
  8
0
  6
CONTINUOUS
 10
143.463745
 20
343.637939
 11
143.463745
 21
350.403687
  0
ARC
  8
0
  6
CONTINUOUS
 10
143.963745
 20
343.637939
 40
0.500000
 50
180.000000
 51
270.000000
  0
ARC
  8
0
  6
CONTINUOUS
 10
143.963745
 20
344.120178
 40
0.500000
 50
180.000000
 51
270.000000
  0
ARC
  8
0
  6
CONTINUOUS
 10
142.463745
 20
346.137939
 40
1.000000
 50
-90.000000
 51
0.000000
  0
ARC
  8
0
  6
CONTINUOUS
 10
77.463753
 20
346.137939
 40
1.000000
 50
180.000000
 51
270.000000
  0
LINE
  8
0
  6
CONTINUOUS
 10
76.463753
 20
380.637939
 11
76.463753
 21
343.137939
  0
LINE
  8
0
  6
CONTINUOUS
 10
192.463745
 20
380.637939
 11
192.463745
 21
343.137939
  0
ARC
  8
0
  6
CONTINUOUS
 10
191.963745
 20
380.637939
 40
0.500000
 50
0.000000
 51
90.000000
  0
ARC
  8
0
  6
CONTINUOUS
 10
191.963745
 20
433.637939
 40
0.500000
 50
-90.000000
 51
0.000000
  0
ARC
  8
0
  6
CONTINUOUS
 10
76.963753
 20
433.637939
 40
0.500000
 50
180.000000
 51
270.000000
  0
ARC
  8
0
  6
CONTINUOUS
 10
76.963753
 20
380.637939
 40
0.500000
 50
90.000000
 51
180.000000
  0
ARC
  8
0
  6
CONTINUOUS
 10
144.463745
 20
350.403687
 40
1.000000
 50
90.000000
 51
180.000000
  0
LINE
  8
0
  6
CONTINUOUS
 10
76.463753
 20
363.569916
 11
192.463745
 21
363.569916
  0
LINE
  8
0
  6
CONTINUOUS
 10
76.463753
 20
360.139679
 11
191.463745
 21
360.139679
  0
LINE
  8
0
  6
CONTINUOUS
 10
76.463753
 20
355.130920
 11
191.463745
 21
355.130920
  0
LINE
  8
0
  6
CONTINUOUS
 10
76.463753
 20
356.658173
 11
192.463745
 21
356.658173
  0
LINE
  8
0
  6
CONTINUOUS
 10
76.463730
 20
46.580353
 11
76.463730
 21
44.680874
  0
LINE
  8
0
  6
CONTINUOUS
 10
76.463730
 20
55.661877
 11
76.463730
 21
51.580353
  0
LINE
  8
0
  6
CONTINUOUS
 10
76.463730
 20
63.161877
 11
76.463730
 21
57.661877
  0
LINE
  8
0
  6
CONTINUOUS
 10
76.463730
 20
68.161873
 11
76.463730
 21
65.161873
  0
LINE
  8
0
  6
CONTINUOUS
 10
70.526253
 20
330.716187
 11
69.463753
 21
290.637939
  0
LINE
  8
0
  6
CONTINUOUS
 10
138.400757
 20
330.716187
 11
139.463745
 21
290.637939
  0
LINE
  8
0
  6
CONTINUOUS
 10
135.415253
 20
333.637939
 11
117.775002
 21
333.637939
  0
ARC
  8
0
  6
CONTINUOUS
 10
73.512001
 20
330.637939
 40
3.000000
 50
90.000000
 51
178.500275
  0
ARC
  8
0
  6
CONTINUOUS
 10
135.415253
 20
330.637939
 40
3.000000
 50
1.499900
 51
90.000000
  0
LINE
  8
0
  6
CONTINUOUS
 10
73.512001
 20
333.637939
 11
91.152496
 21
333.637939
  0
ARC
  8
0
  6
CONTINUOUS
 10
131.686996
 20
335.637939
 40
2.000000
 50
-178.500504
 51
-90.000000
  0
ARC
  8
0
  6
CONTINUOUS
 10
77.240250
 20
335.637939
 40
2.000000
 50
-90.000000
 51
-1.500400
  0
ARC
  8
0
  6
CONTINUOUS
 10
104.463753
 20
401.137939
 40
68.800003
 50
-101.155800
 51
-78.844200
  0
LINE
  8
0
  6
CONTINUOUS
 10
71.963753
 20
284.637939
 11
136.963745
 21
284.637939
  0
LINE
  8
0
  6
CONTINUOUS
 10
139.463745
 20
287.137939
 11
139.463745
 21
289.637939
  0
LINE
  8
0
  6
CONTINUOUS
 10
69.463753
 20
287.137939
 11
69.463753
 21
289.637939
  0
LINE
  8
0
  6
CONTINUOUS
 10
139.463745
 20
289.637939
 11
69.463753
 21
289.637939
  0
LINE
  8
0
  6
CONTINUOUS
 10
139.463745
 20
290.637939
 11
69.463753
 21
290.637939
  0
LINE
  8
0
  6
CONTINUOUS
 10
139.463745
 20
289.637939
 11
139.463745
 21
290.637939
  0
LINE
  8
0
  6
CONTINUOUS
 10
69.463753
 20
289.637939
 11
69.463753
 21
290.637939
  0
LINE
  8
0
  6
CENTER
 10
74.463753
 20
306.637939
 11
36.808659
 21
306.637939
  0
LINE
  8
0
  6
CONTINUOUS
 10
130.950745
 20
287.637939
 11
138.463745
 21
287.637939
  0
LINE
  8
0
  6
CONTINUOUS
 10
77.976753
 20
287.637939
 11
70.463753
 21
287.637939
  0
LINE
  8
0
  6
CONTINUOUS
 10
130.451248
 20
287.151184
 11
130.410751
 21
285.611694
  0
ARC
  8
0
  6
CONTINUOUS
 10
130.950745
 20
287.137939
 40
0.500000
 50
90.000000
 51
178.500000
  0
ARC
  8
0
  6
CONTINUOUS
 10
129.410995
 20
285.637939
 40
1.000000
 50
-90.000000
 51
-1.499800
  0
ARC
  8
0
  6
CONTINUOUS
 10
138.463745
 20
288.637939
 40
1.000000
 50
-90.000000
 51
0.000000
  0
ARC
  8
0
  6
CONTINUOUS
 10
136.963745
 20
287.137939
 40
2.500000
 50
-90.000000
 51
0.000000
  0
LINE
  8
0
  6
CONTINUOUS
 10
78.476501
 20
287.151184
 11
78.516998
 21
285.611694
  0
ARC
  8
0
  6
CONTINUOUS
 10
79.516502
 20
285.637939
 40
1.000000
 50
-178.499603
 51
-90.000000
  0
ARC
  8
0
  6
CONTINUOUS
 10
77.976753
 20
287.137939
 40
0.500000
 50
1.500200
 51
90.000000
  0
ARC
  8
0
  6
CONTINUOUS
 10
70.463753
 20
288.637939
 40
1.000000
 50
180.000000
 51
270.000000
  0
ARC
  8
0
  6
CONTINUOUS
 10
71.963753
 20
287.137939
 40
2.500000
 50
180.000000
 51
270.000000
  0
ARC
  8
0
  6
CONTINUOUS
 10
134.463745
 20
287.637939
 40
3.000000
 50
-180.000000
 51
0.000000
  0
LINE
  8
0
  6
CONTINUOUS
 10
137.421753
 20
287.137939
 11
131.505753
 21
287.137939
  0
LINE
  8
0
  6
CONTINUOUS
 10
134.463745
 20
285.137939
 11
134.182495
 21
284.651184
  0
LINE
  8
0
  6
CONTINUOUS
 10
134.463745
 20
285.137939
 11
134.744751
 21
284.651184
  0
ARC
  8
0
  6
CONTINUOUS
 10
74.463753
 20
287.637939
 40
3.000000
 50
-180.000000
 51
0.000000
  0
LINE
  8
0
  6
CONTINUOUS
 10
77.421753
 20
287.137939
 11
71.505753
 21
287.137939
  0
LINE
  8
0
  6
CONTINUOUS
 10
74.463753
 20
285.137939
 11
74.182747
 21
284.651184
  0
LINE
  8
0
  6
CONTINUOUS
 10
74.463753
 20
285.137939
 11
74.745003
 21
284.651184
  0
LINE
  8
0
  6
CONTINUOUS
 10
41.463749
 20
321.138184
 11
41.463749
 21
292.137939
  0
LINE
  8
0
  6
CONTINUOUS
 10
49.463749
 20
321.138184
 11
49.463749
 21
292.137939
  0
LINE
  8
0
  6
CONTINUOUS
 10
41.463749
 20
321.138184
 11
49.463749
 21
321.138184
  0
LINE
  8
0
  6
CONTINUOUS
 10
41.463749
 20
292.137939
 11
49.463749
 21
292.137939
  0
LINE
  8
0
  6
CONTINUOUS
 10
58.463749
 20
319.638184
 11
58.463749
 21
293.637939
  0
LINE
  8
0
  6
CONTINUOUS
 10
49.463749
 20
319.638184
 11
58.463749
 21
319.638184
  0
LINE
  8
0
  6
CONTINUOUS
 10
49.463749
 20
293.637939
 11
58.463749
 21
293.637939
  0
LINE
  8
0
  6
CONTINUOUS
 10
58.463749
 20
318.138184
 11
63.463749
 21
318.138184
  0
LINE
  8
0
  6
CONTINUOUS
 10
58.463749
 20
295.137939
 11
63.463749
 21
295.137939
  0
LINE
  8
0
  6
CONTINUOUS
 10
63.463749
 20
320.138184
 11
63.463749
 21
293.137939
  0
LINE
  8
0
  6
CONTINUOUS
 10
67.963753
 20
321.138184
 11
67.963753
 21
292.137939
  0
LINE
  8
0
  6
CONTINUOUS
 10
63.463749
 20
320.138184
 11
67.963753
 21
320.138184
  0
LINE
  8
0
  6
CONTINUOUS
 10
63.463749
 20
293.137939
 11
67.963753
 21
293.137939
  0
LINE
  8
0
  6
CONTINUOUS
 10
67.963753
 20
321.138184
 11
70.272247
 21
321.138184
  0
LINE
  8
0
  6
CONTINUOUS
 10
67.963753
 20
292.137939
 11
69.463753
 21
292.137939
  0
LINE
  8
0
  6
CONTINUOUS
 10
41.463749
 20
314.638184
 11
49.463749
 21
314.638184
  0
LINE
  8
0
  6
CONTINUOUS
 10
41.463749
 20
298.637939
 11
49.463749
 21
298.637939
  0
LINE
  8
0
  6
CONTINUOUS
 10
58.463749
 20
316.638184
 11
63.463749
 21
316.638184
  0
LINE
  8
0
  6
CONTINUOUS
 10
58.463749
 20
296.637939
 11
63.463749
 21
296.637939
  0
LINE
  8
0
  6
CENTER
 10
104.463753
 20
281.317688
 11
104.463753
 21
348.248688
  0
LINE
  8
0
  6
CONTINUOUS
 10
79.438248
 20
342.664185
 11
79.252876
 21
335.585205
  0
LINE
  8
0
  6
CONTINUOUS
 10
128.489502
 20
343.637939
 11
80.437752
 21
343.637939
  0
ARC
  8
0
  6
CONTINUOUS
 10
80.437752
 20
342.637939
 40
1.000000
 50
90.000000
 51
178.499405
  0
LINE
  8
0
  6
CONTINUOUS
 10
81.463753
 20
343.637939
 11
81.463753
 21
345.137939
  0
LINE
  8
0
  6
CONTINUOUS
 10
127.463753
 20
343.637939
 11
127.463753
 21
345.137939
  0
ARC
  8
0
  6
CONTINUOUS
 10
128.489502
 20
342.637939
 40
1.000000
 50
1.499300
 51
90.000000
  0
LINE
  8
0
  6
CONTINUOUS
 10
129.489243
 20
342.664185
 11
129.674622
 21
335.585266
  0
LINE
  8
0
  6
CONTINUOUS
 10
141.463715
 20
130.161880
 11
139.463806
 21
130.161880
  0
LINE
  8
0
  6
CONTINUOUS
 10
141.463745
 20
76.161873
 11
139.463806
 21
76.161873
  0
LINE
  8
0
  6
CONTINUOUS
 10
143.463745
 20
78.161873
 11
143.463730
 21
128.161880
  0
ARC
  8
0
  6
CONTINUOUS
 10
141.463730
 20
128.161880
 40
2.000000
 50
0.000000
 51
90.000000
  0
ARC
  8
0
  6
CONTINUOUS
 10
141.463745
 20
78.161873
 40
2.000000
 50
-90.000000
 51
0.000000
  0
LINE
  8
0
  6
CONTINUOUS
 10
71.963760
 20
138.161880
 11
136.963699
 21
138.161880
  0
LINE
  8
0
  6
CONTINUOUS
 10
136.963806
 20
68.161873
 11
71.963753
 21
68.161873
  0
LINE
  8
0
  6
CONTINUOUS
 10
69.463753
 20
70.661873
 11
69.463753
 21
135.661880
  0
LINE
  8
0
  6
CONTINUOUS
 10
139.463806
 20
70.661865
 11
139.463806
 21
135.661880
  0
ARC
  8
0
  6
CONTINUOUS
 10
136.963806
 20
135.661880
 40
2.500000
 50
0.000000
 51
90.000000
  0
ARC
  8
0
  6
CONTINUOUS
 10
71.963783
 20
135.661880
 40
2.500000
 50
90.000000
 51
180.000000
  0
ARC
  8
0
  6
CONTINUOUS
 10
71.963760
 20
70.661873
 40
2.500000
 50
180.000000
 51
270.000000
  0
ARC
  8
0
  6
CONTINUOUS
 10
136.963806
 20
70.661865
 40
2.500000
 50
-90.000000
 51
0.000000
  0
ARC
  8
0
  6
CONTINUOUS
 10
74.463760
 20
133.161880
 40
4.000000
 50
-90.000000
 51
0.000000
  0
ARC
  8
0
  6
CONTINUOUS
 10
134.463806
 20
133.161880
 40
4.000000
 50
180.000000
 51
270.000000
  0
ARC
  8
0
  6
CONTINUOUS
 10
134.463806
 20
73.161873
 40
4.000000
 50
90.000000
 51
180.000000
  0
ARC
  8
0
  6
CONTINUOUS
 10
74.463760
 20
73.161873
 40
4.000000
 50
0.000000
 51
90.000000
  0
LINE
  8
0
  6
CONTINUOUS
 10
134.463806
 20
129.161880
 11
136.963806
 21
129.161880
  0
LINE
  8
0
  6
CONTINUOUS
 10
74.463753
 20
129.161880
 11
71.963753
 21
129.161880
  0
LINE
  8
0
  6
CONTINUOUS
 10
74.463753
 20
77.161873
 11
71.963783
 21
77.161873
  0
LINE
  8
0
  6
CONTINUOUS
 10
134.463806
 20
77.161873
 11
136.963806
 21
77.161873
  0
LINE
  8
0
  6
CONTINUOUS
 10
130.463806
 20
133.161880
 11
130.463806
 21
135.661880
  0
LINE
  8
0
  6
CONTINUOUS
 10
78.463760
 20
133.161880
 11
78.463760
 21
135.661880
  0
LINE
  8
0
  6
CONTINUOUS
 10
78.463760
 20
73.161873
 11
78.463760
 21
70.661865
  0
LINE
  8
0
  6
CONTINUOUS
 10
130.463806
 20
73.161858
 11
130.463806
 21
70.661865
  0
ARC
  8
0
  6
CONTINUOUS
 10
71.963760
 20
126.661873
 40
2.500000
 50
90.000000
 51
180.000000
  0
ARC
  8
0
  6
CONTINUOUS
 10
80.963783
 20
135.661880
 40
2.500000
 50
90.000000
 51
180.000000
  0
ARC
  8
0
  6
CONTINUOUS
 10
127.963799
 20
135.661880
 40
2.500000
 50
0.000000
 51
90.000000
  0
ARC
  8
0
  6
CONTINUOUS
 10
136.963806
 20
126.661873
 40
2.500000
 50
0.000000
 51
90.000000
  0
ARC
  8
0
  6
CONTINUOUS
 10
71.963760
 20
79.661873
 40
2.500000
 50
180.000000
 51
270.000000
  0
ARC
  8
0
  6
CONTINUOUS
 10
80.963760
 20
70.661873
 40
2.500000
 50
180.000000
 51
270.000000
  0
ARC
  8
0
  6
CONTINUOUS
 10
136.963806
 20
79.661865
 40
2.500000
 50
-90.000000
 51
0.000000
  0
ARC
  8
0
  6
CONTINUOUS
 10
127.963799
 20
70.661865
 40
2.500000
 50
-90.000000
 51
0.000000
  0
LINE
  8
0
  6
CONTINUOUS
 10
41.463799
 20
88.661728
 11
41.463799
 21
117.661827
  0
LINE
  8
0
  6
CONTINUOUS
 10
49.463799
 20
88.661728
 11
49.463799
 21
117.661827
  0
LINE
  8
0
  6
CONTINUOUS
 10
41.463799
 20
88.661728
 11
49.463799
 21
88.661728
  0
LINE
  8
0
  6
CONTINUOUS
 10
41.463799
 20
117.661827
 11
49.463799
 21
117.661827
  0
LINE
  8
0
  6
CONTINUOUS
 10
58.463799
 20
90.161728
 11
58.463799
 21
116.161827
  0
LINE
  8
0
  6
CONTINUOUS
 10
49.463799
 20
90.161728
 11
58.463799
 21
90.161728
  0
LINE
  8
0
  6
CONTINUOUS
 10
49.463799
 20
116.161827
 11
58.463799
 21
116.161827
  0
LINE
  8
0
  6
CONTINUOUS
 10
58.463799
 20
91.661728
 11
63.463799
 21
91.661728
  0
LINE
  8
0
  6
CONTINUOUS
 10
58.463799
 20
114.661827
 11
63.463799
 21
114.661827
  0
LINE
  8
0
  6
CONTINUOUS
 10
63.463799
 20
89.661728
 11
63.463799
 21
116.661827
  0
LINE
  8
0
  6
CONTINUOUS
 10
67.963799
 20
88.661728
 11
67.963799
 21
117.661827
  0
LINE
  8
0
  6
CONTINUOUS
 10
63.463799
 20
89.661728
 11
67.963799
 21
89.661728
  0
LINE
  8
0
  6
CONTINUOUS
 10
63.463799
 20
116.661827
 11
67.963799
 21
116.661827
  0
LINE
  8
0
  6
CONTINUOUS
 10
67.963799
 20
88.661728
 11
69.503098
 21
88.661728
  0
LINE
  8
0
  6
CONTINUOUS
 10
67.963799
 20
117.661827
 11
69.463753
 21
117.661827
  0
LINE
  8
0
  6
CONTINUOUS
 10
41.463799
 20
95.161728
 11
49.463799
 21
95.161728
  0
LINE
  8
0
  6
CONTINUOUS
 10
41.463799
 20
111.161827
 11
49.463799
 21
111.161827
  0
LINE
  8
0
  6
CENTER
 10
104.463753
 20
58.900002
 11
104.463753
 21
149.639282
  0
LINE
  8
0
  6
CONTINUOUS
 10
192.463745
 20
135.361877
 11
139.463806
 21
135.361877
  0
LINE
  8
0
  6
CONTINUOUS
 10
192.463745
 20
133.361877
 11
139.463806
 21
133.361877
  0
LINE
  8
0
  6
CONTINUOUS
 10
192.463745
 20
127.561874
 11
143.463730
 21
127.561874
  0
LINE
  8
0
  6
CONTINUOUS
 10
192.463730
 20
125.561874
 11
143.463730
 21
125.561874
  0
LINE
  8
0
  6
CONTINUOUS
 10
192.463730
 20
119.761871
 11
143.463730
 21
119.761871
  0
LINE
  8
0
  6
CONTINUOUS
 10
192.463730
 20
117.761871
 11
143.463730
 21
117.761871
  0
LINE
  8
0
  6
CONTINUOUS
 10
192.463730
 20
111.961876
 11
143.463730
 21
111.961876
  0
LINE
  8
0
  6
CONTINUOUS
 10
192.463730
 20
109.961876
 11
143.463730
 21
109.961876
  0
LINE
  8
0
  6
CONTINUOUS
 10
192.463730
 20
104.161873
 11
143.463745
 21
104.161873
  0
LINE
  8
0
  6
CONTINUOUS
 10
192.463745
 20
102.161873
 11
143.463745
 21
102.161873
  0
LINE
  8
0
  6
CONTINUOUS
 10
192.463745
 20
96.361877
 11
143.463745
 21
96.361877
  0
LINE
  8
0
  6
CONTINUOUS
 10
192.463745
 20
94.361877
 11
143.463745
 21
94.361877
  0
LINE
  8
0
  6
CONTINUOUS
 10
192.463745
 20
88.561874
 11
143.463745
 21
88.561874
  0
LINE
  8
0
  6
CONTINUOUS
 10
192.463745
 20
86.561874
 11
143.463745
 21
86.561874
  0
LINE
  8
0
  6
CONTINUOUS
 10
192.463745
 20
80.761871
 11
143.463745
 21
80.761871
  0
LINE
  8
0
  6
CONTINUOUS
 10
192.463745
 20
78.761871
 11
143.463745
 21
78.761871
  0
LINE
  8
0
  6
CONTINUOUS
 10
504.505463
 20
76.128136
 11
507.580353
 21
76.020752
  0
LINE
  8
0
  6
CONTINUOUS
 10
503.540466
 20
77.127556
 11
503.540436
 21
87.287437
  0
ARC
  8
0
  6
CONTINUOUS
 10
504.540466
 20
77.127579
 40
1.000000
 50
180.000000
 51
268.000214
  0
LINE
  8
0
  6
CONTINUOUS
 10
489.118561
 20
69.224319
 11
449.040375
 21
68.161880
  0
LINE
  8
0
  6
CONTINUOUS
 10
502.040375
 20
79.135979
 11
502.040375
 21
95.177368
  0
LINE
  8
0
  6
CONTINUOUS
 10
502.040375
 20
127.187675
 11
502.040375
 21
111.145599
  0
LINE
  8
0
  6
CONTINUOUS
 10
492.040375
 20
132.161880
 11
492.040375
 21
116.473152
  0
ARC
  8
0
  6
CONTINUOUS
 10
489.040375
 20
72.209976
 40
3.000000
 50
-88.500267
 51
0.000000
  0
LINE
  8
0
  6
CONTINUOUS
 10
496.894592
 20
78.027077
 11
493.988037
 21
77.950974
  0
LINE
  8
0
  6
CONTINUOUS
 10
496.894592
 20
128.296570
 11
493.988037
 21
128.372681
  0
ARC
  8
0
  6
CONTINUOUS
 10
501.040375
 20
127.187675
 40
1.000000
 50
0.000000
 51
88.500702
  0
ARC
  8
0
  6
CONTINUOUS
 10
501.040375
 20
79.135979
 40
1.000000
 50
-88.499397
 51
0.000000
  0
LINE
  8
0
  6
CONTINUOUS
 10
492.040375
 20
72.210075
 11
492.040375
 21
89.850601
  0
LINE
  8
0
  6
CONTINUOUS
 10
501.066589
 20
128.187378
 11
496.894592
 21
128.296570
  0
LINE
  8
0
  6
CONTINUOUS
 10
501.066589
 20
78.136375
 11
496.894592
 21
78.027077
  0
ARC
  8
0
  6
CONTINUOUS
 10
559.540405
 20
103.161880
 40
68.800003
 50
168.844193
 51
191.155807
  0
LINE
  8
0
  6
CONTINUOUS
 10
443.040375
 20
70.661880
 11
443.040375
 21
135.661880
  0
LINE
  8
0
  6
CONTINUOUS
 10
445.540375
 20
68.161880
 11
448.040375
 21
68.161880
  0
LINE
  8
0
  6
CONTINUOUS
 10
448.040375
 20
68.161880
 11
449.040375
 21
68.161880
  0
LINE
  8
0
  6
CONTINUOUS
 10
446.040375
 20
129.648972
 11
446.040375
 21
132.161880
  0
LINE
  8
0
  6
CONTINUOUS
 10
446.040375
 20
76.674820
 11
446.040375
 21
69.161880
  0
LINE
  8
0
  6
CONTINUOUS
 10
445.553497
 20
129.149170
 11
444.014191
 21
129.108871
  0
ARC
  8
0
  6
CONTINUOUS
 10
445.540375
 20
129.648972
 40
0.500000
 50
-88.500000
 51
0.000000
  0
ARC
  8
0
  6
CONTINUOUS
 10
444.040375
 20
128.109177
 40
1.000000
 50
91.499802
 51
180.000000
  0
ARC
  8
0
  6
CONTINUOUS
 10
445.540375
 20
135.661880
 40
2.500000
 50
90.000000
 51
180.000000
  0
LINE
  8
0
  6
CONTINUOUS
 10
445.553497
 20
77.174698
 11
444.014191
 21
77.214973
  0
ARC
  8
0
  6
CONTINUOUS
 10
444.040375
 20
78.214607
 40
1.000000
 50
180.000000
 51
268.499603
  0
ARC
  8
0
  6
CONTINUOUS
 10
445.540375
 20
76.674820
 40
0.500000
 50
0.000000
 51
88.499802
  0
ARC
  8
0
  6
CONTINUOUS
 10
447.040375
 20
69.161880
 40
1.000000
 50
180.000000
 51
270.000000
  0
ARC
  8
0
  6
CONTINUOUS
 10
445.540375
 20
70.661880
 40
2.500000
 50
180.000000
 51
270.000000
  0
ARC
  8
0
  6
CONTINUOUS
 10
446.040375
 20
133.161880
 40
3.000000
 50
99.592522
 51
270.000000
  0
LINE
  8
0
  6
CONTINUOUS
 10
445.540375
 20
136.119873
 11
445.540375
 21
130.203873
  0
LINE
  8
0
  6
CONTINUOUS
 10
443.540375
 20
133.161880
 11
443.053589
 21
132.880768
  0
LINE
  8
0
  6
CONTINUOUS
 10
443.540375
 20
133.161880
 11
443.053589
 21
133.442978
  0
ARC
  8
0
  6
CONTINUOUS
 10
446.040375
 20
73.161880
 40
3.000000
 50
90.000000
 51
270.000000
  0
LINE
  8
0
  6
CONTINUOUS
 10
445.540375
 20
76.119888
 11
445.540375
 21
70.203865
  0
LINE
  8
0
  6
CONTINUOUS
 10
443.540375
 20
73.161880
 11
443.053589
 21
72.880806
  0
LINE
  8
0
  6
CONTINUOUS
 10
443.540375
 20
73.161880
 11
443.053589
 21
73.443008
  0
LINE
  8
0
  6
CONTINUOUS
 10
502.040375
 20
126.161880
 11
503.540375
 21
126.161880
  0
LINE
  8
0
  6
CONTINUOUS
 10
502.040375
 20
80.161880
 11
503.540375
 21
80.161880
  0
ARC
  8
0
  6
CONTINUOUS
 10
494.040375
 20
75.951653
 40
2.000000
 50
91.499916
 51
180.000000
  0
ARC
  8
0
  6
CONTINUOUS
 10
494.040375
 20
130.371994
 40
2.000000
 50
180.000000
 51
268.500031
  0
LINE
  8
0
  6
CENTER
 10
465.040375
 20
145.618881
 11
465.040375
 21
56.233749
  0
LINE
  8
0
  6
CONTINUOUS
 10
448.040375
 20
132.161880
 11
448.040375
 21
68.161880
  0
LINE
  8
0
  6
CONTINUOUS
 10
449.040375
 20
132.161880
 11
449.040375
 21
68.161880
  0
LINE
  8
0
  6
CONTINUOUS
 10
68.463753
 20
471.137939
 11
68.463753
 21
343.137939
  0
ARC
  8
0
  6
CONTINUOUS
 10
360.463440
 20
407.140961
 40
360.000000
 50
180.000000
 51
188.618607
  0
ARC
  8
0
  6
CONTINUOUS
 10
17.382151
 20
355.140930
 40
13.000000
 50
-171.381805
 51
-90.000000
  0
LINE
  8
0
  6
CONTINUOUS
 10
29.764950
 20
336.639526
 11
66.463753
 21
336.637543
  0
LINE
  8
0
  6
CONTINUOUS
 10
17.382151
 20
342.140961
 11
26.816290
 21
342.140961
  0
LINE
  8
0
  6
CONTINUOUS
 10
66.463753
 20
477.638306
 11
66.463753
 21
336.637543
  0
ARC
  8
0
  6
CONTINUOUS
 10
366.263489
 20
407.139343
 40
345.000000
 50
-179.999771
 51
-168.412003
  0
ARC
  8
0
  6
CONTINUOUS
 10
26.616529
 20
341.140930
 40
1.000000
 50
10.996500
 51
90.000000
  0
ARC
  8
0
  6
CONTINUOUS
 10
29.765091
 20
338.139496
 40
1.500000
 50
191.587906
 51
270.000000
  0
LINE
  8
0
  6
CONTINUOUS
 10
29.764950
 20
477.636322
 11
66.463753
 21
477.638306
  0
ARC
  8
0
  6
CONTINUOUS
 10
366.263489
 20
407.136536
 40
345.000000
 50
168.412003
 51
179.999771
  0
ARC
  8
0
  6
CONTINUOUS
 10
360.463440
 20
407.134918
 40
360.000000
 50
171.381393
 51
180.000000
  0
ARC
  8
0
  6
CONTINUOUS
 10
17.382151
 20
459.134918
 40
13.000000
 50
90.000000
 51
171.381805
  0
LINE
  8
0
  6
CONTINUOUS
 10
17.382151
 20
472.134918
 11
26.816290
 21
472.134918
  0
ARC
  8
0
  6
CONTINUOUS
 10
26.616529
 20
473.134918
 40
1.000000
 50
270.000000
 51
349.003510
  0
ARC
  8
0
  6
CONTINUOUS
 10
29.765091
 20
476.136353
 40
1.500000
 50
90.000000
 51
168.412094
  0
ARC
  8
0
  6
CONTINUOUS
 10
360.463745
 20
103.161873
 40
360.000000
 50
171.381500
 51
188.618607
  0
LINE
  8
0
  6
CONTINUOUS
 10
66.463730
 20
173.661880
 11
66.463730
 21
116.661827
  0
LINE
  8
0
  6
CONTINUOUS
 10
23.024090
 20
173.661880
 11
66.463730
 21
173.661880
  0
LINE
  8
0
  6
CONTINUOUS
 10
17.382124
 20
168.161819
 11
22.285210
 21
168.161819
  0
LINE
  8
0
  6
CONTINUOUS
 10
17.382214
 20
38.161877
 11
22.285210
 21
38.161877
  0
ARC
  8
0
  6
CONTINUOUS
 10
-316.536255
 20
103.161873
 40
345.000000
 50
-11.486330
 51
11.486320
  0
ARC
  8
0
  6
CONTINUOUS
 10
17.382154
 20
155.161636
 40
13.000000
 50
90.000000
 51
171.381805
  0
ARC
  8
0
  6
CONTINUOUS
 10
23.024090
 20
172.161636
 40
1.500000
 50
90.000000
 51
191.486496
  0
ARC
  8
0
  6
CONTINUOUS
 10
17.382154
 20
51.161877
 40
13.000000
 50
188.618607
 51
270.000000
  0
ARC
  8
0
  6
CONTINUOUS
 10
23.024090
 20
34.161636
 40
1.500000
 50
168.513794
 51
199.461502
  0
LINE
  8
0
  6
CONTINUOUS
 10
66.463730
 20
33.661877
 11
21.609791
 21
33.661877
  0
LINE
  8
0
  6
CONTINUOUS
 10
66.463730
 20
89.661728
 11
66.463730
 21
33.661877
  0
LINE
  8
0
  6
CONTINUOUS
 10
68.463791
 20
88.661728
 11
68.463791
 21
51.580353
  0
LINE
  8
0
  6
CONTINUOUS
 10
68.463791
 20
167.161880
 11
68.463791
 21
117.661827
  0
LINE
  8
0
  6
CONTINUOUS
 10
76.213760
 20
133.561874
 11
76.213760
 21
132.761856
  0
LINE
  8
0
  6
CONTINUOUS
 10
74.063736
 20
134.911880
 11
74.863754
 21
134.911880
  0
LINE
  8
0
  6
CONTINUOUS
 10
74.063736
 20
131.411880
 11
74.863754
 21
131.411880
  0
LINE
  8
0
  6
CONTINUOUS
 10
72.713760
 20
133.561874
 11
72.713760
 21
132.761856
  0
CIRCLE
  8
0
  6
CONTINUOUS
 10
74.463760
 20
133.161880
 40
2.750000
  0
ARC
  8
0
  6
CONTINUOUS
 10
72.713760
 20
134.911880
 40
1.350000
 50
-90.000000
 51
0.000000
  0
ARC
  8
0
  6
CONTINUOUS
 10
72.713760
 20
131.411880
 40
1.350000
 50
0.000000
 51
90.000000
  0
ARC
  8
0
  6
CONTINUOUS
 10
76.213760
 20
134.911880
 40
1.350000
 50
180.000000
 51
270.000000
  0
ARC
  8
0
  6
CONTINUOUS
 10
76.213760
 20
131.411880
 40
1.350000
 50
90.000000
 51
180.000000
  0
LINE
  8
0
  6
CONTINUOUS
 10
136.213806
 20
133.561874
 11
136.213806
 21
132.761856
  0
LINE
  8
0
  6
CONTINUOUS
 10
134.063782
 20
134.911880
 11
134.863800
 21
134.911880
  0
LINE
  8
0
  6
CONTINUOUS
 10
134.063782
 20
131.411880
 11
134.863800
 21
131.411880
  0
LINE
  8
0
  6
CONTINUOUS
 10
132.713806
 20
133.561874
 11
132.713806
 21
132.761856
  0
CIRCLE
  8
0
  6
CONTINUOUS
 10
134.463806
 20
133.161880
 40
2.750000
  0
ARC
  8
0
  6
CONTINUOUS
 10
132.713806
 20
134.911880
 40
1.350000
 50
-90.000000
 51
0.000000
  0
ARC
  8
0
  6
CONTINUOUS
 10
132.713806
 20
131.411880
 40
1.350000
 50
0.000000
 51
90.000000
  0
ARC
  8
0
  6
CONTINUOUS
 10
136.213806
 20
134.911880
 40
1.350000
 50
180.000000
 51
270.000000
  0
ARC
  8
0
  6
CONTINUOUS
 10
136.213806
 20
131.411880
 40
1.350000
 50
90.000000
 51
180.000000
  0
LINE
  8
0
  6
CONTINUOUS
 10
136.213806
 20
73.561867
 11
136.213806
 21
72.761848
  0
LINE
  8
0
  6
CONTINUOUS
 10
134.063782
 20
74.911873
 11
134.863800
 21
74.911873
  0
LINE
  8
0
  6
CONTINUOUS
 10
134.063782
 20
71.411873
 11
134.863800
 21
71.411873
  0
LINE
  8
0
  6
CONTINUOUS
 10
132.713806
 20
73.561867
 11
132.713806
 21
72.761848
  0
CIRCLE
  8
0
  6
CONTINUOUS
 10
134.463806
 20
73.161873
 40
2.750000
  0
ARC
  8
0
  6
CONTINUOUS
 10
132.713806
 20
74.911873
 40
1.350000
 50
-90.000000
 51
0.000000
  0
ARC
  8
0
  6
CONTINUOUS
 10
132.713806
 20
71.411873
 40
1.350000
 50
0.000000
 51
90.000000
  0
ARC
  8
0
  6
CONTINUOUS
 10
136.213806
 20
74.911873
 40
1.350000
 50
180.000000
 51
270.000000
  0
ARC
  8
0
  6
CONTINUOUS
 10
136.213806
 20
71.411873
 40
1.350000
 50
90.000000
 51
180.000000
  0
LINE
  8
0
  6
CONTINUOUS
 10
76.213760
 20
73.561867
 11
76.213760
 21
72.761848
  0
LINE
  8
0
  6
CONTINUOUS
 10
74.063736
 20
74.911873
 11
74.863754
 21
74.911873
  0
LINE
  8
0
  6
CONTINUOUS
 10
74.063736
 20
71.411873
 11
74.863754
 21
71.411873
  0
LINE
  8
0
  6
CONTINUOUS
 10
72.713760
 20
73.561867
 11
72.713760
 21
72.761848
  0
CIRCLE
  8
0
  6
CONTINUOUS
 10
74.463760
 20
73.161873
 40
2.750000
  0
ARC
  8
0
  6
CONTINUOUS
 10
72.713760
 20
74.911873
 40
1.350000
 50
-90.000000
 51
0.000000
  0
ARC
  8
0
  6
CONTINUOUS
 10
72.713760
 20
71.411873
 40
1.350000
 50
0.000000
 51
90.000000
  0
ARC
  8
0
  6
CONTINUOUS
 10
76.213760
 20
74.911873
 40
1.350000
 50
180.000000
 51
270.000000
  0
ARC
  8
0
  6
CONTINUOUS
 10
76.213760
 20
71.411873
 40
1.350000
 50
90.000000
 51
180.000000
  0
LINE
  8
0
  6
CONTINUOUS
 10
106.963753
 20
61.621929
 11
106.963753
 21
68.161926
  0
LINE
  8
0
  6
CONTINUOUS
 10
101.963753
 20
61.580353
 11
101.963753
 21
68.161926
  0
ARC
  8
0
  6
CONTINUOUS
 10
91.963753
 20
61.580353
 40
10.000000
 50
-90.000000
 51
0.000000
  0
ARC
  8
0
  6
CONTINUOUS
 10
91.963753
 20
61.580353
 40
15.000000
 50
-90.000000
 51
0.158824
  0
LINE
  8
0
  6
CONTINUOUS
 10
91.963753
 20
51.580353
 11
66.463730
 21
51.580353
  0
LINE
  8
0
  6
CONTINUOUS
 10
91.963753
 20
46.580353
 11
66.463730
 21
46.580353
  0
LINE
  8
0
  6
CONTINUOUS
 10
68.463791
 20
46.580353
 11
68.463791
 21
39.161877
  0
LINE
  8
0
  6
CONTINUOUS
 10
101.164047
 20
57.661877
 11
76.463730
 21
57.661877
  0
LINE
  8
0
  6
CONTINUOUS
 10
100.024246
 20
55.661877
 11
76.463730
 21
55.661877
  0
LINE
  8
0
  6
CONTINUOUS
 10
101.963753
 20
63.161877
 11
76.463730
 21
63.161877
  0
LINE
  8
0
  6
CONTINUOUS
 10
101.963753
 20
65.161873
 11
76.463730
 21
65.161873
  0
LINE
  8
0
  6
CONTINUOUS
 10
493.040375
 20
77.683701
 11
493.040375
 21
67.580353
  0
LINE
  8
0
  6
CONTINUOUS
 10
498.040375
 20
78.057091
 11
498.040375
 21
67.580353
  0
ARC
  8
0
  6
CONTINUOUS
 10
514.040405
 20
67.580353
 40
16.000000
 50
180.000000
 51
270.000000
  0
ARC
  8
0
  6
CONTINUOUS
 10
514.040405
 20
67.580353
 40
21.000000
 50
180.000000
 51
270.000000
  0
LINE
  8
0
  6
CONTINUOUS
 10
514.040405
 20
51.580353
 11
520.540466
 21
51.580353
  0
LINE
  8
0
  6
CONTINUOUS
 10
514.040405
 20
46.580353
 11
520.540466
 21
46.580353
  0
TEXT
  8
0
 10
-13.000000
 20
-38.000000
 40
4.000000
 41
1.000000
  1
H2LB-32R-80~240-T040WZ
 50
0.000000
  0
ENDSEC
  0
EOF
