  0
SECTION
  2
HEADER
  9
$ACADVER
  1
AC1014
  9
$ACADMAINTVER
 70
     9
  9
$DWGCODEPAGE
  3
ANSI_932
  9
$INSBASE
 10
0.0
 20
0.0
 30
0.0
  9
$EXTMIN
 10
-22.490625
 20
-42.00000000000001
 30
0.0
  9
$EXTMAX
 10
777.968384
 20
611.751221
 30
0.0
  9
$LIMMIN
 10
0.0
 20
0.0
  9
$LIMMAX
 10
12.0
 20
9.0
  9
$ORTHOMODE
 70
     0
  9
$REGENMODE
 70
     1
  9
$FILLMODE
 70
     1
  9
$QTEXTMODE
 70
     0
  9
$MIRRTEXT
 70
     1
  9
$DRAGMODE
 70
     2
  9
$LTSCALE
 40
3.0
  9
$OSMODE
 70
    45
  9
$ATTMODE
 70
     1
  9
$TEXTSIZE
 40
3.0
  9
$TRACEWID
 40
0.05
  9
$TEXTSTYLE
  7
STANDARD
  9
$CLAYER
  8
1
  9
$CELTYPE
  6
CONTINUOUS
  9
$CECOLOR
 62
   256
  9
$CELTSCALE
 40
1.0
  9
$DELOBJ
 70
     1
  9
$DISPSILH
 70
     0
  9
$DIMSCALE
 40
1.0
  9
$DIMASZ
 40
0.18
  9
$DIMEXO
 40
0.0625
  9
$DIMDLI
 40
0.38
  9
$DIMRND
 40
0.0
  9
$DIMDLE
 40
0.0
  9
$DIMEXE
 40
0.18
  9
$DIMTP
 40
0.0
  9
$DIMTM
 40
0.0
  9
$DIMTXT
 40
0.18
  9
$DIMCEN
 40
0.09
  9
$DIMTSZ
 40
0.0
  9
$DIMTOL
 70
     0
  9
$DIMLIM
 70
     0
  9
$DIMTIH
 70
     1
  9
$DIMTOH
 70
     1
  9
$DIMSE1
 70
     0
  9
$DIMSE2
 70
     0
  9
$DIMTAD
 70
     0
  9
$DIMZIN
 70
     0
  9
$DIMBLK
  1

  9
$DIMASO
 70
     1
  9
$DIMSHO
 70
     1
  9
$DIMPOST
  1

  9
$DIMAPOST
  1

  9
$DIMALT
 70
     0
  9
$DIMALTD
 70
     2
  9
$DIMALTF
 40
25.4
  9
$DIMLFAC
 40
1.0
  9
$DIMTOFL
 70
     0
  9
$DIMTVP
 40
0.0
  9
$DIMTIX
 70
     0
  9
$DIMSOXD
 70
     0
  9
$DIMSAH
 70
     0
  9
$DIMBLK1
  1

  9
$DIMBLK2
  1

  9
$DIMSTYLE
  2
STANDARD
  9
$DIMCLRD
 70
     0
  9
$DIMCLRE
 70
     0
  9
$DIMCLRT
 70
     0
  9
$DIMTFAC
 40
1.0
  9
$DIMGAP
 40
0.09
  9
$DIMJUST
 70
     0
  9
$DIMSD1
 70
     0
  9
$DIMSD2
 70
     0
  9
$DIMTOLJ
 70
     1
  9
$DIMTZIN
 70
     0
  9
$DIMALTZ
 70
     0
  9
$DIMALTTZ
 70
     0
  9
$DIMFIT
 70
     3
  9
$DIMUPT
 70
     0
  9
$DIMUNIT
 70
     2
  9
$DIMDEC
 70
     4
  9
$DIMTDEC
 70
     4
  9
$DIMALTU
 70
     2
  9
$DIMALTTD
 70
     2
  9
$DIMTXSTY
  7
STANDARD
  9
$DIMAUNIT
 70
     0
  9
$LUNITS
 70
     2
  9
$LUPREC
 70
     4
  9
$SKETCHINC
 40
0.1
  9
$FILLETRAD
 40
0.0
  9
$AUNITS
 70
     0
  9
$AUPREC
 70
     0
  9
$MENU
  1
.
  9
$ELEVATION
 40
0.0
  9
$PELEVATION
 40
0.0
  9
$THICKNESS
 40
0.0
  9
$LIMCHECK
 70
     0
  9
$BLIPMODE
 70
     0
  9
$CHAMFERA
 40
0.0
  9
$CHAMFERB
 40
0.0
  9
$CHAMFERC
 40
0.0
  9
$CHAMFERD
 40
0.0
  9
$SKPOLY
 70
     0
  9
$TDCREATE
 40
2453348.386592511
  9
$TDUPDATE
 40
2453354.763496446
  9
$TDINDWG
 40
0.0019192361
  9
$TDUSRTIMER
 40
0.0019192361
  9
$USRTIMER
 70
     1
  9
$ANGBASE
 50
0.0
  9
$ANGDIR
 70
     0
  9
$PDMODE
 70
     0
  9
$PDSIZE
 40
0.0
  9
$PLINEWID
 40
0.0
  9
$COORDS
 70
     1
  9
$SPLFRAME
 70
     0
  9
$SPLINETYPE
 70
     6
  9
$SPLINESEGS
 70
     8
  9
$ATTDIA
 70
     0
  9
$ATTREQ
 70
     1
  9
$HANDLING
 70
 22529
  9
$HANDSEED
  5
37E
  9
$SURFTAB1
 70
     6
  9
$SURFTAB2
 70
     6
  9
$SURFTYPE
 70
     6
  9
$SURFU
 70
     6
  9
$SURFV
 70
     6
  9
$UCSNAME
  2

  9
$UCSORG
 10
0.0
 20
0.0
 30
0.0
  9
$UCSXDIR
 10
1.0
 20
0.0
 30
0.0
  9
$UCSYDIR
 10
0.0
 20
1.0
 30
0.0
  9
$PUCSNAME
  2

  9
$PUCSORG
 10
0.0
 20
0.0
 30
0.0
  9
$PUCSXDIR
 10
1.0
 20
0.0
 30
0.0
  9
$PUCSYDIR
 10
0.0
 20
1.0
 30
0.0
  9
$USERI1
 70
     0
  9
$USERI2
 70
     0
  9
$USERI3
 70
     0
  9
$USERI4
 70
     0
  9
$USERI5
 70
     0
  9
$USERR1
 40
0.0
  9
$USERR2
 40
0.0
  9
$USERR3
 40
0.0
  9
$USERR4
 40
0.0
  9
$USERR5
 40
0.0
  9
$WORLDVIEW
 70
     1
  9
$SHADEDGE
 70
     3
  9
$SHADEDIF
 70
    70
  9
$TILEMODE
 70
     1
  9
$MAXACTVP
 70
    64
  9
$PINSBASE
 10
0.0
 20
0.0
 30
0.0
  9
$PLIMCHECK
 70
     0
  9
$PEXTMIN
 10
1.000000000000000E+20
 20
1.000000000000000E+20
 30
1.000000000000000E+20
  9
$PEXTMAX
 10
-1.000000000000000E+20
 20
-1.000000000000000E+20
 30
-1.000000000000000E+20
  9
$PLIMMIN
 10
0.0
 20
0.0
  9
$PLIMMAX
 10
12.0
 20
9.0
  9
$UNITMODE
 70
     0
  9
$VISRETAIN
 70
     1
  9
$PLINEGEN
 70
     0
  9
$PSLTSCALE
 70
     1
  9
$TREEDEPTH
 70
  3020
  9
$PICKSTYLE
 70
     1
  9
$CMLSTYLE
  2
STANDARD
  9
$CMLJUST
 70
     0
  9
$CMLSCALE
 40
1.0
  9
$PROXYGRAPHICS
 70
     1
  9
$MEASUREMENT
 70
     0
  0
ENDSEC
  0
SECTION
  2
CLASSES
  0
CLASS
  1
ACDBDICTIONARYWDFLT
  2
AcDbDictionaryWithDefault
  3
AutoCAD 2000
 90
        0
280
     0
281
     0
  0
CLASS
  1
ACDBPLACEHOLDER
  2
AcDbPlaceHolder
  3
AutoCAD 2000
 90
        0
280
     0
281
     0
  0
CLASS
  1
LAYOUT
  2
AcDbLayout
  3
AutoCAD 2000
 90
        0
280
     0
281
     0
  0
CLASS
  1
DICTIONARYVAR
  2
AcDbDictionaryVar
  3
AutoCAD 2000
 90
        0
280
     0
281
     0
  0
CLASS
  1
LONG_TRANSACTION
  2
AcDbLongTransaction
  3
AutoCAD 2000
 90
        0
280
     0
281
     0
  0
CLASS
  1
LWPOLYLINE
  2
AcDbPolyline
  3
AutoCAD 2000
 90
        0
280
     0
281
     1
  0
CLASS
  1
HATCH
  2
AcDbHatch
  3
AutoCAD 2000
 90
        0
280
     0
281
     1
  0
CLASS
  1
XRECORD
  2
AcDbXrecord
  3
AutoCAD 2000
 90
        0
280
     0
281
     0
  0
ENDSEC
  0
SECTION
  2
TABLES
  0
TABLE
  2
VPORT
  5
8
330
0
100
AcDbSymbolTable
 70
     2
  0
VPORT
  5
359
330
8
100
AcDbSymbolTableRecord
100
AcDbViewportTableRecord
  2
*ACTIVE
 70
     0
 10
0.0
 20
0.0
 11
1.0
 21
1.0
 12
547.0584141942427
 22
284.6759926336106
 13
0.0
 23
0.0
 14
1.0
 24
1.0
 15
0.0
 25
0.0
 16
0.0
 26
0.0
 36
1.0
 17
0.0
 27
0.0
 37
0.0
 40
831.3918840201861
 41
1.976793248945147
 42
50.0
 43
0.0
 44
0.0
 50
0.0
 51
0.0
 71
     0
 72
   100
 73
     1
 74
     1
 75
     0
 76
     0
 77
     0
 78
     0
  0
ENDTAB
  0
TABLE
  2
LTYPE
  5
5
330
0
100
AcDbSymbolTable
 70
     3
  0
LTYPE
  5
13
330
5
100
AcDbSymbolTableRecord
100
AcDbLinetypeTableRecord
  2
BYBLOCK
 70
     0
  3

 72
    65
 73
     0
 40
0.0
  0
LTYPE
  5
14
330
5
100
AcDbSymbolTableRecord
100
AcDbLinetypeTableRecord
  2
BYLAYER
 70
     0
  3

 72
    65
 73
     0
 40
0.0
  0
LTYPE
  5
15
330
5
100
AcDbSymbolTableRecord
100
AcDbLinetypeTableRecord
  2
CONTINUOUS
 70
     0
  3
solid line
 72
    65
 73
     0
 40
0.0
  0
LTYPE
  5
23
330
5
100
AcDbSymbolTableRecord
100
AcDbLinetypeTableRecord
  2
DASHED
 70
     0
  3
__ __ __ __ __ __ __ __ __ __ __ __ __ __ __
 72
    65
 73
     2
 40
0.75
 49
0.5
 74
     0
 49
-0.25
 74
     0
  0
LTYPE
  5
24
330
5
100
AcDbSymbolTableRecord
100
AcDbLinetypeTableRecord
  2
CENTER
 70
     0
  3
____ _ ____ _ ____ _ ____ _ ____ _ ____ _ ____
 72
    65
 73
     4
 40
2.0
 49
1.25
 74
     0
 49
-0.25
 74
     0
 49
0.25
 74
     0
 49
-0.25
 74
     0
  0
ENDTAB
  0
TABLE
  2
LAYER
  5
2
330
0
100
AcDbSymbolTable
 70
     2
  0
LAYER
  5
10
330
2
100
AcDbSymbolTableRecord
100
AcDbLayerTableRecord
  2
0
 70
     0
 62
     7
  6
CONTINUOUS
  0
LAYER
  5
22
330
2
100
AcDbSymbolTableRecord
100
AcDbLayerTableRecord
  2
1
 70
     0
 62
     7
  6
CONTINUOUS
  0
ENDTAB
  0
TABLE
  2
STYLE
  5
3
330
0
100
AcDbSymbolTable
 70
     1
  0
STYLE
  5
11
330
3
100
AcDbSymbolTableRecord
100
AcDbTextStyleTableRecord
  2
STANDARD
 70
     0
 40
0.0
 41
1.0
 50
0.0
 71
     0
 42
3.0
  3
txt
  4
BIGFONT
  0
ENDTAB
  0
TABLE
  2
VIEW
  5
6
330
0
100
AcDbSymbolTable
 70
     0
  0
ENDTAB
  0
TABLE
  2
UCS
  5
7
330
0
100
AcDbSymbolTable
 70
     0
  0
ENDTAB
  0
TABLE
  2
APPID
  5
9
330
0
100
AcDbSymbolTable
 70
     1
  0
APPID
  5
12
330
9
100
AcDbSymbolTableRecord
100
AcDbRegAppTableRecord
  2
ACAD
 70
     0
  0
ENDTAB
  0
TABLE
  2
DIMSTYLE
  5
A
330
0
100
AcDbSymbolTable
 70
     1
  0
DIMSTYLE
105
297
330
A
100
AcDbSymbolTableRecord
100
AcDbDimStyleTableRecord
  2
STANDARD
 70
     0
  3

  4

  5

  6

  7

 40
1.0
 41
0.18
 42
0.0625
 43
0.38
 44
0.18
 45
0.0
 46
0.0
 47
0.0
 48
0.0
140
0.18
141
0.09
142
0.0
143
25.4
144
1.0
145
0.0
146
1.0
147
0.09
 71
     0
 72
     0
 73
     1
 74
     1
 75
     0
 76
     0
 77
     0
 78
     0
170
     0
171
     2
172
     0
173
     0
174
     0
175
     0
176
     0
177
     0
178
     0
270
     2
271
     4
272
     4
273
     2
274
     2
340
11
275
     0
280
     0
281
     0
282
     0
283
     1
284
     0
285
     0
286
     0
287
     3
288
     0
  0
ENDTAB
  0
TABLE
  2
BLOCK_RECORD
  5
1
330
0
100
AcDbSymbolTable
 70
     0
  0
BLOCK_RECORD
  5
1E
102
{ACAD_XDICTIONARY
360
37C
102
}
330
1
100
AcDbSymbolTableRecord
100
AcDbBlockTableRecord
  2
*MODEL_SPACE
  0
BLOCK_RECORD
  5
1A
102
{ACAD_XDICTIONARY
360
37A
102
}
330
1
100
AcDbSymbolTableRecord
100
AcDbBlockTableRecord
  2
*PAPER_SPACE
  0
ENDTAB
  0
ENDSEC
  0
SECTION
  2
BLOCKS
  0
BLOCK
  5
1F
330
1E
100
AcDbEntity
  8
0
100
AcDbBlockBegin
  2
*MODEL_SPACE
 70
     0
 10
0.0
 20
0.0
 30
0.0
  3
*MODEL_SPACE
  1

  0
ENDBLK
  5
20
330
1E
100
AcDbEntity
  8
0
100
AcDbBlockEnd
  0
BLOCK
  5
1B
330
1A
100
AcDbEntity
 67
     1
  8
0
100
AcDbBlockBegin
  2
*PAPER_SPACE
 70
     0
 10
0.0
 20
0.0
 30
0.0
  3
*PAPER_SPACE
  1

  0
ENDBLK
  5
1C
330
1A
100
AcDbEntity
 67
     1
  8
0
100
AcDbBlockEnd
  0
ENDSEC
  0
SECTION
  2
ENTITIES
  0
LINE
  5
29
330
1E
100
AcDbEntity
  8
0
  6
CONTINUOUS
100
AcDbLine
 10
405.1435239999999
 20
592.513855
 30
0.0
 11
336.275055
 21
592.513855
 31
0.0
  0
LINE
  5
2A
330
1E
100
AcDbEntity
  8
0
  6
CONTINUOUS
100
AcDbLine
 10
405.142914
 20
412.513824
 30
0.0
 11
359.274414
 21
412.5139159999999
 31
0.0
  0
LINE
  5
2B
330
1E
100
AcDbEntity
  8
0
  6
CENTER
100
AcDbLine
 10
336.274414
 20
348.125
 30
0.0
 11
336.274933
 21
611.751221
 31
0.0
  0
LINE
  5
2C
330
1E
100
AcDbEntity
  8
0
  6
CENTER
100
AcDbLine
 10
411.128235
 20
572.513855
 30
0.0
 11
382.760162
 21
572.513855
 31
0.0
  0
LINE
  5
2D
330
1E
100
AcDbEntity
  8
0
  6
CONTINUOUS
100
AcDbLine
 10
426.274719
 20
502.5138849999999
 30
0.0
 11
425.36673
 21
450.5138549999999
 31
0.0
  0
LINE
  5
2E
330
1E
100
AcDbEntity
  8
0
  6
CONTINUOUS
100
AcDbLine
 10
414.5975339999999
 20
419.2564089999999
 30
0.0
 11
425.36673
 21
450.5138549999999
 31
0.0
  0
ARC
  5
2F
330
1E
100
AcDbEntity
  8
0
  6
CONTINUOUS
100
AcDbCircle
 10
405.143127
 20
422.5138849999999
 30
0.0
 40
10.0
100
AcDbArc
 50
270.0
 51
340.9891
  0
ARC
  5
30
330
1E
100
AcDbEntity
  8
0
  6
CONTINUOUS
100
AcDbCircle
 10
396.2747189999999
 20
572.513855
 30
0.0
 40
7.5
100
AcDbArc
 50
313.925117
 51
212.226791
  0
LINE
  5
31
330
1E
100
AcDbEntity
  8
0
  6
CONTINUOUS
100
AcDbLine
 10
426.274719
 20
502.5138849999999
 30
0.0
 11
425.366913
 21
554.513855
 31
0.0
  0
LINE
  5
32
330
1E
100
AcDbEntity
  8
0
  6
CONTINUOUS
100
AcDbLine
 10
414.597931
 20
585.77124
 30
0.0
 11
425.366913
 21
554.513855
 31
0.0
  0
ARC
  5
33
330
1E
100
AcDbEntity
  8
0
  6
CONTINUOUS
100
AcDbCircle
 10
405.1435239999999
 20
582.513855
 30
0.0
 40
10.0
100
AcDbArc
 50
19.01089999999999
 51
90.0
  0
LINE
  5
34
330
1E
100
AcDbEntity
  8
0
  6
CONTINUOUS
100
AcDbLine
 10
246.2747189999999
 20
502.514069
 30
0.0
 11
247.1825259999999
 21
450.51413
 31
0.0
  0
LINE
  5
35
330
1E
100
AcDbEntity
  8
0
  6
CONTINUOUS
100
AcDbLine
 10
257.9515379999999
 20
419.256683
 30
0.0
 11
247.1825259999999
 21
450.51413
 31
0.0
  0
ARC
  5
36
330
1E
100
AcDbEntity
  8
0
  6
CONTINUOUS
100
AcDbCircle
 10
267.4061279999999
 20
422.5141299999999
 30
0.0
 40
10.0
100
AcDbArc
 50
199.010895
 51
270.0
  0
LINE
  5
37
330
1E
100
AcDbEntity
  8
0
  6
CONTINUOUS
100
AcDbLine
 10
246.2747189999999
 20
502.514069
 30
0.0
 11
247.131256
 21
551.56665
 31
0.0
  0
LINE
  5
38
330
1E
100
AcDbEntity
  8
0
  6
CONTINUOUS
100
AcDbLine
 10
257.9519349999999
 20
585.771423
 30
0.0
 11
247.529541
 21
555.520691
 31
0.0
  0
LINE
  5
39
330
1E
100
AcDbEntity
  8
0
  6
CONTINUOUS
100
AcDbLine
 10
235.312531
 20
573.514038
 30
0.0
 11
233.274521
 21
573.514038
 31
0.0
  0
LINE
  5
3A
330
1E
100
AcDbEntity
  8
0
  6
CONTINUOUS
100
AcDbLine
 10
233.2749179999999
 20
573.514038
 30
0.0
 11
233.274521
 21
431.5141299999999
 31
0.0
  0
LINE
  5
3B
330
1E
100
AcDbEntity
  8
0
  6
CONTINUOUS
100
AcDbLine
 10
244.384521
 20
559.702209
 30
0.0
 11
242.0739289999999
 21
568.3258059999999
 31
0.0
  0
ARC
  5
3C
330
1E
100
AcDbEntity
  8
0
  6
CONTINUOUS
100
AcDbCircle
 10
235.312531
 20
566.514038
 30
0.0
 40
7.0
100
AcDbArc
 50
14.9999
 51
90.0
  0
ARC
  5
3D
330
1E
100
AcDbEntity
  8
0
  6
CONTINUOUS
100
AcDbCircle
 10
251.146118
 20
561.514038
 30
0.0
 40
7.0
100
AcDbArc
 50
194.999695
 51
270.0
  0
LINE
  5
3E
330
1E
100
AcDbEntity
  8
0
  6
CONTINUOUS
100
AcDbLine
 10
235.3121189999999
 20
431.5141299999999
 30
0.0
 11
233.274323
 21
431.5141299999999
 31
0.0
  0
LINE
  5
3F
330
1E
100
AcDbEntity
  8
0
  6
CONTINUOUS
100
AcDbLine
 10
244.384323
 20
445.325958
 30
0.0
 11
242.0737299999999
 21
436.702362
 31
0.0
  0
ARC
  5
40
330
1E
100
AcDbEntity
  8
0
  6
CONTINUOUS
100
AcDbCircle
 10
235.3121189999999
 20
438.5141599999999
 30
0.0
 40
7.0
100
AcDbArc
 50
270.0
 51
345.0001
  0
ARC
  5
41
330
1E
100
AcDbEntity
  8
0
  6
CONTINUOUS
100
AcDbCircle
 10
251.14592
 20
443.5141299999999
 30
0.0
 40
7.0
100
AcDbArc
 50
121.109207
 51
165.000336
  0
ARC
  5
42
330
1E
100
AcDbEntity
  8
0
  6
CONTINUOUS
100
AcDbCircle
 10
267.4061279999999
 20
582.5144650000001
 30
0.0
 40
10.0
100
AcDbArc
 50
90.0
 51
160.9891049999999
  0
ARC
  5
43
330
1E
100
AcDbEntity
  8
0
  6
CONTINUOUS
100
AcDbCircle
 10
276.274536
 20
572.5145259999999
 30
0.0
 40
7.5
100
AcDbArc
 50
327.767059
 51
238.0763549999999
  0
LINE
  5
44
330
1E
100
AcDbEntity
  8
0
  6
CENTER
100
AcDbLine
 10
396.274445
 20
560.712219
 30
0.0
 11
396.274933
 21
584.5886230000001
 31
0.0
  0
LINE
  5
45
330
1E
100
AcDbEntity
  8
0
  6
CENTER
100
AcDbLine
 10
289.285126
 20
572.513916
 30
0.0
 11
263.7073669999999
 21
572.513916
 31
0.0
  0
LINE
  5
46
330
1E
100
AcDbEntity
  8
0
  6
CENTER
100
AcDbLine
 10
276.274719
 20
560.712219
 30
0.0
 11
276.274933
 21
584.588806
 31
0.0
  0
LINE
  5
47
330
1E
100
AcDbEntity
  8
0
  6
CONTINUOUS
100
AcDbLine
 10
422.418823
 20
554.5142819999999
 30
0.0
 11
250.1307979999999
 21
554.5142819999999
 31
0.0
  0
LINE
  5
48
330
1E
100
AcDbEntity
  8
0
  6
CONTINUOUS
100
AcDbLine
 10
293.493958
 20
575.5142819999999
 30
0.0
 11
379.0548709999999
 21
575.5142819999999
 31
0.0
  0
ARC
  5
49
330
1E
100
AcDbEntity
  8
0
  6
CONTINUOUS
100
AcDbCircle
 10
422.418823
 20
551.514282
 30
0.0
 40
3.0
100
AcDbArc
 50
1.000152
 51
90.0
  0
ARC
  5
4A
330
1E
100
AcDbEntity
  8
0
  6
CONTINUOUS
100
AcDbCircle
 10
250.1307979999999
 20
551.514282
 30
0.0
 40
3.0
100
AcDbArc
 50
90.0
 51
178.999634
  0
LINE
  5
4B
330
1E
100
AcDbEntity
  8
0
  6
CONTINUOUS
100
AcDbLine
 10
422.418823
 20
450.514282
 30
0.0
 11
250.1307979999999
 21
450.514282
 31
0.0
  0
ARC
  5
4C
330
1E
100
AcDbEntity
  8
0
  6
CONTINUOUS
100
AcDbCircle
 10
422.418823
 20
453.514282
 30
0.0
 40
3.0
100
AcDbArc
 50
270.0
 51
358.999847
  0
ARC
  5
4D
330
1E
100
AcDbEntity
  8
0
  6
CONTINUOUS
100
AcDbCircle
 10
250.1307979999999
 20
453.514282
 30
0.0
 40
3.0
100
AcDbArc
 50
181.0003659999999
 51
270.0
  0
LINE
  5
4E
330
1E
100
AcDbEntity
  8
0
  6
CONTINUOUS
100
AcDbLine
 10
371.274628
 20
455.514282
 30
0.0
 11
371.274628
 21
549.5142819999999
 31
0.0
  0
LINE
  5
4F
330
1E
100
AcDbEntity
  8
0
  6
CONTINUOUS
100
AcDbLine
 10
301.2746279999999
 20
455.514282
 30
0.0
 11
301.2746279999999
 21
549.5142819999999
 31
0.0
  0
LINE
  5
50
330
1E
100
AcDbEntity
  8
0
  6
CONTINUOUS
100
AcDbLine
 10
277.554626
 20
568.514282
 30
0.0
 11
284.274414
 21
568.514282
 31
0.0
  0
LINE
  5
51
330
1E
100
AcDbEntity
  8
0
  6
CONTINUOUS
100
AcDbLine
 10
397.274536
 20
568.514282
 30
0.0
 11
388.274414
 21
568.514282
 31
0.0
  0
ARC
  5
52
330
1E
100
AcDbEntity
  8
0
  6
CONTINUOUS
100
AcDbCircle
 10
397.274536
 20
561.5142819999999
 30
0.0
 40
7.0
100
AcDbArc
 50
0.0
 51
90.0
  0
ARC
  5
53
330
1E
100
AcDbEntity
  8
0
  6
CONTINUOUS
100
AcDbCircle
 10
411.2745359999999
 20
561.5142819999999
 30
0.0
 40
7.0
100
AcDbArc
 50
180.0
 51
270.0
  0
LINE
  5
54
330
1E
100
AcDbEntity
  8
0
  6
CONTINUOUS
100
AcDbLine
 10
293.493958
 20
429.514282
 30
0.0
 11
379.0548709999999
 21
429.514282
 31
0.0
  0
LINE
  5
55
330
1E
100
AcDbEntity
  8
0
  6
CONTINUOUS
100
AcDbLine
 10
275.274536
 20
436.514282
 30
0.0
 11
284.274414
 21
436.514221
 31
0.0
  0
ARC
  5
56
330
1E
100
AcDbEntity
  8
0
  6
CONTINUOUS
100
AcDbCircle
 10
275.274536
 20
443.514282
 30
0.0
 40
7.0
100
AcDbArc
 50
180.0
 51
270.0
  0
ARC
  5
57
330
1E
100
AcDbEntity
  8
0
  6
CONTINUOUS
100
AcDbCircle
 10
261.274536
 20
443.514282
 30
0.0
 40
7.0
100
AcDbArc
 50
0.0
 51
90.0
  0
LINE
  5
58
330
1E
100
AcDbEntity
  8
0
  6
CONTINUOUS
100
AcDbLine
 10
397.274536
 20
436.514282
 30
0.0
 11
388.274414
 21
436.514221
 31
0.0
  0
ARC
  5
59
330
1E
100
AcDbEntity
  8
0
  6
CONTINUOUS
100
AcDbCircle
 10
397.274536
 20
443.514282
 30
0.0
 40
7.0
100
AcDbArc
 50
270.0
 51
0.0
  0
ARC
  5
5A
330
1E
100
AcDbEntity
  8
0
  6
CONTINUOUS
100
AcDbCircle
 10
411.2745359999999
 20
443.514282
 30
0.0
 40
7.0
100
AcDbArc
 50
90.0
 51
180.0
  0
LINE
  5
5B
330
1E
100
AcDbEntity
  8
0
  6
CONTINUOUS
100
AcDbLine
 10
270.823975
 20
563.4373169999999
 30
0.0
 11
269.7250669999999
 21
559.591248
 31
0.0
  0
ARC
  5
5C
330
1E
100
AcDbEntity
  8
0
  6
CONTINUOUS
100
AcDbCircle
 10
277.554626
 20
561.5142819999999
 30
0.0
 40
7.0
100
AcDbArc
 50
90.0
 51
164.054611
  0
ARC
  5
5D
330
1E
100
AcDbEntity
  8
0
  6
CONTINUOUS
100
AcDbCircle
 10
262.994415
 20
561.5142819999999
 30
0.0
 40
7.0
100
AcDbArc
 50
270.0
 51
344.054604
  0
LINE
  5
5E
330
1E
100
AcDbEntity
  8
0
  6
CONTINUOUS
100
AcDbLine
 10
316.274719
 20
362.514069
 30
0.0
 11
359.274414
 21
362.514069
 31
0.0
  0
LINE
  5
5F
330
1E
100
AcDbEntity
  8
0
  6
CONTINUOUS
100
AcDbLine
 10
356.274719
 20
427.514069
 30
0.0
 11
356.274719
 21
422.5145259999999
 31
0.0
  0
LINE
  5
60
330
1E
100
AcDbEntity
  8
0
  6
CONTINUOUS
100
AcDbLine
 10
316.274719
 20
427.514069
 30
0.0
 11
316.274719
 21
362.514069
 31
0.0
  0
LINE
  5
61
330
1E
100
AcDbEntity
  8
0
  6
CONTINUOUS
100
AcDbLine
 10
358.7747189999999
 20
427.514069
 30
0.0
 11
313.774719
 21
427.514069
 31
0.0
  0
LINE
  5
62
330
1E
100
AcDbEntity
  8
0
  6
CONTINUOUS
100
AcDbLine
 10
358.7747189999999
 20
429.5140690000001
 30
0.0
 11
358.7747189999999
 21
427.514069
 31
0.0
  0
LINE
  5
63
330
1E
100
AcDbEntity
  8
0
  6
CONTINUOUS
100
AcDbLine
 10
313.774719
 20
429.5140690000001
 30
0.0
 11
313.774719
 21
427.514069
 31
0.0
  0
LINE
  5
64
330
1E
100
AcDbEntity
  8
0
  6
CONTINUOUS
100
AcDbLine
 10
336.275055
 20
592.5139769999999
 30
0.0
 11
267.4065249999999
 21
592.514038
 31
0.0
  0
LINE
  5
65
330
1E
100
AcDbEntity
  8
0
  6
CONTINUOUS
100
AcDbLine
 10
316.274719
 20
412.513977
 30
0.0
 11
267.4061279999999
 21
412.514069
 31
0.0
  0
LINE
  5
66
330
1E
100
AcDbEntity
  8
0
  6
CONTINUOUS
100
AcDbLine
 10
359.274414
 20
362.514526
 30
0.0
 11
359.274414
 21
422.5145259999999
 31
0.0
  0
LINE
  5
67
330
1E
100
AcDbEntity
  8
0
  6
CONTINUOUS
100
AcDbLine
 10
355.353424
 20
422.5145259999999
 30
0.0
 11
359.274414
 21
422.5145259999999
 31
0.0
  0
LINE
  5
68
330
1E
100
AcDbEntity
  8
0
  6
CONTINUOUS
100
AcDbLine
 10
288.179169
 20
573.069824
 30
0.0
 11
284.274414
 21
568.514282
 31
0.0
  0
ARC
  5
69
330
1E
100
AcDbEntity
  8
0
  6
CONTINUOUS
100
AcDbCircle
 10
293.493958
 20
568.514282
 30
0.0
 40
7.0
100
AcDbArc
 50
90.0
 51
139.398712
  0
LINE
  5
6A
330
1E
100
AcDbEntity
  8
0
  6
CONTINUOUS
100
AcDbLine
 10
384.369659
 20
573.069824
 30
0.0
 11
388.274414
 21
568.514282
 31
0.0
  0
ARC
  5
6B
330
1E
100
AcDbEntity
  8
0
  6
CONTINUOUS
100
AcDbCircle
 10
379.0548709999999
 20
568.514282
 30
0.0
 40
7.0
100
AcDbArc
 50
40.601295
 51
90.0
  0
LINE
  5
6C
330
1E
100
AcDbEntity
  8
0
  6
CONTINUOUS
100
AcDbLine
 10
384.369659
 20
431.958679
 30
0.0
 11
388.274414
 21
436.514221
 31
0.0
  0
ARC
  5
6D
330
1E
100
AcDbEntity
  8
0
  6
CONTINUOUS
100
AcDbCircle
 10
379.0548709999999
 20
436.514221
 30
0.0
 40
7.0
100
AcDbArc
 50
270.0
 51
319.398705
  0
LINE
  5
6E
330
1E
100
AcDbEntity
  8
0
  6
CONTINUOUS
100
AcDbLine
 10
288.179169
 20
431.958679
 30
0.0
 11
284.274414
 21
436.514221
 31
0.0
  0
ARC
  5
6F
330
1E
100
AcDbEntity
  8
0
  6
CONTINUOUS
100
AcDbCircle
 10
293.493958
 20
436.514221
 30
0.0
 40
7.0
100
AcDbArc
 50
220.6012879999999
 51
270.0
  0
LINE
  5
70
330
1E
100
AcDbEntity
  8
0
  6
CONTINUOUS
100
AcDbLine
 10
355.353424
 20
422.5145259999999
 30
0.0
 11
355.353424
 21
362.514069
 31
0.0
  0
LINE
  5
71
330
1E
100
AcDbEntity
  8
0
  6
CONTINUOUS
100
AcDbLine
 10
233.2744139999999
 20
46.219303
 30
0.0
 11
233.2744139999999
 21
188.219299
 31
0.0
  0
LINE
  5
72
330
1E
100
AcDbEntity
  8
0
  6
CENTER
100
AcDbLine
 10
233.2744139999999
 20
117.219307
 30
0.0
 11
257.3932189999999
 21
117.219307
 31
0.0
  0
LINE
  5
73
330
1E
100
AcDbEntity
  8
0
  6
CENTER
100
AcDbLine
 10
336.274414
 20
266.2150879999999
 30
0.0
 11
336.274414
 21
-13.184475
 31
0.0
  0
LINE
  5
74
330
1E
100
AcDbEntity
  8
0
  6
CENTER
100
AcDbLine
 10
251.787506
 20
170.719299
 30
0.0
 11
397.4394229999999
 21
170.719299
 31
0.0
  0
LINE
  5
75
330
1E
100
AcDbEntity
  8
0
  6
CONTINUOUS
100
AcDbLine
 10
246.274414
 20
5.719305
 30
0.0
 11
426.2744139999999
 21
5.719305
 31
0.0
  0
LINE
  5
76
330
1E
100
AcDbEntity
  8
0
  6
CONTINUOUS
100
AcDbLine
 10
246.274414
 20
25.719305
 30
0.0
 11
426.2744139999999
 21
25.719305
 31
0.0
  0
LINE
  5
77
330
1E
100
AcDbEntity
  8
0
  6
CONTINUOUS
100
AcDbLine
 10
304.460022
 20
248.219299
 30
0.0
 11
368.088806
 21
248.219299
 31
0.0
  0
LINE
  5
78
330
1E
100
AcDbEntity
  8
0
  6
CONTINUOUS
100
AcDbLine
 10
426.2744139999999
 20
204.0512999999999
 30
0.0
 11
426.2744139999999
 21
5.719305
 31
0.0
  0
LINE
  5
79
330
1E
100
AcDbEntity
  8
0
  6
CONTINUOUS
100
AcDbLine
 10
246.274414
 20
204.0512999999999
 30
0.0
 11
246.274414
 21
5.719305
 31
0.0
  0
LINE
  5
7A
330
1E
100
AcDbEntity
  8
0
  6
CONTINUOUS
100
AcDbLine
 10
233.2744139999999
 20
188.219299
 30
0.0
 11
241.274414
 21
188.219299
 31
0.0
  0
LINE
  5
7B
330
1E
100
AcDbEntity
  8
0
  6
CONTINUOUS
100
AcDbLine
 10
233.2744139999999
 20
46.219303
 30
0.0
 11
241.274414
 21
46.219303
 31
0.0
  0
LINE
  5
7C
330
1E
100
AcDbEntity
  8
0
  6
CONTINUOUS
100
AcDbLine
 10
373.873016
 20
246.3766479999999
 30
0.0
 11
422.058624
 21
212.208618
 31
0.0
  0
LINE
  5
7D
330
1E
100
AcDbEntity
  8
0
  6
CONTINUOUS
100
AcDbLine
 10
250.490204
 20
212.208618
 30
0.0
 11
298.675812
 21
246.3766479999999
 31
0.0
  0
ARC
  5
7E
330
1E
100
AcDbEntity
  8
0
  6
CONTINUOUS
100
AcDbCircle
 10
416.274414
 20
204.0512699999999
 30
0.0
 40
10.0
100
AcDbArc
 50
0.0
 51
54.660099
  0
ARC
  5
7F
330
1E
100
AcDbEntity
  8
0
  6
CONTINUOUS
100
AcDbCircle
 10
368.088806
 20
238.219299
 30
0.0
 40
10.0
100
AcDbArc
 50
54.65995
 51
90.0
  0
ARC
  5
80
330
1E
100
AcDbEntity
  8
0
  6
CONTINUOUS
100
AcDbCircle
 10
304.460022
 20
238.219299
 30
0.0
 40
10.0
100
AcDbArc
 50
90.0
 51
125.340302
  0
ARC
  5
81
330
1E
100
AcDbEntity
  8
0
  6
CONTINUOUS
100
AcDbCircle
 10
256.274414
 20
204.051346
 30
0.0
 40
10.0
100
AcDbArc
 50
125.3405
 51
180.0
  0
ARC
  5
82
330
1E
100
AcDbEntity
  8
0
  6
CONTINUOUS
100
AcDbCircle
 10
241.274414
 20
193.219299
 30
0.0
 40
5.0
100
AcDbArc
 50
270.0
 51
0.0
  0
ARC
  5
83
330
1E
100
AcDbEntity
  8
0
  6
CONTINUOUS
100
AcDbCircle
 10
241.274414
 20
41.219284
 30
0.0
 40
5.0
100
AcDbArc
 50
0.0
 51
90.0
  0
LINE
  5
84
330
1E
100
AcDbEntity
  8
0
  6
CENTER
100
AcDbLine
 10
396.274414
 20
35.645786
 30
0.0
 11
396.274414
 21
-7.363635
 31
0.0
  0
LINE
  5
85
330
1E
100
AcDbEntity
  8
0
  6
CENTER
100
AcDbLine
 10
276.274414
 20
35.645786
 30
0.0
 11
276.274414
 21
-7.363635
 31
0.0
  0
LINE
  5
86
330
1E
100
AcDbEntity
  8
0
  6
DASHED
100
AcDbLine
 10
388.774414
 20
25.719305
 30
0.0
 11
388.774414
 21
5.719305
 31
0.0
  0
LINE
  5
87
330
1E
100
AcDbEntity
  8
0
  6
DASHED
100
AcDbLine
 10
403.774414
 20
25.719305
 30
0.0
 11
403.774414
 21
5.719305
 31
0.0
  0
LINE
  5
88
330
1E
100
AcDbEntity
  8
0
  6
DASHED
100
AcDbLine
 10
283.774414
 20
25.719305
 30
0.0
 11
283.774414
 21
5.719305
 31
0.0
  0
LINE
  5
89
330
1E
100
AcDbEntity
  8
0
  6
DASHED
100
AcDbLine
 10
268.774414
 20
25.719305
 30
0.0
 11
268.774414
 21
5.719305
 31
0.0
  0
LINE
  5
8A
330
1E
100
AcDbEntity
  8
0
  6
CONTINUOUS
100
AcDbLine
 10
412.274414
 20
23.033985
 30
0.0
 11
412.274414
 21
5.719305
 31
0.0
  0
LINE
  5
8B
330
1E
100
AcDbEntity
  8
0
  6
CONTINUOUS
100
AcDbLine
 10
260.274414
 20
23.033985
 30
0.0
 11
260.274414
 21
5.719305
 31
0.0
  0
LINE
  5
8C
330
1E
100
AcDbEntity
  8
0
  6
CONTINUOUS
100
AcDbLine
 10
370.031799
 20
30.719305
 30
0.0
 11
302.516998
 21
30.719305
 31
0.0
  0
LINE
  5
8D
330
1E
100
AcDbEntity
  8
0
  6
CONTINUOUS
100
AcDbLine
 10
301.274414
 20
29.58242399999999
 30
0.0
 11
301.274414
 21
26.719305
 31
0.0
  0
LINE
  5
8E
330
1E
100
AcDbEntity
  8
0
  6
CONTINUOUS
100
AcDbLine
 10
371.274414
 20
29.58242399999999
 30
0.0
 11
371.274414
 21
26.719305
 31
0.0
  0
LINE
  5
8F
330
1E
100
AcDbEntity
  8
0
  6
CONTINUOUS
100
AcDbLine
 10
372.1530149999999
 20
29.840626
 30
0.0
 11
374.809998
 21
27.183744
 31
0.0
  0
LINE
  5
90
330
1E
100
AcDbEntity
  8
0
  6
CONTINUOUS
100
AcDbLine
 10
300.395813
 20
29.840626
 30
0.0
 11
297.7388
 21
27.183805
 31
0.0
  0
ARC
  5
91
330
1E
100
AcDbEntity
  8
0
  6
CONTINUOUS
100
AcDbCircle
 10
294.2033999999999
 20
30.719305
 30
0.0
 40
5.0
100
AcDbArc
 50
270.0
 51
315.000092
  0
ARC
  5
92
330
1E
100
AcDbEntity
  8
0
  6
CONTINUOUS
100
AcDbCircle
 10
378.3453979999999
 20
30.719305
 30
0.0
 40
5.0
100
AcDbArc
 50
225.0001069999999
 51
270.0
  0
ARC
  5
93
330
1E
100
AcDbEntity
  8
0
  6
CONTINUOUS
100
AcDbCircle
 10
302.516998
 20
27.71930499999999
 30
0.0
 40
3.0
100
AcDbArc
 50
90.0
 51
135.0003969999999
  0
ARC
  5
94
330
1E
100
AcDbEntity
  8
0
  6
CONTINUOUS
100
AcDbCircle
 10
370.031799
 20
27.71930499999999
 30
0.0
 40
3.0
100
AcDbArc
 50
45.00025899999999
 51
90.0
  0
ARC
  5
95
330
1E
100
AcDbEntity
  8
0
  6
CONTINUOUS
100
AcDbCircle
 10
300.274414
 20
26.719305
 30
0.0
 40
1.0
100
AcDbArc
 50
270.0
 51
0.0
  0
ARC
  5
96
330
1E
100
AcDbEntity
  8
0
  6
CONTINUOUS
100
AcDbCircle
 10
372.274414
 20
26.719305
 30
0.0
 40
1.0
100
AcDbArc
 50
180.0
 51
270.0
  0
CIRCLE
  5
97
330
1E
100
AcDbEntity
  8
0
  6
CONTINUOUS
100
AcDbCircle
 10
336.274414
 20
170.719299
 30
0.0
 40
46.0
  0
ARC
  5
98
330
1E
100
AcDbEntity
  8
0
  6
CONTINUOUS
100
AcDbCircle
 10
336.274414
 20
170.719299
 30
0.0
 40
52.0
100
AcDbArc
 50
12.52272
 51
167.477402
  0
ARC
  5
99
330
1E
100
AcDbEntity
  8
0
  6
CONTINUOUS
100
AcDbCircle
 10
336.274414
 20
170.719299
 30
0.0
 40
48.0
100
AcDbArc
 50
167.4774019999999
 51
12.52272
  0
ARC
  5
9A
330
1E
100
AcDbEntity
  8
0
  6
CONTINUOUS
100
AcDbCircle
 10
306.274414
 20
100.219307
 30
0.0
 40
34.0
100
AcDbArc
 50
167.477402
 51
270.0
  0
ARC
  5
9B
330
1E
100
AcDbEntity
  8
0
  6
CONTINUOUS
100
AcDbCircle
 10
306.274414
 20
100.219307
 30
0.0
 40
38.0
100
AcDbArc
 50
167.477402
 51
270.0
  0
ARC
  5
9C
330
1E
100
AcDbEntity
  8
0
  6
CONTINUOUS
100
AcDbCircle
 10
366.274414
 20
100.219307
 30
0.0
 40
34.0
100
AcDbArc
 50
270.0
 51
12.52273
  0
ARC
  5
9D
330
1E
100
AcDbEntity
  8
0
  6
CONTINUOUS
100
AcDbCircle
 10
366.274414
 20
100.219307
 30
0.0
 40
38.0
100
AcDbArc
 50
270.0
 51
12.52272
  0
LINE
  5
9E
330
1E
100
AcDbEntity
  8
0
  6
CONTINUOUS
100
AcDbLine
 10
269.1784059999999
 20
108.4586639999999
 30
0.0
 11
285.5114139999999
 21
181.994202
 31
0.0
  0
LINE
  5
9F
330
1E
100
AcDbEntity
  8
0
  6
CONTINUOUS
100
AcDbLine
 10
387.037415
 20
181.994308
 30
0.0
 11
403.370422
 21
108.458725
 31
0.0
  0
LINE
  5
A0
330
1E
100
AcDbEntity
  8
0
  6
CONTINUOUS
100
AcDbLine
 10
383.132416
 20
181.126984
 30
0.0
 11
399.4656069999999
 21
107.5914229999999
 31
0.0
  0
LINE
  5
A1
330
1E
100
AcDbEntity
  8
0
  6
CONTINUOUS
100
AcDbLine
 10
273.0832209999999
 20
107.591362
 30
0.0
 11
289.416412
 21
181.126923
 31
0.0
  0
LINE
  5
A2
330
1E
100
AcDbEntity
  8
0
  6
CONTINUOUS
100
AcDbLine
 10
306.274414
 20
66.219307
 30
0.0
 11
366.274414
 21
66.219307
 31
0.0
  0
LINE
  5
A3
330
1E
100
AcDbEntity
  8
0
  6
CONTINUOUS
100
AcDbLine
 10
306.274414
 20
62.219303
 30
0.0
 11
366.274414
 21
62.219303
 31
0.0
  0
LINE
  5
A4
330
1E
100
AcDbEntity
  8
0
  6
CONTINUOUS
100
AcDbLine
 10
324.047424
 20
84.219307
 30
0.0
 11
319.107025
 21
84.219307
 31
0.0
  0
LINE
  5
A5
330
1E
100
AcDbEntity
  8
0
  6
CONTINUOUS
100
AcDbLine
 10
326.774414
 20
92.49470500000001
 30
0.0
 11
326.774414
 21
84.219307
 31
0.0
  0
LINE
  5
A6
330
1E
100
AcDbEntity
  8
0
  6
CONTINUOUS
100
AcDbLine
 10
331.524414
 20
95.50054200000001
 30
0.0
 11
331.524414
 21
98.46930700000001
 31
0.0
  0
LINE
  5
A7
330
1E
100
AcDbEntity
  8
0
  6
CONTINUOUS
100
AcDbLine
 10
341.024414
 20
95.50054200000001
 30
0.0
 11
341.024414
 21
98.46930700000001
 31
0.0
  0
LINE
  5
A8
330
1E
100
AcDbEntity
  8
0
  6
CONTINUOUS
100
AcDbLine
 10
335.3466189999999
 20
96.72516600000001
 30
0.0
 11
335.3466189999999
 21
85.777908
 31
0.0
  0
LINE
  5
A9
330
1E
100
AcDbEntity
  8
0
  6
CONTINUOUS
100
AcDbLine
 10
337.128021
 20
96.72516600000001
 30
0.0
 11
337.128021
 21
85.777908
 31
0.0
  0
LINE
  5
AA
330
1E
100
AcDbEntity
  8
0
  6
CONTINUOUS
100
AcDbLine
 10
346.4794009999999
 20
96.72516600000001
 30
0.0
 11
346.4794009999999
 21
85.703682
 31
0.0
  0
LINE
  5
AB
330
1E
100
AcDbEntity
  8
0
  6
CONTINUOUS
100
AcDbLine
 10
348.112396
 20
90.88044700000001
 30
0.0
 11
348.112396
 21
85.703682
 31
0.0
  0
LINE
  5
AC
330
1E
100
AcDbEntity
  8
0
  6
CONTINUOUS
100
AcDbLine
 10
324.520416
 20
96.57672099999999
 30
0.0
 11
319.9428099999999
 21
96.57672099999999
 31
0.0
  0
LINE
  5
AD
330
1E
100
AcDbEntity
  8
0
  6
CONTINUOUS
100
AcDbLine
 10
319.9428099999999
 20
96.57672099999999
 30
0.0
 11
318.870209
 21
95.24672700000001
 31
0.0
  0
LINE
  5
AE
330
1E
100
AcDbEntity
  8
0
  6
CONTINUOUS
100
AcDbLine
 10
318.9992069999999
 20
98.46930700000001
 30
0.0
 11
317.274414
 21
96.26084099999999
 31
0.0
  0
LINE
  5
AF
330
1E
100
AcDbEntity
  8
0
  6
CONTINUOUS
100
AcDbLine
 10
318.870209
 20
87.037148
 30
0.0
 11
319.960022
 21
85.88922099999999
 31
0.0
  0
LINE
  5
B0
330
1E
100
AcDbEntity
  8
0
  6
CONTINUOUS
100
AcDbLine
 10
317.274414
 20
86.068428
 30
0.0
 11
319.107025
 21
84.219307
 31
0.0
  0
LINE
  5
B1
330
1E
100
AcDbEntity
  8
0
  6
CONTINUOUS
100
AcDbLine
 10
317.274414
 20
96.26084099999999
 30
0.0
 11
317.274414
 21
86.068428
 31
0.0
  0
LINE
  5
B2
330
1E
100
AcDbEntity
  8
0
  6
CONTINUOUS
100
AcDbLine
 10
318.870209
 20
95.24672700000001
 30
0.0
 11
318.870209
 21
87.037148
 31
0.0
  0
LINE
  5
B3
330
1E
100
AcDbEntity
  8
0
  6
CONTINUOUS
100
AcDbLine
 10
325.4013979999999
 20
95.725166
 30
0.0
 11
324.502411
 21
96.57672099999999
 31
0.0
  0
LINE
  5
B4
330
1E
100
AcDbEntity
  8
0
  6
CONTINUOUS
100
AcDbLine
 10
325.3870239999999
 20
98.46930700000001
 30
0.0
 11
326.774414
 21
96.929726
 31
0.0
  0
LINE
  5
B5
330
1E
100
AcDbEntity
  8
0
  6
CONTINUOUS
100
AcDbLine
 10
325.4013979999999
 20
95.50054200000001
 30
0.0
 11
326.774414
 21
95.50054200000001
 31
0.0
  0
LINE
  5
B6
330
1E
100
AcDbEntity
  8
0
  6
CONTINUOUS
100
AcDbLine
 10
318.9992069999999
 20
98.46930700000001
 30
0.0
 11
325.3870239999999
 21
98.46930700000001
 31
0.0
  0
LINE
  5
B7
330
1E
100
AcDbEntity
  8
0
  6
CONTINUOUS
100
AcDbLine
 10
322.915009
 20
92.49470500000001
 30
0.0
 11
326.774414
 21
92.49470500000001
 31
0.0
  0
LINE
  5
B8
330
1E
100
AcDbEntity
  8
0
  6
CONTINUOUS
100
AcDbLine
 10
325.4013979999999
 20
90.93610400000001
 30
0.0
 11
322.915009
 21
90.93610400000001
 31
0.0
  0
LINE
  5
B9
330
1E
100
AcDbEntity
  8
0
  6
CONTINUOUS
100
AcDbLine
 10
322.4326169999999
 20
85.88922099999999
 30
0.0
 11
319.960022
 21
85.88922099999999
 31
0.0
  0
LINE
  5
BA
330
1E
100
AcDbEntity
  8
0
  6
CONTINUOUS
100
AcDbLine
 10
325.4013979999999
 20
89.45172099999998
 30
0.0
 11
325.4013979999999
 21
90.63922099999999
 31
0.0
  0
ARC
  5
BB
330
1E
100
AcDbEntity
  8
0
  6
CONTINUOUS
100
AcDbCircle
 10
322.4326169999999
 20
88.857964
 30
0.0
 40
2.96875
100
AcDbArc
 50
270.0002139999999
 51
0.000109
  0
LINE
  5
BC
330
1E
100
AcDbEntity
  8
0
  6
CONTINUOUS
100
AcDbLine
 10
325.4013979999999
 20
85.355225
 30
0.0
 11
325.4013979999999
 21
84.219307
 31
0.0
  0
LINE
  5
BD
330
1E
100
AcDbEntity
  8
0
  6
CONTINUOUS
100
AcDbLine
 10
326.774414
 20
96.929726
 30
0.0
 11
326.774414
 21
95.50054200000001
 31
0.0
  0
LINE
  5
BE
330
1E
100
AcDbEntity
  8
0
  6
CONTINUOUS
100
AcDbLine
 10
325.4013979999999
 20
90.93610400000001
 30
0.0
 11
325.4013979999999
 21
88.857964
 31
0.0
  0
LINE
  5
BF
330
1E
100
AcDbEntity
  8
0
  6
CONTINUOUS
100
AcDbLine
 10
322.915009
 20
92.49470500000001
 30
0.0
 11
322.915009
 21
90.93610400000001
 31
0.0
  0
LINE
  5
C0
330
1E
100
AcDbEntity
  8
0
  6
CONTINUOUS
100
AcDbLine
 10
325.4013979999999
 20
84.219307
 30
0.0
 11
326.774414
 21
84.219307
 31
0.0
  0
LINE
  5
C1
330
1E
100
AcDbEntity
  8
0
  6
CONTINUOUS
100
AcDbLine
 10
325.4013979999999
 20
85.355225
 30
0.0
 11
324.047424
 21
84.219307
 31
0.0
  0
LINE
  5
C2
330
1E
100
AcDbEntity
  8
0
  6
CONTINUOUS
100
AcDbLine
 10
337.128021
 20
85.777908
 30
0.0
 11
337.7216189999999
 21
85.777908
 31
0.0
  0
LINE
  5
C3
330
1E
100
AcDbEntity
  8
0
  6
CONTINUOUS
100
AcDbLine
 10
334.6416019999999
 20
85.777908
 30
0.0
 11
334.6416019999999
 21
84.219307
 31
0.0
  0
LINE
  5
C4
330
1E
100
AcDbEntity
  8
0
  6
CONTINUOUS
100
AcDbLine
 10
337.7216189999999
 20
85.777908
 30
0.0
 11
337.7216189999999
 21
84.219307
 31
0.0
  0
LINE
  5
C5
330
1E
100
AcDbEntity
  8
0
  6
CONTINUOUS
100
AcDbLine
 10
340.0334169999999
 20
95.50054200000001
 30
0.0
 11
341.024414
 21
95.50054200000001
 31
0.0
  0
LINE
  5
C6
330
1E
100
AcDbEntity
  8
0
  6
CONTINUOUS
100
AcDbLine
 10
331.524414
 20
95.50054200000001
 30
0.0
 11
332.5790099999999
 21
95.50054200000001
 31
0.0
  0
LINE
  5
C7
330
1E
100
AcDbEntity
  8
0
  6
CONTINUOUS
100
AcDbLine
 10
331.524414
 20
98.46930700000001
 30
0.0
 11
341.024414
 21
98.46930700000001
 31
0.0
  0
LINE
  5
C8
330
1E
100
AcDbEntity
  8
0
  6
CONTINUOUS
100
AcDbLine
 10
334.6416019999999
 20
84.219307
 30
0.0
 11
337.7216189999999
 21
84.219307
 31
0.0
  0
LINE
  5
C9
330
1E
100
AcDbEntity
  8
0
  6
CONTINUOUS
100
AcDbLine
 10
334.6416019999999
 20
85.777908
 30
0.0
 11
335.3466189999999
 21
85.777908
 31
0.0
  0
ARC
  5
CA
330
1E
100
AcDbEntity
  8
0
  6
CONTINUOUS
100
AcDbCircle
 10
351.470612
 20
94.66558799999999
 30
0.0
 40
3.803712
100
AcDbArc
 50
286.0181269999999
 51
90.00351
  0
ARC
  5
CB
330
1E
100
AcDbEntity
  8
0
  6
CONTINUOUS
100
AcDbCircle
 10
351.470612
 20
94.66558799999999
 30
0.0
 40
2.320524
100
AcDbArc
 50
277.414726
 51
62.41185
  0
LINE
  5
CC
330
1E
100
AcDbEntity
  8
0
  6
CONTINUOUS
100
AcDbLine
 10
345.774414
 20
98.46930700000001
 30
0.0
 11
351.470612
 21
98.46930700000001
 31
0.0
  0
LINE
  5
CD
330
1E
100
AcDbEntity
  8
0
  6
CONTINUOUS
100
AcDbLine
 10
351.7702029999999
 20
92.364464
 30
0.0
 11
348.112396
 21
92.364464
 31
0.0
  0
LINE
  5
CE
330
1E
100
AcDbEntity
  8
0
  6
CONTINUOUS
100
AcDbLine
 10
345.774414
 20
98.46930700000001
 30
0.0
 11
345.774414
 21
96.72516600000001
 31
0.0
  0
LINE
  5
CF
330
1E
100
AcDbEntity
  8
0
  6
CONTINUOUS
100
AcDbLine
 10
348.112396
 20
96.72516600000001
 30
0.0
 11
348.112396
 21
92.364464
 31
0.0
  0
LINE
  5
D0
330
1E
100
AcDbEntity
  8
0
  6
CONTINUOUS
100
AcDbLine
 10
352.5202029999999
 20
91.00956700000001
 30
0.0
 11
354.8746029999999
 21
85.703682
 31
0.0
  0
LINE
  5
D1
330
1E
100
AcDbEntity
  8
0
  6
CONTINUOUS
100
AcDbLine
 10
351.153015
 20
90.88044700000001
 30
0.0
 11
353.3807979999999
 21
85.703682
 31
0.0
  0
LINE
  5
D2
330
1E
100
AcDbEntity
  8
0
  6
CONTINUOUS
100
AcDbLine
 10
345.774414
 20
85.703682
 30
0.0
 11
346.4794009999999
 21
85.703682
 31
0.0
  0
LINE
  5
D3
330
1E
100
AcDbEntity
  8
0
  6
CONTINUOUS
100
AcDbLine
 10
348.112396
 20
85.703682
 30
0.0
 11
348.76181
 21
85.703682
 31
0.0
  0
LINE
  5
D4
330
1E
100
AcDbEntity
  8
0
  6
CONTINUOUS
100
AcDbLine
 10
348.76181
 20
84.219307
 30
0.0
 11
345.774414
 21
84.219307
 31
0.0
  0
LINE
  5
D5
330
1E
100
AcDbEntity
  8
0
  6
CONTINUOUS
100
AcDbLine
 10
353.085022
 20
85.703682
 30
0.0
 11
353.3807979999999
 21
85.703682
 31
0.0
  0
LINE
  5
D6
330
1E
100
AcDbEntity
  8
0
  6
CONTINUOUS
100
AcDbLine
 10
354.8746029999999
 20
85.703682
 30
0.0
 11
355.274414
 21
85.703682
 31
0.0
  0
LINE
  5
D7
330
1E
100
AcDbEntity
  8
0
  6
CONTINUOUS
100
AcDbLine
 10
353.085022
 20
84.219307
 30
0.0
 11
355.274414
 21
84.219307
 31
0.0
  0
LINE
  5
D8
330
1E
100
AcDbEntity
  8
0
  6
CONTINUOUS
100
AcDbLine
 10
355.274414
 20
85.703682
 30
0.0
 11
355.274414
 21
84.219307
 31
0.0
  0
LINE
  5
D9
330
1E
100
AcDbEntity
  8
0
  6
CONTINUOUS
100
AcDbLine
 10
353.085022
 20
85.703682
 30
0.0
 11
353.085022
 21
84.219307
 31
0.0
  0
LINE
  5
DA
330
1E
100
AcDbEntity
  8
0
  6
CONTINUOUS
100
AcDbLine
 10
348.76181
 20
85.703682
 30
0.0
 11
348.76181
 21
84.219307
 31
0.0
  0
LINE
  5
DB
330
1E
100
AcDbEntity
  8
0
  6
CONTINUOUS
100
AcDbLine
 10
345.774414
 20
85.703682
 30
0.0
 11
345.774414
 21
84.219307
 31
0.0
  0
LINE
  5
DC
330
1E
100
AcDbEntity
  8
0
  6
CONTINUOUS
100
AcDbLine
 10
333.089203
 20
96.72516600000001
 30
0.0
 11
332.5790099999999
 21
95.50054200000001
 31
0.0
  0
LINE
  5
DD
330
1E
100
AcDbEntity
  8
0
  6
CONTINUOUS
100
AcDbLine
 10
339.6032099999999
 20
96.72516600000001
 30
0.0
 11
340.0334169999999
 21
95.50054200000001
 31
0.0
  0
LINE
  5
DE
330
1E
100
AcDbEntity
  8
0
  6
CONTINUOUS
100
AcDbLine
 10
337.128021
 20
96.72516600000001
 30
0.0
 11
339.6032099999999
 21
96.72516600000001
 31
0.0
  0
LINE
  5
DF
330
1E
100
AcDbEntity
  8
0
  6
CONTINUOUS
100
AcDbLine
 10
335.3466189999999
 20
96.72516600000001
 30
0.0
 11
333.089203
 21
96.72516600000001
 31
0.0
  0
LINE
  5
E0
330
1E
100
AcDbEntity
  8
0
  6
CONTINUOUS
100
AcDbLine
 10
348.112396
 20
90.88044700000001
 30
0.0
 11
351.153015
 21
90.88044700000001
 31
0.0
  0
LINE
  5
E1
330
1E
100
AcDbEntity
  8
0
  6
CONTINUOUS
100
AcDbLine
 10
345.774414
 20
96.72516600000001
 30
0.0
 11
346.4794009999999
 21
96.72516600000001
 31
0.0
  0
LINE
  5
E2
330
1E
100
AcDbEntity
  8
0
  6
CONTINUOUS
100
AcDbLine
 10
348.112396
 20
96.72516600000001
 30
0.0
 11
352.54541
 21
96.72228199999999
 31
0.0
  0
LINE
  5
E3
330
1E
100
AcDbEntity
  8
0
  6
CONTINUOUS
100
AcDbLine
 10
325.4013979999999
 20
95.725166
 30
0.0
 11
325.4013979999999
 21
95.50054200000001
 31
0.0
  0
ARC
  5
E4
330
1E
100
AcDbEntity
  8
0
  6
CONTINUOUS
100
AcDbCircle
 10
455.956024
 20
117.219307
 30
0.0
 40
215.181595
100
AcDbArc
 50
167.017899
 51
192.9821009999999
  0
LINE
  5
E5
330
1E
100
AcDbEntity
  8
0
  6
CONTINUOUS
100
AcDbLine
 10
351.274414
 20
164.71936
 30
0.0
 11
351.274414
 21
176.71936
 31
0.0
  0
LINE
  5
E6
330
1E
100
AcDbEntity
  8
0
  6
CONTINUOUS
100
AcDbLine
 10
359.274414
 20
164.719376
 30
0.0
 11
359.274414
 21
176.719391
 31
0.0
  0
LINE
  5
E7
330
1E
100
AcDbEntity
  8
0
  6
CONTINUOUS
100
AcDbLine
 10
359.274414
 20
164.719376
 30
0.0
 11
351.274414
 21
164.71936
 31
0.0
  0
LINE
  5
E8
330
1E
100
AcDbEntity
  8
0
  6
CONTINUOUS
100
AcDbLine
 10
359.274414
 20
176.719391
 30
0.0
 11
351.274414
 21
176.71936
 31
0.0
  0
ARC
  5
E9
330
1E
100
AcDbEntity
  8
0
  6
CONTINUOUS
100
AcDbCircle
 10
336.274414
 20
170.719299
 30
0.0
 40
20.0
100
AcDbArc
 50
17.45759999999999
 51
342.542389
  0
LINE
  5
EA
330
1E
100
AcDbEntity
  8
0
  6
CENTER
100
AcDbLine
 10
233.2744139999999
 20
151.219299
 30
0.0
 11
266.32251
 21
151.219299
 31
0.0
  0
LINE
  5
EB
330
1E
100
AcDbEntity
  8
0
  6
CONTINUOUS
100
AcDbLine
 10
233.2744139999999
 20
188.219299
 30
0.0
 11
233.2744139999999
 21
46.219364
 31
0.0
  0
LINE
  5
EC
330
1E
100
AcDbEntity
  8
0
  6
CENTER
100
AcDbLine
 10
682.774414
 20
-13.582735
 30
0.0
 11
682.774414
 21
262.1400149999999
 31
0.0
  0
LINE
  5
ED
330
1E
100
AcDbEntity
  8
0
  6
CENTER
100
AcDbLine
 10
596.065613
 20
117.2192689999999
 30
0.0
 11
769.0162349999999
 21
117.2192689999999
 31
0.0
  0
LINE
  5
EE
330
1E
100
AcDbEntity
  8
0
  6
CENTER
100
AcDbLine
 10
528.027588
 20
170.719284
 30
0.0
 11
777.968384
 21
170.719284
 31
0.0
  0
LINE
  5
EF
330
1E
100
AcDbEntity
  8
0
  6
CENTER
100
AcDbLine
 10
612.7744139999999
 20
40.635445
 30
0.0
 11
612.7744139999999
 21
-9.393555
 31
0.0
  0
LINE
  5
F0
330
1E
100
AcDbEntity
  8
0
  6
CENTER
100
AcDbLine
 10
752.774414
 20
40.635445
 30
0.0
 11
752.774414
 21
-9.393555
 31
0.0
  0
LINE
  5
F1
330
1E
100
AcDbEntity
  8
0
  6
DASHED
100
AcDbLine
 10
745.274414
 20
25.719265
 30
0.0
 11
745.274414
 21
5.719265
 31
0.0
  0
LINE
  5
F2
330
1E
100
AcDbEntity
  8
0
  6
DASHED
100
AcDbLine
 10
760.2744139999999
 20
25.719265
 30
0.0
 11
760.2744139999999
 21
5.719265
 31
0.0
  0
LINE
  5
F3
330
1E
100
AcDbEntity
  8
0
  6
DASHED
100
AcDbLine
 10
620.274414
 20
25.719265
 30
0.0
 11
620.274414
 21
5.719265
 31
0.0
  0
LINE
  5
F4
330
1E
100
AcDbEntity
  8
0
  6
DASHED
100
AcDbLine
 10
605.2744139999999
 20
25.719265
 30
0.0
 11
605.2744139999999
 21
5.719265
 31
0.0
  0
LINE
  5
F5
330
1E
100
AcDbEntity
  8
0
  6
CONTINUOUS
100
AcDbLine
 10
592.7744139999999
 20
5.719265
 30
0.0
 11
647.7744139999999
 21
5.719265
 31
0.0
  0
LINE
  5
F6
330
1E
100
AcDbEntity
  8
0
  6
CONTINUOUS
100
AcDbLine
 10
717.7744139999999
 20
5.719265
 30
0.0
 11
772.7744139999999
 21
5.719265
 31
0.0
  0
LINE
  5
F7
330
1E
100
AcDbEntity
  8
0
  6
CONTINUOUS
100
AcDbLine
 10
739.774414
 20
25.719265
 30
0.0
 11
769.774414
 21
25.719265
 31
0.0
  0
LINE
  5
F8
330
1E
100
AcDbEntity
  8
0
  6
CONTINUOUS
100
AcDbLine
 10
595.7744139999999
 20
25.719265
 30
0.0
 11
625.7744139999999
 21
25.719265
 31
0.0
  0
LINE
  5
F9
330
1E
100
AcDbEntity
  8
0
  6
CONTINUOUS
100
AcDbLine
 10
592.7744139999999
 20
23.088144
 30
0.0
 11
592.7744139999999
 21
5.719265
 31
0.0
  0
LINE
  5
FA
330
1E
100
AcDbEntity
  8
0
  6
CONTINUOUS
100
AcDbLine
 10
772.7744139999999
 20
23.088144
 30
0.0
 11
772.7744139999999
 21
5.719265
 31
0.0
  0
LINE
  5
FB
330
1E
100
AcDbEntity
  8
0
  6
CONTINUOUS
100
AcDbLine
 10
734.7744139999999
 20
227.999283
 30
0.0
 11
734.7744139999999
 21
243.3810879999999
 31
0.0
  0
LINE
  5
FC
330
1E
100
AcDbEntity
  8
0
  6
CONTINUOUS
100
AcDbLine
 10
630.7744139999999
 20
243.3806609999999
 30
0.0
 11
630.7744139999999
 21
5.719265
 31
0.0
  0
LINE
  5
FD
330
1E
100
AcDbEntity
  8
0
  6
CONTINUOUS
100
AcDbLine
 10
649.274414
 20
7.219264999999999
 30
0.0
 11
716.274414
 21
7.219264999999999
 31
0.0
  0
LINE
  5
FE
330
1E
100
AcDbEntity
  8
0
  6
CONTINUOUS
100
AcDbLine
 10
635.218994
 20
209.219284
 30
0.0
 11
731.0062259999999
 21
209.219284
 31
0.0
  0
LINE
  5
FF
330
1E
100
AcDbEntity
  8
0
  6
CONTINUOUS
100
AcDbLine
 10
730.844238
 20
247.380478
 30
0.0
 11
682.774414
 21
248.2192839999999
 31
0.0
  0
LINE
  5
100
330
1E
100
AcDbEntity
  8
0
  6
CONTINUOUS
100
AcDbLine
 10
634.70459
 20
247.380081
 30
0.0
 11
682.774414
 21
248.2192839999999
 31
0.0
  0
LINE
  5
101
330
1E
100
AcDbEntity
  8
0
  6
CONTINUOUS
100
AcDbLine
 10
609.7744139999999
 20
129.999283
 30
0.0
 11
609.7744139999999
 21
211.439087
 31
0.0
  0
LINE
  5
102
330
1E
100
AcDbEntity
  8
0
  6
CONTINUOUS
100
AcDbLine
 10
755.7744139999999
 20
129.999283
 30
0.0
 11
755.7744139999999
 21
211.439087
 31
0.0
  0
LINE
  5
103
330
1E
100
AcDbEntity
  8
0
  6
CONTINUOUS
100
AcDbLine
 10
616.7744139999999
 20
71.499268
 30
0.0
 11
616.7744139999999
 21
174.859482
 31
0.0
  0
LINE
  5
104
330
1E
100
AcDbEntity
  8
0
  6
CONTINUOUS
100
AcDbLine
 10
748.774414
 20
71.499481
 30
0.0
 11
748.774414
 21
174.859482
 31
0.0
  0
ARC
  5
105
330
1E
100
AcDbEntity
  8
0
  6
CONTINUOUS
100
AcDbCircle
 10
634.7744139999999
 20
243.3806609999999
 30
0.0
 40
4.0
100
AcDbArc
 50
91.00058
 51
180.0
  0
ARC
  5
106
330
1E
100
AcDbEntity
  8
0
  6
CONTINUOUS
100
AcDbCircle
 10
730.7744139999999
 20
243.3810879999999
 30
0.0
 40
4.0
100
AcDbArc
 50
0.0
 51
89.000359
  0
LINE
  5
107
330
1E
100
AcDbEntity
  8
0
  6
CONTINUOUS
100
AcDbLine
 10
614.85144
 20
218.169891
 30
0.0
 11
625.6973879999999
 21
221.2686609999999
 31
0.0
  0
LINE
  5
108
330
1E
100
AcDbEntity
  8
0
  6
CONTINUOUS
100
AcDbLine
 10
739.85144
 20
221.2686609999999
 30
0.0
 11
750.6973879999999
 21
218.169891
 31
0.0
  0
LINE
  5
109
330
1E
100
AcDbEntity
  8
0
  6
CONTINUOUS
100
AcDbLine
 10
621.85144
 20
64.76868399999999
 30
0.0
 11
625.6973879999999
 21
63.66982700000001
 31
0.0
  0
LINE
  5
10A
330
1E
100
AcDbEntity
  8
0
  6
CONTINUOUS
100
AcDbLine
 10
743.6973879999999
 20
64.76868399999999
 30
0.0
 11
739.85144
 21
63.66982700000001
 31
0.0
  0
LINE
  5
10B
330
1E
100
AcDbEntity
  8
0
  6
CONTINUOUS
100
AcDbLine
 10
770.165833
 20
26.062506
 30
0.0
 11
737.3829960000001
 21
30.37600499999999
 31
0.0
  0
LINE
  5
10C
330
1E
100
AcDbEntity
  8
0
  6
CONTINUOUS
100
AcDbLine
 10
595.382996
 20
26.062506
 30
0.0
 11
628.1658329999999
 21
30.37600499999999
 31
0.0
  0
ARC
  5
10D
330
1E
100
AcDbEntity
  8
0
  6
CONTINUOUS
100
AcDbCircle
 10
616.7745969999999
 20
211.439087
 30
0.0
 40
7.0
100
AcDbArc
 50
105.9458009999999
 51
180.0
  0
ARC
  5
10E
330
1E
100
AcDbEntity
  8
0
  6
CONTINUOUS
100
AcDbCircle
 10
616.7744139999999
 20
129.9994659999999
 30
0.0
 40
7.0
100
AcDbArc
 50
180.0
 51
240.000198
  0
ARC
  5
10F
330
1E
100
AcDbEntity
  8
0
  6
CONTINUOUS
100
AcDbCircle
 10
748.774414
 20
211.439087
 30
0.0
 40
7.0
100
AcDbArc
 50
0.0
 51
74.05476400000001
  0
ARC
  5
110
330
1E
100
AcDbEntity
  8
0
  6
CONTINUOUS
100
AcDbCircle
 10
748.774414
 20
129.999283
 30
0.0
 40
7.0
100
AcDbArc
 50
300.0001179999999
 51
0.0
  0
ARC
  5
111
330
1E
100
AcDbEntity
  8
0
  6
CONTINUOUS
100
AcDbCircle
 10
623.774414
 20
71.499481
 30
0.0
 40
7.0
100
AcDbArc
 50
180.0
 51
254.0549009999999
  0
ARC
  5
112
330
1E
100
AcDbEntity
  8
0
  6
CONTINUOUS
100
AcDbCircle
 10
741.7744139999999
 20
71.499268
 30
0.0
 40
7.0
100
AcDbArc
 50
285.945503
 51
0.0
  0
LINE
  5
113
330
1E
100
AcDbEntity
  8
0
  6
CONTINUOUS
100
AcDbLine
 10
734.7744139999999
 20
30.719265
 30
0.0
 11
734.7744139999999
 21
227.999283
 31
0.0
  0
ARC
  5
114
330
1E
100
AcDbEntity
  8
0
  6
CONTINUOUS
100
AcDbCircle
 10
741.7744139999999
 20
227.999466
 30
0.0
 40
7.0
100
AcDbArc
 50
180.0
 51
254.0549009999999
  0
ARC
  5
115
330
1E
100
AcDbEntity
  8
0
  6
CONTINUOUS
100
AcDbCircle
 10
741.7744139999999
 20
56.939205
 30
0.0
 40
7.0
100
AcDbArc
 50
105.9458009999999
 51
180.0
  0
ARC
  5
116
330
1E
100
AcDbEntity
  8
0
  6
CONTINUOUS
100
AcDbCircle
 10
755.7744139999999
 20
117.875084
 30
0.0
 40
7.0
100
AcDbArc
 50
120.000099
 51
180.0
  0
ARC
  5
117
330
1E
100
AcDbEntity
  8
0
  6
CONTINUOUS
100
AcDbCircle
 10
737.7744139999999
 20
33.350384
 30
0.0
 40
3.0
100
AcDbArc
 50
180.0
 51
262.504395
  0
ARC
  5
118
330
1E
100
AcDbEntity
  8
0
  6
CONTINUOUS
100
AcDbCircle
 10
769.774414
 20
22.719265
 30
0.0
 40
3.0
100
AcDbArc
 50
0.0
 51
90.0
  0
ARC
  5
119
330
1E
100
AcDbEntity
  8
0
  6
CONTINUOUS
100
AcDbCircle
 10
769.774414
 20
23.088125
 30
0.0
 40
3.0
100
AcDbArc
 50
0.0
 51
82.50420400000001
  0
LINE
  5
11A
330
1E
100
AcDbEntity
  8
0
  6
CONTINUOUS
100
AcDbLine
 10
734.7744139999999
 20
30.719265
 30
0.0
 11
734.7744139999999
 21
5.719265
 31
0.0
  0
ARC
  5
11B
330
1E
100
AcDbEntity
  8
0
  6
CONTINUOUS
100
AcDbCircle
 10
739.774414
 20
30.719305
 30
0.0
 40
5.0
100
AcDbArc
 50
180.0
 51
270.0
  0
ARC
  5
11C
330
1E
100
AcDbEntity
  8
0
  6
CONTINUOUS
100
AcDbCircle
 10
627.774414
 20
33.350384
 30
0.0
 40
3.0
100
AcDbArc
 50
277.4961169999999
 51
0.0
  0
ARC
  5
11D
330
1E
100
AcDbEntity
  8
0
  6
CONTINUOUS
100
AcDbCircle
 10
625.7744139999999
 20
30.719265
 30
0.0
 40
5.0
100
AcDbArc
 50
270.0
 51
0.0
  0
ARC
  5
11E
330
1E
100
AcDbEntity
  8
0
  6
CONTINUOUS
100
AcDbCircle
 10
595.7744139999999
 20
22.71930499999999
 30
0.0
 40
3.0
100
AcDbArc
 50
90.0
 51
180.0
  0
ARC
  5
11F
330
1E
100
AcDbEntity
  8
0
  6
CONTINUOUS
100
AcDbCircle
 10
595.7745969999999
 20
23.088144
 30
0.0
 40
3.0
100
AcDbArc
 50
97.49629200000001
 51
180.0
  0
LINE
  5
120
330
1E
100
AcDbEntity
  8
0
  6
CONTINUOUS
100
AcDbLine
 10
647.7744139999999
 20
5.719265
 30
0.0
 11
649.274414
 21
7.219264999999999
 31
0.0
  0
LINE
  5
121
330
1E
100
AcDbEntity
  8
0
  6
CONTINUOUS
100
AcDbLine
 10
717.7744139999999
 20
5.719265
 30
0.0
 11
716.274414
 21
7.219264999999999
 31
0.0
  0
ARC
  5
122
330
1E
100
AcDbEntity
  8
0
  6
CONTINUOUS
100
AcDbCircle
 10
623.774414
 20
56.939083
 30
0.0
 40
7.0
100
AcDbArc
 50
0.0
 51
74.054688
  0
ARC
  5
123
330
1E
100
AcDbEntity
  8
0
  6
CONTINUOUS
100
AcDbCircle
 10
609.7744139999999
 20
117.875084
 30
0.0
 40
7.0
100
AcDbArc
 50
0.0
 51
60.000092
  0
ARC
  5
124
330
1E
100
AcDbEntity
  8
0
  6
CONTINUOUS
100
AcDbCircle
 10
623.774414
 20
227.999283
 30
0.0
 40
7.0
100
AcDbArc
 50
285.945557
 51
0.0
  0
ARC
  5
125
330
1E
100
AcDbEntity
  8
0
  6
CONTINUOUS
100
AcDbCircle
 10
682.774414
 20
117.2192689999999
 30
0.0
 40
71.0
100
AcDbArc
 50
338.36908
 51
6.068255999999998
  0
ARC
  5
126
330
1E
100
AcDbEntity
  8
0
  6
CONTINUOUS
100
AcDbCircle
 10
682.774414
 20
117.2192689999999
 30
0.0
 40
71.0
100
AcDbArc
 50
173.931793
 51
201.630905
  0
LINE
  5
127
330
1E
100
AcDbEntity
  8
0
  6
CONTINUOUS
100
AcDbLine
 10
542.7744139999999
 20
150.719284
 30
0.0
 11
542.7744139999999
 21
190.719284
 31
0.0
  0
LINE
  5
128
330
1E
100
AcDbEntity
  8
0
  6
CONTINUOUS
100
AcDbLine
 10
607.774414
 20
190.719284
 30
0.0
 11
542.7744139999999
 21
190.719284
 31
0.0
  0
LINE
  5
129
330
1E
100
AcDbEntity
  8
0
  6
CONTINUOUS
100
AcDbLine
 10
607.774414
 20
150.719284
 30
0.0
 11
542.7744139999999
 21
150.719284
 31
0.0
  0
LINE
  5
12A
330
1E
100
AcDbEntity
  8
0
  6
CONTINUOUS
100
AcDbLine
 10
607.774414
 20
193.219284
 30
0.0
 11
607.774414
 21
148.219284
 31
0.0
  0
LINE
  5
12B
330
1E
100
AcDbEntity
  8
0
  6
CONTINUOUS
100
AcDbLine
 10
609.7744139999999
 20
193.219284
 30
0.0
 11
607.774414
 21
193.219284
 31
0.0
  0
LINE
  5
12C
330
1E
100
AcDbEntity
  8
0
  6
CONTINUOUS
100
AcDbLine
 10
609.7744139999999
 20
148.219284
 30
0.0
 11
607.774414
 21
148.219284
 31
0.0
  0
ARC
  5
12D
330
1E
100
AcDbEntity
  8
0
  6
CONTINUOUS
100
AcDbCircle
 10
596.7744139999999
 20
170.719284
 30
0.0
 40
6.0
100
AcDbArc
 50
270.0
 51
90.0
  0
LINE
  5
12E
330
1E
100
AcDbEntity
  8
0
  6
CONTINUOUS
100
AcDbLine
 10
596.7744139999999
 20
176.719284
 30
0.0
 11
542.7744139999999
 21
176.719284
 31
0.0
  0
LINE
  5
12F
330
1E
100
AcDbEntity
  8
0
  6
CONTINUOUS
100
AcDbLine
 10
596.7744139999999
 20
164.719284
 30
0.0
 11
542.7744139999999
 21
164.719284
 31
0.0
  0
LINE
  5
130
330
1E
100
AcDbEntity
  8
0
  6
CENTER
100
AcDbLine
 10
547.549988
 20
151.219284
 30
0.0
 11
743.878174
 21
151.219284
 31
0.0
  0
LINE
  5
131
330
1E
100
AcDbEntity
  8
0
  6
CONTINUOUS
100
AcDbLine
 10
222.274414
 20
156.969299
 30
0.0
 11
222.274414
 21
49.429684
 31
0.0
  0
LINE
  5
132
330
1E
100
AcDbEntity
  8
0
  6
CONTINUOUS
100
AcDbLine
 10
225.195816
 20
46.43078599999999
 30
0.0
 11
233.2744139999999
 21
46.219303
 31
0.0
  0
ARC
  5
133
330
1E
100
AcDbEntity
  8
0
  6
CONTINUOUS
100
AcDbCircle
 10
225.274414
 20
49.429825
 30
0.0
 40
3.0
100
AcDbArc
 50
180.0
 51
268.5004879999999
  0
LINE
  5
134
330
1E
100
AcDbEntity
  8
0
  6
CONTINUOUS
100
AcDbLine
 10
233.2744139999999
 20
188.219299
 30
0.0
 11
188.143509
 21
189.401428
 31
0.0
  0
LINE
  5
135
330
1E
100
AcDbEntity
  8
0
  6
CENTER
100
AcDbLine
 10
-22.490625
 20
151.219299
 30
0.0
 11
231.2744139999999
 21
151.219299
 31
0.0
  0
LINE
  5
136
330
1E
100
AcDbEntity
  8
0
  6
CENTER
100
AcDbLine
 10
202.0244139999999
 20
117.219307
 30
0.0
 11
233.2744139999999
 21
117.219307
 31
0.0
  0
LINE
  5
137
330
1E
100
AcDbEntity
  8
0
  6
CONTINUOUS
100
AcDbLine
 10
174.7744139999999
 20
208.719299
 30
0.0
 11
174.7744139999999
 21
93.719307
 31
0.0
  0
LINE
  5
138
330
1E
100
AcDbEntity
  8
0
  6
CONTINUOUS
100
AcDbLine
 10
183.2744139999999
 20
205.7192989999999
 30
0.0
 11
183.2744139999999
 21
163.469299
 31
0.0
  0
LINE
  5
139
330
1E
100
AcDbEntity
  8
0
  6
CONTINUOUS
100
AcDbLine
 10
180.2744139999999
 20
208.719299
 30
0.0
 11
174.7744139999999
 21
208.719299
 31
0.0
  0
LINE
  5
13A
330
1E
100
AcDbEntity
  8
0
  6
CONTINUOUS
100
AcDbLine
 10
174.7744139999999
 20
93.719307
 30
0.0
 11
179.1452639999999
 21
93.719307
 31
0.0
  0
ARC
  5
13B
330
1E
100
AcDbEntity
  8
0
  6
CONTINUOUS
100
AcDbCircle
 10
180.2744289999999
 20
205.719284
 30
0.0
 40
3.0
100
AcDbArc
 50
0.0
 51
90.0
  0
LINE
  5
13C
330
1E
100
AcDbEntity
  8
0
  6
CONTINUOUS
100
AcDbLine
 10
222.274414
 20
61.219303
 30
0.0
 11
179.1452639999999
 21
93.719307
 31
0.0
  0
ARC
  5
13D
330
1E
100
AcDbEntity
  8
0
  6
CONTINUOUS
100
AcDbCircle
 10
188.2743679999999
 20
194.39975
 30
0.0
 40
5.0
100
AcDbArc
 50
180.0
 51
268.499908
  0
LINE
  5
13E
330
1E
100
AcDbEntity
  8
0
  6
CONTINUOUS
100
AcDbLine
 10
222.274597
 20
570.722717
 30
0.0
 11
222.274597
 21
561.258423
 31
0.0
  0
LINE
  5
13F
330
1E
100
AcDbEntity
  8
0
  6
CONTINUOUS
100
AcDbLine
 10
233.274719
 20
431.5142519999999
 30
0.0
 11
225.1962279999999
 21
431.7257999999999
 31
0.0
  0
ARC
  5
140
330
1E
100
AcDbEntity
  8
0
  6
CONTINUOUS
100
AcDbCircle
 10
225.274719
 20
434.7248539999999
 30
0.0
 40
3.0
100
AcDbArc
 50
180.0
 51
268.5003049999999
  0
LINE
  5
141
330
1E
100
AcDbEntity
  8
0
  6
CONTINUOUS
100
AcDbLine
 10
233.274719
 20
573.514221
 30
0.0
 11
225.353088
 21
573.7216799999999
 31
0.0
  0
ARC
  5
142
330
1E
100
AcDbEntity
  8
0
  6
CONTINUOUS
100
AcDbCircle
 10
225.274597
 20
570.722717
 30
0.0
 40
3.0
100
AcDbArc
 50
88.50013699999999
 51
180.0
  0
LINE
  5
143
330
1E
100
AcDbEntity
  8
0
  6
CONTINUOUS
100
AcDbLine
 10
222.274368
 20
443.770416
 30
0.0
 11
222.274368
 21
434.7248539999999
 31
0.0
  0
LINE
  5
144
330
1E
100
AcDbEntity
  8
0
  6
CONTINUOUS
100
AcDbLine
 10
183.2746889999999
 20
557.1574099999999
 30
0.0
 11
183.274506
 21
447.871307
 31
0.0
  0
LINE
  5
145
330
1E
100
AcDbEntity
  8
0
  6
CONTINUOUS
100
AcDbLine
 10
174.774719
 20
560.014282
 30
0.0
 11
222.274597
 21
561.258423
 31
0.0
  0
LINE
  5
146
330
1E
100
AcDbEntity
  8
0
  6
CONTINUOUS
100
AcDbLine
 10
174.774719
 20
445.0142519999999
 30
0.0
 11
222.274368
 21
443.770416
 31
0.0
  0
ARC
  5
147
330
1E
100
AcDbEntity
  8
0
  6
CONTINUOUS
100
AcDbCircle
 10
180.27475
 20
557.1574099999999
 30
0.0
 40
3.0
100
AcDbArc
 50
0.0
 51
91.50055700000001
  0
ARC
  5
148
330
1E
100
AcDbEntity
  8
0
  6
CONTINUOUS
100
AcDbCircle
 10
180.27475
 20
447.871307
 30
0.0
 40
3.0
100
AcDbArc
 50
268.500122
 51
0.0
  0
LINE
  5
149
330
1E
100
AcDbEntity
  8
0
  6
CONTINUOUS
100
AcDbLine
 10
174.774719
 20
560.014282
 30
0.0
 11
174.774719
 21
445.0142519999999
 31
0.0
  0
LINE
  5
14A
330
1E
100
AcDbEntity
  8
0
  6
CONTINUOUS
100
AcDbLine
 10
50.77456599850859
 20
560.014282
 30
0.0
 11
174.774719
 21
560.014282
 31
0.0
  0
LINE
  5
14B
330
1E
100
AcDbEntity
  8
0
  6
CONTINUOUS
100
AcDbLine
 10
174.774719
 20
445.0142519999999
 30
0.0
 11
130.2491
 21
445.0142519999999
 31
0.0
  0
LINE
  5
14C
330
1E
100
AcDbEntity
  8
0
  6
CONTINUOUS
100
AcDbLine
 10
62.774723
 20
528.513733
 30
0.0
 11
166.7485349999999
 21
528.513733
 31
0.0
  0
LINE
  5
14D
330
1E
100
AcDbEntity
  8
0
  6
CONTINUOUS
100
AcDbLine
 10
62.774723
 20
536.2843019999998
 30
0.0
 11
166.7485349999999
 21
536.2843019999998
 31
0.0
  0
LINE
  5
14E
330
1E
100
AcDbEntity
  8
0
  6
CONTINUOUS
100
AcDbLine
 10
63.774723
 20
539.5636599999999
 30
0.0
 11
165.7485499999999
 21
539.5636599999999
 31
0.0
  0
LINE
  5
14F
330
1E
100
AcDbEntity
  8
0
  6
CONTINUOUS
100
AcDbLine
 10
62.774723
 20
544.378601
 30
0.0
 11
166.7485349999999
 21
544.378601
 31
0.0
  0
LINE
  5
150
330
1E
100
AcDbEntity
  8
0
  6
CONTINUOUS
100
AcDbLine
 10
63.774723
 20
546.3664549999999
 30
0.0
 11
165.7485499999999
 21
546.3664549999999
 31
0.0
  0
LINE
  5
151
330
1E
100
AcDbEntity
  8
0
  6
CONTINUOUS
100
AcDbLine
 10
62.774723
 20
550.409119
 30
0.0
 11
166.7485349999999
 21
550.409119
 31
0.0
  0
LINE
  5
152
330
1E
100
AcDbEntity
  8
0
  6
CONTINUOUS
100
AcDbLine
 10
62.774723
 20
554.9399409999999
 30
0.0
 11
166.7485349999999
 21
554.9399409999999
 31
0.0
  0
LINE
  5
153
330
1E
100
AcDbEntity
  8
0
  6
CONTINUOUS
100
AcDbLine
 10
62.774723
 20
557.8170169999999
 30
0.0
 11
166.7485349999999
 21
557.8170169999999
 31
0.0
  0
LINE
  5
154
330
1E
100
AcDbEntity
  8
0
  6
CONTINUOUS
100
AcDbLine
 10
62.774723
 20
559.472351
 30
0.0
 11
166.7485349999999
 21
559.472351
 31
0.0
  0
LINE
  5
155
330
1E
100
AcDbEntity
  8
0
  6
CONTINUOUS
100
AcDbLine
 10
166.7485349999999
 20
560.014282
 30
0.0
 11
166.7485349999999
 21
528.513733
 31
0.0
  0
LINE
  5
156
330
1E
100
AcDbEntity
  8
0
  6
CONTINUOUS
100
AcDbLine
 10
62.774723
 20
476.51474
 30
0.0
 11
166.7485349999999
 21
476.51474
 31
0.0
  0
LINE
  5
157
330
1E
100
AcDbEntity
  8
0
  6
CONTINUOUS
100
AcDbLine
 10
62.774723
 20
468.7442629999999
 30
0.0
 11
166.7485349999999
 21
468.7442629999999
 31
0.0
  0
LINE
  5
158
330
1E
100
AcDbEntity
  8
0
  6
CONTINUOUS
100
AcDbLine
 10
62.774723
 20
460.6499019999999
 30
0.0
 11
166.7485349999999
 21
460.6499019999999
 31
0.0
  0
LINE
  5
159
330
1E
100
AcDbEntity
  8
0
  6
CONTINUOUS
100
AcDbLine
 10
129.7490999999999
 20
450.088562
 30
0.0
 11
166.7485349999999
 21
450.088562
 31
0.0
  0
LINE
  5
15A
330
1E
100
AcDbEntity
  8
0
  6
CONTINUOUS
100
AcDbLine
 10
129.7490999999999
 20
447.211487
 30
0.0
 11
166.7485349999999
 21
447.211487
 31
0.0
  0
LINE
  5
15B
330
1E
100
AcDbEntity
  8
0
  6
CONTINUOUS
100
AcDbLine
 10
130.249084
 20
445.556183
 30
0.0
 11
166.7485349999999
 21
445.556183
 31
0.0
  0
LINE
  5
15C
330
1E
100
AcDbEntity
  8
0
  6
CONTINUOUS
100
AcDbLine
 10
166.7485349999999
 20
445.0142519999999
 30
0.0
 11
166.7485349999999
 21
476.51474
 31
0.0
  0
LINE
  5
15D
330
1E
100
AcDbEntity
  8
0
  6
CONTINUOUS
100
AcDbLine
 10
129.7490999999999
 20
445.5142519999999
 30
0.0
 11
129.7490999999999
 21
451.713684
 31
0.0
  0
ARC
  5
15E
330
1E
100
AcDbEntity
  8
0
  6
CONTINUOUS
100
AcDbCircle
 10
130.249084
 20
446.056183
 30
0.0
 40
0.499992
100
AcDbArc
 50
180.0
 51
270.0
  0
ARC
  5
15F
330
1E
100
AcDbEntity
  8
0
  6
CONTINUOUS
100
AcDbCircle
 10
128.7491149999999
 20
447.5151059999999
 30
0.0
 40
0.9999839999999998
100
AcDbArc
 50
270.0
 51
0.0
  0
LINE
  5
160
330
1E
100
AcDbEntity
  8
0
  6
CONTINUOUS
100
AcDbLine
 10
63.774723
 20
465.4648739999999
 30
0.0
 11
165.7485499999999
 21
465.4648739999999
 31
0.0
  0
LINE
  5
161
330
1E
100
AcDbEntity
  8
0
  6
CONTINUOUS
100
AcDbLine
 10
63.774723
 20
458.662079
 30
0.0
 11
165.7485499999999
 21
458.662079
 31
0.0
  0
LINE
  5
162
330
1E
100
AcDbEntity
  8
0
  6
CONTINUOUS
100
AcDbLine
 10
62.774723
 20
454.619415
 30
0.0
 11
166.7485349999999
 21
454.619415
 31
0.0
  0
LINE
  5
163
330
1E
100
AcDbEntity
  8
0
  6
CONTINUOUS
100
AcDbLine
 10
62.774723
 20
451.713684
 30
0.0
 11
129.7490999999999
 21
451.713684
 31
0.0
  0
LINE
  5
164
330
1E
100
AcDbEntity
  8
0
  6
CONTINUOUS
100
AcDbLine
 10
63.774723
 20
446.515137
 30
0.0
 11
109.2970959999999
 21
446.515137
 31
0.0
  0
LINE
  5
165
330
1E
100
AcDbEntity
  8
0
  6
CONTINUOUS
100
AcDbLine
 10
128.7491149999999
 20
446.515137
 30
0.0
 11
109.2970959999999
 21
446.5150759999999
 31
0.0
  0
ARC
  5
166
330
1E
100
AcDbEntity
  8
0
  6
CONTINUOUS
100
AcDbCircle
 10
130.2491
 20
445.5142519999999
 30
0.0
 40
0.5
100
AcDbArc
 50
180.0
 51
270.0
  0
LINE
  5
167
330
1E
100
AcDbEntity
  8
0
  6
CENTER
100
AcDbLine
 10
263.7156679999999
 20
432.5147089999999
 30
0.0
 11
290.632874
 21
432.5147089999999
 31
0.0
  0
LINE
  5
168
330
1E
100
AcDbEntity
  8
0
  6
CENTER
100
AcDbLine
 10
396.274414
 20
444.563751
 30
0.0
 11
396.274414
 21
420.154358
 31
0.0
  0
LINE
  5
169
330
1E
100
AcDbEntity
  8
0
  6
CENTER
100
AcDbLine
 10
276.274414
 20
443.560608
 30
0.0
 11
276.274414
 21
419.820007
 31
0.0
  0
ARC
  5
16A
330
1E
100
AcDbEntity
  8
0
  6
CONTINUOUS
100
AcDbCircle
 10
396.274414
 20
432.5147089999999
 30
0.0
 40
7.5
100
AcDbArc
 50
147.772781
 51
46.07371099999999
  0
ARC
  5
16B
330
1E
100
AcDbEntity
  8
0
  6
CONTINUOUS
100
AcDbCircle
 10
276.274414
 20
432.5147089999999
 30
0.0
 40
7.5
100
AcDbArc
 50
133.9252319999999
 51
32.22722199999999
  0
LINE
  5
16C
330
1E
100
AcDbEntity
  8
0
  6
CENTER
100
AcDbLine
 10
382.502411
 20
432.5147089999999
 30
0.0
 11
411.8438109999999
 21
432.5147089999999
 31
0.0
  0
LINE
  5
16D
330
1E
100
AcDbEntity
  8
0
  6
CENTER
100
AcDbLine
 10
-17.96249999999999
 20
502.5142519999999
 30
0.0
 11
445.281311
 21
502.5142519999999
 31
0.0
  0
LINE
  5
16E
330
1E
100
AcDbEntity
  8
0
  6
CONTINUOUS
100
AcDbLine
 10
56.837124
 20
432.092468
 30
0.0
 11
55.774723
 21
392.014252
 31
0.0
  0
LINE
  5
16F
330
1E
100
AcDbEntity
  8
0
  6
CONTINUOUS
100
AcDbLine
 10
124.7117229999999
 20
432.092468
 30
0.0
 11
125.774727
 21
392.014252
 31
0.0
  0
LINE
  5
170
330
1E
100
AcDbEntity
  8
0
  6
CONTINUOUS
100
AcDbLine
 10
66.748924
 20
445.0142519999999
 30
0.0
 11
79.274727
 21
445.0142519999999
 31
0.0
  0
LINE
  5
171
330
1E
100
AcDbEntity
  8
0
  6
CONTINUOUS
100
AcDbLine
 10
114.8005219999999
 20
445.0142519999999
 30
0.0
 11
79.274727
 21
445.0142519999999
 31
0.0
  0
LINE
  5
172
330
1E
100
AcDbEntity
  8
0
  6
CONTINUOUS
100
AcDbLine
 10
121.725922
 20
435.0142519999999
 30
0.0
 11
104.0859219999999
 21
435.0142519999999
 31
0.0
  0
ARC
  5
173
330
1E
100
AcDbEntity
  8
0
  6
CONTINUOUS
100
AcDbCircle
 10
59.82272299999999
 20
432.0142519999999
 30
0.0
 40
3.0
100
AcDbArc
 50
90.0
 51
178.5002749999999
  0
ARC
  5
174
330
1E
100
AcDbEntity
  8
0
  6
CONTINUOUS
100
AcDbCircle
 10
121.725922
 20
432.0142519999999
 30
0.0
 40
3.0
100
AcDbArc
 50
1.4999
 51
90.0
  0
LINE
  5
175
330
1E
100
AcDbEntity
  8
0
  6
CONTINUOUS
100
AcDbLine
 10
65.74916800000001
 20
444.040436
 30
0.0
 11
65.56381999999999
 21
436.961914
 31
0.0
  0
LINE
  5
176
330
1E
100
AcDbEntity
  8
0
  6
CONTINUOUS
100
AcDbLine
 10
115.799835
 20
444.0404049999999
 30
0.0
 11
115.9856109999999
 21
436.961792
 31
0.0
  0
ARC
  5
177
330
1E
100
AcDbEntity
  8
0
  6
CONTINUOUS
100
AcDbCircle
 10
114.8005219999999
 20
444.0142519999999
 30
0.0
 40
1.0
100
AcDbArc
 50
1.4993
 51
90.0
  0
ARC
  5
178
330
1E
100
AcDbEntity
  8
0
  6
CONTINUOUS
100
AcDbCircle
 10
66.748924
 20
444.0142519999999
 30
0.0
 40
1.0
100
AcDbArc
 50
90.0
 51
178.4994049999999
  0
LINE
  5
179
330
1E
100
AcDbEntity
  8
0
  6
CONTINUOUS
100
AcDbLine
 10
59.822926
 20
435.0142519999999
 30
0.0
 11
77.46352399999999
 21
435.0142519999999
 31
0.0
  0
ARC
  5
17A
330
1E
100
AcDbEntity
  8
0
  6
CONTINUOUS
100
AcDbCircle
 10
90.77472699999999
 20
502.5142519999999
 30
0.0
 40
68.800003
100
AcDbArc
 50
258.8442
 51
281.1558
  0
LINE
  5
17B
330
1E
100
AcDbEntity
  8
0
  6
CENTER
100
AcDbLine
 10
90.77472699999999
 20
448.840454
 30
0.0
 11
90.77472699999999
 21
373.920654
 31
0.0
  0
LINE
  5
17C
330
1E
100
AcDbEntity
  8
0
  6
CONTINUOUS
100
AcDbLine
 10
58.274723
 20
386.014252
 30
0.0
 11
123.2747269999999
 21
386.014252
 31
0.0
  0
LINE
  5
17D
330
1E
100
AcDbEntity
  8
0
  6
CONTINUOUS
100
AcDbLine
 10
125.774727
 20
388.514252
 30
0.0
 11
125.774727
 21
391.0142519999999
 31
0.0
  0
LINE
  5
17E
330
1E
100
AcDbEntity
  8
0
  6
CONTINUOUS
100
AcDbLine
 10
55.774723
 20
388.514252
 30
0.0
 11
55.774723
 21
391.0142519999999
 31
0.0
  0
LINE
  5
17F
330
1E
100
AcDbEntity
  8
0
  6
CONTINUOUS
100
AcDbLine
 10
125.774727
 20
391.0142519999999
 30
0.0
 11
55.774723
 21
391.0142519999999
 31
0.0
  0
LINE
  5
180
330
1E
100
AcDbEntity
  8
0
  6
CONTINUOUS
100
AcDbLine
 10
125.774727
 20
392.014252
 30
0.0
 11
55.774723
 21
392.014252
 31
0.0
  0
LINE
  5
181
330
1E
100
AcDbEntity
  8
0
  6
CONTINUOUS
100
AcDbLine
 10
125.774727
 20
391.0142519999999
 30
0.0
 11
125.774727
 21
392.014252
 31
0.0
  0
LINE
  5
182
330
1E
100
AcDbEntity
  8
0
  6
CONTINUOUS
100
AcDbLine
 10
55.774723
 20
391.0142519999999
 30
0.0
 11
55.774723
 21
392.014252
 31
0.0
  0
LINE
  5
183
330
1E
100
AcDbEntity
  8
0
  6
CENTER
100
AcDbLine
 10
60.774723
 20
408.0142519999999
 30
0.0
 11
21.087725
 21
408.0142519999999
 31
0.0
  0
LINE
  5
184
330
1E
100
AcDbEntity
  8
0
  6
CONTINUOUS
100
AcDbLine
 10
117.261925
 20
389.0142519999999
 30
0.0
 11
124.774727
 21
389.0142519999999
 31
0.0
  0
LINE
  5
185
330
1E
100
AcDbEntity
  8
0
  6
CONTINUOUS
100
AcDbLine
 10
64.287727
 20
389.0142519999999
 30
0.0
 11
56.774723
 21
389.0142519999999
 31
0.0
  0
LINE
  5
186
330
1E
100
AcDbEntity
  8
0
  6
CONTINUOUS
100
AcDbLine
 10
116.7619249999999
 20
388.527466
 30
0.0
 11
116.7217249999999
 21
386.9880679999999
 31
0.0
  0
ARC
  5
187
330
1E
100
AcDbEntity
  8
0
  6
CONTINUOUS
100
AcDbCircle
 10
117.261925
 20
388.514252
 30
0.0
 40
0.5
100
AcDbArc
 50
90.0
 51
178.5
  0
ARC
  5
188
330
1E
100
AcDbEntity
  8
0
  6
CONTINUOUS
100
AcDbCircle
 10
115.722122
 20
387.0142519999999
 30
0.0
 40
1.0
100
AcDbArc
 50
270.0
 51
358.5002
  0
ARC
  5
189
330
1E
100
AcDbEntity
  8
0
  6
CONTINUOUS
100
AcDbCircle
 10
124.774727
 20
390.014252
 30
0.0
 40
1.0
100
AcDbArc
 50
270.0
 51
0.0
  0
ARC
  5
18A
330
1E
100
AcDbEntity
  8
0
  6
CONTINUOUS
100
AcDbCircle
 10
123.2747269999999
 20
388.514252
 30
0.0
 40
2.5
100
AcDbArc
 50
270.0
 51
0.0
  0
LINE
  5
18B
330
1E
100
AcDbEntity
  8
0
  6
CONTINUOUS
100
AcDbLine
 10
64.787521
 20
388.527466
 30
0.0
 11
64.827721
 21
386.9880679999999
 31
0.0
  0
ARC
  5
18C
330
1E
100
AcDbEntity
  8
0
  6
CONTINUOUS
100
AcDbCircle
 10
65.827522
 20
387.0142519999999
 30
0.0
 40
1.0
100
AcDbArc
 50
181.500397
 51
270.0
  0
ARC
  5
18D
330
1E
100
AcDbEntity
  8
0
  6
CONTINUOUS
100
AcDbCircle
 10
64.287727
 20
388.514252
 30
0.0
 40
0.5
100
AcDbArc
 50
1.500199999999999
 51
90.0
  0
ARC
  5
18E
330
1E
100
AcDbEntity
  8
0
  6
CONTINUOUS
100
AcDbCircle
 10
56.774723
 20
390.014252
 30
0.0
 40
1.0
100
AcDbArc
 50
180.0
 51
270.0
  0
ARC
  5
18F
330
1E
100
AcDbEntity
  8
0
  6
CONTINUOUS
100
AcDbCircle
 10
58.274723
 20
388.514252
 30
0.0
 40
2.5
100
AcDbArc
 50
180.0
 51
270.0
  0
ARC
  5
190
330
1E
100
AcDbEntity
  8
0
  6
CONTINUOUS
100
AcDbCircle
 10
120.774727
 20
389.0142519999999
 30
0.0
 40
3.0
100
AcDbArc
 50
180.0
 51
0.0
  0
LINE
  5
191
330
1E
100
AcDbEntity
  8
0
  6
CONTINUOUS
100
AcDbLine
 10
123.7327269999999
 20
388.514252
 30
0.0
 11
117.816727
 21
388.514252
 31
0.0
  0
LINE
  5
192
330
1E
100
AcDbEntity
  8
0
  6
CONTINUOUS
100
AcDbLine
 10
120.774727
 20
386.514252
 30
0.0
 11
120.4937209999999
 21
386.0274659999999
 31
0.0
  0
LINE
  5
193
330
1E
100
AcDbEntity
  8
0
  6
CONTINUOUS
100
AcDbLine
 10
120.774727
 20
386.514252
 30
0.0
 11
121.0559229999999
 21
386.0274659999999
 31
0.0
  0
ARC
  5
194
330
1E
100
AcDbEntity
  8
0
  6
CONTINUOUS
100
AcDbCircle
 10
60.774723
 20
389.0142519999999
 30
0.0
 40
3.0
100
AcDbArc
 50
180.0
 51
0.0
  0
LINE
  5
195
330
1E
100
AcDbEntity
  8
0
  6
CONTINUOUS
100
AcDbLine
 10
63.732723
 20
388.514252
 30
0.0
 11
57.816723
 21
388.514252
 31
0.0
  0
LINE
  5
196
330
1E
100
AcDbEntity
  8
0
  6
CONTINUOUS
100
AcDbLine
 10
60.774723
 20
386.514252
 30
0.0
 11
60.493725
 21
386.0274659999999
 31
0.0
  0
LINE
  5
197
330
1E
100
AcDbEntity
  8
0
  6
CONTINUOUS
100
AcDbLine
 10
60.774723
 20
386.514252
 30
0.0
 11
61.055923
 21
386.0274659999999
 31
0.0
  0
LINE
  5
198
330
1E
100
AcDbEntity
  8
0
  6
CONTINUOUS
100
AcDbLine
 10
113.7747269999999
 20
445.0142519999999
 30
0.0
 11
113.7747269999999
 21
446.5142519999999
 31
0.0
  0
LINE
  5
199
330
1E
100
AcDbEntity
  8
0
  6
CONTINUOUS
100
AcDbLine
 10
67.774727
 20
445.0142519999999
 30
0.0
 11
67.774727
 21
446.5142519999999
 31
0.0
  0
LINE
  5
19A
330
1E
100
AcDbEntity
  8
0
  6
CONTINUOUS
100
AcDbLine
 10
27.77472299999999
 20
422.514465
 30
0.0
 11
27.77472299999999
 21
393.5142519999999
 31
0.0
  0
LINE
  5
19B
330
1E
100
AcDbEntity
  8
0
  6
CONTINUOUS
100
AcDbLine
 10
35.774723
 20
422.514465
 30
0.0
 11
35.774723
 21
393.5142519999999
 31
0.0
  0
LINE
  5
19C
330
1E
100
AcDbEntity
  8
0
  6
CONTINUOUS
100
AcDbLine
 10
27.77472299999999
 20
422.514465
 30
0.0
 11
35.774723
 21
422.514465
 31
0.0
  0
LINE
  5
19D
330
1E
100
AcDbEntity
  8
0
  6
CONTINUOUS
100
AcDbLine
 10
27.77472299999999
 20
393.5142519999999
 30
0.0
 11
35.774723
 21
393.5142519999999
 31
0.0
  0
LINE
  5
19E
330
1E
100
AcDbEntity
  8
0
  6
CONTINUOUS
100
AcDbLine
 10
44.774723
 20
421.014465
 30
0.0
 11
44.774723
 21
395.0142519999999
 31
0.0
  0
LINE
  5
19F
330
1E
100
AcDbEntity
  8
0
  6
CONTINUOUS
100
AcDbLine
 10
35.774723
 20
421.014465
 30
0.0
 11
44.774723
 21
421.014465
 31
0.0
  0
LINE
  5
1A0
330
1E
100
AcDbEntity
  8
0
  6
CONTINUOUS
100
AcDbLine
 10
35.774723
 20
395.0142519999999
 30
0.0
 11
44.774723
 21
395.0142519999999
 31
0.0
  0
LINE
  5
1A1
330
1E
100
AcDbEntity
  8
0
  6
CONTINUOUS
100
AcDbLine
 10
44.774723
 20
419.514465
 30
0.0
 11
49.774723
 21
419.514465
 31
0.0
  0
LINE
  5
1A2
330
1E
100
AcDbEntity
  8
0
  6
CONTINUOUS
100
AcDbLine
 10
44.774723
 20
396.514252
 30
0.0
 11
49.774723
 21
396.514252
 31
0.0
  0
LINE
  5
1A3
330
1E
100
AcDbEntity
  8
0
  6
CONTINUOUS
100
AcDbLine
 10
49.774723
 20
421.514465
 30
0.0
 11
49.774723
 21
394.514252
 31
0.0
  0
LINE
  5
1A4
330
1E
100
AcDbEntity
  8
0
  6
CONTINUOUS
100
AcDbLine
 10
54.274723
 20
422.514465
 30
0.0
 11
54.274723
 21
393.5142519999999
 31
0.0
  0
LINE
  5
1A5
330
1E
100
AcDbEntity
  8
0
  6
CONTINUOUS
100
AcDbLine
 10
49.774723
 20
421.514465
 30
0.0
 11
54.274723
 21
421.514465
 31
0.0
  0
LINE
  5
1A6
330
1E
100
AcDbEntity
  8
0
  6
CONTINUOUS
100
AcDbLine
 10
49.774723
 20
394.514252
 30
0.0
 11
54.274723
 21
394.514252
 31
0.0
  0
LINE
  5
1A7
330
1E
100
AcDbEntity
  8
0
  6
CONTINUOUS
100
AcDbLine
 10
54.274723
 20
422.514465
 30
0.0
 11
56.58332399999999
 21
422.514465
 31
0.0
  0
LINE
  5
1A8
330
1E
100
AcDbEntity
  8
0
  6
CONTINUOUS
100
AcDbLine
 10
54.274723
 20
393.5142519999999
 30
0.0
 11
55.814526
 21
393.5142519999999
 31
0.0
  0
LINE
  5
1A9
330
1E
100
AcDbEntity
  8
0
  6
CONTINUOUS
100
AcDbLine
 10
27.77472299999999
 20
416.0144649999999
 30
0.0
 11
35.774723
 21
416.0144649999999
 31
0.0
  0
LINE
  5
1AA
330
1E
100
AcDbEntity
  8
0
  6
CONTINUOUS
100
AcDbLine
 10
27.77472299999999
 20
400.0142519999999
 30
0.0
 11
35.774723
 21
400.0142519999999
 31
0.0
  0
LINE
  5
1AB
330
1E
100
AcDbEntity
  8
0
  6
CONTINUOUS
100
AcDbLine
 10
44.774723
 20
418.0144649999999
 30
0.0
 11
49.774723
 21
418.0144649999999
 31
0.0
  0
LINE
  5
1AC
330
1E
100
AcDbEntity
  8
0
  6
CONTINUOUS
100
AcDbLine
 10
44.774723
 20
398.014252
 30
0.0
 11
49.774723
 21
398.014252
 31
0.0
  0
ARC
  5
1AD
330
1E
100
AcDbEntity
  8
0
  6
CONTINUOUS
100
AcDbCircle
 10
63.564503
 20
437.0142519999999
 30
0.0
 40
2.0
100
AcDbArc
 50
270.0
 51
358.500092
  0
ARC
  5
1AE
330
1E
100
AcDbEntity
  8
0
  6
CONTINUOUS
100
AcDbCircle
 10
117.984917
 20
437.0142519999999
 30
0.0
 40
2.0
100
AcDbArc
 50
181.5033719999999
 51
270.0
  0
LINE
  5
1AF
330
1E
100
AcDbEntity
  8
0
  6
CONTINUOUS
100
AcDbLine
 10
50.77444400090133
 20
208.7194209999999
 30
0.0
 11
174.7744139999999
 21
208.7194209999999
 31
0.0
  0
LINE
  5
1B0
330
1E
100
AcDbEntity
  8
0
  6
CONTINUOUS
100
AcDbLine
 10
166.7744139999999
 20
202.5054169999999
 30
0.0
 11
166.7744139999999
 21
198.2194209999999
 31
0.0
  0
LINE
  5
1B1
330
1E
100
AcDbEntity
  8
0
  6
CONTINUOUS
100
AcDbLine
 10
127.774406
 20
178.2194209999999
 30
0.0
 11
125.774406
 21
178.2194209999999
 31
0.0
  0
LINE
  5
1B2
330
1E
100
AcDbEntity
  8
0
  6
CONTINUOUS
100
AcDbLine
 10
127.774406
 20
124.219421
 30
0.0
 11
125.774406
 21
124.219421
 31
0.0
  0
LINE
  5
1B3
330
1E
100
AcDbEntity
  8
0
  6
CONTINUOUS
100
AcDbLine
 10
129.7744139999999
 20
126.219421
 30
0.0
 11
129.7744139999999
 21
176.2194209999999
 31
0.0
  0
LINE
  5
1B4
330
1E
100
AcDbEntity
  8
0
  6
CONTINUOUS
100
AcDbLine
 10
62.77440999999999
 20
189.2194209999999
 30
0.0
 11
166.7744139999999
 21
189.2194209999999
 31
0.0
  0
LINE
  5
1B5
330
1E
100
AcDbEntity
  8
0
  6
CONTINUOUS
100
AcDbLine
 10
62.77440999999999
 20
191.2194209999999
 30
0.0
 11
166.7744139999999
 21
191.2194209999999
 31
0.0
  0
LINE
  5
1B6
330
1E
100
AcDbEntity
  8
0
  6
CONTINUOUS
100
AcDbLine
 10
62.77440999999999
 20
196.2194209999999
 30
0.0
 11
166.7744139999999
 21
196.2194209999999
 31
0.0
  0
LINE
  5
1B7
330
1E
100
AcDbEntity
  8
0
  6
CONTINUOUS
100
AcDbLine
 10
62.77440999999999
 20
198.2194209999999
 30
0.0
 11
166.7744139999999
 21
198.2194209999999
 31
0.0
  0
LINE
  5
1B8
330
1E
100
AcDbEntity
  8
0
  6
CONTINUOUS
100
AcDbLine
 10
62.77440999999999
 20
202.5054169999999
 30
0.0
 11
166.7744139999999
 21
202.5054169999999
 31
0.0
  0
LINE
  5
1B9
330
1E
100
AcDbEntity
  8
0
  6
CONTINUOUS
100
AcDbLine
 10
166.7744139999999
 20
99.93341800000001
 30
0.0
 11
166.7744139999999
 21
104.2194209999999
 31
0.0
  0
LINE
  5
1BA
330
1E
100
AcDbEntity
  8
0
  6
CONTINUOUS
100
AcDbLine
 10
166.7744139999999
 20
106.2194209999999
 30
0.0
 11
166.7744139999999
 21
111.2194209999999
 31
0.0
  0
LINE
  5
1BB
330
1E
100
AcDbEntity
  8
0
  6
CONTINUOUS
100
AcDbLine
 10
166.7744139999999
 20
113.2194209999999
 30
0.0
 11
166.7744139999999
 21
118.7194209999999
 31
0.0
  0
LINE
  5
1BC
330
1E
100
AcDbEntity
  8
0
  6
CONTINUOUS
100
AcDbLine
 10
166.7744139999999
 20
120.7194209999999
 30
0.0
 11
166.7744139999999
 21
126.8194199999999
 31
0.0
  0
LINE
  5
1BD
330
1E
100
AcDbEntity
  8
0
  6
CONTINUOUS
100
AcDbLine
 10
166.7744139999999
 20
128.8194119999999
 30
0.0
 11
166.7744139999999
 21
134.619415
 31
0.0
  0
LINE
  5
1BE
330
1E
100
AcDbEntity
  8
0
  6
CONTINUOUS
100
AcDbLine
 10
166.7744139999999
 20
136.619415
 30
0.0
 11
166.7744139999999
 21
142.419418
 31
0.0
  0
LINE
  5
1BF
330
1E
100
AcDbEntity
  8
0
  6
CONTINUOUS
100
AcDbLine
 10
166.7744139999999
 20
144.419418
 30
0.0
 11
166.7744139999999
 21
150.2194209999999
 31
0.0
  0
LINE
  5
1C0
330
1E
100
AcDbEntity
  8
0
  6
CONTINUOUS
100
AcDbLine
 10
166.7744139999999
 20
152.2194209999999
 30
0.0
 11
166.7744139999999
 21
158.0194239999999
 31
0.0
  0
LINE
  5
1C1
330
1E
100
AcDbEntity
  8
0
  6
CONTINUOUS
100
AcDbLine
 10
166.7744139999999
 20
160.0194239999999
 30
0.0
 11
166.7744139999999
 21
165.819412
 31
0.0
  0
LINE
  5
1C2
330
1E
100
AcDbEntity
  8
0
  6
CONTINUOUS
100
AcDbLine
 10
166.7744139999999
 20
167.819412
 30
0.0
 11
166.7744139999999
 21
173.619415
 31
0.0
  0
LINE
  5
1C3
330
1E
100
AcDbEntity
  8
0
  6
CONTINUOUS
100
AcDbLine
 10
166.7744139999999
 20
175.6194149999999
 30
0.0
 11
166.7744139999999
 21
181.7194209999999
 31
0.0
  0
LINE
  5
1C4
330
1E
100
AcDbEntity
  8
0
  6
CONTINUOUS
100
AcDbLine
 10
166.7744139999999
 20
183.7194209999999
 30
0.0
 11
166.7744139999999
 21
189.2194209999999
 31
0.0
  0
LINE
  5
1C5
330
1E
100
AcDbEntity
  8
0
  6
CONTINUOUS
100
AcDbLine
 10
166.7744139999999
 20
191.2194209999999
 30
0.0
 11
166.7744139999999
 21
196.2194209999999
 31
0.0
  0
ARC
  5
1C6
330
1E
100
AcDbEntity
  8
0
  6
CONTINUOUS
100
AcDbCircle
 10
127.774406
 20
176.2194209999999
 30
0.0
 40
2.0
100
AcDbArc
 50
0.0
 51
90.0
  0
ARC
  5
1C7
330
1E
100
AcDbEntity
  8
0
  6
CONTINUOUS
100
AcDbCircle
 10
127.774406
 20
126.219421
 30
0.0
 40
2.0
100
AcDbArc
 50
270.0
 51
0.0
  0
LINE
  5
1C8
330
1E
100
AcDbEntity
  8
0
  6
CONTINUOUS
100
AcDbLine
 10
166.7744139999999
 20
120.7194209999999
 30
0.0
 11
125.774406
 21
120.7194209999999
 31
0.0
  0
LINE
  5
1C9
330
1E
100
AcDbEntity
  8
0
  6
CONTINUOUS
100
AcDbLine
 10
166.7744139999999
 20
118.7194209999999
 30
0.0
 11
125.774406
 21
118.719467
 31
0.0
  0
LINE
  5
1CA
330
1E
100
AcDbEntity
  8
0
  6
CONTINUOUS
100
AcDbLine
 10
166.7744139999999
 20
113.2194209999999
 30
0.0
 11
77.27445999999999
 21
113.2194209999999
 31
0.0
  0
LINE
  5
1CB
330
1E
100
AcDbEntity
  8
0
  6
CONTINUOUS
100
AcDbLine
 10
166.7744139999999
 20
111.2194209999999
 30
0.0
 11
104.2745589999999
 21
111.2194209999999
 31
0.0
  0
LINE
  5
1CC
330
1E
100
AcDbEntity
  8
0
  6
CONTINUOUS
100
AcDbLine
 10
166.7744139999999
 20
106.2194209999999
 30
0.0
 11
79.27445999999999
 21
106.2194209999999
 31
0.0
  0
LINE
  5
1CD
330
1E
100
AcDbEntity
  8
0
  6
CONTINUOUS
100
AcDbLine
 10
166.7744139999999
 20
104.2194209999999
 30
0.0
 11
103.7745589999999
 21
104.2194209999999
 31
0.0
  0
LINE
  5
1CE
330
1E
100
AcDbEntity
  8
0
  6
CONTINUOUS
100
AcDbLine
 10
166.7744139999999
 20
99.93341800000001
 30
0.0
 11
77.77445999999999
 21
99.93341800000001
 31
0.0
  0
LINE
  5
1CF
330
1E
100
AcDbEntity
  8
0
  6
CONTINUOUS
100
AcDbLine
 10
174.7744139999999
 20
93.719421
 30
0.0
 11
105.274559
 21
93.719421
 31
0.0
  0
LINE
  5
1D0
330
1E
100
AcDbEntity
  8
0
  6
CONTINUOUS
100
AcDbLine
 10
125.774406
 20
183.7194059999999
 30
0.0
 11
125.774406
 21
118.719467
 31
0.0
  0
LINE
  5
1D1
330
1E
100
AcDbEntity
  8
0
  6
CONTINUOUS
100
AcDbLine
 10
55.77441
 20
118.7193679999999
 30
0.0
 11
55.77441
 21
183.7194209999999
 31
0.0
  0
LINE
  5
1D2
330
1E
100
AcDbEntity
  8
0
  6
CONTINUOUS
100
AcDbLine
 10
58.27441
 20
186.219421
 30
0.0
 11
123.2744059999999
 21
186.219421
 31
0.0
  0
LINE
  5
1D3
330
1E
100
AcDbEntity
  8
0
  6
CONTINUOUS
100
AcDbLine
 10
58.274399
 20
116.2193679999999
 30
0.0
 11
123.2744059999999
 21
116.2193679999999
 31
0.0
  0
ARC
  5
1D4
330
1E
100
AcDbEntity
  8
0
  6
CONTINUOUS
100
AcDbCircle
 10
123.2744059999999
 20
118.7193679999999
 30
0.0
 40
2.5
100
AcDbArc
 50
270.0
 51
0.0
  0
ARC
  5
1D5
330
1E
100
AcDbEntity
  8
0
  6
CONTINUOUS
100
AcDbCircle
 10
123.2744059999999
 20
183.719391
 30
0.0
 40
2.5
100
AcDbArc
 50
0.0
 51
90.0
  0
ARC
  5
1D6
330
1E
100
AcDbEntity
  8
0
  6
CONTINUOUS
100
AcDbCircle
 10
58.27441
 20
183.7194059999999
 30
0.0
 40
2.5
100
AcDbArc
 50
90.0
 51
180.0
  0
ARC
  5
1D7
330
1E
100
AcDbEntity
  8
0
  6
CONTINUOUS
100
AcDbCircle
 10
58.274399
 20
118.7193679999999
 30
0.0
 40
2.5
100
AcDbArc
 50
180.0
 51
270.0
  0
ARC
  5
1D8
330
1E
100
AcDbEntity
  8
0
  6
CONTINUOUS
100
AcDbCircle
 10
120.774406
 20
181.2194059999999
 30
0.0
 40
4.0
100
AcDbArc
 50
180.0
 51
270.0
  0
ARC
  5
1D9
330
1E
100
AcDbEntity
  8
0
  6
CONTINUOUS
100
AcDbCircle
 10
120.774406
 20
121.2193679999999
 30
0.0
 40
4.0
100
AcDbArc
 50
90.0
 51
180.0
  0
ARC
  5
1DA
330
1E
100
AcDbEntity
  8
0
  6
CONTINUOUS
100
AcDbCircle
 10
60.77441
 20
121.2193679999999
 30
0.0
 40
4.0
100
AcDbArc
 50
0.0
 51
90.0
  0
ARC
  5
1DB
330
1E
100
AcDbEntity
  8
0
  6
CONTINUOUS
100
AcDbCircle
 10
60.77441
 20
181.2194059999999
 30
0.0
 40
4.0
100
AcDbArc
 50
270.0
 51
0.0
  0
LINE
  5
1DC
330
1E
100
AcDbEntity
  8
0
  6
CONTINUOUS
100
AcDbLine
 10
116.7744059999999
 20
121.2193679999999
 30
0.0
 11
116.7744059999999
 21
118.7193679999999
 31
0.0
  0
LINE
  5
1DD
330
1E
100
AcDbEntity
  8
0
  6
CONTINUOUS
100
AcDbLine
 10
116.7744059999999
 20
181.2194209999999
 30
0.0
 11
116.7744059999999
 21
183.7194209999999
 31
0.0
  0
LINE
  5
1DE
330
1E
100
AcDbEntity
  8
0
  6
CONTINUOUS
100
AcDbLine
 10
64.774406
 20
181.2194209999999
 30
0.0
 11
64.774406
 21
183.719391
 31
0.0
  0
LINE
  5
1DF
330
1E
100
AcDbEntity
  8
0
  6
CONTINUOUS
100
AcDbLine
 10
64.774406
 20
121.2193679999999
 30
0.0
 11
64.774406
 21
118.7193679999999
 31
0.0
  0
LINE
  5
1E0
330
1E
100
AcDbEntity
  8
0
  6
CONTINUOUS
100
AcDbLine
 10
120.774406
 20
125.2193679999999
 30
0.0
 11
123.2744059999999
 21
125.2193679999999
 31
0.0
  0
LINE
  5
1E1
330
1E
100
AcDbEntity
  8
0
  6
CONTINUOUS
100
AcDbLine
 10
120.774406
 20
177.2194059999999
 30
0.0
 11
123.2744059999999
 21
177.2194059999999
 31
0.0
  0
LINE
  5
1E2
330
1E
100
AcDbEntity
  8
0
  6
CONTINUOUS
100
AcDbLine
 10
60.77441
 20
177.2194059999999
 30
0.0
 11
58.274399
 21
177.2194059999999
 31
0.0
  0
LINE
  5
1E3
330
1E
100
AcDbEntity
  8
0
  6
CONTINUOUS
100
AcDbLine
 10
60.774391
 20
125.2193679999999
 30
0.0
 11
58.274399
 21
125.2193679999999
 31
0.0
  0
ARC
  5
1E4
330
1E
100
AcDbEntity
  8
0
  6
CONTINUOUS
100
AcDbCircle
 10
114.274406
 20
183.7194059999999
 30
0.0
 40
2.5
100
AcDbArc
 50
0.0
 51
90.0
  0
ARC
  5
1E5
330
1E
100
AcDbEntity
  8
0
  6
CONTINUOUS
100
AcDbCircle
 10
123.2744059999999
 20
174.719391
 30
0.0
 40
2.5
100
AcDbArc
 50
0.0
 51
90.0
  0
ARC
  5
1E6
330
1E
100
AcDbEntity
  8
0
  6
CONTINUOUS
100
AcDbCircle
 10
123.2744059999999
 20
127.7193679999999
 30
0.0
 40
2.5
100
AcDbArc
 50
270.0
 51
0.0
  0
ARC
  5
1E7
330
1E
100
AcDbEntity
  8
0
  6
CONTINUOUS
100
AcDbCircle
 10
114.274406
 20
118.7193679999999
 30
0.0
 40
2.5
100
AcDbArc
 50
270.0
 51
0.0
  0
ARC
  5
1E8
330
1E
100
AcDbEntity
  8
0
  6
CONTINUOUS
100
AcDbCircle
 10
67.274406
 20
183.7194059999999
 30
0.0
 40
2.5
100
AcDbArc
 50
90.0
 51
180.0
  0
ARC
  5
1E9
330
1E
100
AcDbEntity
  8
0
  6
CONTINUOUS
100
AcDbCircle
 10
58.27441
 20
174.7194059999999
 30
0.0
 40
2.5
100
AcDbArc
 50
90.0
 51
180.0
  0
ARC
  5
1EA
330
1E
100
AcDbEntity
  8
0
  6
CONTINUOUS
100
AcDbCircle
 10
67.274399
 20
118.7193679999999
 30
0.0
 40
2.5
100
AcDbArc
 50
180.0
 51
270.0
  0
ARC
  5
1EB
330
1E
100
AcDbEntity
  8
0
  6
CONTINUOUS
100
AcDbCircle
 10
58.274399
 20
127.7193679999999
 30
0.0
 40
2.5
100
AcDbArc
 50
180.0
 51
270.0
  0
LINE
  5
1EC
330
1E
100
AcDbEntity
  8
0
  6
CONTINUOUS
100
AcDbLine
 10
27.77445999999999
 20
136.7192689999999
 30
0.0
 11
27.77445999999999
 21
165.719376
 31
0.0
  0
LINE
  5
1ED
330
1E
100
AcDbEntity
  8
0
  6
CONTINUOUS
100
AcDbLine
 10
35.77446
 20
136.7192689999999
 30
0.0
 11
35.77446
 21
165.719376
 31
0.0
  0
LINE
  5
1EE
330
1E
100
AcDbEntity
  8
0
  6
CONTINUOUS
100
AcDbLine
 10
27.77445999999999
 20
136.7192689999999
 30
0.0
 11
35.77446
 21
136.7192689999999
 31
0.0
  0
LINE
  5
1EF
330
1E
100
AcDbEntity
  8
0
  6
CONTINUOUS
100
AcDbLine
 10
27.77445999999999
 20
165.719376
 30
0.0
 11
35.77446
 21
165.719376
 31
0.0
  0
LINE
  5
1F0
330
1E
100
AcDbEntity
  8
0
  6
CONTINUOUS
100
AcDbLine
 10
44.77445999999999
 20
138.2192689999999
 30
0.0
 11
44.77445999999999
 21
164.219376
 31
0.0
  0
LINE
  5
1F1
330
1E
100
AcDbEntity
  8
0
  6
CONTINUOUS
100
AcDbLine
 10
35.77446
 20
138.2192689999999
 30
0.0
 11
44.77445999999999
 21
138.2192689999999
 31
0.0
  0
LINE
  5
1F2
330
1E
100
AcDbEntity
  8
0
  6
CONTINUOUS
100
AcDbLine
 10
35.77446
 20
164.219376
 30
0.0
 11
44.77445999999999
 21
164.219376
 31
0.0
  0
LINE
  5
1F3
330
1E
100
AcDbEntity
  8
0
  6
CONTINUOUS
100
AcDbLine
 10
44.77445999999999
 20
139.719269
 30
0.0
 11
49.77446
 21
139.719269
 31
0.0
  0
LINE
  5
1F4
330
1E
100
AcDbEntity
  8
0
  6
CONTINUOUS
100
AcDbLine
 10
44.77445999999999
 20
162.719376
 30
0.0
 11
49.77446
 21
162.719376
 31
0.0
  0
LINE
  5
1F5
330
1E
100
AcDbEntity
  8
0
  6
CONTINUOUS
100
AcDbLine
 10
49.77446
 20
137.7192689999999
 30
0.0
 11
49.77446
 21
164.719376
 31
0.0
  0
LINE
  5
1F6
330
1E
100
AcDbEntity
  8
0
  6
CONTINUOUS
100
AcDbLine
 10
54.27445999999999
 20
136.7192689999999
 30
0.0
 11
54.27445999999999
 21
165.719376
 31
0.0
  0
LINE
  5
1F7
330
1E
100
AcDbEntity
  8
0
  6
CONTINUOUS
100
AcDbLine
 10
49.77446
 20
137.7192689999999
 30
0.0
 11
54.27445999999999
 21
137.7192689999999
 31
0.0
  0
LINE
  5
1F8
330
1E
100
AcDbEntity
  8
0
  6
CONTINUOUS
100
AcDbLine
 10
49.77446
 20
164.719376
 30
0.0
 11
54.27445999999999
 21
164.719376
 31
0.0
  0
LINE
  5
1F9
330
1E
100
AcDbEntity
  8
0
  6
CONTINUOUS
100
AcDbLine
 10
54.27445999999999
 20
136.7192689999999
 30
0.0
 11
55.813759
 21
136.7192689999999
 31
0.0
  0
LINE
  5
1FA
330
1E
100
AcDbEntity
  8
0
  6
CONTINUOUS
100
AcDbLine
 10
54.27445999999999
 20
165.719376
 30
0.0
 11
55.77441
 21
165.719376
 31
0.0
  0
LINE
  5
1FB
330
1E
100
AcDbEntity
  8
0
  6
CONTINUOUS
100
AcDbLine
 10
27.77445999999999
 20
143.2192689999999
 30
0.0
 11
35.77446
 21
143.2192689999999
 31
0.0
  0
LINE
  5
1FC
330
1E
100
AcDbEntity
  8
0
  6
CONTINUOUS
100
AcDbLine
 10
27.77445999999999
 20
159.219376
 30
0.0
 11
35.77446
 21
159.219376
 31
0.0
  0
LINE
  5
1FD
330
1E
100
AcDbEntity
  8
0
  6
CONTINUOUS
100
AcDbLine
 10
125.774406
 20
183.7194059999999
 30
0.0
 11
166.7744139999999
 21
183.7194209999999
 31
0.0
  0
LINE
  5
1FE
330
1E
100
AcDbEntity
  8
0
  6
CONTINUOUS
100
AcDbLine
 10
125.774406
 20
181.7194209999999
 30
0.0
 11
166.7744139999999
 21
181.7194209999999
 31
0.0
  0
LINE
  5
1FF
330
1E
100
AcDbEntity
  8
0
  6
CONTINUOUS
100
AcDbLine
 10
129.7744139999999
 20
175.6194149999999
 30
0.0
 11
166.7744139999999
 21
175.6194149999999
 31
0.0
  0
LINE
  5
200
330
1E
100
AcDbEntity
  8
0
  6
CONTINUOUS
100
AcDbLine
 10
129.7744139999999
 20
173.619415
 30
0.0
 11
166.7744139999999
 21
173.619415
 31
0.0
  0
LINE
  5
201
330
1E
100
AcDbEntity
  8
0
  6
CONTINUOUS
100
AcDbLine
 10
129.7744139999999
 20
167.819412
 30
0.0
 11
166.7744139999999
 21
167.819412
 31
0.0
  0
LINE
  5
202
330
1E
100
AcDbEntity
  8
0
  6
CONTINUOUS
100
AcDbLine
 10
129.7744139999999
 20
165.819412
 30
0.0
 11
166.7744139999999
 21
165.819412
 31
0.0
  0
LINE
  5
203
330
1E
100
AcDbEntity
  8
0
  6
CONTINUOUS
100
AcDbLine
 10
129.7744139999999
 20
160.0194239999999
 30
0.0
 11
166.7744139999999
 21
160.0194239999999
 31
0.0
  0
LINE
  5
204
330
1E
100
AcDbEntity
  8
0
  6
CONTINUOUS
100
AcDbLine
 10
129.7744139999999
 20
158.0194239999999
 30
0.0
 11
166.7744139999999
 21
158.0194239999999
 31
0.0
  0
LINE
  5
205
330
1E
100
AcDbEntity
  8
0
  6
CONTINUOUS
100
AcDbLine
 10
129.7744139999999
 20
152.2194209999999
 30
0.0
 11
166.7744139999999
 21
152.2194209999999
 31
0.0
  0
LINE
  5
206
330
1E
100
AcDbEntity
  8
0
  6
CONTINUOUS
100
AcDbLine
 10
129.7744139999999
 20
150.2194209999999
 30
0.0
 11
166.7744139999999
 21
150.2194209999999
 31
0.0
  0
LINE
  5
207
330
1E
100
AcDbEntity
  8
0
  6
CONTINUOUS
100
AcDbLine
 10
129.7744139999999
 20
144.419418
 30
0.0
 11
166.7744139999999
 21
144.419418
 31
0.0
  0
LINE
  5
208
330
1E
100
AcDbEntity
  8
0
  6
CONTINUOUS
100
AcDbLine
 10
129.7744139999999
 20
142.419418
 30
0.0
 11
166.7744139999999
 21
142.419418
 31
0.0
  0
LINE
  5
209
330
1E
100
AcDbEntity
  8
0
  6
CONTINUOUS
100
AcDbLine
 10
129.7744139999999
 20
136.619415
 30
0.0
 11
166.7744139999999
 21
136.619415
 31
0.0
  0
LINE
  5
20A
330
1E
100
AcDbEntity
  8
0
  6
CONTINUOUS
100
AcDbLine
 10
129.7744139999999
 20
134.619415
 30
0.0
 11
166.7744139999999
 21
134.619415
 31
0.0
  0
LINE
  5
20B
330
1E
100
AcDbEntity
  8
0
  6
CONTINUOUS
100
AcDbLine
 10
129.7744139999999
 20
128.8194119999999
 30
0.0
 11
166.7744139999999
 21
128.8194119999999
 31
0.0
  0
LINE
  5
20C
330
1E
100
AcDbEntity
  8
0
  6
CONTINUOUS
100
AcDbLine
 10
129.7744139999999
 20
126.8194199999999
 30
0.0
 11
166.7744139999999
 21
126.8194199999999
 31
0.0
  0
LINE
  5
20D
330
1E
100
AcDbEntity
  8
0
  6
CONTINUOUS
100
AcDbLine
 10
77.27445999999999
 20
113.2194209999999
 30
0.0
 11
62.77440999999999
 21
113.2194209999999
 31
0.0
  0
LINE
  5
20E
330
1E
100
AcDbEntity
  8
0
  6
CONTINUOUS
100
AcDbLine
 10
104.2745589999999
 20
111.2194209999999
 30
0.0
 11
62.77440999999999
 21
111.2194209999999
 31
0.0
  0
LINE
  5
20F
330
1E
100
AcDbEntity
  8
0
  6
CONTINUOUS
100
AcDbLine
 10
103.7745589999999
 20
104.2194209999999
 30
0.0
 11
62.77440999999999
 21
104.2194209999999
 31
0.0
  0
LINE
  5
210
330
1E
100
AcDbEntity
  8
0
  6
CONTINUOUS
100
AcDbLine
 10
79.27445999999999
 20
106.2194209999999
 30
0.0
 11
62.77440999999999
 21
106.2194209999999
 31
0.0
  0
LINE
  5
211
330
1E
100
AcDbEntity
  8
0
  6
CONTINUOUS
100
AcDbLine
 10
77.77445999999999
 20
99.93341800000001
 30
0.0
 11
66.330925
 21
99.93341800000001
 31
0.0
  0
LINE
  5
212
330
1E
100
AcDbEntity
  8
0
  6
CONTINUOUS
100
AcDbLine
 10
105.274559
 20
93.719421
 30
0.0
 11
68.774551
 21
93.719421
 31
0.0
  0
LINE
  5
213
330
1E
100
AcDbEntity
  8
0
  6
CENTER
100
AcDbLine
 10
90.774406
 20
189.0944209999999
 30
0.0
 11
90.774406
 21
107.469421
 31
0.0
  0
LINE
  5
214
330
1E
100
AcDbEntity
  8
0
  6
CONTINUOUS
100
AcDbLine
 10
611.774414
 20
117.266411
 30
0.0
 11
572.2744139999999
 21
116.219292
 31
0.0
  0
LINE
  5
215
330
1E
100
AcDbEntity
  8
0
  6
CONTINUOUS
100
AcDbLine
 10
566.274414
 20
118.7192919999999
 30
0.0
 11
566.274414
 21
150.719284
 31
0.0
  0
LINE
  5
216
330
1E
100
AcDbEntity
  8
0
  6
CONTINUOUS
100
AcDbLine
 10
568.7744139999999
 20
116.219292
 30
0.0
 11
571.2744139999999
 21
116.219292
 31
0.0
  0
LINE
  5
217
330
1E
100
AcDbEntity
  8
0
  6
CONTINUOUS
100
AcDbLine
 10
571.2744139999999
 20
116.219292
 30
0.0
 11
572.2744139999999
 21
116.219292
 31
0.0
  0
LINE
  5
218
330
1E
100
AcDbEntity
  8
0
  6
CONTINUOUS
100
AcDbLine
 10
569.274414
 20
124.7322309999999
 30
0.0
 11
569.274414
 21
117.219292
 31
0.0
  0
LINE
  5
219
330
1E
100
AcDbEntity
  8
0
  6
CONTINUOUS
100
AcDbLine
 10
568.787537
 20
125.232109
 30
0.0
 11
567.24823
 21
125.2723919999999
 31
0.0
  0
ARC
  5
21A
330
1E
100
AcDbEntity
  8
0
  6
CONTINUOUS
100
AcDbCircle
 10
567.2744139999999
 20
126.2720179999999
 30
0.0
 40
1.0
100
AcDbArc
 50
180.0
 51
268.4996029999999
  0
ARC
  5
21B
330
1E
100
AcDbEntity
  8
0
  6
CONTINUOUS
100
AcDbCircle
 10
568.7744139999999
 20
124.7322309999999
 30
0.0
 40
0.5
100
AcDbArc
 50
0.0
 51
88.49980200000002
  0
ARC
  5
21C
330
1E
100
AcDbEntity
  8
0
  6
CONTINUOUS
100
AcDbCircle
 10
570.274414
 20
117.219292
 30
0.0
 40
1.0
100
AcDbArc
 50
180.0
 51
270.0
  0
ARC
  5
21D
330
1E
100
AcDbEntity
  8
0
  6
CONTINUOUS
100
AcDbCircle
 10
568.7744139999999
 20
118.7192919999999
 30
0.0
 40
2.5
100
AcDbArc
 50
180.0
 51
270.0
  0
ARC
  5
21E
330
1E
100
AcDbEntity
  8
0
  6
CONTINUOUS
100
AcDbCircle
 10
569.274414
 20
121.2192919999999
 30
0.0
 40
3.0
100
AcDbArc
 50
90.0
 51
270.0
  0
LINE
  5
21F
330
1E
100
AcDbEntity
  8
0
  6
CONTINUOUS
100
AcDbLine
 10
568.7744139999999
 20
124.177299
 30
0.0
 11
568.7744139999999
 21
118.261276
 31
0.0
  0
LINE
  5
220
330
1E
100
AcDbEntity
  8
0
  6
CONTINUOUS
100
AcDbLine
 10
566.7744139999999
 20
121.2192919999999
 30
0.0
 11
566.2875979999999
 21
120.938217
 31
0.0
  0
LINE
  5
221
330
1E
100
AcDbEntity
  8
0
  6
CONTINUOUS
100
AcDbLine
 10
566.7744139999999
 20
121.2192919999999
 30
0.0
 11
566.2875979999999
 21
121.5004199999999
 31
0.0
  0
LINE
  5
222
330
1E
100
AcDbEntity
  8
0
  6
CENTER
100
AcDbLine
 10
588.2744139999999
 20
193.676285
 30
0.0
 11
588.2744139999999
 21
106.5299989999999
 31
0.0
  0
LINE
  5
223
330
1E
100
AcDbEntity
  8
0
  6
CONTINUOUS
100
AcDbLine
 10
571.2744139999999
 20
150.719284
 30
0.0
 11
571.2744139999999
 21
116.219292
 31
0.0
  0
LINE
  5
224
330
1E
100
AcDbEntity
  8
0
  6
CONTINUOUS
100
AcDbLine
 10
572.2744139999999
 20
150.719284
 30
0.0
 11
572.2744139999999
 21
116.219292
 31
0.0
  0
LINE
  5
22A
330
1E
100
AcDbEntity
  8
0
  6
CONTINUOUS
100
AcDbLine
 10
62.774723
 20
560.014282
 30
0.0
 11
62.774723
 21
528.5141599999999
 31
0.0
  0
LINE
  5
22B
330
1E
100
AcDbEntity
  8
0
  6
CONTINUOUS
100
AcDbLine
 10
62.774723
 20
445.0142519999999
 30
0.0
 11
50.77456599850859
 21
445.0142519999999
 31
0.0
  0
LINE
  5
22C
330
1E
100
AcDbEntity
  8
0
  6
CONTINUOUS
100
AcDbLine
 10
62.774723
 20
445.0142519999999
 30
0.0
 11
62.774723
 21
476.514374
 31
0.0
  0
ARC
  5
236
330
1E
100
AcDbEntity
  8
0
  6
CONTINUOUS
100
AcDbCircle
 10
63.774723
 20
447.515137
 30
0.0
 40
1.0
100
AcDbArc
 50
180.0
 51
270.0
  0
ARC
  5
242
330
1E
100
AcDbEntity
  8
0
  6
CONTINUOUS
100
AcDbCircle
 10
60.77450899999999
 20
94.177879
 30
0.0
 40
8.0
100
AcDbArc
 50
0.0
 51
90.0
  0
ARC
  5
243
330
1E
100
AcDbEntity
  8
0
  6
CONTINUOUS
100
AcDbCircle
 10
60.77450899999999
 20
94.177879
 30
0.0
 40
5.0
100
AcDbArc
 50
0.0
 51
90.0
  0
ARC
  5
244
330
1E
100
AcDbEntity
  8
0
  6
CONTINUOUS
100
AcDbCircle
 10
60.77450899999999
 20
94.177879
 30
0.0
 40
2.0
100
AcDbArc
 50
0.0
 51
90.0
  0
LINE
  5
245
330
1E
100
AcDbEntity
  8
0
  6
CONTINUOUS
100
AcDbLine
 10
60.77450899999999
 20
96.17785600000001
 30
0.0
 11
50.77444400090133
 21
96.17785599999999
 31
0.0
  0
LINE
  5
246
330
1E
100
AcDbEntity
  8
0
  6
CONTINUOUS
100
AcDbLine
 10
62.77450899999999
 20
94.177879
 30
0.0
 11
62.77450899999999
 21
85.46344000000001
 31
0.0
  0
LINE
  5
247
330
1E
100
AcDbEntity
  8
0
  6
CONTINUOUS
100
AcDbLine
 10
65.77451299999999
 20
94.177879
 30
0.0
 11
65.77451299999999
 21
84.20541400000001
 31
0.0
  0
LINE
  5
248
330
1E
100
AcDbEntity
  8
0
  6
CONTINUOUS
100
AcDbLine
 10
68.774551
 20
94.177879
 30
0.0
 11
68.774551
 21
87.05073500000001
 31
0.0
  0
LINE
  5
249
330
1E
100
AcDbEntity
  8
0
  6
CONTINUOUS
100
AcDbLine
 10
60.77450899999999
 20
99.177879
 30
0.0
 11
50.77444400090133
 21
99.177879
 31
0.0
  0
LINE
  5
24A
330
1E
100
AcDbEntity
  8
0
  6
CONTINUOUS
100
AcDbLine
 10
62.77450899999999
 20
85.46344000000001
 30
0.0
 11
65.77451299999999
 21
84.20541400000001
 31
0.0
  0
LINE
  5
24B
330
1E
100
AcDbEntity
  8
0
  6
CONTINUOUS
100
AcDbLine
 10
65.77451299999999
 20
85.917641
 30
0.0
 11
68.774551
 21
87.05073500000001
 31
0.0
  0
LINE
  5
24C
330
1E
100
AcDbEntity
  8
0
  6
CONTINUOUS
100
AcDbLine
 10
64.274513
 20
84.83431999999998
 30
0.0
 11
64.274513
 21
79.53273799999999
 31
0.0
  0
LINE
  5
24D
330
1E
100
AcDbEntity
  8
0
  6
CONTINUOUS
100
AcDbLine
 10
67.274513
 20
86.4841
 30
0.0
 11
67.274513
 21
81.30343600000001
 31
0.0
  0
LINE
  5
24E
330
1E
100
AcDbEntity
  8
0
  6
CONTINUOUS
100
AcDbLine
 10
67.47448699999999
 20
86.55965400000001
 30
0.0
 11
67.47448699999999
 21
81.30343600000001
 31
0.0
  0
LINE
  5
24F
330
1E
100
AcDbEntity
  8
0
  6
CONTINUOUS
100
AcDbLine
 10
67.07450899999999
 20
86.40853900000001
 30
0.0
 11
67.07450899999999
 21
81.30343600000001
 31
0.0
  0
LINE
  5
250
330
1E
100
AcDbEntity
  8
0
  6
CONTINUOUS
100
AcDbLine
 10
67.67453
 20
86.63521600000001
 30
0.0
 11
67.67453
 21
81.30343600000001
 31
0.0
  0
LINE
  5
251
330
1E
100
AcDbEntity
  8
0
  6
CONTINUOUS
100
AcDbLine
 10
66.874527
 20
86.33297699999999
 30
0.0
 11
66.874527
 21
81.30343600000001
 31
0.0
  0
LINE
  5
252
330
1E
100
AcDbEntity
  8
0
  6
CONTINUOUS
100
AcDbLine
 10
67.874527
 20
86.71077700000001
 30
0.0
 11
67.874527
 21
81.30343600000001
 31
0.0
  0
LINE
  5
253
330
1E
100
AcDbEntity
  8
0
  6
CONTINUOUS
100
AcDbLine
 10
66.67453
 20
86.25741600000001
 30
0.0
 11
66.67453
 21
81.30343600000001
 31
0.0
  0
LINE
  5
254
330
1E
100
AcDbEntity
  8
0
  6
CONTINUOUS
100
AcDbLine
 10
68.07450899999999
 20
86.78631600000001
 30
0.0
 11
68.07450899999999
 21
81.30343600000001
 31
0.0
  0
LINE
  5
255
330
1E
100
AcDbEntity
  8
0
  6
CONTINUOUS
100
AcDbLine
 10
66.47448699999999
 20
86.18185399999999
 30
0.0
 11
66.47448699999999
 21
81.30343600000001
 31
0.0
  0
LINE
  5
256
330
1E
100
AcDbEntity
  8
0
  6
CONTINUOUS
100
AcDbLine
 10
68.27451299999999
 20
86.86183900000001
 30
0.0
 11
68.27451299999999
 21
81.30343600000001
 31
0.0
  0
LINE
  5
257
330
1E
100
AcDbEntity
  8
0
  6
CONTINUOUS
100
AcDbLine
 10
66.274551
 20
86.1063
 30
0.0
 11
66.274551
 21
81.30343600000001
 31
0.0
  0
LINE
  5
258
330
1E
100
AcDbEntity
  8
0
  6
CONTINUOUS
100
AcDbLine
 10
68.474548
 20
86.93743899999999
 30
0.0
 11
68.474487
 21
81.30343600000001
 31
0.0
  0
LINE
  5
259
330
1E
100
AcDbEntity
  8
0
  6
CONTINUOUS
100
AcDbLine
 10
66.07450899999999
 20
86.03075399999999
 30
0.0
 11
66.07450899999999
 21
81.30343600000001
 31
0.0
  0
LINE
  5
25A
330
1E
100
AcDbEntity
  8
0
  6
CONTINUOUS
100
AcDbLine
 10
64.47453299999999
 20
84.750534
 30
0.0
 11
64.47453299999999
 21
79.53273799999999
 31
0.0
  0
LINE
  5
25B
330
1E
100
AcDbEntity
  8
0
  6
CONTINUOUS
100
AcDbLine
 10
64.07450899999999
 20
84.918335
 30
0.0
 11
64.07450899999999
 21
79.53273799999999
 31
0.0
  0
LINE
  5
25C
330
1E
100
AcDbEntity
  8
0
  6
CONTINUOUS
100
AcDbLine
 10
64.67450699999999
 20
84.666534
 30
0.0
 11
64.67450699999999
 21
79.53273799999999
 31
0.0
  0
LINE
  5
25D
330
1E
100
AcDbEntity
  8
0
  6
CONTINUOUS
100
AcDbLine
 10
63.874512
 20
85.002098
 30
0.0
 11
63.874512
 21
79.53273799999999
 31
0.0
  0
LINE
  5
25E
330
1E
100
AcDbEntity
  8
0
  6
CONTINUOUS
100
AcDbLine
 10
64.874527
 20
84.582756
 30
0.0
 11
64.874527
 21
79.53273799999999
 31
0.0
  0
LINE
  5
25F
330
1E
100
AcDbEntity
  8
0
  6
CONTINUOUS
100
AcDbLine
 10
63.67453000000001
 20
85.085876
 30
0.0
 11
63.67453000000001
 21
79.53273799999999
 31
0.0
  0
LINE
  5
260
330
1E
100
AcDbEntity
  8
0
  6
CONTINUOUS
100
AcDbLine
 10
65.07450899999999
 20
84.499001
 30
0.0
 11
65.07450899999999
 21
79.53273799999999
 31
0.0
  0
LINE
  5
261
330
1E
100
AcDbEntity
  8
0
  6
CONTINUOUS
100
AcDbLine
 10
63.474491
 20
85.16985299999999
 30
0.0
 11
63.474491
 21
79.53273799999999
 31
0.0
  0
LINE
  5
262
330
1E
100
AcDbEntity
  8
0
  6
CONTINUOUS
100
AcDbLine
 10
65.274513
 20
84.41499300000002
 30
0.0
 11
65.274513
 21
79.53273799999999
 31
0.0
  0
LINE
  5
263
330
1E
100
AcDbEntity
  8
0
  6
CONTINUOUS
100
AcDbLine
 10
63.27450899999999
 20
85.253639
 30
0.0
 11
63.27450899999999
 21
79.53273799999999
 31
0.0
  0
LINE
  5
264
330
1E
100
AcDbEntity
  8
0
  6
CONTINUOUS
100
AcDbLine
 10
65.474548
 20
84.3312
 30
0.0
 11
65.474487
 21
79.53273799999999
 31
0.0
  0
LINE
  5
265
330
1E
100
AcDbEntity
  8
0
  6
CONTINUOUS
100
AcDbLine
 10
63.074509
 20
85.337616
 30
0.0
 11
63.074509
 21
79.53273799999999
 31
0.0
  0
LINE
  5
266
330
1E
100
AcDbEntity
  8
0
  6
CONTINUOUS
100
AcDbLine
 10
60.77450899999999
 20
102.177879
 30
0.0
 11
50.77444400090133
 21
102.177879
 31
0.0
  0
LINE
  5
267
330
1E
100
AcDbEntity
  8
0
  6
CONTINUOUS
100
AcDbLine
 10
50.77444400090133
 20
93.719414
 30
0.0
 11
62.77450899999999
 21
93.719414
 31
0.0
  0
LINE
  5
268
330
1E
100
AcDbEntity
  8
0
  6
CONTINUOUS
100
AcDbLine
 10
62.774368
 20
202.505432
 30
0.0
 11
62.774368
 21
198.2194209999999
 31
0.0
  0
LINE
  5
269
330
1E
100
AcDbEntity
  8
0
  6
CONTINUOUS
100
AcDbLine
 10
62.774368
 20
101.923859
 30
0.0
 11
62.774368
 21
104.219414
 31
0.0
  0
LINE
  5
26A
330
1E
100
AcDbEntity
  8
0
  6
CONTINUOUS
100
AcDbLine
 10
62.774368
 20
196.2194209999999
 30
0.0
 11
62.774368
 21
191.2194209999999
 31
0.0
  0
LINE
  5
26B
330
1E
100
AcDbEntity
  8
0
  6
CONTINUOUS
100
AcDbLine
 10
62.774368
 20
189.2194209999999
 30
0.0
 11
62.774368
 21
186.219421
 31
0.0
  0
LINE
  5
26C
330
1E
100
AcDbEntity
  8
0
  6
CONTINUOUS
100
AcDbLine
 10
62.774368
 20
116.2193679999999
 30
0.0
 11
62.774368
 21
113.2194139999999
 31
0.0
  0
LINE
  5
26D
330
1E
100
AcDbEntity
  8
0
  6
CONTINUOUS
100
AcDbLine
 10
62.774368
 20
111.2194139999999
 30
0.0
 11
62.774368
 21
106.2194139999999
 31
0.0
  0
LINE
  5
272
330
1E
100
AcDbEntity
  8
0
  6
CONTINUOUS
100
AcDbLine
 10
62.52441
 20
181.6194
 30
0.0
 11
62.52441
 21
180.819382
 31
0.0
  0
LINE
  5
273
330
1E
100
AcDbEntity
  8
0
  6
CONTINUOUS
100
AcDbLine
 10
60.374386
 20
182.9694059999999
 30
0.0
 11
61.174404
 21
182.9694059999999
 31
0.0
  0
LINE
  5
274
330
1E
100
AcDbEntity
  8
0
  6
CONTINUOUS
100
AcDbLine
 10
60.374386
 20
179.4694059999999
 30
0.0
 11
61.174404
 21
179.4694059999999
 31
0.0
  0
LINE
  5
275
330
1E
100
AcDbEntity
  8
0
  6
CONTINUOUS
100
AcDbLine
 10
59.02440999999999
 20
181.6194
 30
0.0
 11
59.02440999999999
 21
180.819382
 31
0.0
  0
CIRCLE
  5
276
330
1E
100
AcDbEntity
  8
0
  6
CONTINUOUS
100
AcDbCircle
 10
60.77441
 20
181.2194059999999
 30
0.0
 40
2.75
  0
ARC
  5
277
330
1E
100
AcDbEntity
  8
0
  6
CONTINUOUS
100
AcDbCircle
 10
59.02440999999999
 20
182.9694059999999
 30
0.0
 40
1.35
100
AcDbArc
 50
270.0
 51
0.0
  0
ARC
  5
278
330
1E
100
AcDbEntity
  8
0
  6
CONTINUOUS
100
AcDbCircle
 10
59.02440999999999
 20
179.4694059999999
 30
0.0
 40
1.35
100
AcDbArc
 50
0.0
 51
90.0
  0
ARC
  5
279
330
1E
100
AcDbEntity
  8
0
  6
CONTINUOUS
100
AcDbCircle
 10
62.52441
 20
182.9694059999999
 30
0.0
 40
1.35
100
AcDbArc
 50
180.0
 51
270.0
  0
ARC
  5
27A
330
1E
100
AcDbEntity
  8
0
  6
CONTINUOUS
100
AcDbCircle
 10
62.52441
 20
179.4694059999999
 30
0.0
 40
1.35
100
AcDbArc
 50
90.0
 51
180.0
  0
LINE
  5
27B
330
1E
100
AcDbEntity
  8
0
  6
CONTINUOUS
100
AcDbLine
 10
122.524406
 20
181.6194
 30
0.0
 11
122.524406
 21
180.819382
 31
0.0
  0
LINE
  5
27C
330
1E
100
AcDbEntity
  8
0
  6
CONTINUOUS
100
AcDbLine
 10
120.3743899999999
 20
182.9694059999999
 30
0.0
 11
121.1744
 21
182.9694059999999
 31
0.0
  0
LINE
  5
27D
330
1E
100
AcDbEntity
  8
0
  6
CONTINUOUS
100
AcDbLine
 10
120.3743899999999
 20
179.4694059999999
 30
0.0
 11
121.1744
 21
179.4694059999999
 31
0.0
  0
LINE
  5
27E
330
1E
100
AcDbEntity
  8
0
  6
CONTINUOUS
100
AcDbLine
 10
119.0244059999999
 20
181.6194
 30
0.0
 11
119.0244059999999
 21
180.819382
 31
0.0
  0
CIRCLE
  5
27F
330
1E
100
AcDbEntity
  8
0
  6
CONTINUOUS
100
AcDbCircle
 10
120.774406
 20
181.2194059999999
 30
0.0
 40
2.75
  0
ARC
  5
280
330
1E
100
AcDbEntity
  8
0
  6
CONTINUOUS
100
AcDbCircle
 10
119.0244059999999
 20
182.9694059999999
 30
0.0
 40
1.35
100
AcDbArc
 50
270.0
 51
0.0
  0
ARC
  5
281
330
1E
100
AcDbEntity
  8
0
  6
CONTINUOUS
100
AcDbCircle
 10
119.0244059999999
 20
179.4694059999999
 30
0.0
 40
1.35
100
AcDbArc
 50
0.0
 51
90.0
  0
ARC
  5
282
330
1E
100
AcDbEntity
  8
0
  6
CONTINUOUS
100
AcDbCircle
 10
122.524406
 20
182.9694059999999
 30
0.0
 40
1.35
100
AcDbArc
 50
180.0
 51
270.0
  0
ARC
  5
283
330
1E
100
AcDbEntity
  8
0
  6
CONTINUOUS
100
AcDbCircle
 10
122.524406
 20
179.4694059999999
 30
0.0
 40
1.35
100
AcDbArc
 50
90.0
 51
180.0
  0
LINE
  5
284
330
1E
100
AcDbEntity
  8
0
  6
CONTINUOUS
100
AcDbLine
 10
62.52441
 20
121.619362
 30
0.0
 11
62.52441
 21
120.819344
 31
0.0
  0
LINE
  5
285
330
1E
100
AcDbEntity
  8
0
  6
CONTINUOUS
100
AcDbLine
 10
60.374386
 20
122.969368
 30
0.0
 11
61.174404
 21
122.969368
 31
0.0
  0
LINE
  5
286
330
1E
100
AcDbEntity
  8
0
  6
CONTINUOUS
100
AcDbLine
 10
60.374386
 20
119.4693679999999
 30
0.0
 11
61.174404
 21
119.4693679999999
 31
0.0
  0
LINE
  5
287
330
1E
100
AcDbEntity
  8
0
  6
CONTINUOUS
100
AcDbLine
 10
59.02440999999999
 20
121.619362
 30
0.0
 11
59.02440999999999
 21
120.819344
 31
0.0
  0
CIRCLE
  5
288
330
1E
100
AcDbEntity
  8
0
  6
CONTINUOUS
100
AcDbCircle
 10
60.77441
 20
121.2193679999999
 30
0.0
 40
2.75
  0
ARC
  5
289
330
1E
100
AcDbEntity
  8
0
  6
CONTINUOUS
100
AcDbCircle
 10
59.02440999999999
 20
122.969368
 30
0.0
 40
1.35
100
AcDbArc
 50
270.0
 51
0.0
  0
ARC
  5
28A
330
1E
100
AcDbEntity
  8
0
  6
CONTINUOUS
100
AcDbCircle
 10
59.02440999999999
 20
119.4693679999999
 30
0.0
 40
1.35
100
AcDbArc
 50
0.0
 51
90.0
  0
ARC
  5
28B
330
1E
100
AcDbEntity
  8
0
  6
CONTINUOUS
100
AcDbCircle
 10
62.52441
 20
122.969368
 30
0.0
 40
1.35
100
AcDbArc
 50
180.0
 51
270.0
  0
ARC
  5
28C
330
1E
100
AcDbEntity
  8
0
  6
CONTINUOUS
100
AcDbCircle
 10
62.52441
 20
119.4693679999999
 30
0.0
 40
1.35
100
AcDbArc
 50
90.0
 51
180.0
  0
LINE
  5
28D
330
1E
100
AcDbEntity
  8
0
  6
CONTINUOUS
100
AcDbLine
 10
122.524406
 20
121.619362
 30
0.0
 11
122.524406
 21
120.819344
 31
0.0
  0
LINE
  5
28E
330
1E
100
AcDbEntity
  8
0
  6
CONTINUOUS
100
AcDbLine
 10
120.3743899999999
 20
122.969368
 30
0.0
 11
121.1744
 21
122.969368
 31
0.0
  0
LINE
  5
28F
330
1E
100
AcDbEntity
  8
0
  6
CONTINUOUS
100
AcDbLine
 10
120.3743899999999
 20
119.4693679999999
 30
0.0
 11
121.1744
 21
119.4693679999999
 31
0.0
  0
LINE
  5
290
330
1E
100
AcDbEntity
  8
0
  6
CONTINUOUS
100
AcDbLine
 10
119.0244059999999
 20
121.619362
 30
0.0
 11
119.0244059999999
 21
120.819344
 31
0.0
  0
CIRCLE
  5
291
330
1E
100
AcDbEntity
  8
0
  6
CONTINUOUS
100
AcDbCircle
 10
120.774406
 20
121.2193679999999
 30
0.0
 40
2.75
  0
ARC
  5
292
330
1E
100
AcDbEntity
  8
0
  6
CONTINUOUS
100
AcDbCircle
 10
119.0244059999999
 20
122.969368
 30
0.0
 40
1.35
100
AcDbArc
 50
270.0
 51
0.0
  0
ARC
  5
293
330
1E
100
AcDbEntity
  8
0
  6
CONTINUOUS
100
AcDbCircle
 10
119.0244059999999
 20
119.4693679999999
 30
0.0
 40
1.35
100
AcDbArc
 50
0.0
 51
90.0
  0
ARC
  5
294
330
1E
100
AcDbEntity
  8
0
  6
CONTINUOUS
100
AcDbCircle
 10
122.524406
 20
122.969368
 30
0.0
 40
1.35
100
AcDbArc
 50
180.0
 51
270.0
  0
ARC
  5
295
330
1E
100
AcDbEntity
  8
0
  6
CONTINUOUS
100
AcDbCircle
 10
122.524406
 20
119.4693679999999
 30
0.0
 40
1.35
100
AcDbArc
 50
90.0
 51
180.0
  0
TEXT
  5
296
330
1E
100
AcDbEntity
  8
0
100
AcDbText
 10
-22.0
 20
-42.0
 30
0.0
 40
4.0
  1
H2LB-40R-600~1500-T020WA
100
AcDbText
  0
ARC
  5
2F1
330
1E
100
AcDbEntity
  8
1
  6
CONTINUOUS
 62
     7
100
AcDbCircle
 10
338.2545769985084
 20
502.5115050000001
 30
0.0
 40
325.0
100
AcDbArc
 50
168.2279455165586
 51
191.7720517696801
  0
LINE
  5
2F2
330
1E
100
AcDbEntity
  8
1
  6
CONTINUOUS
 62
     7
100
AcDbLine
 10
50.77456599850859
 20
569.0115200000001
 30
0.0
 11
50.77456599850859
 21
436.0115050000002
 31
0.0
  0
ARC
  5
2F3
330
1E
100
AcDbEntity
  8
1
  6
CONTINUOUS
 62
     7
100
AcDbCircle
 10
11.34286499850839
 20
554.0105439999995
 30
0.0
 40
12.0
100
AcDbArc
 50
90.0
 51
170.9665069999955
  0
LINE
  5
305
330
1E
100
AcDbEntity
  8
1
  6
CONTINUOUS
 62
     7
100
AcDbLine
 10
50.77444400090133
 20
91.22808799999996
 30
0.0
 11
50.77444400090133
 21
137.7192689999999
 31
0.0
  0
ARC
  5
306
330
1E
100
AcDbEntity
  8
1
  6
CONTINUOUS
 62
     7
100
AcDbCircle
 10
-304.7255519991009
 20
151.2192989999997
 30
0.0
 40
325.0000000000022
100
AcDbArc
 50
349.395881620111
 51
11.66235952465123
  0
ARC
  5
307
330
1E
100
AcDbEntity
  8
1
  6
CONTINUOUS
 62
     7
100
AcDbCircle
 10
335.2744140009014
 20
151.2183219999998
 30
0.0
 40
340.0
100
AcDbArc
 50
170.9665069999955
 51
189.6212784361565
  0
LINE
  5
308
330
1E
100
AcDbEntity
  8
1
  6
CONTINUOUS
100
AcDbLine
 10
49.76571746540287
 20
90.22812607693584
 30
0.0
 11
4.986512374915605
 21
90.22812607693584
 31
0.0
  0
ARC
  5
309
330
1E
100
AcDbEntity
  8
1
  6
CONTINUOUS
100
AcDbCircle
 10
4.986512374915491
 20
95.22812607693584
 30
0.0
 40
5.0
100
AcDbArc
 50
189.6212784361565
 51
270.0
  0
ARC
  5
30A
330
1E
100
AcDbEntity
  8
1
  6
CONTINUOUS
100
AcDbCircle
 10
15.70706052858236
 20
91.2281260769356
 30
0.0
 40
1.0
100
AcDbArc
 50
169.395881620111
 51
270.0
  0
ARC
  5
30B
330
1E
100
AcDbEntity
  8
1
  6
CONTINUOUS
 62
     7
100
AcDbCircle
 10
49.77444400090121
 20
91.22808799999996
 30
0.0
 40
1.0
100
AcDbArc
 50
269.5000000000019
 51
0.0
  0
ARC
  5
30C
330
1E
100
AcDbEntity
  8
1
  6
CONTINUOUS
 62
     7
100
AcDbCircle
 10
11.34274300090123
 20
202.7183219999998
 30
0.0
 40
12.0
100
AcDbArc
 50
90.0
 51
170.9665069999955
  0
LINE
  5
30E
330
1E
100
AcDbEntity
  8
1
  6
CONTINUOUS
100
AcDbLine
 10
49.77444400090132
 20
218.7192989999999
 30
0.0
 11
15.03412338227269
 21
218.7192989999999
 31
0.0
  0
ARC
  5
30F
330
1E
100
AcDbEntity
  8
1
  6
CONTINUOUS
 62
     7
100
AcDbCircle
 10
12.78961100090123
 20
215.7183219999998
 30
0.0
 40
1.0
100
AcDbArc
 50
270.0
 51
11.48264199999979
  0
LINE
  5
310
330
1E
100
AcDbEntity
  8
1
  6
CONTINUOUS
 62
     7
100
AcDbLine
 10
11.34274300090135
 20
214.7183219999998
 30
0.0
 11
12.78961100090134
 21
214.7183219999998
 31
0.0
  0
ARC
  5
311
330
1E
100
AcDbEntity
  8
1
  6
CONTINUOUS
100
AcDbCircle
 10
15.03412338227258
 20
217.2192989999999
 30
0.0
 40
1.5
100
AcDbArc
 50
90.0
 51
191.6623595246512
  0
ARC
  5
312
330
1E
100
AcDbEntity
  8
1
  6
CONTINUOUS
 62
     7
100
AcDbCircle
 10
49.77444400090121
 20
217.7192989999999
 30
0.0
 40
1.0
100
AcDbArc
 50
0.0
 51
90.0
  0
ARC
  5
315
330
1E
100
AcDbEntity
  8
1
  6
CONTINUOUS
 62
     7
100
AcDbCircle
 10
335.2745359985086
 20
502.5125119999999
 30
0.0
 40
340.0
100
AcDbArc
 50
170.9665069999955
 51
189.0334930000044
  0
ARC
  5
316
330
1E
100
AcDbEntity
  8
1
  6
CONTINUOUS
 62
     7
100
AcDbCircle
 10
11.34286499850839
 20
451.0125119999996
 30
0.0
 40
12.0
100
AcDbArc
 50
189.0334930000044
 51
270.0
  0
LINE
  5
317
330
1E
100
AcDbEntity
  8
1
  6
CONTINUOUS
100
AcDbLine
 10
49.77456599850859
 20
435.0115050000002
 30
0.0
 11
21.55874500825337
 21
435.011505
 31
0.0
  0
LINE
  5
318
330
1E
100
AcDbEntity
  8
1
  6
CONTINUOUS
 62
     7
100
AcDbLine
 10
11.34286499850861
 20
439.0125119999999
 30
0.0
 11
18.6988219985086
 21
439.0125119999999
 31
0.0
  0
ARC
  5
319
330
1E
100
AcDbEntity
  8
1
  6
CONTINUOUS
100
AcDbCircle
 10
21.55874500825337
 20
436.5115049999997
 30
0.0
 40
1.5
100
AcDbArc
 50
191.7720517696928
 51
270.0
  0
ARC
  5
31A
330
1E
100
AcDbEntity
  8
1
  6
CONTINUOUS
 62
     7
100
AcDbCircle
 10
18.6988219985086
 20
438.0125119999995
 30
0.0
 40
1.0
100
AcDbArc
 50
11.41125500000288
 51
90.0
  0
ARC
  5
31B
330
1E
100
AcDbEntity
  8
1
  6
CONTINUOUS
 62
     7
100
AcDbCircle
 10
49.77456599850836
 20
436.0115049999999
 30
0.0
 40
1.0
100
AcDbArc
 50
270.0
 51
0.0
  0
LINE
  5
33B
330
1E
100
AcDbEntity
  8
1
  6
CONTINUOUS
100
AcDbLine
 10
49.77456599850859
 20
570.0115200000001
 30
0.0
 11
21.5587481342817
 21
570.0115199999997
 31
0.0
  0
ARC
  5
33C
330
1E
100
AcDbEntity
  8
1
  6
CONTINUOUS
100
AcDbCircle
 10
21.5587481342817
 20
568.5115199999997
 30
0.0
 40
1.5
100
AcDbArc
 50
90.0
 51
168.2279455165586
  0
LINE
  5
33D
330
1E
100
AcDbEntity
  8
1
  6
CONTINUOUS
 62
     7
100
AcDbLine
 10
11.34286499850861
 20
566.0105439999998
 30
0.0
 11
18.6988219985086
 21
566.0105439999998
 31
0.0
  0
ARC
  5
33E
330
1E
100
AcDbEntity
  8
1
  6
CONTINUOUS
 62
     7
100
AcDbCircle
 10
18.6988219985086
 20
567.0105439999995
 30
0.0
 40
1.0
100
AcDbArc
 50
270.0
 51
348.5887449999971
  0
ARC
  5
33F
330
1E
100
AcDbEntity
  8
1
  6
CONTINUOUS
 62
     7
100
AcDbCircle
 10
49.77456599850836
 20
569.01152
 30
0.0
 40
1.0
100
AcDbArc
 50
0.0
 51
90.0
  0
LINE
  5
348
330
1E
100
AcDbEntity
  8
0
  6
CONTINUOUS
100
AcDbLine
 10
54.77471900000001
 20
560.014282
 30
0.0
 11
54.77471900000001
 21
445.0142519999999
 31
0.0
  0
LINE
  5
349
330
1E
100
AcDbEntity
  8
0
  6
CONTINUOUS
100
AcDbLine
 10
54.77441399999998
 20
208.719299
 30
0.0
 11
54.77441399999998
 21
165.719376
 31
0.0
  0
LINE
  5
34A
330
1E
100
AcDbEntity
  8
0
  6
CONTINUOUS
100
AcDbLine
 10
54.77441399999998
 20
136.7192689999999
 30
0.0
 11
54.77441399999997
 21
102.177879
 31
0.0
  0
LINE
  5
34B
330
1E
100
AcDbEntity
  8
1
  6
CONTINUOUS
 62
     7
100
AcDbLine
 10
50.77444400090133
 20
164.719376
 30
0.0
 11
50.77444400090133
 21
217.7192989999999
 31
0.0
  0
LINE
  5
34C
330
1E
100
AcDbEntity
  8
0
  6
CONTINUOUS
100
AcDbLine
 10
54.77441399999997
 20
96.17785599999999
 30
0.0
 11
54.77441399999998
 21
93.719307
 31
0.0
  0
ENDSEC
  0
SECTION
  2
OBJECTS
  0
DICTIONARY
  5
C
330
0
100
AcDbDictionary
  3
ACAD_GROUP
350
D
  3
ACAD_LAYOUT
350
19
  3
ACAD_MLINESTYLE
350
16
  3
ACAD_PLOTSETTINGS
350
18
  3
ACAD_PLOTSTYLENAME
350
E
  3
ACDBHEADERROUNDTRIPXREC
350
35A
  3
ACDBVARIABLEDICTIONARY
350
357
  0
DICTIONARY
  5
37C
330
1E
100
AcDbDictionary
280
     1
  3
ACAD_LAYOUTSELFREF
360
37D
  0
DICTIONARY
  5
37A
330
1A
100
AcDbDictionary
280
     1
  3
ACAD_LAYOUTSELFREF
360
37B
  0
DICTIONARY
  5
D
102
{ACAD_REACTORS
330
C
102
}
330
C
100
AcDbDictionary
  0
DICTIONARY
  5
19
102
{ACAD_REACTORS
330
C
102
}
330
C
100
AcDbDictionary
  0
DICTIONARY
  5
16
102
{ACAD_REACTORS
330
C
102
}
330
C
100
AcDbDictionary
  3
STANDARD
350
17
  0
DICTIONARY
  5
18
102
{ACAD_REACTORS
330
C
102
}
330
C
100
AcDbDictionary
  0
ACDBDICTIONARYWDFLT
  5
E
102
{ACAD_REACTORS
330
C
102
}
330
C
100
AcDbDictionary
281
     1
  3
Normal
350
F
100
AcDbDictionaryWithDefault
340
F
  0
DICTIONARY
  5
35A
102
{ACAD_REACTORS
330
C
102
}
330
C
100
AcDbDictionary
  3
CEPSNTYPE
350
364
  3
FINGERPRINTGUID
350
365
  3
HYPERLINKBASE
350
35D
  3
INSUNITS
350
363
  3
LAYOUTDICT
350
35F
  3
LWETCUNION
350
362
  3
PLOTSETDICT
350
360
  3
PLOTSTYLNAMDICT
350
361
  3
PSVPSCALE
350
367
  3
PUCSBASE
350
36A
  3
PUCSORGBACK
350
370
  3
PUCSORGBOTTOM
350
36C
  3
PUCSORGFRONT
350
36F
  3
PUCSORGLEFT
350
36D
  3
PUCSORGRIGHT
350
36E
  3
PUCSORGTOP
350
36B
  3
PUCSORTHOREF
350
368
  3
PUCSORTHOVIEW
350
369
  3
STYLESHEET
350
35E
  3
TSTACKALIGN
350
35B
  3
TSTACKSIZE
350
35C
  3
UCSBASE
350
373
  3
UCSORGBACK
350
379
  3
UCSORGBOTTOM
350
375
  3
UCSORGFRONT
350
378
  3
UCSORGLEFT
350
376
  3
UCSORGRIGHT
350
377
  3
UCSORGTOP
350
374
  3
UCSORTHOREF
350
371
  3
UCSORTHOVIEW
350
372
  3
VERSIONGUID
350
366
  0
DICTIONARY
  5
357
102
{ACAD_REACTORS
330
C
102
}
330
C
100
AcDbDictionary
  3
DIMASSOC
350
358
  0
XRECORD
  5
37D
102
{ACAD_REACTORS
330
37C
102
}
330
37C
100
AcDbXrecord
340
1E
  0
XRECORD
  5
37B
102
{ACAD_REACTORS
330
37A
102
}
330
37A
100
AcDbXrecord
340
1A
  0
MLINESTYLE
  5
17
102
{ACAD_REACTORS
330
16
102
}
330
16
100
AcDbMlineStyle
  2
STANDARD
 70
     0
  3

 62
   256
 51
90.0
 52
90.0
 71
     2
 49
0.5
 62
   256
  6
BYLAYER
 49
-0.5
 62
   256
  6
BYLAYER
  0
ACDBPLACEHOLDER
  5
F
102
{ACAD_REACTORS
330
E
102
}
330
E
100
AcDbPlaceHolder
280
     0
  0
XRECORD
  5
364
102
{ACAD_REACTORS
330
35A
102
}
330
35A
100
AcDbXrecord
 90
        0
  0
XRECORD
  5
365
102
{ACAD_REACTORS
330
35A
102
}
330
35A
100
AcDbXrecord
  1
{E0C7270A-C829-4A28-8F62-BCEFA45F7F34}
  0
XRECORD
  5
35D
102
{ACAD_REACTORS
330
35A
102
}
330
35A
100
AcDbXrecord
  1

  0
XRECORD
  5
363
102
{ACAD_REACTORS
330
35A
102
}
330
35A
100
AcDbXrecord
 90
        0
  0
XRECORD
  5
35F
102
{ACAD_REACTORS
330
35A
102
}
330
35A
100
AcDbXrecord
340
19
  0
XRECORD
  5
362
102
{ACAD_REACTORS
330
35A
102
}
330
35A
100
AcDbXrecord
 90
    10781
  0
XRECORD
  5
360
102
{ACAD_REACTORS
330
35A
102
}
330
35A
100
AcDbXrecord
340
18
  0
XRECORD
  5
361
102
{ACAD_REACTORS
330
35A
102
}
330
35A
100
AcDbXrecord
340
E
  0
XRECORD
  5
367
102
{ACAD_REACTORS
330
35A
102
}
330
35A
100
AcDbXrecord
 40
0.0
  0
XRECORD
  5
36A
102
{ACAD_REACTORS
330
35A
102
}
330
35A
100
AcDbXrecord
340
0
  0
XRECORD
  5
370
102
{ACAD_REACTORS
330
35A
102
}
330
35A
100
AcDbXrecord
 10
0.0
 20
0.0
 30
0.0
  0
XRECORD
  5
36C
102
{ACAD_REACTORS
330
35A
102
}
330
35A
100
AcDbXrecord
 10
0.0
 20
0.0
 30
0.0
  0
XRECORD
  5
36F
102
{ACAD_REACTORS
330
35A
102
}
330
35A
100
AcDbXrecord
 10
0.0
 20
0.0
 30
0.0
  0
XRECORD
  5
36D
102
{ACAD_REACTORS
330
35A
102
}
330
35A
100
AcDbXrecord
 10
0.0
 20
0.0
 30
0.0
  0
XRECORD
  5
36E
102
{ACAD_REACTORS
330
35A
102
}
330
35A
100
AcDbXrecord
 10
0.0
 20
0.0
 30
0.0
  0
XRECORD
  5
36B
102
{ACAD_REACTORS
330
35A
102
}
330
35A
100
AcDbXrecord
 10
0.0
 20
0.0
 30
0.0
  0
XRECORD
  5
368
102
{ACAD_REACTORS
330
35A
102
}
330
35A
100
AcDbXrecord
340
0
  0
XRECORD
  5
369
102
{ACAD_REACTORS
330
35A
102
}
330
35A
100
AcDbXrecord
 70
     0
  0
XRECORD
  5
35E
102
{ACAD_REACTORS
330
35A
102
}
330
35A
100
AcDbXrecord
  1

  0
XRECORD
  5
35B
102
{ACAD_REACTORS
330
35A
102
}
330
35A
100
AcDbXrecord
 90
        1
  0
XRECORD
  5
35C
102
{ACAD_REACTORS
330
35A
102
}
330
35A
100
AcDbXrecord
 90
       70
  0
XRECORD
  5
373
102
{ACAD_REACTORS
330
35A
102
}
330
35A
100
AcDbXrecord
340
0
  0
XRECORD
  5
379
102
{ACAD_REACTORS
330
35A
102
}
330
35A
100
AcDbXrecord
 10
0.0
 20
0.0
 30
0.0
  0
XRECORD
  5
375
102
{ACAD_REACTORS
330
35A
102
}
330
35A
100
AcDbXrecord
 10
0.0
 20
0.0
 30
0.0
  0
XRECORD
  5
378
102
{ACAD_REACTORS
330
35A
102
}
330
35A
100
AcDbXrecord
 10
0.0
 20
0.0
 30
0.0
  0
XRECORD
  5
376
102
{ACAD_REACTORS
330
35A
102
}
330
35A
100
AcDbXrecord
 10
0.0
 20
0.0
 30
0.0
  0
XRECORD
  5
377
102
{ACAD_REACTORS
330
35A
102
}
330
35A
100
AcDbXrecord
 10
0.0
 20
0.0
 30
0.0
  0
XRECORD
  5
374
102
{ACAD_REACTORS
330
35A
102
}
330
35A
100
AcDbXrecord
 10
0.0
 20
0.0
 30
0.0
  0
XRECORD
  5
371
102
{ACAD_REACTORS
330
35A
102
}
330
35A
100
AcDbXrecord
340
0
  0
XRECORD
  5
372
102
{ACAD_REACTORS
330
35A
102
}
330
35A
100
AcDbXrecord
 70
     0
  0
XRECORD
  5
366
102
{ACAD_REACTORS
330
35A
102
}
330
35A
100
AcDbXrecord
  1
{344BE57C-7350-4267-A075-A6CE3030D31E}
  0
DICTIONARYVAR
  5
358
102
{ACAD_REACTORS
330
357
102
}
330
357
100
DictionaryVariables
280
     0
  1
1
  0
ENDSEC
  0
EOF
