  0
SECTION
  2
HEADER
  9
$ACADVER
  1
AC1014
  9
$ACADMAINTVER
 70
     9
  9
$DWGCODEPAGE
  3
ANSI_932
  9
$INSBASE
 10
0.0
 20
0.0
 30
0.0
  9
$EXTMIN
 10
-30.00140599999999
 20
-43.0
 30
0.0
  9
$EXTMAX
 10
770.457581
 20
611.645264
 30
0.0
  9
$LIMMIN
 10
0.0
 20
0.0
  9
$LIMMAX
 10
12.0
 20
9.0
  9
$ORTHOMODE
 70
     0
  9
$REGENMODE
 70
     1
  9
$FILLMODE
 70
     1
  9
$QTEXTMODE
 70
     0
  9
$MIRRTEXT
 70
     1
  9
$DRAGMODE
 70
     2
  9
$LTSCALE
 40
3.0
  9
$OSMODE
 70
    45
  9
$ATTMODE
 70
     1
  9
$TEXTSIZE
 40
3.0
  9
$TRACEWID
 40
0.05
  9
$TEXTSTYLE
  7
STANDARD
  9
$CLAYER
  8
1
  9
$CELTYPE
  6
CONTINUOUS
  9
$CECOLOR
 62
   256
  9
$CELTSCALE
 40
1.0
  9
$DELOBJ
 70
     1
  9
$DISPSILH
 70
     0
  9
$DIMSCALE
 40
1.0
  9
$DIMASZ
 40
0.18
  9
$DIMEXO
 40
0.0625
  9
$DIMDLI
 40
0.38
  9
$DIMRND
 40
0.0
  9
$DIMDLE
 40
0.0
  9
$DIMEXE
 40
0.18
  9
$DIMTP
 40
0.0
  9
$DIMTM
 40
0.0
  9
$DIMTXT
 40
0.18
  9
$DIMCEN
 40
0.09
  9
$DIMTSZ
 40
0.0
  9
$DIMTOL
 70
     0
  9
$DIMLIM
 70
     0
  9
$DIMTIH
 70
     1
  9
$DIMTOH
 70
     1
  9
$DIMSE1
 70
     0
  9
$DIMSE2
 70
     0
  9
$DIMTAD
 70
     0
  9
$DIMZIN
 70
     0
  9
$DIMBLK
  1

  9
$DIMASO
 70
     1
  9
$DIMSHO
 70
     1
  9
$DIMPOST
  1

  9
$DIMAPOST
  1

  9
$DIMALT
 70
     0
  9
$DIMALTD
 70
     2
  9
$DIMALTF
 40
25.4
  9
$DIMLFAC
 40
1.0
  9
$DIMTOFL
 70
     0
  9
$DIMTVP
 40
0.0
  9
$DIMTIX
 70
     0
  9
$DIMSOXD
 70
     0
  9
$DIMSAH
 70
     0
  9
$DIMBLK1
  1

  9
$DIMBLK2
  1

  9
$DIMSTYLE
  2
STANDARD
  9
$DIMCLRD
 70
     0
  9
$DIMCLRE
 70
     0
  9
$DIMCLRT
 70
     0
  9
$DIMTFAC
 40
1.0
  9
$DIMGAP
 40
0.09
  9
$DIMJUST
 70
     0
  9
$DIMSD1
 70
     0
  9
$DIMSD2
 70
     0
  9
$DIMTOLJ
 70
     1
  9
$DIMTZIN
 70
     0
  9
$DIMALTZ
 70
     0
  9
$DIMALTTZ
 70
     0
  9
$DIMFIT
 70
     3
  9
$DIMUPT
 70
     0
  9
$DIMUNIT
 70
     2
  9
$DIMDEC
 70
     4
  9
$DIMTDEC
 70
     4
  9
$DIMALTU
 70
     2
  9
$DIMALTTD
 70
     2
  9
$DIMTXSTY
  7
STANDARD
  9
$DIMAUNIT
 70
     0
  9
$LUNITS
 70
     2
  9
$LUPREC
 70
     4
  9
$SKETCHINC
 40
0.1
  9
$FILLETRAD
 40
0.0
  9
$AUNITS
 70
     0
  9
$AUPREC
 70
     0
  9
$MENU
  1
.
  9
$ELEVATION
 40
0.0
  9
$PELEVATION
 40
0.0
  9
$THICKNESS
 40
0.0
  9
$LIMCHECK
 70
     0
  9
$BLIPMODE
 70
     0
  9
$CHAMFERA
 40
0.0
  9
$CHAMFERB
 40
0.0
  9
$CHAMFERC
 40
0.0
  9
$CHAMFERD
 40
0.0
  9
$SKPOLY
 70
     0
  9
$TDCREATE
 40
2453348.387810323
  9
$TDUPDATE
 40
2453354.763547442
  9
$TDINDWG
 40
0.0020940856
  9
$TDUSRTIMER
 40
0.0020940856
  9
$USRTIMER
 70
     1
  9
$ANGBASE
 50
0.0
  9
$ANGDIR
 70
     0
  9
$PDMODE
 70
     0
  9
$PDSIZE
 40
0.0
  9
$PLINEWID
 40
0.0
  9
$COORDS
 70
     1
  9
$SPLFRAME
 70
     0
  9
$SPLINETYPE
 70
     6
  9
$SPLINESEGS
 70
     8
  9
$ATTDIA
 70
     0
  9
$ATTREQ
 70
     1
  9
$HANDLING
 70
 22529
  9
$HANDSEED
  5
363
  9
$SURFTAB1
 70
     6
  9
$SURFTAB2
 70
     6
  9
$SURFTYPE
 70
     6
  9
$SURFU
 70
     6
  9
$SURFV
 70
     6
  9
$UCSNAME
  2

  9
$UCSORG
 10
0.0
 20
0.0
 30
0.0
  9
$UCSXDIR
 10
1.0
 20
0.0
 30
0.0
  9
$UCSYDIR
 10
0.0
 20
1.0
 30
0.0
  9
$PUCSNAME
  2

  9
$PUCSORG
 10
0.0
 20
0.0
 30
0.0
  9
$PUCSXDIR
 10
1.0
 20
0.0
 30
0.0
  9
$PUCSYDIR
 10
0.0
 20
1.0
 30
0.0
  9
$USERI1
 70
     0
  9
$USERI2
 70
     0
  9
$USERI3
 70
     0
  9
$USERI4
 70
     0
  9
$USERI5
 70
     0
  9
$USERR1
 40
0.0
  9
$USERR2
 40
0.0
  9
$USERR3
 40
0.0
  9
$USERR4
 40
0.0
  9
$USERR5
 40
0.0
  9
$WORLDVIEW
 70
     1
  9
$SHADEDGE
 70
     3
  9
$SHADEDIF
 70
    70
  9
$TILEMODE
 70
     1
  9
$MAXACTVP
 70
    64
  9
$PINSBASE
 10
0.0
 20
0.0
 30
0.0
  9
$PLIMCHECK
 70
     0
  9
$PEXTMIN
 10
1.000000000000000E+20
 20
1.000000000000000E+20
 30
1.000000000000000E+20
  9
$PEXTMAX
 10
-1.000000000000000E+20
 20
-1.000000000000000E+20
 30
-1.000000000000000E+20
  9
$PLIMMIN
 10
0.0
 20
0.0
  9
$PLIMMAX
 10
12.0
 20
9.0
  9
$UNITMODE
 70
     0
  9
$VISRETAIN
 70
     1
  9
$PLINEGEN
 70
     0
  9
$PSLTSCALE
 70
     1
  9
$TREEDEPTH
 70
  3020
  9
$PICKSTYLE
 70
     1
  9
$CMLSTYLE
  2
STANDARD
  9
$CMLJUST
 70
     0
  9
$CMLSCALE
 40
1.0
  9
$PROXYGRAPHICS
 70
     1
  9
$MEASUREMENT
 70
     0
  0
ENDSEC
  0
SECTION
  2
CLASSES
  0
CLASS
  1
ACDBDICTIONARYWDFLT
  2
AcDbDictionaryWithDefault
  3
AutoCAD 2000
 90
        0
280
     0
281
     0
  0
CLASS
  1
ACDBPLACEHOLDER
  2
AcDbPlaceHolder
  3
AutoCAD 2000
 90
        0
280
     0
281
     0
  0
CLASS
  1
LAYOUT
  2
AcDbLayout
  3
AutoCAD 2000
 90
        0
280
     0
281
     0
  0
CLASS
  1
DICTIONARYVAR
  2
AcDbDictionaryVar
  3
AutoCAD 2000
 90
        0
280
     0
281
     0
  0
CLASS
  1
LONG_TRANSACTION
  2
AcDbLongTransaction
  3
AutoCAD 2000
 90
        0
280
     0
281
     0
  0
CLASS
  1
LWPOLYLINE
  2
AcDbPolyline
  3
AutoCAD 2000
 90
        0
280
     0
281
     1
  0
CLASS
  1
HATCH
  2
AcDbHatch
  3
AutoCAD 2000
 90
        0
280
     0
281
     1
  0
CLASS
  1
XRECORD
  2
AcDbXrecord
  3
AutoCAD 2000
 90
        0
280
     0
281
     0
  0
ENDSEC
  0
SECTION
  2
TABLES
  0
TABLE
  2
VPORT
  5
8
330
0
100
AcDbSymbolTable
 70
     2
  0
VPORT
  5
33E
330
8
100
AcDbSymbolTableRecord
100
AcDbViewportTableRecord
  2
*ACTIVE
 70
     0
 10
0.0
 20
0.0
 11
1.0
 21
1.0
 12
579.7885052897199
 22
289.1505838303332
 13
0.0
 23
0.0
 14
1.0
 24
1.0
 15
0.0
 25
0.0
 16
0.0
 26
0.0
 36
1.0
 17
0.0
 27
0.0
 37
0.0
 40
935.2523801712163
 41
1.976793248945147
 42
50.0
 43
0.0
 44
0.0
 50
0.0
 51
0.0
 71
     0
 72
   100
 73
     1
 74
     1
 75
     0
 76
     0
 77
     0
 78
     0
  0
ENDTAB
  0
TABLE
  2
LTYPE
  5
5
330
0
100
AcDbSymbolTable
 70
     3
  0
LTYPE
  5
13
330
5
100
AcDbSymbolTableRecord
100
AcDbLinetypeTableRecord
  2
BYBLOCK
 70
     0
  3

 72
    65
 73
     0
 40
0.0
  0
LTYPE
  5
14
330
5
100
AcDbSymbolTableRecord
100
AcDbLinetypeTableRecord
  2
BYLAYER
 70
     0
  3

 72
    65
 73
     0
 40
0.0
  0
LTYPE
  5
15
330
5
100
AcDbSymbolTableRecord
100
AcDbLinetypeTableRecord
  2
CONTINUOUS
 70
     0
  3
solid line
 72
    65
 73
     0
 40
0.0
  0
LTYPE
  5
23
330
5
100
AcDbSymbolTableRecord
100
AcDbLinetypeTableRecord
  2
DASHED
 70
     0
  3
__ __ __ __ __ __ __ __ __ __ __ __ __ __ __
 72
    65
 73
     2
 40
0.75
 49
0.5
 74
     0
 49
-0.25
 74
     0
  0
LTYPE
  5
24
330
5
100
AcDbSymbolTableRecord
100
AcDbLinetypeTableRecord
  2
CENTER
 70
     0
  3
____ _ ____ _ ____ _ ____ _ ____ _ ____ _ ____
 72
    65
 73
     4
 40
2.0
 49
1.25
 74
     0
 49
-0.25
 74
     0
 49
0.25
 74
     0
 49
-0.25
 74
     0
  0
ENDTAB
  0
TABLE
  2
LAYER
  5
2
330
0
100
AcDbSymbolTable
 70
     2
  0
LAYER
  5
10
330
2
100
AcDbSymbolTableRecord
100
AcDbLayerTableRecord
  2
0
 70
     0
 62
     7
  6
CONTINUOUS
  0
LAYER
  5
22
330
2
100
AcDbSymbolTableRecord
100
AcDbLayerTableRecord
  2
1
 70
     0
 62
     7
  6
CONTINUOUS
  0
ENDTAB
  0
TABLE
  2
STYLE
  5
3
330
0
100
AcDbSymbolTable
 70
     1
  0
STYLE
  5
11
330
3
100
AcDbSymbolTableRecord
100
AcDbTextStyleTableRecord
  2
STANDARD
 70
     0
 40
0.0
 41
1.0
 50
0.0
 71
     0
 42
3.0
  3
txt
  4
BIGFONT
  0
ENDTAB
  0
TABLE
  2
VIEW
  5
6
330
0
100
AcDbSymbolTable
 70
     0
  0
ENDTAB
  0
TABLE
  2
UCS
  5
7
330
0
100
AcDbSymbolTable
 70
     0
  0
ENDTAB
  0
TABLE
  2
APPID
  5
9
330
0
100
AcDbSymbolTable
 70
     1
  0
APPID
  5
12
330
9
100
AcDbSymbolTableRecord
100
AcDbRegAppTableRecord
  2
ACAD
 70
     0
  0
ENDTAB
  0
TABLE
  2
DIMSTYLE
  5
A
330
0
100
AcDbSymbolTable
 70
     1
  0
DIMSTYLE
105
27A
330
A
100
AcDbSymbolTableRecord
100
AcDbDimStyleTableRecord
  2
STANDARD
 70
     0
  3

  4

  5

  6

  7

 40
1.0
 41
0.18
 42
0.0625
 43
0.38
 44
0.18
 45
0.0
 46
0.0
 47
0.0
 48
0.0
140
0.18
141
0.09
142
0.0
143
25.4
144
1.0
145
0.0
146
1.0
147
0.09
 71
     0
 72
     0
 73
     1
 74
     1
 75
     0
 76
     0
 77
     0
 78
     0
170
     0
171
     2
172
     0
173
     0
174
     0
175
     0
176
     0
177
     0
178
     0
270
     2
271
     4
272
     4
273
     2
274
     2
340
11
275
     0
280
     0
281
     0
282
     0
283
     1
284
     0
285
     0
286
     0
287
     3
288
     0
  0
ENDTAB
  0
TABLE
  2
BLOCK_RECORD
  5
1
330
0
100
AcDbSymbolTable
 70
     0
  0
BLOCK_RECORD
  5
1E
102
{ACAD_XDICTIONARY
360
361
102
}
330
1
100
AcDbSymbolTableRecord
100
AcDbBlockTableRecord
  2
*MODEL_SPACE
  0
BLOCK_RECORD
  5
1A
102
{ACAD_XDICTIONARY
360
35F
102
}
330
1
100
AcDbSymbolTableRecord
100
AcDbBlockTableRecord
  2
*PAPER_SPACE
  0
ENDTAB
  0
ENDSEC
  0
SECTION
  2
BLOCKS
  0
BLOCK
  5
1F
330
1E
100
AcDbEntity
  8
0
100
AcDbBlockBegin
  2
*MODEL_SPACE
 70
     0
 10
0.0
 20
0.0
 30
0.0
  3
*MODEL_SPACE
  1

  0
ENDBLK
  5
20
330
1E
100
AcDbEntity
  8
0
100
AcDbBlockEnd
  0
BLOCK
  5
1B
330
1A
100
AcDbEntity
 67
     1
  8
0
100
AcDbBlockBegin
  2
*PAPER_SPACE
 70
     0
 10
0.0
 20
0.0
 30
0.0
  3
*PAPER_SPACE
  1

  0
ENDBLK
  5
1C
330
1A
100
AcDbEntity
 67
     1
  8
0
100
AcDbBlockEnd
  0
ENDSEC
  0
SECTION
  2
ENTITIES
  0
LINE
  5
29
330
1E
100
AcDbEntity
  8
0
  6
CONTINUOUS
100
AcDbLine
 10
397.6327509999999
 20
592.407837
 30
0.0
 11
328.7642819999999
 21
592.407837
 31
0.0
  0
LINE
  5
2A
330
1E
100
AcDbEntity
  8
0
  6
CONTINUOUS
100
AcDbLine
 10
397.632141
 20
412.407837
 30
0.0
 11
351.763641
 21
412.407928
 31
0.0
  0
LINE
  5
2B
330
1E
100
AcDbEntity
  8
0
  6
CENTER
100
AcDbLine
 10
328.763641
 20
348.019012
 30
0.0
 11
328.76416
 21
611.645264
 31
0.0
  0
LINE
  5
2C
330
1E
100
AcDbEntity
  8
0
  6
CENTER
100
AcDbLine
 10
403.6174319999999
 20
572.4078369999999
 30
0.0
 11
375.24939
 21
572.4078369999999
 31
0.0
  0
LINE
  5
2D
330
1E
100
AcDbEntity
  8
0
  6
CONTINUOUS
100
AcDbLine
 10
418.763947
 20
502.407928
 30
0.0
 11
417.855957
 21
450.407867
 31
0.0
  0
LINE
  5
2E
330
1E
100
AcDbEntity
  8
0
  6
CONTINUOUS
100
AcDbLine
 10
407.0867309999999
 20
419.150452
 30
0.0
 11
417.855957
 21
450.407867
 31
0.0
  0
ARC
  5
2F
330
1E
100
AcDbEntity
  8
0
  6
CONTINUOUS
100
AcDbCircle
 10
397.6323549999999
 20
422.407898
 30
0.0
 40
10.0
100
AcDbArc
 50
270.0
 51
340.9891
  0
ARC
  5
30
330
1E
100
AcDbEntity
  8
0
  6
CONTINUOUS
100
AcDbCircle
 10
388.763947
 20
572.4078369999999
 30
0.0
 40
7.5
100
AcDbArc
 50
313.925117
 51
212.226791
  0
LINE
  5
31
330
1E
100
AcDbEntity
  8
0
  6
CONTINUOUS
100
AcDbLine
 10
418.763947
 20
502.407928
 30
0.0
 11
417.8561399999999
 21
554.407837
 31
0.0
  0
LINE
  5
32
330
1E
100
AcDbEntity
  8
0
  6
CONTINUOUS
100
AcDbLine
 10
407.087158
 20
585.665283
 30
0.0
 11
417.8561399999999
 21
554.407837
 31
0.0
  0
ARC
  5
33
330
1E
100
AcDbEntity
  8
0
  6
CONTINUOUS
100
AcDbCircle
 10
397.6327509999999
 20
582.4078369999999
 30
0.0
 40
10.0
100
AcDbArc
 50
19.01089999999999
 51
90.0
  0
LINE
  5
34
330
1E
100
AcDbEntity
  8
0
  6
CONTINUOUS
100
AcDbLine
 10
238.763947
 20
502.4081119999999
 30
0.0
 11
239.6717379999999
 21
450.408142
 31
0.0
  0
LINE
  5
35
330
1E
100
AcDbEntity
  8
0
  6
CONTINUOUS
100
AcDbLine
 10
250.44075
 20
419.1506959999999
 30
0.0
 11
239.6717379999999
 21
450.408142
 31
0.0
  0
ARC
  5
36
330
1E
100
AcDbEntity
  8
0
  6
CONTINUOUS
100
AcDbCircle
 10
259.895355
 20
422.408142
 30
0.0
 40
10.0
100
AcDbArc
 50
199.010895
 51
270.0
  0
LINE
  5
37
330
1E
100
AcDbEntity
  8
0
  6
CONTINUOUS
100
AcDbLine
 10
238.763947
 20
502.4081119999999
 30
0.0
 11
239.620483
 21
551.460693
 31
0.0
  0
LINE
  5
38
330
1E
100
AcDbEntity
  8
0
  6
CONTINUOUS
100
AcDbLine
 10
250.441147
 20
585.665466
 30
0.0
 11
240.018768
 21
555.414673
 31
0.0
  0
LINE
  5
39
330
1E
100
AcDbEntity
  8
0
  6
CONTINUOUS
100
AcDbLine
 10
227.801743
 20
573.4080809999999
 30
0.0
 11
225.763748
 21
573.4080809999999
 31
0.0
  0
LINE
  5
3A
330
1E
100
AcDbEntity
  8
0
  6
CONTINUOUS
100
AcDbLine
 10
225.764145
 20
573.4080809999999
 30
0.0
 11
225.763748
 21
431.4081419999999
 31
0.0
  0
LINE
  5
3B
330
1E
100
AcDbEntity
  8
0
  6
CONTINUOUS
100
AcDbLine
 10
236.873749
 20
559.5962519999999
 30
0.0
 11
234.563141
 21
568.2198490000001
 31
0.0
  0
ARC
  5
3C
330
1E
100
AcDbEntity
  8
0
  6
CONTINUOUS
100
AcDbCircle
 10
227.801743
 20
566.4080809999999
 30
0.0
 40
7.0
100
AcDbArc
 50
14.9999
 51
90.0
  0
ARC
  5
3D
330
1E
100
AcDbEntity
  8
0
  6
CONTINUOUS
100
AcDbCircle
 10
243.635345
 20
561.4080809999999
 30
0.0
 40
7.0
100
AcDbArc
 50
194.999695
 51
270.0
  0
LINE
  5
3E
330
1E
100
AcDbEntity
  8
0
  6
CONTINUOUS
100
AcDbLine
 10
227.8013459999999
 20
431.4081419999999
 30
0.0
 11
225.76355
 21
431.4081419999999
 31
0.0
  0
LINE
  5
3F
330
1E
100
AcDbEntity
  8
0
  6
CONTINUOUS
100
AcDbLine
 10
236.87355
 20
445.219971
 30
0.0
 11
234.562943
 21
436.596405
 31
0.0
  0
ARC
  5
40
330
1E
100
AcDbEntity
  8
0
  6
CONTINUOUS
100
AcDbCircle
 10
227.8013459999999
 20
438.408203
 30
0.0
 40
7.0
100
AcDbArc
 50
270.0
 51
345.0001
  0
ARC
  5
41
330
1E
100
AcDbEntity
  8
0
  6
CONTINUOUS
100
AcDbCircle
 10
243.635147
 20
443.408142
 30
0.0
 40
7.0
100
AcDbArc
 50
121.109207
 51
165.000336
  0
ARC
  5
42
330
1E
100
AcDbEntity
  8
0
  6
CONTINUOUS
100
AcDbCircle
 10
259.895355
 20
582.4085079999999
 30
0.0
 40
10.0
100
AcDbArc
 50
90.0
 51
160.9891049999999
  0
ARC
  5
43
330
1E
100
AcDbEntity
  8
0
  6
CONTINUOUS
100
AcDbCircle
 10
268.763733
 20
572.408508
 30
0.0
 40
7.5
100
AcDbArc
 50
327.767059
 51
238.0763549999999
  0
LINE
  5
44
330
1E
100
AcDbEntity
  8
0
  6
CENTER
100
AcDbLine
 10
388.763641
 20
560.606262
 30
0.0
 11
388.7641299999999
 21
584.4826659999999
 31
0.0
  0
LINE
  5
45
330
1E
100
AcDbEntity
  8
0
  6
CENTER
100
AcDbLine
 10
281.7743529999999
 20
572.407959
 30
0.0
 11
256.1965939999999
 21
572.407959
 31
0.0
  0
LINE
  5
46
330
1E
100
AcDbEntity
  8
0
  6
CENTER
100
AcDbLine
 10
268.763947
 20
560.606262
 30
0.0
 11
268.7641299999999
 21
584.482849
 31
0.0
  0
LINE
  5
47
330
1E
100
AcDbEntity
  8
0
  6
CONTINUOUS
100
AcDbLine
 10
414.908051
 20
554.4083249999999
 30
0.0
 11
242.6200259999999
 21
554.4083249999999
 31
0.0
  0
LINE
  5
48
330
1E
100
AcDbEntity
  8
0
  6
CONTINUOUS
100
AcDbLine
 10
285.9831849999999
 20
575.4083249999999
 30
0.0
 11
371.544098
 21
575.4083249999999
 31
0.0
  0
ARC
  5
49
330
1E
100
AcDbEntity
  8
0
  6
CONTINUOUS
100
AcDbCircle
 10
414.908051
 20
551.4083249999999
 30
0.0
 40
3.0
100
AcDbArc
 50
1.000152
 51
90.0
  0
ARC
  5
4A
330
1E
100
AcDbEntity
  8
0
  6
CONTINUOUS
100
AcDbCircle
 10
242.6200259999999
 20
551.4083249999999
 30
0.0
 40
3.0
100
AcDbArc
 50
90.0
 51
178.999634
  0
LINE
  5
4B
330
1E
100
AcDbEntity
  8
0
  6
CONTINUOUS
100
AcDbLine
 10
414.908051
 20
450.4083249999999
 30
0.0
 11
242.6200259999999
 21
450.4083249999999
 31
0.0
  0
ARC
  5
4C
330
1E
100
AcDbEntity
  8
0
  6
CONTINUOUS
100
AcDbCircle
 10
414.908051
 20
453.408325
 30
0.0
 40
3.0
100
AcDbArc
 50
270.0
 51
358.999847
  0
ARC
  5
4D
330
1E
100
AcDbEntity
  8
0
  6
CONTINUOUS
100
AcDbCircle
 10
242.6200259999999
 20
453.408325
 30
0.0
 40
3.0
100
AcDbArc
 50
181.0003659999999
 51
270.0
  0
LINE
  5
4E
330
1E
100
AcDbEntity
  8
0
  6
CONTINUOUS
100
AcDbLine
 10
363.7638549999999
 20
455.4083249999999
 30
0.0
 11
363.7638549999999
 21
549.408325
 31
0.0
  0
LINE
  5
4F
330
1E
100
AcDbEntity
  8
0
  6
CONTINUOUS
100
AcDbLine
 10
293.7638549999999
 20
455.4083249999999
 30
0.0
 11
293.7638549999999
 21
549.408325
 31
0.0
  0
LINE
  5
50
330
1E
100
AcDbEntity
  8
0
  6
CONTINUOUS
100
AcDbLine
 10
270.0438539999999
 20
568.4083249999999
 30
0.0
 11
276.763641
 21
568.4083249999999
 31
0.0
  0
LINE
  5
51
330
1E
100
AcDbEntity
  8
0
  6
CONTINUOUS
100
AcDbLine
 10
389.763733
 20
568.4083249999999
 30
0.0
 11
380.763641
 21
568.4083249999999
 31
0.0
  0
ARC
  5
52
330
1E
100
AcDbEntity
  8
0
  6
CONTINUOUS
100
AcDbCircle
 10
389.763733
 20
561.408325
 30
0.0
 40
7.0
100
AcDbArc
 50
0.0
 51
90.0
  0
ARC
  5
53
330
1E
100
AcDbEntity
  8
0
  6
CONTINUOUS
100
AcDbCircle
 10
403.7637329999999
 20
561.408325
 30
0.0
 40
7.0
100
AcDbArc
 50
180.0
 51
270.0
  0
LINE
  5
54
330
1E
100
AcDbEntity
  8
0
  6
CONTINUOUS
100
AcDbLine
 10
285.9831849999999
 20
429.4083249999999
 30
0.0
 11
371.544098
 21
429.4083249999999
 31
0.0
  0
LINE
  5
55
330
1E
100
AcDbEntity
  8
0
  6
CONTINUOUS
100
AcDbLine
 10
267.763733
 20
436.408325
 30
0.0
 11
276.763641
 21
436.408234
 31
0.0
  0
ARC
  5
56
330
1E
100
AcDbEntity
  8
0
  6
CONTINUOUS
100
AcDbCircle
 10
267.763733
 20
443.4083249999999
 30
0.0
 40
7.0
100
AcDbArc
 50
180.0
 51
270.0
  0
ARC
  5
57
330
1E
100
AcDbEntity
  8
0
  6
CONTINUOUS
100
AcDbCircle
 10
253.7637479999999
 20
443.4083249999999
 30
0.0
 40
7.0
100
AcDbArc
 50
0.0
 51
90.0
  0
LINE
  5
58
330
1E
100
AcDbEntity
  8
0
  6
CONTINUOUS
100
AcDbLine
 10
389.763733
 20
436.408325
 30
0.0
 11
380.763641
 21
436.408234
 31
0.0
  0
ARC
  5
59
330
1E
100
AcDbEntity
  8
0
  6
CONTINUOUS
100
AcDbCircle
 10
389.763733
 20
443.4083249999999
 30
0.0
 40
7.0
100
AcDbArc
 50
270.0
 51
0.0
  0
ARC
  5
5A
330
1E
100
AcDbEntity
  8
0
  6
CONTINUOUS
100
AcDbCircle
 10
403.7637329999999
 20
443.4083249999999
 30
0.0
 40
7.0
100
AcDbArc
 50
90.0
 51
180.0
  0
LINE
  5
5B
330
1E
100
AcDbEntity
  8
0
  6
CONTINUOUS
100
AcDbLine
 10
263.313171
 20
563.33136
 30
0.0
 11
262.2142939999999
 21
559.4852909999999
 31
0.0
  0
ARC
  5
5C
330
1E
100
AcDbEntity
  8
0
  6
CONTINUOUS
100
AcDbCircle
 10
270.0438539999999
 20
561.408325
 30
0.0
 40
7.0
100
AcDbArc
 50
90.0
 51
164.054611
  0
ARC
  5
5D
330
1E
100
AcDbEntity
  8
0
  6
CONTINUOUS
100
AcDbCircle
 10
255.483627
 20
561.408325
 30
0.0
 40
7.0
100
AcDbArc
 50
270.0
 51
344.054604
  0
LINE
  5
5E
330
1E
100
AcDbEntity
  8
0
  6
CONTINUOUS
100
AcDbLine
 10
308.763947
 20
362.408112
 30
0.0
 11
351.763641
 21
362.408112
 31
0.0
  0
LINE
  5
5F
330
1E
100
AcDbEntity
  8
0
  6
CONTINUOUS
100
AcDbLine
 10
348.763947
 20
427.4081119999999
 30
0.0
 11
348.763947
 21
422.4085389999999
 31
0.0
  0
LINE
  5
60
330
1E
100
AcDbEntity
  8
0
  6
CONTINUOUS
100
AcDbLine
 10
308.763947
 20
427.4081119999999
 30
0.0
 11
308.763947
 21
362.408112
 31
0.0
  0
LINE
  5
61
330
1E
100
AcDbEntity
  8
0
  6
CONTINUOUS
100
AcDbLine
 10
351.263947
 20
427.4081119999999
 30
0.0
 11
306.263947
 21
427.4081119999999
 31
0.0
  0
LINE
  5
62
330
1E
100
AcDbEntity
  8
0
  6
CONTINUOUS
100
AcDbLine
 10
351.263947
 20
429.408112
 30
0.0
 11
351.263947
 21
427.4081119999999
 31
0.0
  0
LINE
  5
63
330
1E
100
AcDbEntity
  8
0
  6
CONTINUOUS
100
AcDbLine
 10
306.263947
 20
429.408112
 30
0.0
 11
306.263947
 21
427.4081119999999
 31
0.0
  0
LINE
  5
64
330
1E
100
AcDbEntity
  8
0
  6
CONTINUOUS
100
AcDbLine
 10
328.7642819999999
 20
592.4079589999999
 30
0.0
 11
259.895752
 21
592.4080809999999
 31
0.0
  0
LINE
  5
65
330
1E
100
AcDbEntity
  8
0
  6
CONTINUOUS
100
AcDbLine
 10
308.763947
 20
412.4080199999999
 30
0.0
 11
259.895355
 21
412.408112
 31
0.0
  0
LINE
  5
66
330
1E
100
AcDbEntity
  8
0
  6
CONTINUOUS
100
AcDbLine
 10
351.763641
 20
362.408539
 30
0.0
 11
351.763641
 21
422.4085389999999
 31
0.0
  0
LINE
  5
67
330
1E
100
AcDbEntity
  8
0
  6
CONTINUOUS
100
AcDbLine
 10
347.842621
 20
422.4085389999999
 30
0.0
 11
351.763641
 21
422.4085389999999
 31
0.0
  0
LINE
  5
68
330
1E
100
AcDbEntity
  8
0
  6
CONTINUOUS
100
AcDbLine
 10
280.668365
 20
572.9638669999999
 30
0.0
 11
276.763641
 21
568.4083249999999
 31
0.0
  0
ARC
  5
69
330
1E
100
AcDbEntity
  8
0
  6
CONTINUOUS
100
AcDbCircle
 10
285.9831849999999
 20
568.4083249999999
 30
0.0
 40
7.0
100
AcDbArc
 50
90.0
 51
139.398712
  0
LINE
  5
6A
330
1E
100
AcDbEntity
  8
0
  6
CONTINUOUS
100
AcDbLine
 10
376.858887
 20
572.9638669999999
 30
0.0
 11
380.763641
 21
568.4083249999999
 31
0.0
  0
ARC
  5
6B
330
1E
100
AcDbEntity
  8
0
  6
CONTINUOUS
100
AcDbCircle
 10
371.544098
 20
568.4083249999999
 30
0.0
 40
7.0
100
AcDbArc
 50
40.601295
 51
90.0
  0
LINE
  5
6C
330
1E
100
AcDbEntity
  8
0
  6
CONTINUOUS
100
AcDbLine
 10
376.858887
 20
431.8527219999999
 30
0.0
 11
380.763641
 21
436.408234
 31
0.0
  0
ARC
  5
6D
330
1E
100
AcDbEntity
  8
0
  6
CONTINUOUS
100
AcDbCircle
 10
371.544098
 20
436.408234
 30
0.0
 40
7.0
100
AcDbArc
 50
270.0
 51
319.398705
  0
LINE
  5
6E
330
1E
100
AcDbEntity
  8
0
  6
CONTINUOUS
100
AcDbLine
 10
280.668365
 20
431.8527219999999
 30
0.0
 11
276.763641
 21
436.408234
 31
0.0
  0
ARC
  5
6F
330
1E
100
AcDbEntity
  8
0
  6
CONTINUOUS
100
AcDbCircle
 10
285.9831849999999
 20
436.408234
 30
0.0
 40
7.0
100
AcDbArc
 50
220.6012879999999
 51
270.0
  0
LINE
  5
70
330
1E
100
AcDbEntity
  8
0
  6
CONTINUOUS
100
AcDbLine
 10
347.842621
 20
422.4085389999999
 30
0.0
 11
347.842621
 21
362.408112
 31
0.0
  0
LINE
  5
71
330
1E
100
AcDbEntity
  8
0
  6
CONTINUOUS
100
AcDbLine
 10
225.7636259999999
 20
46.11332700000001
 30
0.0
 11
225.7636259999999
 21
188.113327
 31
0.0
  0
LINE
  5
72
330
1E
100
AcDbEntity
  8
0
  6
CENTER
100
AcDbLine
 10
225.7636259999999
 20
117.113327
 30
0.0
 11
249.8824309999999
 21
117.113327
 31
0.0
  0
LINE
  5
73
330
1E
100
AcDbEntity
  8
0
  6
CENTER
100
AcDbLine
 10
328.763641
 20
266.1091
 30
0.0
 11
328.763641
 21
-13.29045199999999
 31
0.0
  0
LINE
  5
74
330
1E
100
AcDbEntity
  8
0
  6
CENTER
100
AcDbLine
 10
244.276718
 20
170.613327
 30
0.0
 11
389.9286189999999
 21
170.613327
 31
0.0
  0
LINE
  5
75
330
1E
100
AcDbEntity
  8
0
  6
CONTINUOUS
100
AcDbLine
 10
238.7636259999999
 20
5.613328
 30
0.0
 11
418.763641
 21
5.613328
 31
0.0
  0
LINE
  5
76
330
1E
100
AcDbEntity
  8
0
  6
CONTINUOUS
100
AcDbLine
 10
238.7636259999999
 20
25.613329
 30
0.0
 11
418.763641
 21
25.613329
 31
0.0
  0
LINE
  5
77
330
1E
100
AcDbEntity
  8
0
  6
CONTINUOUS
100
AcDbLine
 10
296.949219
 20
248.1133269999999
 30
0.0
 11
360.5780329999999
 21
248.1133269999999
 31
0.0
  0
LINE
  5
78
330
1E
100
AcDbEntity
  8
0
  6
CONTINUOUS
100
AcDbLine
 10
418.763641
 20
203.945328
 30
0.0
 11
418.763641
 21
5.613328
 31
0.0
  0
LINE
  5
79
330
1E
100
AcDbEntity
  8
0
  6
CONTINUOUS
100
AcDbLine
 10
238.7636259999999
 20
203.945328
 30
0.0
 11
238.7636259999999
 21
5.613328
 31
0.0
  0
LINE
  5
7A
330
1E
100
AcDbEntity
  8
0
  6
CONTINUOUS
100
AcDbLine
 10
225.7636259999999
 20
188.113327
 30
0.0
 11
233.763626
 21
188.113327
 31
0.0
  0
LINE
  5
7B
330
1E
100
AcDbEntity
  8
0
  6
CONTINUOUS
100
AcDbLine
 10
225.7636259999999
 20
46.11332700000001
 30
0.0
 11
233.763626
 21
46.11332700000001
 31
0.0
  0
LINE
  5
7C
330
1E
100
AcDbEntity
  8
0
  6
CONTINUOUS
100
AcDbLine
 10
366.3622439999999
 20
246.27066
 30
0.0
 11
414.547821
 21
212.1026459999999
 31
0.0
  0
LINE
  5
7D
330
1E
100
AcDbEntity
  8
0
  6
CONTINUOUS
100
AcDbLine
 10
242.979431
 20
212.1026459999999
 30
0.0
 11
291.165039
 21
246.27066
 31
0.0
  0
ARC
  5
7E
330
1E
100
AcDbEntity
  8
0
  6
CONTINUOUS
100
AcDbCircle
 10
408.7636409999999
 20
203.945282
 30
0.0
 40
10.0
100
AcDbArc
 50
0.0
 51
54.660099
  0
ARC
  5
7F
330
1E
100
AcDbEntity
  8
0
  6
CONTINUOUS
100
AcDbCircle
 10
360.5780329999999
 20
238.1133269999999
 30
0.0
 40
10.0
100
AcDbArc
 50
54.65995
 51
90.0
  0
ARC
  5
80
330
1E
100
AcDbEntity
  8
0
  6
CONTINUOUS
100
AcDbCircle
 10
296.949219
 20
238.1133269999999
 30
0.0
 40
10.0
100
AcDbArc
 50
90.0
 51
125.340302
  0
ARC
  5
81
330
1E
100
AcDbEntity
  8
0
  6
CONTINUOUS
100
AcDbCircle
 10
248.7636259999999
 20
203.9453739999999
 30
0.0
 40
10.0
100
AcDbArc
 50
125.3405
 51
180.0
  0
ARC
  5
82
330
1E
100
AcDbEntity
  8
0
  6
CONTINUOUS
100
AcDbCircle
 10
233.763626
 20
193.113327
 30
0.0
 40
5.0
100
AcDbArc
 50
270.0
 51
0.0
  0
ARC
  5
83
330
1E
100
AcDbEntity
  8
0
  6
CONTINUOUS
100
AcDbCircle
 10
233.763626
 20
41.113308
 30
0.0
 40
5.0
100
AcDbArc
 50
0.0
 51
90.0
  0
LINE
  5
84
330
1E
100
AcDbEntity
  8
0
  6
CENTER
100
AcDbLine
 10
388.763641
 20
35.539806
 30
0.0
 11
388.763641
 21
-7.469611999999999
 31
0.0
  0
LINE
  5
85
330
1E
100
AcDbEntity
  8
0
  6
CENTER
100
AcDbLine
 10
268.763641
 20
35.539806
 30
0.0
 11
268.763641
 21
-7.469611999999999
 31
0.0
  0
LINE
  5
86
330
1E
100
AcDbEntity
  8
0
  6
DASHED
100
AcDbLine
 10
381.2636409999999
 20
25.613329
 30
0.0
 11
381.2636409999999
 21
5.613328
 31
0.0
  0
LINE
  5
87
330
1E
100
AcDbEntity
  8
0
  6
DASHED
100
AcDbLine
 10
396.2636409999999
 20
25.613329
 30
0.0
 11
396.2636409999999
 21
5.613328
 31
0.0
  0
LINE
  5
88
330
1E
100
AcDbEntity
  8
0
  6
DASHED
100
AcDbLine
 10
276.263641
 20
25.613329
 30
0.0
 11
276.263641
 21
5.613328
 31
0.0
  0
LINE
  5
89
330
1E
100
AcDbEntity
  8
0
  6
DASHED
100
AcDbLine
 10
261.2636409999999
 20
25.613329
 30
0.0
 11
261.2636409999999
 21
5.613328
 31
0.0
  0
LINE
  5
8A
330
1E
100
AcDbEntity
  8
0
  6
CONTINUOUS
100
AcDbLine
 10
404.7636409999999
 20
22.928007
 30
0.0
 11
404.7636409999999
 21
5.613328
 31
0.0
  0
LINE
  5
8B
330
1E
100
AcDbEntity
  8
0
  6
CONTINUOUS
100
AcDbLine
 10
252.7636259999999
 20
22.928007
 30
0.0
 11
252.7636259999999
 21
5.613328
 31
0.0
  0
LINE
  5
8C
330
1E
100
AcDbEntity
  8
0
  6
CONTINUOUS
100
AcDbLine
 10
362.521027
 20
30.613329
 30
0.0
 11
295.0062259999999
 21
30.613329
 31
0.0
  0
LINE
  5
8D
330
1E
100
AcDbEntity
  8
0
  6
CONTINUOUS
100
AcDbLine
 10
293.7636409999999
 20
29.47644799999999
 30
0.0
 11
293.7636409999999
 21
26.61332899999999
 31
0.0
  0
LINE
  5
8E
330
1E
100
AcDbEntity
  8
0
  6
CONTINUOUS
100
AcDbLine
 10
363.763641
 20
29.47644799999999
 30
0.0
 11
363.763641
 21
26.61332899999999
 31
0.0
  0
LINE
  5
8F
330
1E
100
AcDbEntity
  8
0
  6
CONTINUOUS
100
AcDbLine
 10
364.642242
 20
29.73464799999999
 30
0.0
 11
367.299225
 21
27.07776799999999
 31
0.0
  0
LINE
  5
90
330
1E
100
AcDbEntity
  8
0
  6
CONTINUOUS
100
AcDbLine
 10
292.8850399999999
 20
29.73464799999999
 30
0.0
 11
290.2280269999999
 21
27.077827
 31
0.0
  0
ARC
  5
91
330
1E
100
AcDbEntity
  8
0
  6
CONTINUOUS
100
AcDbCircle
 10
286.692627
 20
30.613329
 30
0.0
 40
5.0
100
AcDbArc
 50
270.0
 51
315.000092
  0
ARC
  5
92
330
1E
100
AcDbEntity
  8
0
  6
CONTINUOUS
100
AcDbCircle
 10
370.834625
 20
30.613329
 30
0.0
 40
5.0
100
AcDbArc
 50
225.0001069999999
 51
270.0
  0
ARC
  5
93
330
1E
100
AcDbEntity
  8
0
  6
CONTINUOUS
100
AcDbCircle
 10
295.0062259999999
 20
27.61332899999999
 30
0.0
 40
3.0
100
AcDbArc
 50
90.0
 51
135.0003969999999
  0
ARC
  5
94
330
1E
100
AcDbEntity
  8
0
  6
CONTINUOUS
100
AcDbCircle
 10
362.521027
 20
27.61332899999999
 30
0.0
 40
3.0
100
AcDbArc
 50
45.00025899999999
 51
90.0
  0
ARC
  5
95
330
1E
100
AcDbEntity
  8
0
  6
CONTINUOUS
100
AcDbCircle
 10
292.763641
 20
26.61332899999999
 30
0.0
 40
1.0
100
AcDbArc
 50
270.0
 51
0.0
  0
ARC
  5
96
330
1E
100
AcDbEntity
  8
0
  6
CONTINUOUS
100
AcDbCircle
 10
364.763641
 20
26.61332899999999
 30
0.0
 40
1.0
100
AcDbArc
 50
180.0
 51
270.0
  0
CIRCLE
  5
97
330
1E
100
AcDbEntity
  8
0
  6
CONTINUOUS
100
AcDbCircle
 10
328.763641
 20
170.613327
 30
0.0
 40
46.0
  0
ARC
  5
98
330
1E
100
AcDbEntity
  8
0
  6
CONTINUOUS
100
AcDbCircle
 10
328.763641
 20
170.613327
 30
0.0
 40
52.0
100
AcDbArc
 50
12.52272
 51
167.477402
  0
ARC
  5
99
330
1E
100
AcDbEntity
  8
0
  6
CONTINUOUS
100
AcDbCircle
 10
328.763641
 20
170.613327
 30
0.0
 40
48.0
100
AcDbArc
 50
167.4774019999999
 51
12.52272
  0
ARC
  5
9A
330
1E
100
AcDbEntity
  8
0
  6
CONTINUOUS
100
AcDbCircle
 10
298.763641
 20
100.1133269999999
 30
0.0
 40
34.0
100
AcDbArc
 50
167.477402
 51
270.0
  0
ARC
  5
9B
330
1E
100
AcDbEntity
  8
0
  6
CONTINUOUS
100
AcDbCircle
 10
298.763641
 20
100.1133269999999
 30
0.0
 40
38.0
100
AcDbArc
 50
167.477402
 51
270.0
  0
ARC
  5
9C
330
1E
100
AcDbEntity
  8
0
  6
CONTINUOUS
100
AcDbCircle
 10
358.7636409999999
 20
100.1133269999999
 30
0.0
 40
34.0
100
AcDbArc
 50
270.0
 51
12.52273
  0
ARC
  5
9D
330
1E
100
AcDbEntity
  8
0
  6
CONTINUOUS
100
AcDbCircle
 10
358.7636409999999
 20
100.1133269999999
 30
0.0
 40
38.0
100
AcDbArc
 50
270.0
 51
12.52272
  0
LINE
  5
9E
330
1E
100
AcDbEntity
  8
0
  6
CONTINUOUS
100
AcDbLine
 10
261.667633
 20
108.3526919999999
 30
0.0
 11
278.000641
 21
181.8882289999999
 31
0.0
  0
LINE
  5
9F
330
1E
100
AcDbEntity
  8
0
  6
CONTINUOUS
100
AcDbLine
 10
379.5266419999999
 20
181.8883209999999
 30
0.0
 11
395.859619
 21
108.352745
 31
0.0
  0
LINE
  5
A0
330
1E
100
AcDbEntity
  8
0
  6
CONTINUOUS
100
AcDbLine
 10
375.621643
 20
181.021011
 30
0.0
 11
391.954834
 21
107.4854509999999
 31
0.0
  0
LINE
  5
A1
330
1E
100
AcDbEntity
  8
0
  6
CONTINUOUS
100
AcDbLine
 10
265.572418
 20
107.4853899999999
 30
0.0
 11
281.90564
 21
181.02095
 31
0.0
  0
LINE
  5
A2
330
1E
100
AcDbEntity
  8
0
  6
CONTINUOUS
100
AcDbLine
 10
298.763641
 20
66.113327
 30
0.0
 11
358.7636409999999
 21
66.113327
 31
0.0
  0
LINE
  5
A3
330
1E
100
AcDbEntity
  8
0
  6
CONTINUOUS
100
AcDbLine
 10
298.763641
 20
62.113327
 30
0.0
 11
358.7636409999999
 21
62.113327
 31
0.0
  0
LINE
  5
A4
330
1E
100
AcDbEntity
  8
0
  6
CONTINUOUS
100
AcDbLine
 10
316.5366209999999
 20
84.113327
 30
0.0
 11
311.596222
 21
84.113327
 31
0.0
  0
LINE
  5
A5
330
1E
100
AcDbEntity
  8
0
  6
CONTINUOUS
100
AcDbLine
 10
319.2636409999999
 20
92.38872499999999
 30
0.0
 11
319.2636409999999
 21
84.113327
 31
0.0
  0
LINE
  5
A6
330
1E
100
AcDbEntity
  8
0
  6
CONTINUOUS
100
AcDbLine
 10
324.013641
 20
95.39456899999999
 30
0.0
 11
324.013641
 21
98.36332699999999
 31
0.0
  0
LINE
  5
A7
330
1E
100
AcDbEntity
  8
0
  6
CONTINUOUS
100
AcDbLine
 10
333.513641
 20
95.39456899999999
 30
0.0
 11
333.513641
 21
98.36332699999999
 31
0.0
  0
LINE
  5
A8
330
1E
100
AcDbEntity
  8
0
  6
CONTINUOUS
100
AcDbLine
 10
327.8358149999999
 20
96.61918599999999
 30
0.0
 11
327.8358149999999
 21
85.671928
 31
0.0
  0
LINE
  5
A9
330
1E
100
AcDbEntity
  8
0
  6
CONTINUOUS
100
AcDbLine
 10
329.617218
 20
96.61918599999999
 30
0.0
 11
329.617218
 21
85.671928
 31
0.0
  0
LINE
  5
AA
330
1E
100
AcDbEntity
  8
0
  6
CONTINUOUS
100
AcDbLine
 10
338.9686279999999
 20
96.61918599999999
 30
0.0
 11
338.9686279999999
 21
85.59770999999999
 31
0.0
  0
LINE
  5
AB
330
1E
100
AcDbEntity
  8
0
  6
CONTINUOUS
100
AcDbLine
 10
340.601624
 20
90.77446700000001
 30
0.0
 11
340.601624
 21
85.59770999999999
 31
0.0
  0
LINE
  5
AC
330
1E
100
AcDbEntity
  8
0
  6
CONTINUOUS
100
AcDbLine
 10
317.009644
 20
96.47074899999999
 30
0.0
 11
312.432037
 21
96.47074899999999
 31
0.0
  0
LINE
  5
AD
330
1E
100
AcDbEntity
  8
0
  6
CONTINUOUS
100
AcDbLine
 10
312.432037
 20
96.47074899999999
 30
0.0
 11
311.3594359999999
 21
95.140747
 31
0.0
  0
LINE
  5
AE
330
1E
100
AcDbEntity
  8
0
  6
CONTINUOUS
100
AcDbLine
 10
311.4884339999999
 20
98.36332699999999
 30
0.0
 11
309.763641
 21
96.154869
 31
0.0
  0
LINE
  5
AF
330
1E
100
AcDbEntity
  8
0
  6
CONTINUOUS
100
AcDbLine
 10
311.3594359999999
 20
86.931168
 30
0.0
 11
312.4492189999999
 21
85.783249
 31
0.0
  0
LINE
  5
B0
330
1E
100
AcDbEntity
  8
0
  6
CONTINUOUS
100
AcDbLine
 10
309.763641
 20
85.96244799999999
 30
0.0
 11
311.596222
 21
84.113327
 31
0.0
  0
LINE
  5
B1
330
1E
100
AcDbEntity
  8
0
  6
CONTINUOUS
100
AcDbLine
 10
309.763641
 20
96.154869
 30
0.0
 11
309.763641
 21
85.96244799999999
 31
0.0
  0
LINE
  5
B2
330
1E
100
AcDbEntity
  8
0
  6
CONTINUOUS
100
AcDbLine
 10
311.3594359999999
 20
95.140747
 30
0.0
 11
311.3594359999999
 21
86.931168
 31
0.0
  0
LINE
  5
B3
330
1E
100
AcDbEntity
  8
0
  6
CONTINUOUS
100
AcDbLine
 10
317.890625
 20
95.619186
 30
0.0
 11
316.9916379999999
 21
96.47074899999999
 31
0.0
  0
LINE
  5
B4
330
1E
100
AcDbEntity
  8
0
  6
CONTINUOUS
100
AcDbLine
 10
317.8762209999999
 20
98.36332699999999
 30
0.0
 11
319.2636409999999
 21
96.82374600000001
 31
0.0
  0
LINE
  5
B5
330
1E
100
AcDbEntity
  8
0
  6
CONTINUOUS
100
AcDbLine
 10
317.890625
 20
95.39456899999999
 30
0.0
 11
319.2636409999999
 21
95.39456899999999
 31
0.0
  0
LINE
  5
B6
330
1E
100
AcDbEntity
  8
0
  6
CONTINUOUS
100
AcDbLine
 10
311.4884339999999
 20
98.36332699999999
 30
0.0
 11
317.8762209999999
 21
98.36332699999999
 31
0.0
  0
LINE
  5
B7
330
1E
100
AcDbEntity
  8
0
  6
CONTINUOUS
100
AcDbLine
 10
315.4042359999999
 20
92.38872499999999
 30
0.0
 11
319.2636409999999
 21
92.38872499999999
 31
0.0
  0
LINE
  5
B8
330
1E
100
AcDbEntity
  8
0
  6
CONTINUOUS
100
AcDbLine
 10
317.890625
 20
90.83013199999999
 30
0.0
 11
315.4042359999999
 21
90.83013199999999
 31
0.0
  0
LINE
  5
B9
330
1E
100
AcDbEntity
  8
0
  6
CONTINUOUS
100
AcDbLine
 10
314.921814
 20
85.783249
 30
0.0
 11
312.4492189999999
 21
85.783249
 31
0.0
  0
LINE
  5
BA
330
1E
100
AcDbEntity
  8
0
  6
CONTINUOUS
100
AcDbLine
 10
317.890625
 20
89.34574899999999
 30
0.0
 11
317.890625
 21
90.53324899999999
 31
0.0
  0
ARC
  5
BB
330
1E
100
AcDbEntity
  8
0
  6
CONTINUOUS
100
AcDbCircle
 10
314.921814
 20
88.75199100000001
 30
0.0
 40
2.96875
100
AcDbArc
 50
270.0002139999999
 51
0.000109
  0
LINE
  5
BC
330
1E
100
AcDbEntity
  8
0
  6
CONTINUOUS
100
AcDbLine
 10
317.890625
 20
85.249245
 30
0.0
 11
317.890625
 21
84.113327
 31
0.0
  0
LINE
  5
BD
330
1E
100
AcDbEntity
  8
0
  6
CONTINUOUS
100
AcDbLine
 10
319.2636409999999
 20
96.82374600000001
 30
0.0
 11
319.2636409999999
 21
95.39456899999999
 31
0.0
  0
LINE
  5
BE
330
1E
100
AcDbEntity
  8
0
  6
CONTINUOUS
100
AcDbLine
 10
317.890625
 20
90.83013199999999
 30
0.0
 11
317.890625
 21
88.75199100000001
 31
0.0
  0
LINE
  5
BF
330
1E
100
AcDbEntity
  8
0
  6
CONTINUOUS
100
AcDbLine
 10
315.4042359999999
 20
92.38872499999999
 30
0.0
 11
315.4042359999999
 21
90.83013199999999
 31
0.0
  0
LINE
  5
C0
330
1E
100
AcDbEntity
  8
0
  6
CONTINUOUS
100
AcDbLine
 10
317.890625
 20
84.113327
 30
0.0
 11
319.2636409999999
 21
84.113327
 31
0.0
  0
LINE
  5
C1
330
1E
100
AcDbEntity
  8
0
  6
CONTINUOUS
100
AcDbLine
 10
317.890625
 20
85.249245
 30
0.0
 11
316.5366209999999
 21
84.113327
 31
0.0
  0
LINE
  5
C2
330
1E
100
AcDbEntity
  8
0
  6
CONTINUOUS
100
AcDbLine
 10
329.617218
 20
85.671928
 30
0.0
 11
330.2108149999999
 21
85.671928
 31
0.0
  0
LINE
  5
C3
330
1E
100
AcDbEntity
  8
0
  6
CONTINUOUS
100
AcDbLine
 10
327.130829
 20
85.671928
 30
0.0
 11
327.130829
 21
84.113327
 31
0.0
  0
LINE
  5
C4
330
1E
100
AcDbEntity
  8
0
  6
CONTINUOUS
100
AcDbLine
 10
330.2108149999999
 20
85.671928
 30
0.0
 11
330.2108149999999
 21
84.113327
 31
0.0
  0
LINE
  5
C5
330
1E
100
AcDbEntity
  8
0
  6
CONTINUOUS
100
AcDbLine
 10
332.522644
 20
95.39456899999999
 30
0.0
 11
333.513641
 21
95.39456899999999
 31
0.0
  0
LINE
  5
C6
330
1E
100
AcDbEntity
  8
0
  6
CONTINUOUS
100
AcDbLine
 10
324.013641
 20
95.39456899999999
 30
0.0
 11
325.068237
 21
95.39456899999999
 31
0.0
  0
LINE
  5
C7
330
1E
100
AcDbEntity
  8
0
  6
CONTINUOUS
100
AcDbLine
 10
324.013641
 20
98.36332699999999
 30
0.0
 11
333.513641
 21
98.36332699999999
 31
0.0
  0
LINE
  5
C8
330
1E
100
AcDbEntity
  8
0
  6
CONTINUOUS
100
AcDbLine
 10
327.130829
 20
84.113327
 30
0.0
 11
330.2108149999999
 21
84.113327
 31
0.0
  0
LINE
  5
C9
330
1E
100
AcDbEntity
  8
0
  6
CONTINUOUS
100
AcDbLine
 10
327.130829
 20
85.671928
 30
0.0
 11
327.8358149999999
 21
85.671928
 31
0.0
  0
ARC
  5
CA
330
1E
100
AcDbEntity
  8
0
  6
CONTINUOUS
100
AcDbCircle
 10
343.959839
 20
94.55960799999999
 30
0.0
 40
3.803712
100
AcDbArc
 50
286.0181269999999
 51
90.00351
  0
ARC
  5
CB
330
1E
100
AcDbEntity
  8
0
  6
CONTINUOUS
100
AcDbCircle
 10
343.959839
 20
94.55960799999999
 30
0.0
 40
2.320524
100
AcDbArc
 50
277.414726
 51
62.41185
  0
LINE
  5
CC
330
1E
100
AcDbEntity
  8
0
  6
CONTINUOUS
100
AcDbLine
 10
338.2636409999999
 20
98.36332699999999
 30
0.0
 11
343.959839
 21
98.36332699999999
 31
0.0
  0
LINE
  5
CD
330
1E
100
AcDbEntity
  8
0
  6
CONTINUOUS
100
AcDbLine
 10
344.25943
 20
92.258492
 30
0.0
 11
340.601624
 21
92.258492
 31
0.0
  0
LINE
  5
CE
330
1E
100
AcDbEntity
  8
0
  6
CONTINUOUS
100
AcDbLine
 10
338.2636409999999
 20
98.36332699999999
 30
0.0
 11
338.2636409999999
 21
96.61918599999999
 31
0.0
  0
LINE
  5
CF
330
1E
100
AcDbEntity
  8
0
  6
CONTINUOUS
100
AcDbLine
 10
340.601624
 20
96.61918599999999
 30
0.0
 11
340.601624
 21
92.258492
 31
0.0
  0
LINE
  5
D0
330
1E
100
AcDbEntity
  8
0
  6
CONTINUOUS
100
AcDbLine
 10
345.0094299999999
 20
90.90358700000001
 30
0.0
 11
347.363831
 21
85.59770999999999
 31
0.0
  0
LINE
  5
D1
330
1E
100
AcDbEntity
  8
0
  6
CONTINUOUS
100
AcDbLine
 10
343.6422419999999
 20
90.77446700000001
 30
0.0
 11
345.870026
 21
85.59770999999999
 31
0.0
  0
LINE
  5
D2
330
1E
100
AcDbEntity
  8
0
  6
CONTINUOUS
100
AcDbLine
 10
338.2636409999999
 20
85.59770999999999
 30
0.0
 11
338.9686279999999
 21
85.59770999999999
 31
0.0
  0
LINE
  5
D3
330
1E
100
AcDbEntity
  8
0
  6
CONTINUOUS
100
AcDbLine
 10
340.601624
 20
85.59770999999999
 30
0.0
 11
341.251038
 21
85.59770999999999
 31
0.0
  0
LINE
  5
D4
330
1E
100
AcDbEntity
  8
0
  6
CONTINUOUS
100
AcDbLine
 10
341.251038
 20
84.113327
 30
0.0
 11
338.2636409999999
 21
84.113327
 31
0.0
  0
LINE
  5
D5
330
1E
100
AcDbEntity
  8
0
  6
CONTINUOUS
100
AcDbLine
 10
345.5742189999999
 20
85.59770999999999
 30
0.0
 11
345.870026
 21
85.59770999999999
 31
0.0
  0
LINE
  5
D6
330
1E
100
AcDbEntity
  8
0
  6
CONTINUOUS
100
AcDbLine
 10
347.363831
 20
85.59770999999999
 30
0.0
 11
347.763641
 21
85.59770999999999
 31
0.0
  0
LINE
  5
D7
330
1E
100
AcDbEntity
  8
0
  6
CONTINUOUS
100
AcDbLine
 10
345.5742189999999
 20
84.113327
 30
0.0
 11
347.763641
 21
84.113327
 31
0.0
  0
LINE
  5
D8
330
1E
100
AcDbEntity
  8
0
  6
CONTINUOUS
100
AcDbLine
 10
347.763641
 20
85.59770999999999
 30
0.0
 11
347.763641
 21
84.113327
 31
0.0
  0
LINE
  5
D9
330
1E
100
AcDbEntity
  8
0
  6
CONTINUOUS
100
AcDbLine
 10
345.5742189999999
 20
85.59770999999999
 30
0.0
 11
345.5742189999999
 21
84.113327
 31
0.0
  0
LINE
  5
DA
330
1E
100
AcDbEntity
  8
0
  6
CONTINUOUS
100
AcDbLine
 10
341.251038
 20
85.59770999999999
 30
0.0
 11
341.251038
 21
84.113327
 31
0.0
  0
LINE
  5
DB
330
1E
100
AcDbEntity
  8
0
  6
CONTINUOUS
100
AcDbLine
 10
338.2636409999999
 20
85.59770999999999
 30
0.0
 11
338.2636409999999
 21
84.113327
 31
0.0
  0
LINE
  5
DC
330
1E
100
AcDbEntity
  8
0
  6
CONTINUOUS
100
AcDbLine
 10
325.5784299999999
 20
96.61918599999999
 30
0.0
 11
325.068237
 21
95.39456899999999
 31
0.0
  0
LINE
  5
DD
330
1E
100
AcDbEntity
  8
0
  6
CONTINUOUS
100
AcDbLine
 10
332.092438
 20
96.61918599999999
 30
0.0
 11
332.522644
 21
95.39456899999999
 31
0.0
  0
LINE
  5
DE
330
1E
100
AcDbEntity
  8
0
  6
CONTINUOUS
100
AcDbLine
 10
329.617218
 20
96.61918599999999
 30
0.0
 11
332.092438
 21
96.61918599999999
 31
0.0
  0
LINE
  5
DF
330
1E
100
AcDbEntity
  8
0
  6
CONTINUOUS
100
AcDbLine
 10
327.8358149999999
 20
96.61918599999999
 30
0.0
 11
325.5784299999999
 21
96.61918599999999
 31
0.0
  0
LINE
  5
E0
330
1E
100
AcDbEntity
  8
0
  6
CONTINUOUS
100
AcDbLine
 10
340.601624
 20
90.77446700000001
 30
0.0
 11
343.6422419999999
 21
90.77446700000001
 31
0.0
  0
LINE
  5
E1
330
1E
100
AcDbEntity
  8
0
  6
CONTINUOUS
100
AcDbLine
 10
338.2636409999999
 20
96.61918599999999
 30
0.0
 11
338.9686279999999
 21
96.61918599999999
 31
0.0
  0
LINE
  5
E2
330
1E
100
AcDbEntity
  8
0
  6
CONTINUOUS
100
AcDbLine
 10
340.601624
 20
96.61918599999999
 30
0.0
 11
345.034637
 21
96.61630999999999
 31
0.0
  0
LINE
  5
E3
330
1E
100
AcDbEntity
  8
0
  6
CONTINUOUS
100
AcDbLine
 10
317.890625
 20
95.619186
 30
0.0
 11
317.890625
 21
95.39456899999999
 31
0.0
  0
ARC
  5
E4
330
1E
100
AcDbEntity
  8
0
  6
CONTINUOUS
100
AcDbCircle
 10
448.4452209999999
 20
117.113327
 30
0.0
 40
215.181595
100
AcDbArc
 50
167.017899
 51
192.9821009999999
  0
LINE
  5
E5
330
1E
100
AcDbEntity
  8
0
  6
CONTINUOUS
100
AcDbLine
 10
343.763641
 20
164.6133879999999
 30
0.0
 11
343.763641
 21
176.6133879999999
 31
0.0
  0
LINE
  5
E6
330
1E
100
AcDbEntity
  8
0
  6
CONTINUOUS
100
AcDbLine
 10
351.763641
 20
164.6134029999999
 30
0.0
 11
351.763641
 21
176.613403
 31
0.0
  0
LINE
  5
E7
330
1E
100
AcDbEntity
  8
0
  6
CONTINUOUS
100
AcDbLine
 10
351.763641
 20
164.6134029999999
 30
0.0
 11
343.763641
 21
164.6133879999999
 31
0.0
  0
LINE
  5
E8
330
1E
100
AcDbEntity
  8
0
  6
CONTINUOUS
100
AcDbLine
 10
351.763641
 20
176.613403
 30
0.0
 11
343.763641
 21
176.6133879999999
 31
0.0
  0
ARC
  5
E9
330
1E
100
AcDbEntity
  8
0
  6
CONTINUOUS
100
AcDbCircle
 10
328.763641
 20
170.613327
 30
0.0
 40
20.0
100
AcDbArc
 50
17.45759999999999
 51
342.542389
  0
LINE
  5
EA
330
1E
100
AcDbEntity
  8
0
  6
CENTER
100
AcDbLine
 10
225.7636259999999
 20
151.113327
 30
0.0
 11
258.8117069999999
 21
151.113327
 31
0.0
  0
LINE
  5
EB
330
1E
100
AcDbEntity
  8
0
  6
CONTINUOUS
100
AcDbLine
 10
225.7636259999999
 20
188.113327
 30
0.0
 11
225.7636259999999
 21
46.113388
 31
0.0
  0
LINE
  5
EC
330
1E
100
AcDbEntity
  8
0
  6
CENTER
100
AcDbLine
 10
675.263611
 20
-13.688712
 30
0.0
 11
675.263611
 21
262.0340269999999
 31
0.0
  0
LINE
  5
ED
330
1E
100
AcDbEntity
  8
0
  6
CENTER
100
AcDbLine
 10
588.55481
 20
117.1132889999999
 30
0.0
 11
761.505432
 21
117.1132889999999
 31
0.0
  0
LINE
  5
EE
330
1E
100
AcDbEntity
  8
0
  6
CENTER
100
AcDbLine
 10
520.516846
 20
170.613312
 30
0.0
 11
770.457581
 21
170.613312
 31
0.0
  0
LINE
  5
EF
330
1E
100
AcDbEntity
  8
0
  6
CENTER
100
AcDbLine
 10
605.263611
 20
40.529469
 30
0.0
 11
605.263611
 21
-9.499532
 31
0.0
  0
LINE
  5
F0
330
1E
100
AcDbEntity
  8
0
  6
CENTER
100
AcDbLine
 10
745.2636110000001
 20
40.529469
 30
0.0
 11
745.2636110000001
 21
-9.499532
 31
0.0
  0
LINE
  5
F1
330
1E
100
AcDbEntity
  8
0
  6
DASHED
100
AcDbLine
 10
737.763611
 20
25.613289
 30
0.0
 11
737.763611
 21
5.613287999999999
 31
0.0
  0
LINE
  5
F2
330
1E
100
AcDbEntity
  8
0
  6
DASHED
100
AcDbLine
 10
752.7636110000001
 20
25.613289
 30
0.0
 11
752.7636110000001
 21
5.613287999999999
 31
0.0
  0
LINE
  5
F3
330
1E
100
AcDbEntity
  8
0
  6
DASHED
100
AcDbLine
 10
612.763611
 20
25.613289
 30
0.0
 11
612.763611
 21
5.613287999999999
 31
0.0
  0
LINE
  5
F4
330
1E
100
AcDbEntity
  8
0
  6
DASHED
100
AcDbLine
 10
597.763611
 20
25.613289
 30
0.0
 11
597.763611
 21
5.613287999999999
 31
0.0
  0
LINE
  5
F5
330
1E
100
AcDbEntity
  8
0
  6
CONTINUOUS
100
AcDbLine
 10
585.263611
 20
5.613287999999999
 30
0.0
 11
640.2636110000001
 21
5.613287999999999
 31
0.0
  0
LINE
  5
F6
330
1E
100
AcDbEntity
  8
0
  6
CONTINUOUS
100
AcDbLine
 10
710.263611
 20
5.613287999999999
 30
0.0
 11
765.2636110000001
 21
5.613287999999999
 31
0.0
  0
LINE
  5
F7
330
1E
100
AcDbEntity
  8
0
  6
CONTINUOUS
100
AcDbLine
 10
732.2636110000001
 20
25.613289
 30
0.0
 11
762.2636110000001
 21
25.613289
 31
0.0
  0
LINE
  5
F8
330
1E
100
AcDbEntity
  8
0
  6
CONTINUOUS
100
AcDbLine
 10
588.263611
 20
25.613289
 30
0.0
 11
618.263611
 21
25.613289
 31
0.0
  0
LINE
  5
F9
330
1E
100
AcDbEntity
  8
0
  6
CONTINUOUS
100
AcDbLine
 10
585.263611
 20
22.982168
 30
0.0
 11
585.263611
 21
5.613287999999999
 31
0.0
  0
LINE
  5
FA
330
1E
100
AcDbEntity
  8
0
  6
CONTINUOUS
100
AcDbLine
 10
765.2636110000001
 20
22.982168
 30
0.0
 11
765.2636110000001
 21
5.613287999999999
 31
0.0
  0
LINE
  5
FB
330
1E
100
AcDbEntity
  8
0
  6
CONTINUOUS
100
AcDbLine
 10
727.263611
 20
227.893311
 30
0.0
 11
727.263611
 21
243.275101
 31
0.0
  0
LINE
  5
FC
330
1E
100
AcDbEntity
  8
0
  6
CONTINUOUS
100
AcDbLine
 10
623.2636110000001
 20
243.274689
 30
0.0
 11
623.2636110000001
 21
5.613287999999999
 31
0.0
  0
LINE
  5
FD
330
1E
100
AcDbEntity
  8
0
  6
CONTINUOUS
100
AcDbLine
 10
641.7636110000001
 20
7.113288
 30
0.0
 11
708.763611
 21
7.113288
 31
0.0
  0
LINE
  5
FE
330
1E
100
AcDbEntity
  8
0
  6
CONTINUOUS
100
AcDbLine
 10
627.7082519999999
 20
209.113312
 30
0.0
 11
723.4954219999999
 21
209.113312
 31
0.0
  0
LINE
  5
FF
330
1E
100
AcDbEntity
  8
0
  6
CONTINUOUS
100
AcDbLine
 10
723.3334349999999
 20
247.274506
 30
0.0
 11
675.263611
 21
248.1133119999999
 31
0.0
  0
LINE
  5
100
330
1E
100
AcDbEntity
  8
0
  6
CONTINUOUS
100
AcDbLine
 10
627.193848
 20
247.2741089999999
 30
0.0
 11
675.263611
 21
248.1133119999999
 31
0.0
  0
LINE
  5
101
330
1E
100
AcDbEntity
  8
0
  6
CONTINUOUS
100
AcDbLine
 10
602.263611
 20
129.893311
 30
0.0
 11
602.263611
 21
211.333115
 31
0.0
  0
LINE
  5
102
330
1E
100
AcDbEntity
  8
0
  6
CONTINUOUS
100
AcDbLine
 10
748.2636110000001
 20
129.893311
 30
0.0
 11
748.2636110000001
 21
211.333115
 31
0.0
  0
LINE
  5
103
330
1E
100
AcDbEntity
  8
0
  6
CONTINUOUS
100
AcDbLine
 10
609.263611
 20
71.393288
 30
0.0
 11
609.263611
 21
174.75351
 31
0.0
  0
LINE
  5
104
330
1E
100
AcDbEntity
  8
0
  6
CONTINUOUS
100
AcDbLine
 10
741.2636110000001
 20
71.393509
 30
0.0
 11
741.2636110000001
 21
174.75351
 31
0.0
  0
ARC
  5
105
330
1E
100
AcDbEntity
  8
0
  6
CONTINUOUS
100
AcDbCircle
 10
627.263611
 20
243.274689
 30
0.0
 40
4.0
100
AcDbArc
 50
91.00058
 51
180.0
  0
ARC
  5
106
330
1E
100
AcDbEntity
  8
0
  6
CONTINUOUS
100
AcDbCircle
 10
723.2636110000001
 20
243.275101
 30
0.0
 40
4.0
100
AcDbArc
 50
0.0
 51
89.000359
  0
LINE
  5
107
330
1E
100
AcDbEntity
  8
0
  6
CONTINUOUS
100
AcDbLine
 10
607.340637
 20
218.0639039999999
 30
0.0
 11
618.186646
 21
221.162689
 31
0.0
  0
LINE
  5
108
330
1E
100
AcDbEntity
  8
0
  6
CONTINUOUS
100
AcDbLine
 10
732.340637
 20
221.162689
 30
0.0
 11
743.186646
 21
218.0639039999999
 31
0.0
  0
LINE
  5
109
330
1E
100
AcDbEntity
  8
0
  6
CONTINUOUS
100
AcDbLine
 10
614.340637
 20
64.662704
 30
0.0
 11
618.186646
 21
63.56384699999999
 31
0.0
  0
LINE
  5
10A
330
1E
100
AcDbEntity
  8
0
  6
CONTINUOUS
100
AcDbLine
 10
736.1866459999999
 20
64.662704
 30
0.0
 11
732.340637
 21
63.56384699999999
 31
0.0
  0
LINE
  5
10B
330
1E
100
AcDbEntity
  8
0
  6
CONTINUOUS
100
AcDbLine
 10
762.6550289999999
 20
25.95652799999999
 30
0.0
 11
729.872253
 21
30.270027
 31
0.0
  0
LINE
  5
10C
330
1E
100
AcDbEntity
  8
0
  6
CONTINUOUS
100
AcDbLine
 10
587.872253
 20
25.95652799999999
 30
0.0
 11
620.655029
 21
30.270027
 31
0.0
  0
ARC
  5
10D
330
1E
100
AcDbEntity
  8
0
  6
CONTINUOUS
100
AcDbCircle
 10
609.263855
 20
211.333115
 30
0.0
 40
7.0
100
AcDbArc
 50
105.9458009999999
 51
180.0
  0
ARC
  5
10E
330
1E
100
AcDbEntity
  8
0
  6
CONTINUOUS
100
AcDbCircle
 10
609.263611
 20
129.893494
 30
0.0
 40
7.0
100
AcDbArc
 50
180.0
 51
240.000198
  0
ARC
  5
10F
330
1E
100
AcDbEntity
  8
0
  6
CONTINUOUS
100
AcDbCircle
 10
741.2636110000001
 20
211.333115
 30
0.0
 40
7.0
100
AcDbArc
 50
0.0
 51
74.05476400000001
  0
ARC
  5
110
330
1E
100
AcDbEntity
  8
0
  6
CONTINUOUS
100
AcDbCircle
 10
741.2636110000001
 20
129.893311
 30
0.0
 40
7.0
100
AcDbArc
 50
300.0001179999999
 51
0.0
  0
ARC
  5
111
330
1E
100
AcDbEntity
  8
0
  6
CONTINUOUS
100
AcDbCircle
 10
616.2636110000001
 20
71.393509
 30
0.0
 40
7.0
100
AcDbArc
 50
180.0
 51
254.0549009999999
  0
ARC
  5
112
330
1E
100
AcDbEntity
  8
0
  6
CONTINUOUS
100
AcDbCircle
 10
734.263611
 20
71.393288
 30
0.0
 40
7.0
100
AcDbArc
 50
285.945503
 51
0.0
  0
LINE
  5
113
330
1E
100
AcDbEntity
  8
0
  6
CONTINUOUS
100
AcDbLine
 10
727.263611
 20
30.613289
 30
0.0
 11
727.263611
 21
227.893311
 31
0.0
  0
ARC
  5
114
330
1E
100
AcDbEntity
  8
0
  6
CONTINUOUS
100
AcDbCircle
 10
734.263611
 20
227.893494
 30
0.0
 40
7.0
100
AcDbArc
 50
180.0
 51
254.0549009999999
  0
ARC
  5
115
330
1E
100
AcDbEntity
  8
0
  6
CONTINUOUS
100
AcDbCircle
 10
734.263611
 20
56.833229
 30
0.0
 40
7.0
100
AcDbArc
 50
105.9458009999999
 51
180.0
  0
ARC
  5
116
330
1E
100
AcDbEntity
  8
0
  6
CONTINUOUS
100
AcDbCircle
 10
748.2636110000001
 20
117.769112
 30
0.0
 40
7.0
100
AcDbArc
 50
120.000099
 51
180.0
  0
ARC
  5
117
330
1E
100
AcDbEntity
  8
0
  6
CONTINUOUS
100
AcDbCircle
 10
730.263611
 20
33.244408
 30
0.0
 40
3.0
100
AcDbArc
 50
180.0
 51
262.504395
  0
ARC
  5
118
330
1E
100
AcDbEntity
  8
0
  6
CONTINUOUS
100
AcDbCircle
 10
762.2636110000001
 20
22.613289
 30
0.0
 40
3.0
100
AcDbArc
 50
0.0
 51
90.0
  0
ARC
  5
119
330
1E
100
AcDbEntity
  8
0
  6
CONTINUOUS
100
AcDbCircle
 10
762.2636110000001
 20
22.982147
 30
0.0
 40
3.0
100
AcDbArc
 50
0.0
 51
82.50420400000001
  0
LINE
  5
11A
330
1E
100
AcDbEntity
  8
0
  6
CONTINUOUS
100
AcDbLine
 10
727.263611
 20
30.613289
 30
0.0
 11
727.263611
 21
5.613287999999999
 31
0.0
  0
ARC
  5
11B
330
1E
100
AcDbEntity
  8
0
  6
CONTINUOUS
100
AcDbCircle
 10
732.2636110000001
 20
30.613329
 30
0.0
 40
5.0
100
AcDbArc
 50
180.0
 51
270.0
  0
ARC
  5
11C
330
1E
100
AcDbEntity
  8
0
  6
CONTINUOUS
100
AcDbCircle
 10
620.2636110000001
 20
33.244408
 30
0.0
 40
3.0
100
AcDbArc
 50
277.4961169999999
 51
0.0
  0
ARC
  5
11D
330
1E
100
AcDbEntity
  8
0
  6
CONTINUOUS
100
AcDbCircle
 10
618.263611
 20
30.613289
 30
0.0
 40
5.0
100
AcDbArc
 50
270.0
 51
0.0
  0
ARC
  5
11E
330
1E
100
AcDbEntity
  8
0
  6
CONTINUOUS
100
AcDbCircle
 10
588.263611
 20
22.613329
 30
0.0
 40
3.0
100
AcDbArc
 50
90.0
 51
180.0
  0
ARC
  5
11F
330
1E
100
AcDbEntity
  8
0
  6
CONTINUOUS
100
AcDbCircle
 10
588.263855
 20
22.982168
 30
0.0
 40
3.0
100
AcDbArc
 50
97.49629200000001
 51
180.0
  0
LINE
  5
120
330
1E
100
AcDbEntity
  8
0
  6
CONTINUOUS
100
AcDbLine
 10
640.2636110000001
 20
5.613287999999999
 30
0.0
 11
641.7636110000001
 21
7.113288
 31
0.0
  0
LINE
  5
121
330
1E
100
AcDbEntity
  8
0
  6
CONTINUOUS
100
AcDbLine
 10
710.263611
 20
5.613287999999999
 30
0.0
 11
708.763611
 21
7.113288
 31
0.0
  0
ARC
  5
122
330
1E
100
AcDbEntity
  8
0
  6
CONTINUOUS
100
AcDbCircle
 10
616.2636110000001
 20
56.83310699999999
 30
0.0
 40
7.0
100
AcDbArc
 50
0.0
 51
74.054688
  0
ARC
  5
123
330
1E
100
AcDbEntity
  8
0
  6
CONTINUOUS
100
AcDbCircle
 10
602.263611
 20
117.769112
 30
0.0
 40
7.0
100
AcDbArc
 50
0.0
 51
60.000092
  0
ARC
  5
124
330
1E
100
AcDbEntity
  8
0
  6
CONTINUOUS
100
AcDbCircle
 10
616.2636110000001
 20
227.893311
 30
0.0
 40
7.0
100
AcDbArc
 50
285.945557
 51
0.0
  0
ARC
  5
125
330
1E
100
AcDbEntity
  8
0
  6
CONTINUOUS
100
AcDbCircle
 10
675.263611
 20
117.1132889999999
 30
0.0
 40
71.0
100
AcDbArc
 50
338.36908
 51
6.068255999999998
  0
ARC
  5
126
330
1E
100
AcDbEntity
  8
0
  6
CONTINUOUS
100
AcDbCircle
 10
675.263611
 20
117.1132889999999
 30
0.0
 40
71.0
100
AcDbArc
 50
173.931793
 51
201.630905
  0
LINE
  5
127
330
1E
100
AcDbEntity
  8
0
  6
CONTINUOUS
100
AcDbLine
 10
535.263611
 20
150.613312
 30
0.0
 11
535.263611
 21
190.6133119999999
 31
0.0
  0
LINE
  5
128
330
1E
100
AcDbEntity
  8
0
  6
CONTINUOUS
100
AcDbLine
 10
600.263611
 20
190.6133119999999
 30
0.0
 11
535.263611
 21
190.6133119999999
 31
0.0
  0
LINE
  5
129
330
1E
100
AcDbEntity
  8
0
  6
CONTINUOUS
100
AcDbLine
 10
600.263611
 20
150.613312
 30
0.0
 11
535.263611
 21
150.613312
 31
0.0
  0
LINE
  5
12A
330
1E
100
AcDbEntity
  8
0
  6
CONTINUOUS
100
AcDbLine
 10
600.263611
 20
193.113312
 30
0.0
 11
600.263611
 21
148.113312
 31
0.0
  0
LINE
  5
12B
330
1E
100
AcDbEntity
  8
0
  6
CONTINUOUS
100
AcDbLine
 10
602.263611
 20
193.113312
 30
0.0
 11
600.263611
 21
193.113312
 31
0.0
  0
LINE
  5
12C
330
1E
100
AcDbEntity
  8
0
  6
CONTINUOUS
100
AcDbLine
 10
602.263611
 20
148.113312
 30
0.0
 11
600.263611
 21
148.113312
 31
0.0
  0
ARC
  5
12D
330
1E
100
AcDbEntity
  8
0
  6
CONTINUOUS
100
AcDbCircle
 10
589.263611
 20
170.613312
 30
0.0
 40
6.0
100
AcDbArc
 50
270.0
 51
90.0
  0
LINE
  5
12E
330
1E
100
AcDbEntity
  8
0
  6
CONTINUOUS
100
AcDbLine
 10
589.263611
 20
176.613312
 30
0.0
 11
535.263611
 21
176.613312
 31
0.0
  0
LINE
  5
12F
330
1E
100
AcDbEntity
  8
0
  6
CONTINUOUS
100
AcDbLine
 10
589.263611
 20
164.613312
 30
0.0
 11
535.263611
 21
164.613312
 31
0.0
  0
LINE
  5
130
330
1E
100
AcDbEntity
  8
0
  6
CENTER
100
AcDbLine
 10
540.039246
 20
151.113312
 30
0.0
 11
736.367371
 21
151.113312
 31
0.0
  0
LINE
  5
131
330
1E
100
AcDbEntity
  8
0
  6
CONTINUOUS
100
AcDbLine
 10
214.763626
 20
156.863327
 30
0.0
 11
214.763626
 21
49.32370800000001
 31
0.0
  0
LINE
  5
132
330
1E
100
AcDbEntity
  8
0
  6
CONTINUOUS
100
AcDbLine
 10
217.685028
 20
46.324806
 30
0.0
 11
225.7636259999999
 21
46.11332700000001
 31
0.0
  0
ARC
  5
133
330
1E
100
AcDbEntity
  8
0
  6
CONTINUOUS
100
AcDbCircle
 10
217.7636259999999
 20
49.32384899999999
 30
0.0
 40
3.0
100
AcDbArc
 50
180.0
 51
268.5004879999999
  0
LINE
  5
134
330
1E
100
AcDbEntity
  8
0
  6
CONTINUOUS
100
AcDbLine
 10
225.7636259999999
 20
188.113327
 30
0.0
 11
180.632736
 21
189.2954409999999
 31
0.0
  0
LINE
  5
135
330
1E
100
AcDbEntity
  8
0
  6
CENTER
100
AcDbLine
 10
-30.00140599999999
 20
151.113327
 30
0.0
 11
223.7636259999999
 21
151.113327
 31
0.0
  0
LINE
  5
136
330
1E
100
AcDbEntity
  8
0
  6
CENTER
100
AcDbLine
 10
194.5136259999999
 20
117.113327
 30
0.0
 11
225.7636259999999
 21
117.113327
 31
0.0
  0
LINE
  5
137
330
1E
100
AcDbEntity
  8
0
  6
CONTINUOUS
100
AcDbLine
 10
167.2636259999999
 20
208.6133269999999
 30
0.0
 11
167.2636259999999
 21
93.613327
 31
0.0
  0
LINE
  5
138
330
1E
100
AcDbEntity
  8
0
  6
CONTINUOUS
100
AcDbLine
 10
175.7636259999999
 20
205.613327
 30
0.0
 11
175.7636259999999
 21
163.3633269999999
 31
0.0
  0
LINE
  5
139
330
1E
100
AcDbEntity
  8
0
  6
CONTINUOUS
100
AcDbLine
 10
172.7636259999999
 20
208.6133269999999
 30
0.0
 11
167.2636259999999
 21
208.6133269999999
 31
0.0
  0
LINE
  5
13A
330
1E
100
AcDbEntity
  8
0
  6
CONTINUOUS
100
AcDbLine
 10
167.2636259999999
 20
93.613327
 30
0.0
 11
171.634491
 21
93.613327
 31
0.0
  0
ARC
  5
13B
330
1E
100
AcDbEntity
  8
0
  6
CONTINUOUS
100
AcDbCircle
 10
172.763657
 20
205.613312
 30
0.0
 40
3.0
100
AcDbArc
 50
0.0
 51
90.0
  0
LINE
  5
13C
330
1E
100
AcDbEntity
  8
0
  6
CONTINUOUS
100
AcDbLine
 10
214.763626
 20
61.11332700000001
 30
0.0
 11
171.634491
 21
93.613327
 31
0.0
  0
ARC
  5
13D
330
1E
100
AcDbEntity
  8
0
  6
CONTINUOUS
100
AcDbCircle
 10
180.7635959999999
 20
194.293762
 30
0.0
 40
5.0
100
AcDbArc
 50
180.0
 51
268.499908
  0
LINE
  5
13E
330
1E
100
AcDbEntity
  8
0
  6
CONTINUOUS
100
AcDbLine
 10
214.763824
 20
570.616699
 30
0.0
 11
214.763824
 21
561.1524659999999
 31
0.0
  0
LINE
  5
13F
330
1E
100
AcDbEntity
  8
0
  6
CONTINUOUS
100
AcDbLine
 10
225.763947
 20
431.408295
 30
0.0
 11
217.6854399999999
 21
431.619812
 31
0.0
  0
ARC
  5
140
330
1E
100
AcDbEntity
  8
0
  6
CONTINUOUS
100
AcDbCircle
 10
217.763947
 20
434.618866
 30
0.0
 40
3.0
100
AcDbArc
 50
180.0
 51
268.5003049999999
  0
LINE
  5
141
330
1E
100
AcDbEntity
  8
0
  6
CONTINUOUS
100
AcDbLine
 10
225.763947
 20
573.408203
 30
0.0
 11
217.8422999999999
 21
573.615662
 31
0.0
  0
ARC
  5
142
330
1E
100
AcDbEntity
  8
0
  6
CONTINUOUS
100
AcDbCircle
 10
217.763824
 20
570.616699
 30
0.0
 40
3.0
100
AcDbArc
 50
88.50013699999999
 51
180.0
  0
LINE
  5
143
330
1E
100
AcDbEntity
  8
0
  6
CONTINUOUS
100
AcDbLine
 10
214.7635799999999
 20
443.6644589999999
 30
0.0
 11
214.7635799999999
 21
434.618866
 31
0.0
  0
LINE
  5
144
330
1E
100
AcDbEntity
  8
0
  6
CONTINUOUS
100
AcDbLine
 10
175.763916
 20
557.051453
 30
0.0
 11
175.763733
 21
447.76535
 31
0.0
  0
LINE
  5
145
330
1E
100
AcDbEntity
  8
0
  6
CONTINUOUS
100
AcDbLine
 10
167.263947
 20
559.9082639999998
 30
0.0
 11
214.763824
 21
561.1524659999999
 31
0.0
  0
LINE
  5
146
330
1E
100
AcDbEntity
  8
0
  6
CONTINUOUS
100
AcDbLine
 10
167.263947
 20
444.908295
 30
0.0
 11
214.7635799999999
 21
443.6644589999999
 31
0.0
  0
ARC
  5
147
330
1E
100
AcDbEntity
  8
0
  6
CONTINUOUS
100
AcDbCircle
 10
172.763977
 20
557.051453
 30
0.0
 40
3.0
100
AcDbArc
 50
0.0
 51
91.50055700000001
  0
ARC
  5
148
330
1E
100
AcDbEntity
  8
0
  6
CONTINUOUS
100
AcDbCircle
 10
172.763977
 20
447.76535
 30
0.0
 40
3.0
100
AcDbArc
 50
268.500122
 51
0.0
  0
LINE
  5
149
330
1E
100
AcDbEntity
  8
0
  6
CONTINUOUS
100
AcDbLine
 10
167.263947
 20
559.9082639999998
 30
0.0
 11
167.263947
 21
444.908295
 31
0.0
  0
LINE
  5
14A
330
1E
100
AcDbEntity
  8
0
  6
CONTINUOUS
100
AcDbLine
 10
43.26376299850857
 20
559.9082639999998
 30
0.0
 11
167.263947
 21
559.9082639999998
 31
0.0
  0
LINE
  5
14B
330
1E
100
AcDbEntity
  8
0
  6
CONTINUOUS
100
AcDbLine
 10
167.263947
 20
444.908295
 30
0.0
 11
122.7383189999999
 21
444.908295
 31
0.0
  0
LINE
  5
14C
330
1E
100
AcDbEntity
  8
0
  6
CONTINUOUS
100
AcDbLine
 10
55.263943
 20
528.407776
 30
0.0
 11
159.2377469999999
 21
528.407776
 31
0.0
  0
LINE
  5
14D
330
1E
100
AcDbEntity
  8
0
  6
CONTINUOUS
100
AcDbLine
 10
55.263943
 20
536.178284
 30
0.0
 11
159.2377469999999
 21
536.178284
 31
0.0
  0
LINE
  5
14E
330
1E
100
AcDbEntity
  8
0
  6
CONTINUOUS
100
AcDbLine
 10
56.26394300000001
 20
539.457703
 30
0.0
 11
158.237762
 21
539.457703
 31
0.0
  0
LINE
  5
14F
330
1E
100
AcDbEntity
  8
0
  6
CONTINUOUS
100
AcDbLine
 10
55.263943
 20
544.272644
 30
0.0
 11
159.2377469999999
 21
544.272644
 31
0.0
  0
LINE
  5
150
330
1E
100
AcDbEntity
  8
0
  6
CONTINUOUS
100
AcDbLine
 10
56.26394300000001
 20
546.260498
 30
0.0
 11
158.237762
 21
546.260498
 31
0.0
  0
LINE
  5
151
330
1E
100
AcDbEntity
  8
0
  6
CONTINUOUS
100
AcDbLine
 10
55.263943
 20
550.3031009999999
 30
0.0
 11
159.2377469999999
 21
550.3031009999999
 31
0.0
  0
LINE
  5
152
330
1E
100
AcDbEntity
  8
0
  6
CONTINUOUS
100
AcDbLine
 10
55.263943
 20
554.8339839999999
 30
0.0
 11
159.2377469999999
 21
554.8339839999999
 31
0.0
  0
LINE
  5
153
330
1E
100
AcDbEntity
  8
0
  6
CONTINUOUS
100
AcDbLine
 10
55.263943
 20
557.71106
 30
0.0
 11
159.2377469999999
 21
557.71106
 31
0.0
  0
LINE
  5
154
330
1E
100
AcDbEntity
  8
0
  6
CONTINUOUS
100
AcDbLine
 10
55.263943
 20
559.366333
 30
0.0
 11
159.2377469999999
 21
559.366333
 31
0.0
  0
LINE
  5
155
330
1E
100
AcDbEntity
  8
0
  6
CONTINUOUS
100
AcDbLine
 10
159.2377469999999
 20
559.9082639999998
 30
0.0
 11
159.2377469999999
 21
528.407776
 31
0.0
  0
LINE
  5
156
330
1E
100
AcDbEntity
  8
0
  6
CONTINUOUS
100
AcDbLine
 10
55.263943
 20
476.408783
 30
0.0
 11
159.2377469999999
 21
476.408783
 31
0.0
  0
LINE
  5
157
330
1E
100
AcDbEntity
  8
0
  6
CONTINUOUS
100
AcDbLine
 10
55.263943
 20
468.6382749999999
 30
0.0
 11
159.2377469999999
 21
468.6382749999999
 31
0.0
  0
LINE
  5
158
330
1E
100
AcDbEntity
  8
0
  6
CONTINUOUS
100
AcDbLine
 10
55.263943
 20
460.543915
 30
0.0
 11
159.2377469999999
 21
460.543915
 31
0.0
  0
LINE
  5
159
330
1E
100
AcDbEntity
  8
0
  6
CONTINUOUS
100
AcDbLine
 10
122.2383189999999
 20
449.982574
 30
0.0
 11
159.2377469999999
 21
449.982574
 31
0.0
  0
LINE
  5
15A
330
1E
100
AcDbEntity
  8
0
  6
CONTINUOUS
100
AcDbLine
 10
122.2383189999999
 20
447.1055299999999
 30
0.0
 11
159.2377469999999
 21
447.1055299999999
 31
0.0
  0
LINE
  5
15B
330
1E
100
AcDbEntity
  8
0
  6
CONTINUOUS
100
AcDbLine
 10
122.738312
 20
445.450195
 30
0.0
 11
159.2377469999999
 21
445.450195
 31
0.0
  0
LINE
  5
15C
330
1E
100
AcDbEntity
  8
0
  6
CONTINUOUS
100
AcDbLine
 10
159.2377469999999
 20
444.908295
 30
0.0
 11
159.2377469999999
 21
476.408783
 31
0.0
  0
LINE
  5
15D
330
1E
100
AcDbEntity
  8
0
  6
CONTINUOUS
100
AcDbLine
 10
122.2383189999999
 20
445.408295
 30
0.0
 11
122.2383189999999
 21
451.6077269999999
 31
0.0
  0
ARC
  5
15E
330
1E
100
AcDbEntity
  8
0
  6
CONTINUOUS
100
AcDbCircle
 10
122.738312
 20
445.9501949999999
 30
0.0
 40
0.499992
100
AcDbArc
 50
180.0
 51
270.0
  0
ARC
  5
15F
330
1E
100
AcDbEntity
  8
0
  6
CONTINUOUS
100
AcDbCircle
 10
121.238335
 20
447.409149
 30
0.0
 40
0.9999839999999998
100
AcDbArc
 50
270.0
 51
0.0
  0
LINE
  5
160
330
1E
100
AcDbEntity
  8
0
  6
CONTINUOUS
100
AcDbLine
 10
56.26394300000001
 20
465.358887
 30
0.0
 11
158.237762
 21
465.358887
 31
0.0
  0
LINE
  5
161
330
1E
100
AcDbEntity
  8
0
  6
CONTINUOUS
100
AcDbLine
 10
56.26394300000001
 20
458.556091
 30
0.0
 11
158.237762
 21
458.556091
 31
0.0
  0
LINE
  5
162
330
1E
100
AcDbEntity
  8
0
  6
CONTINUOUS
100
AcDbLine
 10
55.263943
 20
454.513458
 30
0.0
 11
159.2377469999999
 21
454.513458
 31
0.0
  0
LINE
  5
163
330
1E
100
AcDbEntity
  8
0
  6
CONTINUOUS
100
AcDbLine
 10
55.263943
 20
451.6077269999999
 30
0.0
 11
122.2383189999999
 21
451.6077269999999
 31
0.0
  0
LINE
  5
164
330
1E
100
AcDbEntity
  8
0
  6
CONTINUOUS
100
AcDbLine
 10
56.26394300000001
 20
446.40918
 30
0.0
 11
101.786316
 21
446.40918
 31
0.0
  0
LINE
  5
165
330
1E
100
AcDbEntity
  8
0
  6
CONTINUOUS
100
AcDbLine
 10
121.238335
 20
446.40918
 30
0.0
 11
101.786316
 21
446.4090879999999
 31
0.0
  0
ARC
  5
166
330
1E
100
AcDbEntity
  8
0
  6
CONTINUOUS
100
AcDbCircle
 10
122.7383189999999
 20
445.408295
 30
0.0
 40
0.5
100
AcDbArc
 50
180.0
 51
270.0
  0
LINE
  5
167
330
1E
100
AcDbEntity
  8
0
  6
CENTER
100
AcDbLine
 10
256.204895
 20
432.408722
 30
0.0
 11
283.1221009999999
 21
432.408722
 31
0.0
  0
LINE
  5
168
330
1E
100
AcDbEntity
  8
0
  6
CENTER
100
AcDbLine
 10
388.763641
 20
444.4577639999999
 30
0.0
 11
388.763641
 21
420.0484009999999
 31
0.0
  0
LINE
  5
169
330
1E
100
AcDbEntity
  8
0
  6
CENTER
100
AcDbLine
 10
268.763641
 20
443.4546509999999
 30
0.0
 11
268.763641
 21
419.7140199999999
 31
0.0
  0
ARC
  5
16A
330
1E
100
AcDbEntity
  8
0
  6
CONTINUOUS
100
AcDbCircle
 10
388.763641
 20
432.408722
 30
0.0
 40
7.5
100
AcDbArc
 50
147.772781
 51
46.07371099999999
  0
ARC
  5
16B
330
1E
100
AcDbEntity
  8
0
  6
CONTINUOUS
100
AcDbCircle
 10
268.763641
 20
432.408722
 30
0.0
 40
7.5
100
AcDbArc
 50
133.9252319999999
 51
32.22722199999999
  0
LINE
  5
16C
330
1E
100
AcDbEntity
  8
0
  6
CENTER
100
AcDbLine
 10
374.9916079999999
 20
432.408722
 30
0.0
 11
404.3330379999999
 21
432.408722
 31
0.0
  0
LINE
  5
16D
330
1E
100
AcDbEntity
  8
0
  6
CENTER
100
AcDbLine
 10
-25.473282
 20
502.408295
 30
0.0
 11
437.770538
 21
502.408295
 31
0.0
  0
LINE
  5
16E
330
1E
100
AcDbEntity
  8
0
  6
CONTINUOUS
100
AcDbLine
 10
49.326344
 20
431.9864809999999
 30
0.0
 11
48.263943
 21
391.908295
 31
0.0
  0
LINE
  5
16F
330
1E
100
AcDbEntity
  8
0
  6
CONTINUOUS
100
AcDbLine
 10
117.2009429999999
 20
431.9864809999999
 30
0.0
 11
118.263947
 21
391.908295
 31
0.0
  0
LINE
  5
170
330
1E
100
AcDbEntity
  8
0
  6
CONTINUOUS
100
AcDbLine
 10
59.23814399999999
 20
444.908295
 30
0.0
 11
71.763947
 21
444.908295
 31
0.0
  0
LINE
  5
171
330
1E
100
AcDbEntity
  8
0
  6
CONTINUOUS
100
AcDbLine
 10
107.2897419999999
 20
444.908295
 30
0.0
 11
71.763947
 21
444.908295
 31
0.0
  0
LINE
  5
172
330
1E
100
AcDbEntity
  8
0
  6
CONTINUOUS
100
AcDbLine
 10
114.2151409999999
 20
434.908295
 30
0.0
 11
96.57514200000001
 21
434.908295
 31
0.0
  0
ARC
  5
173
330
1E
100
AcDbEntity
  8
0
  6
CONTINUOUS
100
AcDbCircle
 10
52.311943
 20
431.908295
 30
0.0
 40
3.0
100
AcDbArc
 50
90.0
 51
178.5002749999999
  0
ARC
  5
174
330
1E
100
AcDbEntity
  8
0
  6
CONTINUOUS
100
AcDbCircle
 10
114.2151409999999
 20
431.908295
 30
0.0
 40
3.0
100
AcDbArc
 50
1.4999
 51
90.0
  0
LINE
  5
175
330
1E
100
AcDbEntity
  8
0
  6
CONTINUOUS
100
AcDbLine
 10
58.23838399999999
 20
443.9344789999999
 30
0.0
 11
58.053036
 21
436.8559269999999
 31
0.0
  0
LINE
  5
176
330
1E
100
AcDbEntity
  8
0
  6
CONTINUOUS
100
AcDbLine
 10
108.2890469999999
 20
443.934448
 30
0.0
 11
108.474831
 21
436.8558039999999
 31
0.0
  0
ARC
  5
177
330
1E
100
AcDbEntity
  8
0
  6
CONTINUOUS
100
AcDbCircle
 10
107.2897419999999
 20
443.908295
 30
0.0
 40
1.0
100
AcDbArc
 50
1.4993
 51
90.0
  0
ARC
  5
178
330
1E
100
AcDbEntity
  8
0
  6
CONTINUOUS
100
AcDbCircle
 10
59.23814399999999
 20
443.908295
 30
0.0
 40
1.0
100
AcDbArc
 50
90.0
 51
178.4994049999999
  0
LINE
  5
179
330
1E
100
AcDbEntity
  8
0
  6
CONTINUOUS
100
AcDbLine
 10
52.31214099999999
 20
434.908295
 30
0.0
 11
69.95274399999999
 21
434.908295
 31
0.0
  0
ARC
  5
17A
330
1E
100
AcDbEntity
  8
0
  6
CONTINUOUS
100
AcDbCircle
 10
83.26394699999999
 20
502.408295
 30
0.0
 40
68.800003
100
AcDbArc
 50
258.8442
 51
281.1558
  0
LINE
  5
17B
330
1E
100
AcDbEntity
  8
0
  6
CENTER
100
AcDbLine
 10
83.26394699999999
 20
448.7344969999999
 30
0.0
 11
83.26394699999999
 21
373.814697
 31
0.0
  0
LINE
  5
17C
330
1E
100
AcDbEntity
  8
0
  6
CONTINUOUS
100
AcDbLine
 10
50.763943
 20
385.908295
 30
0.0
 11
115.763947
 21
385.908295
 31
0.0
  0
LINE
  5
17D
330
1E
100
AcDbEntity
  8
0
  6
CONTINUOUS
100
AcDbLine
 10
118.263947
 20
388.408295
 30
0.0
 11
118.263947
 21
390.908295
 31
0.0
  0
LINE
  5
17E
330
1E
100
AcDbEntity
  8
0
  6
CONTINUOUS
100
AcDbLine
 10
48.263943
 20
388.408295
 30
0.0
 11
48.263943
 21
390.908295
 31
0.0
  0
LINE
  5
17F
330
1E
100
AcDbEntity
  8
0
  6
CONTINUOUS
100
AcDbLine
 10
118.263947
 20
390.908295
 30
0.0
 11
48.263943
 21
390.908295
 31
0.0
  0
LINE
  5
180
330
1E
100
AcDbEntity
  8
0
  6
CONTINUOUS
100
AcDbLine
 10
118.263947
 20
391.908295
 30
0.0
 11
48.263943
 21
391.908295
 31
0.0
  0
LINE
  5
181
330
1E
100
AcDbEntity
  8
0
  6
CONTINUOUS
100
AcDbLine
 10
118.263947
 20
390.908295
 30
0.0
 11
118.263947
 21
391.908295
 31
0.0
  0
LINE
  5
182
330
1E
100
AcDbEntity
  8
0
  6
CONTINUOUS
100
AcDbLine
 10
48.263943
 20
390.908295
 30
0.0
 11
48.263943
 21
391.908295
 31
0.0
  0
LINE
  5
183
330
1E
100
AcDbEntity
  8
0
  6
CENTER
100
AcDbLine
 10
53.263943
 20
407.908295
 30
0.0
 11
13.576943
 21
407.908295
 31
0.0
  0
LINE
  5
184
330
1E
100
AcDbEntity
  8
0
  6
CONTINUOUS
100
AcDbLine
 10
109.7511439999999
 20
388.908295
 30
0.0
 11
117.263947
 21
388.908295
 31
0.0
  0
LINE
  5
185
330
1E
100
AcDbEntity
  8
0
  6
CONTINUOUS
100
AcDbLine
 10
56.776943
 20
388.908295
 30
0.0
 11
49.263943
 21
388.908295
 31
0.0
  0
LINE
  5
186
330
1E
100
AcDbEntity
  8
0
  6
CONTINUOUS
100
AcDbLine
 10
109.251144
 20
388.4214779999999
 30
0.0
 11
109.2109449999999
 21
386.8820799999999
 31
0.0
  0
ARC
  5
187
330
1E
100
AcDbEntity
  8
0
  6
CONTINUOUS
100
AcDbCircle
 10
109.7511439999999
 20
388.408295
 30
0.0
 40
0.5
100
AcDbArc
 50
90.0
 51
178.5
  0
ARC
  5
188
330
1E
100
AcDbEntity
  8
0
  6
CONTINUOUS
100
AcDbCircle
 10
108.2113419999999
 20
386.908295
 30
0.0
 40
1.0
100
AcDbArc
 50
270.0
 51
358.5002
  0
ARC
  5
189
330
1E
100
AcDbEntity
  8
0
  6
CONTINUOUS
100
AcDbCircle
 10
117.263947
 20
389.908295
 30
0.0
 40
1.0
100
AcDbArc
 50
270.0
 51
0.0
  0
ARC
  5
18A
330
1E
100
AcDbEntity
  8
0
  6
CONTINUOUS
100
AcDbCircle
 10
115.763947
 20
388.408295
 30
0.0
 40
2.5
100
AcDbArc
 50
270.0
 51
0.0
  0
LINE
  5
18B
330
1E
100
AcDbEntity
  8
0
  6
CONTINUOUS
100
AcDbLine
 10
57.276745
 20
388.4214779999999
 30
0.0
 11
57.31694399999999
 21
386.8820799999999
 31
0.0
  0
ARC
  5
18C
330
1E
100
AcDbEntity
  8
0
  6
CONTINUOUS
100
AcDbCircle
 10
58.31674200000001
 20
386.908295
 30
0.0
 40
1.0
100
AcDbArc
 50
181.500397
 51
270.0
  0
ARC
  5
18D
330
1E
100
AcDbEntity
  8
0
  6
CONTINUOUS
100
AcDbCircle
 10
56.776943
 20
388.408295
 30
0.0
 40
0.5
100
AcDbArc
 50
1.500199999999999
 51
90.0
  0
ARC
  5
18E
330
1E
100
AcDbEntity
  8
0
  6
CONTINUOUS
100
AcDbCircle
 10
49.263943
 20
389.908295
 30
0.0
 40
1.0
100
AcDbArc
 50
180.0
 51
270.0
  0
ARC
  5
18F
330
1E
100
AcDbEntity
  8
0
  6
CONTINUOUS
100
AcDbCircle
 10
50.763943
 20
388.408295
 30
0.0
 40
2.5
100
AcDbArc
 50
180.0
 51
270.0
  0
ARC
  5
190
330
1E
100
AcDbEntity
  8
0
  6
CONTINUOUS
100
AcDbCircle
 10
113.2639469999999
 20
388.908295
 30
0.0
 40
3.0
100
AcDbArc
 50
180.0
 51
0.0
  0
LINE
  5
191
330
1E
100
AcDbEntity
  8
0
  6
CONTINUOUS
100
AcDbLine
 10
116.2219469999999
 20
388.408295
 30
0.0
 11
110.3059459999999
 21
388.408295
 31
0.0
  0
LINE
  5
192
330
1E
100
AcDbEntity
  8
0
  6
CONTINUOUS
100
AcDbLine
 10
113.2639469999999
 20
386.408295
 30
0.0
 11
112.9829409999999
 21
385.9214779999999
 31
0.0
  0
LINE
  5
193
330
1E
100
AcDbEntity
  8
0
  6
CONTINUOUS
100
AcDbLine
 10
113.2639469999999
 20
386.408295
 30
0.0
 11
113.545143
 21
385.9214779999999
 31
0.0
  0
ARC
  5
194
330
1E
100
AcDbEntity
  8
0
  6
CONTINUOUS
100
AcDbCircle
 10
53.263943
 20
388.908295
 30
0.0
 40
3.0
100
AcDbArc
 50
180.0
 51
0.0
  0
LINE
  5
195
330
1E
100
AcDbEntity
  8
0
  6
CONTINUOUS
100
AcDbLine
 10
56.221943
 20
388.408295
 30
0.0
 11
50.305943
 21
388.408295
 31
0.0
  0
LINE
  5
196
330
1E
100
AcDbEntity
  8
0
  6
CONTINUOUS
100
AcDbLine
 10
53.263943
 20
386.408295
 30
0.0
 11
52.98294399999999
 21
385.9214779999999
 31
0.0
  0
LINE
  5
197
330
1E
100
AcDbEntity
  8
0
  6
CONTINUOUS
100
AcDbLine
 10
53.263943
 20
386.408295
 30
0.0
 11
53.545143
 21
385.9214779999999
 31
0.0
  0
LINE
  5
198
330
1E
100
AcDbEntity
  8
0
  6
CONTINUOUS
100
AcDbLine
 10
106.263947
 20
444.908295
 30
0.0
 11
106.263947
 21
446.4082949999999
 31
0.0
  0
LINE
  5
199
330
1E
100
AcDbEntity
  8
0
  6
CONTINUOUS
100
AcDbLine
 10
60.263943
 20
444.908295
 30
0.0
 11
60.263943
 21
446.4082949999999
 31
0.0
  0
LINE
  5
19A
330
1E
100
AcDbEntity
  8
0
  6
CONTINUOUS
100
AcDbLine
 10
20.26394299999999
 20
422.408478
 30
0.0
 11
20.26394299999999
 21
393.408295
 31
0.0
  0
LINE
  5
19B
330
1E
100
AcDbEntity
  8
0
  6
CONTINUOUS
100
AcDbLine
 10
28.263943
 20
422.408478
 30
0.0
 11
28.263943
 21
393.408295
 31
0.0
  0
LINE
  5
19C
330
1E
100
AcDbEntity
  8
0
  6
CONTINUOUS
100
AcDbLine
 10
20.26394299999999
 20
422.408478
 30
0.0
 11
28.263943
 21
422.408478
 31
0.0
  0
LINE
  5
19D
330
1E
100
AcDbEntity
  8
0
  6
CONTINUOUS
100
AcDbLine
 10
20.26394299999999
 20
393.408295
 30
0.0
 11
28.263943
 21
393.408295
 31
0.0
  0
LINE
  5
19E
330
1E
100
AcDbEntity
  8
0
  6
CONTINUOUS
100
AcDbLine
 10
37.26394299999999
 20
420.908478
 30
0.0
 11
37.26394299999999
 21
394.908295
 31
0.0
  0
LINE
  5
19F
330
1E
100
AcDbEntity
  8
0
  6
CONTINUOUS
100
AcDbLine
 10
28.263943
 20
420.908478
 30
0.0
 11
37.26394299999999
 21
420.908478
 31
0.0
  0
LINE
  5
1A0
330
1E
100
AcDbEntity
  8
0
  6
CONTINUOUS
100
AcDbLine
 10
28.263943
 20
394.908295
 30
0.0
 11
37.26394299999999
 21
394.908295
 31
0.0
  0
LINE
  5
1A1
330
1E
100
AcDbEntity
  8
0
  6
CONTINUOUS
100
AcDbLine
 10
37.26394299999999
 20
419.4084779999999
 30
0.0
 11
42.26394299999999
 21
419.4084779999999
 31
0.0
  0
LINE
  5
1A2
330
1E
100
AcDbEntity
  8
0
  6
CONTINUOUS
100
AcDbLine
 10
37.26394299999999
 20
396.408295
 30
0.0
 11
42.26394299999999
 21
396.408295
 31
0.0
  0
LINE
  5
1A3
330
1E
100
AcDbEntity
  8
0
  6
CONTINUOUS
100
AcDbLine
 10
42.26394299999999
 20
421.408478
 30
0.0
 11
42.26394299999999
 21
394.408295
 31
0.0
  0
LINE
  5
1A4
330
1E
100
AcDbEntity
  8
0
  6
CONTINUOUS
100
AcDbLine
 10
46.763943
 20
422.408478
 30
0.0
 11
46.763943
 21
393.408295
 31
0.0
  0
LINE
  5
1A5
330
1E
100
AcDbEntity
  8
0
  6
CONTINUOUS
100
AcDbLine
 10
42.26394299999999
 20
421.408478
 30
0.0
 11
46.763943
 21
421.408478
 31
0.0
  0
LINE
  5
1A6
330
1E
100
AcDbEntity
  8
0
  6
CONTINUOUS
100
AcDbLine
 10
42.26394299999999
 20
394.408295
 30
0.0
 11
46.763943
 21
394.408295
 31
0.0
  0
LINE
  5
1A7
330
1E
100
AcDbEntity
  8
0
  6
CONTINUOUS
100
AcDbLine
 10
46.763943
 20
422.408478
 30
0.0
 11
49.072544
 21
422.408478
 31
0.0
  0
LINE
  5
1A8
330
1E
100
AcDbEntity
  8
0
  6
CONTINUOUS
100
AcDbLine
 10
46.763943
 20
393.408295
 30
0.0
 11
48.303741
 21
393.408295
 31
0.0
  0
LINE
  5
1A9
330
1E
100
AcDbEntity
  8
0
  6
CONTINUOUS
100
AcDbLine
 10
20.26394299999999
 20
415.9084779999999
 30
0.0
 11
28.263943
 21
415.9084779999999
 31
0.0
  0
LINE
  5
1AA
330
1E
100
AcDbEntity
  8
0
  6
CONTINUOUS
100
AcDbLine
 10
20.26394299999999
 20
399.908295
 30
0.0
 11
28.263943
 21
399.908295
 31
0.0
  0
LINE
  5
1AB
330
1E
100
AcDbEntity
  8
0
  6
CONTINUOUS
100
AcDbLine
 10
37.26394299999999
 20
417.908478
 30
0.0
 11
42.26394299999999
 21
417.908478
 31
0.0
  0
LINE
  5
1AC
330
1E
100
AcDbEntity
  8
0
  6
CONTINUOUS
100
AcDbLine
 10
37.26394299999999
 20
397.908295
 30
0.0
 11
42.26394299999999
 21
397.908295
 31
0.0
  0
ARC
  5
1AD
330
1E
100
AcDbEntity
  8
0
  6
CONTINUOUS
100
AcDbCircle
 10
56.053722
 20
436.908295
 30
0.0
 40
2.0
100
AcDbArc
 50
270.0
 51
358.500092
  0
ARC
  5
1AE
330
1E
100
AcDbEntity
  8
0
  6
CONTINUOUS
100
AcDbCircle
 10
110.474136
 20
436.908295
 30
0.0
 40
2.0
100
AcDbArc
 50
181.5033719999999
 51
270.0
  0
LINE
  5
1AF
330
1E
100
AcDbEntity
  8
0
  6
CONTINUOUS
100
AcDbLine
 10
43.26367100084303
 20
208.613434
 30
0.0
 11
167.2636259999999
 21
208.613434
 31
0.0
  0
LINE
  5
1B0
330
1E
100
AcDbEntity
  8
0
  6
CONTINUOUS
100
AcDbLine
 10
159.2636259999999
 20
202.399445
 30
0.0
 11
159.2636259999999
 21
198.113434
 31
0.0
  0
LINE
  5
1B1
330
1E
100
AcDbEntity
  8
0
  6
CONTINUOUS
100
AcDbLine
 10
120.263626
 20
178.113434
 30
0.0
 11
118.2636259999999
 21
178.113434
 31
0.0
  0
LINE
  5
1B2
330
1E
100
AcDbEntity
  8
0
  6
CONTINUOUS
100
AcDbLine
 10
120.263626
 20
124.1134409999999
 30
0.0
 11
118.2636259999999
 21
124.1134409999999
 31
0.0
  0
LINE
  5
1B3
330
1E
100
AcDbEntity
  8
0
  6
CONTINUOUS
100
AcDbLine
 10
122.263626
 20
126.1134409999999
 30
0.0
 11
122.263626
 21
176.113434
 31
0.0
  0
LINE
  5
1B4
330
1E
100
AcDbEntity
  8
0
  6
CONTINUOUS
100
AcDbLine
 10
55.26363
 20
189.113434
 30
0.0
 11
159.2636259999999
 21
189.113434
 31
0.0
  0
LINE
  5
1B5
330
1E
100
AcDbEntity
  8
0
  6
CONTINUOUS
100
AcDbLine
 10
55.26363
 20
191.113434
 30
0.0
 11
159.2636259999999
 21
191.113434
 31
0.0
  0
LINE
  5
1B6
330
1E
100
AcDbEntity
  8
0
  6
CONTINUOUS
100
AcDbLine
 10
55.26363
 20
196.113434
 30
0.0
 11
159.2636259999999
 21
196.113434
 31
0.0
  0
LINE
  5
1B7
330
1E
100
AcDbEntity
  8
0
  6
CONTINUOUS
100
AcDbLine
 10
55.26363
 20
198.113434
 30
0.0
 11
159.2636259999999
 21
198.113434
 31
0.0
  0
LINE
  5
1B8
330
1E
100
AcDbEntity
  8
0
  6
CONTINUOUS
100
AcDbLine
 10
55.26363
 20
202.399445
 30
0.0
 11
159.2636259999999
 21
202.399445
 31
0.0
  0
LINE
  5
1B9
330
1E
100
AcDbEntity
  8
0
  6
CONTINUOUS
100
AcDbLine
 10
159.2636259999999
 20
99.82743800000001
 30
0.0
 11
159.2636259999999
 21
104.113441
 31
0.0
  0
LINE
  5
1BA
330
1E
100
AcDbEntity
  8
0
  6
CONTINUOUS
100
AcDbLine
 10
159.2636259999999
 20
106.1134409999999
 30
0.0
 11
159.2636259999999
 21
111.113441
 31
0.0
  0
LINE
  5
1BB
330
1E
100
AcDbEntity
  8
0
  6
CONTINUOUS
100
AcDbLine
 10
159.2636259999999
 20
113.113441
 30
0.0
 11
159.2636259999999
 21
118.6134409999999
 31
0.0
  0
LINE
  5
1BC
330
1E
100
AcDbEntity
  8
0
  6
CONTINUOUS
100
AcDbLine
 10
159.2636259999999
 20
120.6134409999999
 30
0.0
 11
159.2636259999999
 21
126.7134399999999
 31
0.0
  0
LINE
  5
1BD
330
1E
100
AcDbEntity
  8
0
  6
CONTINUOUS
100
AcDbLine
 10
159.2636259999999
 20
128.71344
 30
0.0
 11
159.2636259999999
 21
134.5134429999999
 31
0.0
  0
LINE
  5
1BE
330
1E
100
AcDbEntity
  8
0
  6
CONTINUOUS
100
AcDbLine
 10
159.2636259999999
 20
136.5134429999999
 30
0.0
 11
159.2636259999999
 21
142.3134459999999
 31
0.0
  0
LINE
  5
1BF
330
1E
100
AcDbEntity
  8
0
  6
CONTINUOUS
100
AcDbLine
 10
159.2636259999999
 20
144.313446
 30
0.0
 11
159.2636259999999
 21
150.113434
 31
0.0
  0
LINE
  5
1C0
330
1E
100
AcDbEntity
  8
0
  6
CONTINUOUS
100
AcDbLine
 10
159.2636259999999
 20
152.113434
 30
0.0
 11
159.2636259999999
 21
157.913437
 31
0.0
  0
LINE
  5
1C1
330
1E
100
AcDbEntity
  8
0
  6
CONTINUOUS
100
AcDbLine
 10
159.2636259999999
 20
159.913437
 30
0.0
 11
159.2636259999999
 21
165.7134399999999
 31
0.0
  0
LINE
  5
1C2
330
1E
100
AcDbEntity
  8
0
  6
CONTINUOUS
100
AcDbLine
 10
159.2636259999999
 20
167.7134399999999
 30
0.0
 11
159.2636259999999
 21
173.513443
 31
0.0
  0
LINE
  5
1C3
330
1E
100
AcDbEntity
  8
0
  6
CONTINUOUS
100
AcDbLine
 10
159.2636259999999
 20
175.513443
 30
0.0
 11
159.2636259999999
 21
181.6134339999999
 31
0.0
  0
LINE
  5
1C4
330
1E
100
AcDbEntity
  8
0
  6
CONTINUOUS
100
AcDbLine
 10
159.2636259999999
 20
183.613434
 30
0.0
 11
159.2636259999999
 21
189.113434
 31
0.0
  0
LINE
  5
1C5
330
1E
100
AcDbEntity
  8
0
  6
CONTINUOUS
100
AcDbLine
 10
159.2636259999999
 20
191.113434
 30
0.0
 11
159.2636259999999
 21
196.113434
 31
0.0
  0
ARC
  5
1C6
330
1E
100
AcDbEntity
  8
0
  6
CONTINUOUS
100
AcDbCircle
 10
120.263626
 20
176.113434
 30
0.0
 40
2.0
100
AcDbArc
 50
0.0
 51
90.0
  0
ARC
  5
1C7
330
1E
100
AcDbEntity
  8
0
  6
CONTINUOUS
100
AcDbCircle
 10
120.263626
 20
126.1134409999999
 30
0.0
 40
2.0
100
AcDbArc
 50
270.0
 51
0.0
  0
LINE
  5
1C8
330
1E
100
AcDbEntity
  8
0
  6
CONTINUOUS
100
AcDbLine
 10
159.2636259999999
 20
120.6134409999999
 30
0.0
 11
118.2636259999999
 21
120.6134409999999
 31
0.0
  0
LINE
  5
1C9
330
1E
100
AcDbEntity
  8
0
  6
CONTINUOUS
100
AcDbLine
 10
159.2636259999999
 20
118.6134409999999
 30
0.0
 11
118.2636259999999
 21
118.613487
 31
0.0
  0
LINE
  5
1CA
330
1E
100
AcDbEntity
  8
0
  6
CONTINUOUS
100
AcDbLine
 10
159.2636259999999
 20
113.113441
 30
0.0
 11
85.76367199999999
 21
113.113441
 31
0.0
  0
LINE
  5
1CB
330
1E
100
AcDbEntity
  8
0
  6
CONTINUOUS
100
AcDbLine
 10
159.2636259999999
 20
111.113441
 30
0.0
 11
96.763779
 21
111.113441
 31
0.0
  0
LINE
  5
1CC
330
1E
100
AcDbEntity
  8
0
  6
CONTINUOUS
100
AcDbLine
 10
159.2636259999999
 20
106.1134409999999
 30
0.0
 11
84.919884
 21
106.1134409999999
 31
0.0
  0
LINE
  5
1CD
330
1E
100
AcDbEntity
  8
0
  6
CONTINUOUS
100
AcDbLine
 10
159.2636259999999
 20
104.113441
 30
0.0
 11
96.26377900000001
 21
104.113441
 31
0.0
  0
LINE
  5
1CE
330
1E
100
AcDbEntity
  8
0
  6
CONTINUOUS
100
AcDbLine
 10
159.2636259999999
 20
99.82743800000001
 30
0.0
 11
80.689766
 21
99.82743800000001
 31
0.0
  0
LINE
  5
1CF
330
1E
100
AcDbEntity
  8
0
  6
CONTINUOUS
100
AcDbLine
 10
167.2636259999999
 20
93.61344100000001
 30
0.0
 11
97.76377899999999
 21
93.61344100000001
 31
0.0
  0
LINE
  5
1D0
330
1E
100
AcDbEntity
  8
0
  6
CONTINUOUS
100
AcDbLine
 10
118.2636259999999
 20
183.613434
 30
0.0
 11
118.2636259999999
 21
118.613487
 31
0.0
  0
LINE
  5
1D1
330
1E
100
AcDbEntity
  8
0
  6
CONTINUOUS
100
AcDbLine
 10
48.26363
 20
118.6133879999999
 30
0.0
 11
48.26363
 21
183.613434
 31
0.0
  0
LINE
  5
1D2
330
1E
100
AcDbEntity
  8
0
  6
CONTINUOUS
100
AcDbLine
 10
50.76363
 20
186.113434
 30
0.0
 11
115.763626
 21
186.113434
 31
0.0
  0
LINE
  5
1D3
330
1E
100
AcDbEntity
  8
0
  6
CONTINUOUS
100
AcDbLine
 10
50.763618
 20
116.1133879999999
 30
0.0
 11
115.763626
 21
116.1133879999999
 31
0.0
  0
ARC
  5
1D4
330
1E
100
AcDbEntity
  8
0
  6
CONTINUOUS
100
AcDbCircle
 10
115.763626
 20
118.6133879999999
 30
0.0
 40
2.5
100
AcDbArc
 50
270.0
 51
0.0
  0
ARC
  5
1D5
330
1E
100
AcDbEntity
  8
0
  6
CONTINUOUS
100
AcDbCircle
 10
115.763626
 20
183.6134189999999
 30
0.0
 40
2.5
100
AcDbArc
 50
0.0
 51
90.0
  0
ARC
  5
1D6
330
1E
100
AcDbEntity
  8
0
  6
CONTINUOUS
100
AcDbCircle
 10
50.76363
 20
183.613434
 30
0.0
 40
2.5
100
AcDbArc
 50
90.0
 51
180.0
  0
ARC
  5
1D7
330
1E
100
AcDbEntity
  8
0
  6
CONTINUOUS
100
AcDbCircle
 10
50.763618
 20
118.6133879999999
 30
0.0
 40
2.5
100
AcDbArc
 50
180.0
 51
270.0
  0
ARC
  5
1D8
330
1E
100
AcDbEntity
  8
0
  6
CONTINUOUS
100
AcDbCircle
 10
113.2636259999999
 20
181.113434
 30
0.0
 40
4.0
100
AcDbArc
 50
180.0
 51
270.0
  0
ARC
  5
1D9
330
1E
100
AcDbEntity
  8
0
  6
CONTINUOUS
100
AcDbCircle
 10
113.2636259999999
 20
121.1133879999999
 30
0.0
 40
4.0
100
AcDbArc
 50
90.0
 51
180.0
  0
ARC
  5
1DA
330
1E
100
AcDbEntity
  8
0
  6
CONTINUOUS
100
AcDbCircle
 10
53.26363
 20
121.1133879999999
 30
0.0
 40
4.0
100
AcDbArc
 50
0.0
 51
90.0
  0
ARC
  5
1DB
330
1E
100
AcDbEntity
  8
0
  6
CONTINUOUS
100
AcDbCircle
 10
53.26363
 20
181.113434
 30
0.0
 40
4.0
100
AcDbArc
 50
270.0
 51
0.0
  0
LINE
  5
1DC
330
1E
100
AcDbEntity
  8
0
  6
CONTINUOUS
100
AcDbLine
 10
109.263626
 20
121.1133879999999
 30
0.0
 11
109.263626
 21
118.6133879999999
 31
0.0
  0
LINE
  5
1DD
330
1E
100
AcDbEntity
  8
0
  6
CONTINUOUS
100
AcDbLine
 10
109.263626
 20
181.113434
 30
0.0
 11
109.263626
 21
183.613434
 31
0.0
  0
LINE
  5
1DE
330
1E
100
AcDbEntity
  8
0
  6
CONTINUOUS
100
AcDbLine
 10
57.26363
 20
181.113434
 30
0.0
 11
57.26363
 21
183.6134189999999
 31
0.0
  0
LINE
  5
1DF
330
1E
100
AcDbEntity
  8
0
  6
CONTINUOUS
100
AcDbLine
 10
57.26363
 20
121.1133879999999
 30
0.0
 11
57.26363
 21
118.6133879999999
 31
0.0
  0
LINE
  5
1E0
330
1E
100
AcDbEntity
  8
0
  6
CONTINUOUS
100
AcDbLine
 10
113.2636259999999
 20
125.1133879999999
 30
0.0
 11
115.763626
 21
125.1133879999999
 31
0.0
  0
LINE
  5
1E1
330
1E
100
AcDbEntity
  8
0
  6
CONTINUOUS
100
AcDbLine
 10
113.2636259999999
 20
177.113434
 30
0.0
 11
115.763626
 21
177.113434
 31
0.0
  0
LINE
  5
1E2
330
1E
100
AcDbEntity
  8
0
  6
CONTINUOUS
100
AcDbLine
 10
53.26363
 20
177.113434
 30
0.0
 11
50.763618
 21
177.113434
 31
0.0
  0
LINE
  5
1E3
330
1E
100
AcDbEntity
  8
0
  6
CONTINUOUS
100
AcDbLine
 10
53.26361099999999
 20
125.1133879999999
 30
0.0
 11
50.763618
 21
125.1133879999999
 31
0.0
  0
ARC
  5
1E4
330
1E
100
AcDbEntity
  8
0
  6
CONTINUOUS
100
AcDbCircle
 10
106.763626
 20
183.613434
 30
0.0
 40
2.5
100
AcDbArc
 50
0.0
 51
90.0
  0
ARC
  5
1E5
330
1E
100
AcDbEntity
  8
0
  6
CONTINUOUS
100
AcDbCircle
 10
115.763626
 20
174.613419
 30
0.0
 40
2.5
100
AcDbArc
 50
0.0
 51
90.0
  0
ARC
  5
1E6
330
1E
100
AcDbEntity
  8
0
  6
CONTINUOUS
100
AcDbCircle
 10
115.763626
 20
127.6133879999999
 30
0.0
 40
2.5
100
AcDbArc
 50
270.0
 51
0.0
  0
ARC
  5
1E7
330
1E
100
AcDbEntity
  8
0
  6
CONTINUOUS
100
AcDbCircle
 10
106.763626
 20
118.6133879999999
 30
0.0
 40
2.5
100
AcDbArc
 50
270.0
 51
0.0
  0
ARC
  5
1E8
330
1E
100
AcDbEntity
  8
0
  6
CONTINUOUS
100
AcDbCircle
 10
59.76363
 20
183.613434
 30
0.0
 40
2.5
100
AcDbArc
 50
90.0
 51
180.0
  0
ARC
  5
1E9
330
1E
100
AcDbEntity
  8
0
  6
CONTINUOUS
100
AcDbCircle
 10
50.76363
 20
174.613434
 30
0.0
 40
2.5
100
AcDbArc
 50
90.0
 51
180.0
  0
ARC
  5
1EA
330
1E
100
AcDbEntity
  8
0
  6
CONTINUOUS
100
AcDbCircle
 10
59.76361800000001
 20
118.6133879999999
 30
0.0
 40
2.5
100
AcDbArc
 50
180.0
 51
270.0
  0
ARC
  5
1EB
330
1E
100
AcDbEntity
  8
0
  6
CONTINUOUS
100
AcDbCircle
 10
50.763618
 20
127.6133879999999
 30
0.0
 40
2.5
100
AcDbArc
 50
180.0
 51
270.0
  0
LINE
  5
1EC
330
1E
100
AcDbEntity
  8
0
  6
CONTINUOUS
100
AcDbLine
 10
20.26367999999999
 20
136.613297
 30
0.0
 11
20.26367999999999
 21
165.6133879999999
 31
0.0
  0
LINE
  5
1ED
330
1E
100
AcDbEntity
  8
0
  6
CONTINUOUS
100
AcDbLine
 10
28.26368
 20
136.613297
 30
0.0
 11
28.26368
 21
165.6133879999999
 31
0.0
  0
LINE
  5
1EE
330
1E
100
AcDbEntity
  8
0
  6
CONTINUOUS
100
AcDbLine
 10
20.26367999999999
 20
136.613297
 30
0.0
 11
28.26368
 21
136.613297
 31
0.0
  0
LINE
  5
1EF
330
1E
100
AcDbEntity
  8
0
  6
CONTINUOUS
100
AcDbLine
 10
20.26367999999999
 20
165.6133879999999
 30
0.0
 11
28.26368
 21
165.6133879999999
 31
0.0
  0
LINE
  5
1F0
330
1E
100
AcDbEntity
  8
0
  6
CONTINUOUS
100
AcDbLine
 10
37.26368
 20
138.1132969999999
 30
0.0
 11
37.26368
 21
164.1133879999999
 31
0.0
  0
LINE
  5
1F1
330
1E
100
AcDbEntity
  8
0
  6
CONTINUOUS
100
AcDbLine
 10
28.26368
 20
138.1132969999999
 30
0.0
 11
37.26368
 21
138.1132969999999
 31
0.0
  0
LINE
  5
1F2
330
1E
100
AcDbEntity
  8
0
  6
CONTINUOUS
100
AcDbLine
 10
28.26368
 20
164.1133879999999
 30
0.0
 11
37.26368
 21
164.1133879999999
 31
0.0
  0
LINE
  5
1F3
330
1E
100
AcDbEntity
  8
0
  6
CONTINUOUS
100
AcDbLine
 10
37.26368
 20
139.6132969999999
 30
0.0
 11
42.26367999999999
 21
139.6132969999999
 31
0.0
  0
LINE
  5
1F4
330
1E
100
AcDbEntity
  8
0
  6
CONTINUOUS
100
AcDbLine
 10
37.26368
 20
162.6133879999999
 30
0.0
 11
42.26367999999999
 21
162.6133879999999
 31
0.0
  0
LINE
  5
1F5
330
1E
100
AcDbEntity
  8
0
  6
CONTINUOUS
100
AcDbLine
 10
42.26367999999999
 20
137.613297
 30
0.0
 11
42.26367999999999
 21
164.6133879999999
 31
0.0
  0
LINE
  5
1F6
330
1E
100
AcDbEntity
  8
0
  6
CONTINUOUS
100
AcDbLine
 10
46.76368
 20
136.613297
 30
0.0
 11
46.76368
 21
165.6133879999999
 31
0.0
  0
LINE
  5
1F7
330
1E
100
AcDbEntity
  8
0
  6
CONTINUOUS
100
AcDbLine
 10
42.26367999999999
 20
137.613297
 30
0.0
 11
46.76368
 21
137.613297
 31
0.0
  0
LINE
  5
1F8
330
1E
100
AcDbEntity
  8
0
  6
CONTINUOUS
100
AcDbLine
 10
42.26367999999999
 20
164.6133879999999
 30
0.0
 11
46.76368
 21
164.6133879999999
 31
0.0
  0
LINE
  5
1F9
330
1E
100
AcDbEntity
  8
0
  6
CONTINUOUS
100
AcDbLine
 10
46.76368
 20
136.613297
 30
0.0
 11
48.302979
 21
136.613297
 31
0.0
  0
LINE
  5
1FA
330
1E
100
AcDbEntity
  8
0
  6
CONTINUOUS
100
AcDbLine
 10
46.76368
 20
165.6133879999999
 30
0.0
 11
48.26363
 21
165.6133879999999
 31
0.0
  0
LINE
  5
1FB
330
1E
100
AcDbEntity
  8
0
  6
CONTINUOUS
100
AcDbLine
 10
20.26367999999999
 20
143.1132969999999
 30
0.0
 11
28.26368
 21
143.1132969999999
 31
0.0
  0
LINE
  5
1FC
330
1E
100
AcDbEntity
  8
0
  6
CONTINUOUS
100
AcDbLine
 10
20.26367999999999
 20
159.1133879999999
 30
0.0
 11
28.26368
 21
159.1133879999999
 31
0.0
  0
LINE
  5
1FD
330
1E
100
AcDbEntity
  8
0
  6
CONTINUOUS
100
AcDbLine
 10
118.2636259999999
 20
183.613434
 30
0.0
 11
159.2636259999999
 21
183.613434
 31
0.0
  0
LINE
  5
1FE
330
1E
100
AcDbEntity
  8
0
  6
CONTINUOUS
100
AcDbLine
 10
118.2636259999999
 20
181.6134339999999
 30
0.0
 11
159.2636259999999
 21
181.6134339999999
 31
0.0
  0
LINE
  5
1FF
330
1E
100
AcDbEntity
  8
0
  6
CONTINUOUS
100
AcDbLine
 10
122.263626
 20
175.513443
 30
0.0
 11
159.2636259999999
 21
175.513443
 31
0.0
  0
LINE
  5
200
330
1E
100
AcDbEntity
  8
0
  6
CONTINUOUS
100
AcDbLine
 10
122.263626
 20
173.513443
 30
0.0
 11
159.2636259999999
 21
173.513443
 31
0.0
  0
LINE
  5
201
330
1E
100
AcDbEntity
  8
0
  6
CONTINUOUS
100
AcDbLine
 10
122.263626
 20
167.7134399999999
 30
0.0
 11
159.2636259999999
 21
167.7134399999999
 31
0.0
  0
LINE
  5
202
330
1E
100
AcDbEntity
  8
0
  6
CONTINUOUS
100
AcDbLine
 10
122.263626
 20
165.7134399999999
 30
0.0
 11
159.2636259999999
 21
165.7134399999999
 31
0.0
  0
LINE
  5
203
330
1E
100
AcDbEntity
  8
0
  6
CONTINUOUS
100
AcDbLine
 10
122.263626
 20
159.913437
 30
0.0
 11
159.2636259999999
 21
159.913437
 31
0.0
  0
LINE
  5
204
330
1E
100
AcDbEntity
  8
0
  6
CONTINUOUS
100
AcDbLine
 10
122.263626
 20
157.913437
 30
0.0
 11
159.2636259999999
 21
157.913437
 31
0.0
  0
LINE
  5
205
330
1E
100
AcDbEntity
  8
0
  6
CONTINUOUS
100
AcDbLine
 10
122.263626
 20
152.113434
 30
0.0
 11
159.2636259999999
 21
152.113434
 31
0.0
  0
LINE
  5
206
330
1E
100
AcDbEntity
  8
0
  6
CONTINUOUS
100
AcDbLine
 10
122.263626
 20
150.113434
 30
0.0
 11
159.2636259999999
 21
150.113434
 31
0.0
  0
LINE
  5
207
330
1E
100
AcDbEntity
  8
0
  6
CONTINUOUS
100
AcDbLine
 10
122.263626
 20
144.313446
 30
0.0
 11
159.2636259999999
 21
144.313446
 31
0.0
  0
LINE
  5
208
330
1E
100
AcDbEntity
  8
0
  6
CONTINUOUS
100
AcDbLine
 10
122.263626
 20
142.3134459999999
 30
0.0
 11
159.2636259999999
 21
142.3134459999999
 31
0.0
  0
LINE
  5
209
330
1E
100
AcDbEntity
  8
0
  6
CONTINUOUS
100
AcDbLine
 10
122.263626
 20
136.5134429999999
 30
0.0
 11
159.2636259999999
 21
136.5134429999999
 31
0.0
  0
LINE
  5
20A
330
1E
100
AcDbEntity
  8
0
  6
CONTINUOUS
100
AcDbLine
 10
122.263626
 20
134.5134429999999
 30
0.0
 11
159.2636259999999
 21
134.5134429999999
 31
0.0
  0
LINE
  5
20B
330
1E
100
AcDbEntity
  8
0
  6
CONTINUOUS
100
AcDbLine
 10
122.263626
 20
128.71344
 30
0.0
 11
159.2636259999999
 21
128.71344
 31
0.0
  0
LINE
  5
20C
330
1E
100
AcDbEntity
  8
0
  6
CONTINUOUS
100
AcDbLine
 10
122.263626
 20
126.7134399999999
 30
0.0
 11
159.2636259999999
 21
126.7134399999999
 31
0.0
  0
LINE
  5
20D
330
1E
100
AcDbEntity
  8
0
  6
CONTINUOUS
100
AcDbLine
 10
69.76368
 20
113.113441
 30
0.0
 11
55.26363
 21
113.113441
 31
0.0
  0
LINE
  5
20E
330
1E
100
AcDbEntity
  8
0
  6
CONTINUOUS
100
AcDbLine
 10
96.763779
 20
111.113441
 30
0.0
 11
85.76367199999999
 21
111.113441
 31
0.0
  0
LINE
  5
20F
330
1E
100
AcDbEntity
  8
0
  6
CONTINUOUS
100
AcDbLine
 10
96.26377900000001
 20
104.113441
 30
0.0
 11
84.051193
 21
104.113441
 31
0.0
  0
LINE
  5
210
330
1E
100
AcDbEntity
  8
0
  6
CONTINUOUS
100
AcDbLine
 10
71.76368
 20
106.1134409999999
 30
0.0
 11
55.26363
 21
106.1134409999999
 31
0.0
  0
LINE
  5
211
330
1E
100
AcDbEntity
  8
0
  6
CONTINUOUS
100
AcDbLine
 10
97.76377899999999
 20
93.61344100000001
 30
0.0
 11
43.26367100084303
 21
93.61344100000001
 31
0.0
  0
LINE
  5
212
330
1E
100
AcDbEntity
  8
0
  6
CENTER
100
AcDbLine
 10
83.26362600000001
 20
188.988434
 30
0.0
 11
83.26362600000001
 21
107.3634409999999
 31
0.0
  0
LINE
  5
213
330
1E
100
AcDbEntity
  8
0
  6
CONTINUOUS
100
AcDbLine
 10
604.2636719999999
 20
117.1604309999999
 30
0.0
 11
564.763611
 21
116.113312
 31
0.0
  0
LINE
  5
214
330
1E
100
AcDbEntity
  8
0
  6
CONTINUOUS
100
AcDbLine
 10
558.763611
 20
118.613312
 30
0.0
 11
558.763611
 21
150.613312
 31
0.0
  0
LINE
  5
215
330
1E
100
AcDbEntity
  8
0
  6
CONTINUOUS
100
AcDbLine
 10
561.2636110000001
 20
116.113312
 30
0.0
 11
563.763611
 21
116.113312
 31
0.0
  0
LINE
  5
216
330
1E
100
AcDbEntity
  8
0
  6
CONTINUOUS
100
AcDbLine
 10
563.763611
 20
116.113312
 30
0.0
 11
564.763611
 21
116.113312
 31
0.0
  0
LINE
  5
217
330
1E
100
AcDbEntity
  8
0
  6
CONTINUOUS
100
AcDbLine
 10
561.7636110000001
 20
124.6262509999999
 30
0.0
 11
561.7636110000001
 21
117.113312
 31
0.0
  0
LINE
  5
218
330
1E
100
AcDbEntity
  8
0
  6
CONTINUOUS
100
AcDbLine
 10
561.276733
 20
125.126129
 30
0.0
 11
559.7374269999999
 21
125.166412
 31
0.0
  0
ARC
  5
219
330
1E
100
AcDbEntity
  8
0
  6
CONTINUOUS
100
AcDbCircle
 10
559.763611
 20
126.1660389999999
 30
0.0
 40
1.0
100
AcDbArc
 50
180.0
 51
268.4996029999999
  0
ARC
  5
21A
330
1E
100
AcDbEntity
  8
0
  6
CONTINUOUS
100
AcDbCircle
 10
561.2636110000001
 20
124.6262509999999
 30
0.0
 40
0.5
100
AcDbArc
 50
0.0
 51
88.49980200000002
  0
ARC
  5
21B
330
1E
100
AcDbEntity
  8
0
  6
CONTINUOUS
100
AcDbCircle
 10
562.763611
 20
117.113312
 30
0.0
 40
1.0
100
AcDbArc
 50
180.0
 51
270.0
  0
ARC
  5
21C
330
1E
100
AcDbEntity
  8
0
  6
CONTINUOUS
100
AcDbCircle
 10
561.2636110000001
 20
118.613312
 30
0.0
 40
2.5
100
AcDbArc
 50
180.0
 51
270.0
  0
ARC
  5
21D
330
1E
100
AcDbEntity
  8
0
  6
CONTINUOUS
100
AcDbCircle
 10
561.7636110000001
 20
121.113312
 30
0.0
 40
3.0
100
AcDbArc
 50
90.0
 51
270.0
  0
LINE
  5
21E
330
1E
100
AcDbEntity
  8
0
  6
CONTINUOUS
100
AcDbLine
 10
561.2636110000001
 20
124.07132
 30
0.0
 11
561.2636110000001
 21
118.155304
 31
0.0
  0
LINE
  5
21F
330
1E
100
AcDbEntity
  8
0
  6
CONTINUOUS
100
AcDbLine
 10
559.263611
 20
121.113312
 30
0.0
 11
558.7768549999999
 21
120.832245
 31
0.0
  0
LINE
  5
220
330
1E
100
AcDbEntity
  8
0
  6
CONTINUOUS
100
AcDbLine
 10
559.263611
 20
121.113312
 30
0.0
 11
558.7768549999999
 21
121.3944399999999
 31
0.0
  0
LINE
  5
221
330
1E
100
AcDbEntity
  8
0
  6
CENTER
100
AcDbLine
 10
580.763611
 20
193.570312
 30
0.0
 11
580.763611
 21
106.424026
 31
0.0
  0
LINE
  5
222
330
1E
100
AcDbEntity
  8
0
  6
CONTINUOUS
100
AcDbLine
 10
563.763611
 20
150.613312
 30
0.0
 11
563.763611
 21
116.113312
 31
0.0
  0
LINE
  5
223
330
1E
100
AcDbEntity
  8
0
  6
CONTINUOUS
100
AcDbLine
 10
564.763611
 20
150.613312
 30
0.0
 11
564.763611
 21
116.113312
 31
0.0
  0
LINE
  5
229
330
1E
100
AcDbEntity
  8
0
  6
CONTINUOUS
100
AcDbLine
 10
55.263943
 20
559.9082639999998
 30
0.0
 11
55.263943
 21
528.408203
 31
0.0
  0
LINE
  5
22A
330
1E
100
AcDbEntity
  8
0
  6
CONTINUOUS
100
AcDbLine
 10
55.263943
 20
444.908295
 30
0.0
 11
43.26376299850858
 21
444.908295
 31
0.0
  0
LINE
  5
22B
330
1E
100
AcDbEntity
  8
0
  6
CONTINUOUS
100
AcDbLine
 10
55.263943
 20
444.908295
 30
0.0
 11
55.263943
 21
476.408386
 31
0.0
  0
ARC
  5
235
330
1E
100
AcDbEntity
  8
0
  6
CONTINUOUS
100
AcDbCircle
 10
56.26394300000001
 20
447.40918
 30
0.0
 40
1.0
100
AcDbArc
 50
180.0
 51
270.0
  0
LINE
  5
241
330
1E
100
AcDbEntity
  8
0
  6
CONTINUOUS
100
AcDbLine
 10
55.263588
 20
202.3994599999999
 30
0.0
 11
55.263588
 21
198.113434
 31
0.0
  0
LINE
  5
242
330
1E
100
AcDbEntity
  8
0
  6
CONTINUOUS
100
AcDbLine
 10
55.263588
 20
101.0734409999999
 30
0.0
 11
55.263588
 21
104.113441
 31
0.0
  0
LINE
  5
243
330
1E
100
AcDbEntity
  8
0
  6
CONTINUOUS
100
AcDbLine
 10
55.263588
 20
196.113434
 30
0.0
 11
55.263588
 21
191.113434
 31
0.0
  0
LINE
  5
244
330
1E
100
AcDbEntity
  8
0
  6
CONTINUOUS
100
AcDbLine
 10
55.263588
 20
189.113434
 30
0.0
 11
55.263588
 21
186.113434
 31
0.0
  0
LINE
  5
245
330
1E
100
AcDbEntity
  8
0
  6
CONTINUOUS
100
AcDbLine
 10
55.263588
 20
116.1133879999999
 30
0.0
 11
55.263588
 21
113.113441
 31
0.0
  0
LINE
  5
246
330
1E
100
AcDbEntity
  8
0
  6
CONTINUOUS
100
AcDbLine
 10
55.263588
 20
111.113441
 30
0.0
 11
55.263588
 21
106.1134409999999
 31
0.0
  0
LINE
  5
24B
330
1E
100
AcDbEntity
  8
0
  6
CONTINUOUS
100
AcDbLine
 10
55.01363000000001
 20
181.513428
 30
0.0
 11
55.01363000000001
 21
180.713409
 31
0.0
  0
LINE
  5
24C
330
1E
100
AcDbEntity
  8
0
  6
CONTINUOUS
100
AcDbLine
 10
52.863605
 20
182.863434
 30
0.0
 11
53.66362399999999
 21
182.863434
 31
0.0
  0
LINE
  5
24D
330
1E
100
AcDbEntity
  8
0
  6
CONTINUOUS
100
AcDbLine
 10
52.863605
 20
179.363434
 30
0.0
 11
53.66362399999999
 21
179.363434
 31
0.0
  0
LINE
  5
24E
330
1E
100
AcDbEntity
  8
0
  6
CONTINUOUS
100
AcDbLine
 10
51.51362999999999
 20
181.513428
 30
0.0
 11
51.51362999999999
 21
180.713409
 31
0.0
  0
CIRCLE
  5
24F
330
1E
100
AcDbEntity
  8
0
  6
CONTINUOUS
100
AcDbCircle
 10
53.26363
 20
181.113434
 30
0.0
 40
2.75
  0
ARC
  5
250
330
1E
100
AcDbEntity
  8
0
  6
CONTINUOUS
100
AcDbCircle
 10
51.51362999999999
 20
182.863434
 30
0.0
 40
1.35
100
AcDbArc
 50
270.0
 51
0.0
  0
ARC
  5
251
330
1E
100
AcDbEntity
  8
0
  6
CONTINUOUS
100
AcDbCircle
 10
51.51362999999999
 20
179.363434
 30
0.0
 40
1.35
100
AcDbArc
 50
0.0
 51
90.0
  0
ARC
  5
252
330
1E
100
AcDbEntity
  8
0
  6
CONTINUOUS
100
AcDbCircle
 10
55.01363000000001
 20
182.863434
 30
0.0
 40
1.35
100
AcDbArc
 50
180.0
 51
270.0
  0
ARC
  5
253
330
1E
100
AcDbEntity
  8
0
  6
CONTINUOUS
100
AcDbCircle
 10
55.01363000000001
 20
179.363434
 30
0.0
 40
1.35
100
AcDbArc
 50
90.0
 51
180.0
  0
LINE
  5
254
330
1E
100
AcDbEntity
  8
0
  6
CONTINUOUS
100
AcDbLine
 10
115.013626
 20
181.513428
 30
0.0
 11
115.013626
 21
180.713409
 31
0.0
  0
LINE
  5
255
330
1E
100
AcDbEntity
  8
0
  6
CONTINUOUS
100
AcDbLine
 10
112.863602
 20
182.863434
 30
0.0
 11
113.6636199999999
 21
182.863434
 31
0.0
  0
LINE
  5
256
330
1E
100
AcDbEntity
  8
0
  6
CONTINUOUS
100
AcDbLine
 10
112.863602
 20
179.363434
 30
0.0
 11
113.6636199999999
 21
179.363434
 31
0.0
  0
LINE
  5
257
330
1E
100
AcDbEntity
  8
0
  6
CONTINUOUS
100
AcDbLine
 10
111.513626
 20
181.513428
 30
0.0
 11
111.513626
 21
180.713409
 31
0.0
  0
CIRCLE
  5
258
330
1E
100
AcDbEntity
  8
0
  6
CONTINUOUS
100
AcDbCircle
 10
113.2636259999999
 20
181.113434
 30
0.0
 40
2.75
  0
ARC
  5
259
330
1E
100
AcDbEntity
  8
0
  6
CONTINUOUS
100
AcDbCircle
 10
111.513626
 20
182.863434
 30
0.0
 40
1.35
100
AcDbArc
 50
270.0
 51
0.0
  0
ARC
  5
25A
330
1E
100
AcDbEntity
  8
0
  6
CONTINUOUS
100
AcDbCircle
 10
111.513626
 20
179.363434
 30
0.0
 40
1.35
100
AcDbArc
 50
0.0
 51
90.0
  0
ARC
  5
25B
330
1E
100
AcDbEntity
  8
0
  6
CONTINUOUS
100
AcDbCircle
 10
115.013626
 20
182.863434
 30
0.0
 40
1.35
100
AcDbArc
 50
180.0
 51
270.0
  0
ARC
  5
25C
330
1E
100
AcDbEntity
  8
0
  6
CONTINUOUS
100
AcDbCircle
 10
115.013626
 20
179.363434
 30
0.0
 40
1.35
100
AcDbArc
 50
90.0
 51
180.0
  0
LINE
  5
25D
330
1E
100
AcDbEntity
  8
0
  6
CONTINUOUS
100
AcDbLine
 10
55.01363000000001
 20
121.513382
 30
0.0
 11
55.01363000000001
 21
120.7133639999999
 31
0.0
  0
LINE
  5
25E
330
1E
100
AcDbEntity
  8
0
  6
CONTINUOUS
100
AcDbLine
 10
52.863605
 20
122.8633879999999
 30
0.0
 11
53.66362399999999
 21
122.8633879999999
 31
0.0
  0
LINE
  5
25F
330
1E
100
AcDbEntity
  8
0
  6
CONTINUOUS
100
AcDbLine
 10
52.863605
 20
119.3633879999999
 30
0.0
 11
53.66362399999999
 21
119.3633879999999
 31
0.0
  0
LINE
  5
260
330
1E
100
AcDbEntity
  8
0
  6
CONTINUOUS
100
AcDbLine
 10
51.51362999999999
 20
121.513382
 30
0.0
 11
51.51362999999999
 21
120.7133639999999
 31
0.0
  0
CIRCLE
  5
261
330
1E
100
AcDbEntity
  8
0
  6
CONTINUOUS
100
AcDbCircle
 10
53.26363
 20
121.1133879999999
 30
0.0
 40
2.75
  0
ARC
  5
262
330
1E
100
AcDbEntity
  8
0
  6
CONTINUOUS
100
AcDbCircle
 10
51.51362999999999
 20
122.8633879999999
 30
0.0
 40
1.35
100
AcDbArc
 50
270.0
 51
0.0
  0
ARC
  5
263
330
1E
100
AcDbEntity
  8
0
  6
CONTINUOUS
100
AcDbCircle
 10
51.51362999999999
 20
119.3633879999999
 30
0.0
 40
1.35
100
AcDbArc
 50
0.0
 51
90.0
  0
ARC
  5
264
330
1E
100
AcDbEntity
  8
0
  6
CONTINUOUS
100
AcDbCircle
 10
55.01363000000001
 20
122.8633879999999
 30
0.0
 40
1.35
100
AcDbArc
 50
180.0
 51
270.0
  0
ARC
  5
265
330
1E
100
AcDbEntity
  8
0
  6
CONTINUOUS
100
AcDbCircle
 10
55.01363000000001
 20
119.3633879999999
 30
0.0
 40
1.35
100
AcDbArc
 50
90.0
 51
180.0
  0
LINE
  5
266
330
1E
100
AcDbEntity
  8
0
  6
CONTINUOUS
100
AcDbLine
 10
115.013626
 20
121.513382
 30
0.0
 11
115.013626
 21
120.7133639999999
 31
0.0
  0
LINE
  5
267
330
1E
100
AcDbEntity
  8
0
  6
CONTINUOUS
100
AcDbLine
 10
112.863602
 20
122.8633879999999
 30
0.0
 11
113.6636199999999
 21
122.8633879999999
 31
0.0
  0
LINE
  5
268
330
1E
100
AcDbEntity
  8
0
  6
CONTINUOUS
100
AcDbLine
 10
112.863602
 20
119.3633879999999
 30
0.0
 11
113.6636199999999
 21
119.3633879999999
 31
0.0
  0
LINE
  5
269
330
1E
100
AcDbEntity
  8
0
  6
CONTINUOUS
100
AcDbLine
 10
111.513626
 20
121.513382
 30
0.0
 11
111.513626
 21
120.7133639999999
 31
0.0
  0
CIRCLE
  5
26A
330
1E
100
AcDbEntity
  8
0
  6
CONTINUOUS
100
AcDbCircle
 10
113.2636259999999
 20
121.1133879999999
 30
0.0
 40
2.75
  0
ARC
  5
26B
330
1E
100
AcDbEntity
  8
0
  6
CONTINUOUS
100
AcDbCircle
 10
111.513626
 20
122.8633879999999
 30
0.0
 40
1.35
100
AcDbArc
 50
270.0
 51
0.0
  0
ARC
  5
26C
330
1E
100
AcDbEntity
  8
0
  6
CONTINUOUS
100
AcDbCircle
 10
111.513626
 20
119.3633879999999
 30
0.0
 40
1.35
100
AcDbArc
 50
0.0
 51
90.0
  0
ARC
  5
26D
330
1E
100
AcDbEntity
  8
0
  6
CONTINUOUS
100
AcDbCircle
 10
115.013626
 20
122.8633879999999
 30
0.0
 40
1.35
100
AcDbArc
 50
180.0
 51
270.0
  0
ARC
  5
26E
330
1E
100
AcDbEntity
  8
0
  6
CONTINUOUS
100
AcDbCircle
 10
115.013626
 20
119.3633879999999
 30
0.0
 40
1.35
100
AcDbArc
 50
90.0
 51
180.0
  0
LINE
  5
26F
330
1E
100
AcDbEntity
  8
0
  6
CONTINUOUS
100
AcDbLine
 10
85.76367199999999
 20
111.1150209999999
 30
0.0
 11
85.76367199999999
 21
116.115013
 31
0.0
  0
LINE
  5
270
330
1E
100
AcDbEntity
  8
0
  6
CONTINUOUS
100
AcDbLine
 10
80.76367199999999
 20
111.0734409999999
 30
0.0
 11
80.76367199999999
 21
116.115013
 31
0.0
  0
ARC
  5
271
330
1E
100
AcDbEntity
  8
0
  6
CONTINUOUS
100
AcDbCircle
 10
70.76367199999999
 20
111.0734409999999
 30
0.0
 40
10.0
100
AcDbArc
 50
270.0
 51
0.0
  0
ARC
  5
272
330
1E
100
AcDbEntity
  8
0
  6
CONTINUOUS
100
AcDbCircle
 10
70.76367199999999
 20
111.0734409999999
 30
0.0
 40
15.0
100
AcDbArc
 50
270.0
 51
0.158824
  0
LINE
  5
273
330
1E
100
AcDbEntity
  8
0
  6
CONTINUOUS
100
AcDbLine
 10
70.76367199999999
 20
101.0734409999999
 30
0.0
 11
43.26367100084303
 21
101.0734409999999
 31
0.0
  0
LINE
  5
274
330
1E
100
AcDbEntity
  8
0
  6
CONTINUOUS
100
AcDbLine
 10
70.76367199999999
 20
96.073441
 30
0.0
 11
43.26367100084303
 21
96.073441
 31
0.0
  0
LINE
  5
275
330
1E
100
AcDbEntity
  8
0
  6
CONTINUOUS
100
AcDbLine
 10
77.944084
 20
104.113441
 30
0.0
 11
55.26363
 21
104.113441
 31
0.0
  0
LINE
  5
276
330
1E
100
AcDbEntity
  8
0
  6
CONTINUOUS
100
AcDbLine
 10
79.446892
 20
106.1134409999999
 30
0.0
 11
71.76368
 21
106.1134409999999
 31
0.0
  0
LINE
  5
277
330
1E
100
AcDbEntity
  8
0
  6
CONTINUOUS
100
AcDbLine
 10
80.76367199999999
 20
111.113441
 30
0.0
 11
55.26363
 21
111.113441
 31
0.0
  0
LINE
  5
278
330
1E
100
AcDbEntity
  8
0
  6
CONTINUOUS
100
AcDbLine
 10
80.76367199999999
 20
113.113441
 30
0.0
 11
69.76368
 21
113.113441
 31
0.0
  0
TEXT
  5
279
330
1E
100
AcDbEntity
  8
0
100
AcDbText
 10
-30.0
 20
-43.0
 30
0.0
 40
4.0
  1
H2LB-40R-600~1500-T020WZ
100
AcDbText
  0
ARC
  5
2D4
330
1E
100
AcDbEntity
  8
1
  6
CONTINUOUS
 62
     7
100
AcDbCircle
 10
330.7437739985084
 20
502.4110410000002
 30
0.0
 40
325.0
100
AcDbArc
 50
168.2279455165586
 51
191.7720517696801
  0
LINE
  5
2D5
330
1E
100
AcDbEntity
  8
1
  6
CONTINUOUS
 62
     7
100
AcDbLine
 10
43.26376299850858
 20
568.9110560000002
 30
0.0
 11
43.26376299850858
 21
435.9110410000003
 31
0.0
  0
ARC
  5
2D6
330
1E
100
AcDbEntity
  8
1
  6
CONTINUOUS
 62
     7
100
AcDbCircle
 10
3.832061998508379
 20
553.9100799999996
 30
0.0
 40
12.0
100
AcDbArc
 50
90.0
 51
170.9665069999955
  0
LINE
  5
2E8
330
1E
100
AcDbEntity
  8
1
  6
CONTINUOUS
 62
     7
100
AcDbLine
 10
43.26367100084303
 20
91.122116
 30
0.0
 11
43.26367100084303
 21
137.6132969999999
 31
0.0
  0
ARC
  5
2E9
330
1E
100
AcDbEntity
  8
1
  6
CONTINUOUS
 62
     7
100
AcDbCircle
 10
-312.2363249991592
 20
151.1133269999997
 30
0.0
 40
325.0000000000022
100
AcDbArc
 50
349.395881620111
 51
11.66235952465123
  0
ARC
  5
2EA
330
1E
100
AcDbEntity
  8
1
  6
CONTINUOUS
 62
     7
100
AcDbCircle
 10
327.763641000843
 20
151.1123499999998
 30
0.0
 40
340.0
100
AcDbArc
 50
170.9665069999955
 51
189.6212784361565
  0
LINE
  5
2EB
330
1E
100
AcDbEntity
  8
1
  6
CONTINUOUS
100
AcDbLine
 10
42.25494446534457
 20
90.12215407693588
 30
0.0
 11
-2.524260625142687
 21
90.12215407693588
 31
0.0
  0
ARC
  5
2EC
330
1E
100
AcDbEntity
  8
1
  6
CONTINUOUS
100
AcDbCircle
 10
-2.524260625142801
 20
95.12215407693588
 30
0.0
 40
5.0
100
AcDbArc
 50
189.6212784361565
 51
270.0
  0
ARC
  5
2ED
330
1E
100
AcDbEntity
  8
1
  6
CONTINUOUS
100
AcDbCircle
 10
8.196287528524067
 20
91.12215407693566
 30
0.0
 40
1.0
100
AcDbArc
 50
169.395881620111
 51
270.0
  0
ARC
  5
2EE
330
1E
100
AcDbEntity
  8
1
  6
CONTINUOUS
 62
     7
100
AcDbCircle
 10
42.26367100084291
 20
91.122116
 30
0.0
 40
1.0
100
AcDbArc
 50
269.5000000000019
 51
0.0
  0
ARC
  5
2EF
330
1E
100
AcDbEntity
  8
1
  6
CONTINUOUS
 62
     7
100
AcDbCircle
 10
3.831970000842943
 20
202.6123499999998
 30
0.0
 40
12.0
100
AcDbArc
 50
90.0
 51
170.9665069999955
  0
LINE
  5
2F1
330
1E
100
AcDbEntity
  8
1
  6
CONTINUOUS
100
AcDbLine
 10
42.26367100084303
 20
218.613327
 30
0.0
 11
7.523350382214402
 21
218.613327
 31
0.0
  0
ARC
  5
2F2
330
1E
100
AcDbEntity
  8
1
  6
CONTINUOUS
 62
     7
100
AcDbCircle
 10
5.278838000842938
 20
215.6123499999998
 30
0.0
 40
1.0
100
AcDbArc
 50
270.0
 51
11.48264199999979
  0
LINE
  5
2F3
330
1E
100
AcDbEntity
  8
1
  6
CONTINUOUS
 62
     7
100
AcDbLine
 10
3.831970000843057
 20
214.6123499999998
 30
0.0
 11
5.278838000843052
 21
214.6123499999998
 31
0.0
  0
ARC
  5
2F4
330
1E
100
AcDbEntity
  8
1
  6
CONTINUOUS
100
AcDbCircle
 10
7.523350382214289
 20
217.113327
 30
0.0
 40
1.5
100
AcDbArc
 50
90.0
 51
191.6623595246512
  0
ARC
  5
2F5
330
1E
100
AcDbEntity
  8
1
  6
CONTINUOUS
 62
     7
100
AcDbCircle
 10
42.26367100084291
 20
217.613327
 30
0.0
 40
1.0
100
AcDbArc
 50
0.0
 51
90.0
  0
ARC
  5
2F8
330
1E
100
AcDbEntity
  8
1
  6
CONTINUOUS
 62
     7
100
AcDbCircle
 10
327.7637329985086
 20
502.412048
 30
0.0
 40
340.0
100
AcDbArc
 50
170.9665069999955
 51
189.0334930000044
  0
ARC
  5
2F9
330
1E
100
AcDbEntity
  8
1
  6
CONTINUOUS
 62
     7
100
AcDbCircle
 10
3.832061998508379
 20
450.9120479999997
 30
0.0
 40
12.0
100
AcDbArc
 50
189.0334930000044
 51
270.0
  0
LINE
  5
2FA
330
1E
100
AcDbEntity
  8
1
  6
CONTINUOUS
100
AcDbLine
 10
42.26376299850858
 20
434.9110410000004
 30
0.0
 11
14.04794200825335
 21
434.9110410000001
 31
0.0
  0
LINE
  5
2FB
330
1E
100
AcDbEntity
  8
1
  6
CONTINUOUS
 62
     7
100
AcDbLine
 10
3.832061998508606
 20
438.912048
 30
0.0
 11
11.18801899850859
 21
438.912048
 31
0.0
  0
ARC
  5
2FC
330
1E
100
AcDbEntity
  8
1
  6
CONTINUOUS
100
AcDbCircle
 10
14.04794200825335
 20
436.4110409999998
 30
0.0
 40
1.5
100
AcDbArc
 50
191.7720517696928
 51
270.0
  0
ARC
  5
2FD
330
1E
100
AcDbEntity
  8
1
  6
CONTINUOUS
 62
     7
100
AcDbCircle
 10
11.18801899850859
 20
437.9120479999996
 30
0.0
 40
1.0
100
AcDbArc
 50
11.41125500000288
 51
90.0
  0
ARC
  5
2FE
330
1E
100
AcDbEntity
  8
1
  6
CONTINUOUS
 62
     7
100
AcDbCircle
 10
42.26376299850835
 20
435.911041
 30
0.0
 40
1.0
100
AcDbArc
 50
270.0
 51
0.0
  0
LINE
  5
31E
330
1E
100
AcDbEntity
  8
1
  6
CONTINUOUS
100
AcDbLine
 10
42.26376299850858
 20
569.9110560000002
 30
0.0
 11
14.04794513428169
 21
569.9110559999998
 31
0.0
  0
ARC
  5
31F
330
1E
100
AcDbEntity
  8
1
  6
CONTINUOUS
100
AcDbCircle
 10
14.04794513428169
 20
568.4110559999999
 30
0.0
 40
1.5
100
AcDbArc
 50
90.0
 51
168.2279455165586
  0
LINE
  5
320
330
1E
100
AcDbEntity
  8
1
  6
CONTINUOUS
 62
     7
100
AcDbLine
 10
3.832061998508606
 20
565.91008
 30
0.0
 11
11.18801899850859
 21
565.91008
 31
0.0
  0
ARC
  5
321
330
1E
100
AcDbEntity
  8
1
  6
CONTINUOUS
 62
     7
100
AcDbCircle
 10
11.18801899850859
 20
566.9100799999996
 30
0.0
 40
1.0
100
AcDbArc
 50
270.0
 51
348.5887449999971
  0
ARC
  5
322
330
1E
100
AcDbEntity
  8
1
  6
CONTINUOUS
 62
     7
100
AcDbCircle
 10
42.26376299850835
 20
568.9110560000001
 30
0.0
 40
1.0
100
AcDbArc
 50
0.0
 51
90.0
  0
LINE
  5
32C
330
1E
100
AcDbEntity
  8
0
  6
CONTINUOUS
100
AcDbLine
 10
47.26362599999998
 20
208.6133269999999
 30
0.0
 11
47.26362599999998
 21
165.6133879999999
 31
0.0
  0
LINE
  5
32D
330
1E
100
AcDbEntity
  8
0
  6
CONTINUOUS
100
AcDbLine
 10
47.263947
 20
559.9082639999998
 30
0.0
 11
47.263947
 21
444.908295
 31
0.0
  0
LINE
  5
32E
330
1E
100
AcDbEntity
  8
0
  6
CONTINUOUS
100
AcDbLine
 10
47.26362599999998
 20
136.613297
 30
0.0
 11
47.26362599999999
 21
101.0734409999999
 31
0.0
  0
LINE
  5
32F
330
1E
100
AcDbEntity
  8
1
  6
CONTINUOUS
 62
     7
100
AcDbLine
 10
43.26367100084303
 20
164.6133879999999
 30
0.0
 11
43.26367100084303
 21
217.613327
 31
0.0
  0
LINE
  5
330
330
1E
100
AcDbEntity
  8
0
  6
CONTINUOUS
100
AcDbLine
 10
47.26362599999999
 20
96.073441
 30
0.0
 11
47.26362599999998
 21
93.613327
 31
0.0
  0
ENDSEC
  0
SECTION
  2
OBJECTS
  0
DICTIONARY
  5
C
330
0
100
AcDbDictionary
  3
ACAD_GROUP
350
D
  3
ACAD_LAYOUT
350
19
  3
ACAD_MLINESTYLE
350
16
  3
ACAD_PLOTSETTINGS
350
18
  3
ACAD_PLOTSTYLENAME
350
E
  3
ACDBHEADERROUNDTRIPXREC
350
33F
  3
ACDBVARIABLEDICTIONARY
350
33C
  0
DICTIONARY
  5
361
330
1E
100
AcDbDictionary
280
     1
  3
ACAD_LAYOUTSELFREF
360
362
  0
DICTIONARY
  5
35F
330
1A
100
AcDbDictionary
280
     1
  3
ACAD_LAYOUTSELFREF
360
360
  0
DICTIONARY
  5
D
102
{ACAD_REACTORS
330
C
102
}
330
C
100
AcDbDictionary
  0
DICTIONARY
  5
19
102
{ACAD_REACTORS
330
C
102
}
330
C
100
AcDbDictionary
  0
DICTIONARY
  5
16
102
{ACAD_REACTORS
330
C
102
}
330
C
100
AcDbDictionary
  3
STANDARD
350
17
  0
DICTIONARY
  5
18
102
{ACAD_REACTORS
330
C
102
}
330
C
100
AcDbDictionary
  0
ACDBDICTIONARYWDFLT
  5
E
102
{ACAD_REACTORS
330
C
102
}
330
C
100
AcDbDictionary
281
     1
  3
Normal
350
F
100
AcDbDictionaryWithDefault
340
F
  0
DICTIONARY
  5
33F
102
{ACAD_REACTORS
330
C
102
}
330
C
100
AcDbDictionary
  3
CEPSNTYPE
350
349
  3
FINGERPRINTGUID
350
34A
  3
HYPERLINKBASE
350
342
  3
INSUNITS
350
348
  3
LAYOUTDICT
350
344
  3
LWETCUNION
350
347
  3
PLOTSETDICT
350
345
  3
PLOTSTYLNAMDICT
350
346
  3
PSVPSCALE
350
34C
  3
PUCSBASE
350
34F
  3
PUCSORGBACK
350
355
  3
PUCSORGBOTTOM
350
351
  3
PUCSORGFRONT
350
354
  3
PUCSORGLEFT
350
352
  3
PUCSORGRIGHT
350
353
  3
PUCSORGTOP
350
350
  3
PUCSORTHOREF
350
34D
  3
PUCSORTHOVIEW
350
34E
  3
STYLESHEET
350
343
  3
TSTACKALIGN
350
340
  3
TSTACKSIZE
350
341
  3
UCSBASE
350
358
  3
UCSORGBACK
350
35E
  3
UCSORGBOTTOM
350
35A
  3
UCSORGFRONT
350
35D
  3
UCSORGLEFT
350
35B
  3
UCSORGRIGHT
350
35C
  3
UCSORGTOP
350
359
  3
UCSORTHOREF
350
356
  3
UCSORTHOVIEW
350
357
  3
VERSIONGUID
350
34B
  0
DICTIONARY
  5
33C
102
{ACAD_REACTORS
330
C
102
}
330
C
100
AcDbDictionary
  3
DIMASSOC
350
33D
  0
XRECORD
  5
362
102
{ACAD_REACTORS
330
361
102
}
330
361
100
AcDbXrecord
340
1E
  0
XRECORD
  5
360
102
{ACAD_REACTORS
330
35F
102
}
330
35F
100
AcDbXrecord
340
1A
  0
MLINESTYLE
  5
17
102
{ACAD_REACTORS
330
16
102
}
330
16
100
AcDbMlineStyle
  2
STANDARD
 70
     0
  3

 62
   256
 51
90.0
 52
90.0
 71
     2
 49
0.5
 62
   256
  6
BYLAYER
 49
-0.5
 62
   256
  6
BYLAYER
  0
ACDBPLACEHOLDER
  5
F
102
{ACAD_REACTORS
330
E
102
}
330
E
100
AcDbPlaceHolder
280
     0
  0
XRECORD
  5
349
102
{ACAD_REACTORS
330
33F
102
}
330
33F
100
AcDbXrecord
 90
        0
  0
XRECORD
  5
34A
102
{ACAD_REACTORS
330
33F
102
}
330
33F
100
AcDbXrecord
  1
{80AD1BE2-9E47-4453-BC6B-4FF05490DACD}
  0
XRECORD
  5
342
102
{ACAD_REACTORS
330
33F
102
}
330
33F
100
AcDbXrecord
  1

  0
XRECORD
  5
348
102
{ACAD_REACTORS
330
33F
102
}
330
33F
100
AcDbXrecord
 90
        0
  0
XRECORD
  5
344
102
{ACAD_REACTORS
330
33F
102
}
330
33F
100
AcDbXrecord
340
19
  0
XRECORD
  5
347
102
{ACAD_REACTORS
330
33F
102
}
330
33F
100
AcDbXrecord
 90
    10781
  0
XRECORD
  5
345
102
{ACAD_REACTORS
330
33F
102
}
330
33F
100
AcDbXrecord
340
18
  0
XRECORD
  5
346
102
{ACAD_REACTORS
330
33F
102
}
330
33F
100
AcDbXrecord
340
E
  0
XRECORD
  5
34C
102
{ACAD_REACTORS
330
33F
102
}
330
33F
100
AcDbXrecord
 40
0.0
  0
XRECORD
  5
34F
102
{ACAD_REACTORS
330
33F
102
}
330
33F
100
AcDbXrecord
340
0
  0
XRECORD
  5
355
102
{ACAD_REACTORS
330
33F
102
}
330
33F
100
AcDbXrecord
 10
0.0
 20
0.0
 30
0.0
  0
XRECORD
  5
351
102
{ACAD_REACTORS
330
33F
102
}
330
33F
100
AcDbXrecord
 10
0.0
 20
0.0
 30
0.0
  0
XRECORD
  5
354
102
{ACAD_REACTORS
330
33F
102
}
330
33F
100
AcDbXrecord
 10
0.0
 20
0.0
 30
0.0
  0
XRECORD
  5
352
102
{ACAD_REACTORS
330
33F
102
}
330
33F
100
AcDbXrecord
 10
0.0
 20
0.0
 30
0.0
  0
XRECORD
  5
353
102
{ACAD_REACTORS
330
33F
102
}
330
33F
100
AcDbXrecord
 10
0.0
 20
0.0
 30
0.0
  0
XRECORD
  5
350
102
{ACAD_REACTORS
330
33F
102
}
330
33F
100
AcDbXrecord
 10
0.0
 20
0.0
 30
0.0
  0
XRECORD
  5
34D
102
{ACAD_REACTORS
330
33F
102
}
330
33F
100
AcDbXrecord
340
0
  0
XRECORD
  5
34E
102
{ACAD_REACTORS
330
33F
102
}
330
33F
100
AcDbXrecord
 70
     0
  0
XRECORD
  5
343
102
{ACAD_REACTORS
330
33F
102
}
330
33F
100
AcDbXrecord
  1

  0
XRECORD
  5
340
102
{ACAD_REACTORS
330
33F
102
}
330
33F
100
AcDbXrecord
 90
        1
  0
XRECORD
  5
341
102
{ACAD_REACTORS
330
33F
102
}
330
33F
100
AcDbXrecord
 90
       70
  0
XRECORD
  5
358
102
{ACAD_REACTORS
330
33F
102
}
330
33F
100
AcDbXrecord
340
0
  0
XRECORD
  5
35E
102
{ACAD_REACTORS
330
33F
102
}
330
33F
100
AcDbXrecord
 10
0.0
 20
0.0
 30
0.0
  0
XRECORD
  5
35A
102
{ACAD_REACTORS
330
33F
102
}
330
33F
100
AcDbXrecord
 10
0.0
 20
0.0
 30
0.0
  0
XRECORD
  5
35D
102
{ACAD_REACTORS
330
33F
102
}
330
33F
100
AcDbXrecord
 10
0.0
 20
0.0
 30
0.0
  0
XRECORD
  5
35B
102
{ACAD_REACTORS
330
33F
102
}
330
33F
100
AcDbXrecord
 10
0.0
 20
0.0
 30
0.0
  0
XRECORD
  5
35C
102
{ACAD_REACTORS
330
33F
102
}
330
33F
100
AcDbXrecord
 10
0.0
 20
0.0
 30
0.0
  0
XRECORD
  5
359
102
{ACAD_REACTORS
330
33F
102
}
330
33F
100
AcDbXrecord
 10
0.0
 20
0.0
 30
0.0
  0
XRECORD
  5
356
102
{ACAD_REACTORS
330
33F
102
}
330
33F
100
AcDbXrecord
340
0
  0
XRECORD
  5
357
102
{ACAD_REACTORS
330
33F
102
}
330
33F
100
AcDbXrecord
 70
     0
  0
XRECORD
  5
34B
102
{ACAD_REACTORS
330
33F
102
}
330
33F
100
AcDbXrecord
  1
{941AFA7C-A9C6-4C89-8F5C-B1463A1695C1}
  0
DICTIONARYVAR
  5
33D
102
{ACAD_REACTORS
330
33C
102
}
330
33C
100
DictionaryVariables
280
     0
  1
1
  0
ENDSEC
  0
EOF
