  0
SECTION
  2
HEADER
  9
$ACADVER
  1
AC1014
  9
$ACADMAINTVER
 70
     9
  9
$DWGCODEPAGE
  3
ANSI_932
  9
$INSBASE
 10
0.0
 20
0.0
 30
0.0
  9
$EXTMIN
 10
86.74844048083242
 20
99.57041971412719
 30
0.0
  9
$EXTMAX
 10
990.972277032962
 20
785.9702670180658
 30
0.0
  9
$LIMMIN
 10
0.0
 20
0.0
  9
$LIMMAX
 10
297.0
 20
210.0
  9
$ORTHOMODE
 70
     1
  9
$REGENMODE
 70
     1
  9
$FILLMODE
 70
     1
  9
$QTEXTMODE
 70
     0
  9
$MIRRTEXT
 70
     0
  9
$DRAGMODE
 70
     2
  9
$LTSCALE
 40
4.0
  9
$OSMODE
 70
    37
  9
$ATTMODE
 70
     1
  9
$TEXTSIZE
 40
2.0
  9
$TRACEWID
 40
1.0
  9
$TEXTSTYLE
  7
STANDARD
  9
$CLAYER
  8
0
  9
$CELTYPE
  6
BYLAYER
  9
$CECOLOR
 62
   256
  9
$CELTSCALE
 40
1.0
  9
$DELOBJ
 70
     1
  9
$DISPSILH
 70
     0
  9
$DIMSCALE
 40
4.0
  9
$DIMASZ
 40
1.8
  9
$DIMEXO
 40
0.625
  9
$DIMDLI
 40
3.75
  9
$DIMRND
 40
0.0
  9
$DIMDLE
 40
0.0
  9
$DIMEXE
 40
0.8
  9
$DIMTP
 40
0.0
  9
$DIMTM
 40
0.0
  9
$DIMTXT
 40
1.8
  9
$DIMCEN
 40
2.5
  9
$DIMTSZ
 40
0.0
  9
$DIMTOL
 70
     0
  9
$DIMLIM
 70
     0
  9
$DIMTIH
 70
     0
  9
$DIMTOH
 70
     0
  9
$DIMSE1
 70
     0
  9
$DIMSE2
 70
     0
  9
$DIMTAD
 70
     1
  9
$DIMZIN
 70
     8
  9
$DIMBLK
  1

  9
$DIMASO
 70
     1
  9
$DIMSHO
 70
     1
  9
$DIMPOST
  1

  9
$DIMAPOST
  1

  9
$DIMALT
 70
     0
  9
$DIMALTD
 70
     4
  9
$DIMALTF
 40
0.0394
  9
$DIMLFAC
 40
1.0
  9
$DIMTOFL
 70
     1
  9
$DIMTVP
 40
0.0
  9
$DIMTIX
 70
     0
  9
$DIMSOXD
 70
     0
  9
$DIMSAH
 70
     0
  9
$DIMBLK1
  1

  9
$DIMBLK2
  1

  9
$DIMSTYLE
  2
STANDARD
  9
$DIMCLRD
 70
     0
  9
$DIMCLRE
 70
     0
  9
$DIMCLRT
 70
     0
  9
$DIMTFAC
 40
1.0
  9
$DIMGAP
 40
0.75
  9
$DIMJUST
 70
     0
  9
$DIMSD1
 70
     0
  9
$DIMSD2
 70
     0
  9
$DIMTOLJ
 70
     1
  9
$DIMTZIN
 70
     0
  9
$DIMALTZ
 70
     0
  9
$DIMALTTZ
 70
     0
  9
$DIMFIT
 70
     3
  9
$DIMUPT
 70
     0
  9
$DIMUNIT
 70
     8
  9
$DIMDEC
 70
     2
  9
$DIMTDEC
 70
     2
  9
$DIMALTU
 70
     8
  9
$DIMALTTD
 70
     4
  9
$DIMTXSTY
  7
STANDARD
  9
$DIMAUNIT
 70
     0
  9
$LUNITS
 70
     2
  9
$LUPREC
 70
     3
  9
$SKETCHINC
 40
1.0
  9
$FILLETRAD
 40
10.0
  9
$AUNITS
 70
     0
  9
$AUPREC
 70
     2
  9
$MENU
  1
.
  9
$ELEVATION
 40
0.0
  9
$PELEVATION
 40
0.0
  9
$THICKNESS
 40
0.0
  9
$LIMCHECK
 70
     0
  9
$BLIPMODE
 70
     0
  9
$CHAMFERA
 40
0.0
  9
$CHAMFERB
 40
0.0
  9
$CHAMFERC
 40
20.0
  9
$CHAMFERD
 40
0.0
  9
$SKPOLY
 70
     0
  9
$TDCREATE
 40
2453868.462684456
  9
$TDUPDATE
 40
2454028.467889537
  9
$TDINDWG
 40
0.1403701852
  9
$TDUSRTIMER
 40
0.1403701852
  9
$USRTIMER
 70
     1
  9
$ANGBASE
 50
0.0
  9
$ANGDIR
 70
     0
  9
$PDMODE
 70
     0
  9
$PDSIZE
 40
-10.0
  9
$PLINEWID
 40
0.0
  9
$COORDS
 70
     2
  9
$SPLFRAME
 70
     0
  9
$SPLINETYPE
 70
     6
  9
$SPLINESEGS
 70
     8
  9
$ATTDIA
 70
     0
  9
$ATTREQ
 70
     1
  9
$HANDLING
 70
-16383
  9
$HANDSEED
  5
1877
  9
$SURFTAB1
 70
     6
  9
$SURFTAB2
 70
     6
  9
$SURFTYPE
 70
     6
  9
$SURFU
 70
     6
  9
$SURFV
 70
     6
  9
$UCSNAME
  2

  9
$UCSORG
 10
0.0
 20
0.0
 30
0.0
  9
$UCSXDIR
 10
1.0
 20
0.0
 30
0.0
  9
$UCSYDIR
 10
0.0
 20
1.0
 30
0.0
  9
$PUCSNAME
  2

  9
$PUCSORG
 10
0.0
 20
0.0
 30
0.0
  9
$PUCSXDIR
 10
1.0
 20
0.0
 30
0.0
  9
$PUCSYDIR
 10
0.0
 20
1.0
 30
0.0
  9
$USERI1
 70
     0
  9
$USERI2
 70
     0
  9
$USERI3
 70
     0
  9
$USERI4
 70
     0
  9
$USERI5
 70
     0
  9
$USERR1
 40
0.0
  9
$USERR2
 40
0.0
  9
$USERR3
 40
0.0
  9
$USERR4
 40
0.0
  9
$USERR5
 40
0.0
  9
$WORLDVIEW
 70
     1
  9
$SHADEDGE
 70
     3
  9
$SHADEDIF
 70
    70
  9
$TILEMODE
 70
     1
  9
$MAXACTVP
 70
    48
  9
$PINSBASE
 10
0.0
 20
0.0
 30
0.0
  9
$PLIMCHECK
 70
     0
  9
$PEXTMIN
 10
0.0
 20
0.0
 30
0.0
  9
$PEXTMAX
 10
0.0
 20
0.0
 30
0.0
  9
$PLIMMIN
 10
0.0
 20
0.0
  9
$PLIMMAX
 10
12.0
 20
9.0
  9
$UNITMODE
 70
     0
  9
$VISRETAIN
 70
     1
  9
$PLINEGEN
 70
     0
  9
$PSLTSCALE
 70
     1
  9
$TREEDEPTH
 70
  3020
  9
$PICKSTYLE
 70
     1
  9
$CMLSTYLE
  2
STANDARD
  9
$CMLJUST
 70
     0
  9
$CMLSCALE
 40
1.0
  9
$PROXYGRAPHICS
 70
     1
  9
$MEASUREMENT
 70
     0
  0
ENDSEC
  0
SECTION
  2
CLASSES
  0
CLASS
  1
DICTIONARYVAR
  2
AcDbDictionaryVar
  3
AutoCAD 2000
 90
        0
280
     0
281
     0
  0
CLASS
  1
ACDBDICTIONARYWDFLT
  2
AcDbDictionaryWithDefault
  3
AutoCAD 2000
 90
        0
280
     0
281
     0
  0
CLASS
  1
ACDBPLACEHOLDER
  2
AcDbPlaceHolder
  3
AutoCAD 2000
 90
        0
280
     0
281
     0
  0
CLASS
  1
LAYOUT
  2
AcDbLayout
  3
AutoCAD 2000
 90
        0
280
     0
281
     0
  0
CLASS
  1
LONG_TRANSACTION
  2
AcDbLongTransaction
  3
AutoCAD 2000
 90
        0
280
     0
281
     0
  0
CLASS
  1
LWPOLYLINE
  2
AcDbPolyline
  3
AutoCAD 2000
 90
        0
280
     0
281
     1
  0
CLASS
  1
HATCH
  2
AcDbHatch
  3
AutoCAD 2000
 90
        0
280
     0
281
     1
  0
CLASS
  1
XRECORD
  2
AcDbXrecord
  3
AutoCAD 2000
 90
        0
280
     0
281
     0
  0
ENDSEC
  0
SECTION
  2
TABLES
  0
TABLE
  2
VPORT
  5
6E
330
0
100
AcDbSymbolTable
 70
     2
  0
VPORT
  5
1851
330
6E
100
AcDbSymbolTableRecord
100
AcDbViewportTableRecord
  2
*ACTIVE
 70
     0
 10
0.0
 20
0.0
 11
1.0
 21
1.0
 12
545.7186549486889
 22
417.0909739398648
 13
0.0
 23
0.0
 14
10.0
 24
10.0
 15
10.0
 25
10.0
 16
0.0
 26
0.0
 36
1.0
 17
0.0
 27
0.0
 37
0.0
 40
743.5557036731831
 41
1.566970091027308
 42
50.0
 43
0.0
 44
0.0
 50
0.0
 51
0.0
 71
     0
 72
   100
 73
     1
 74
     3
 75
     0
 76
     0
 77
     0
 78
     0
  0
ENDTAB
  0
TABLE
  2
LTYPE
  5
69
330
0
100
AcDbSymbolTable
 70
     3
  0
LTYPE
  5
6A
330
69
100
AcDbSymbolTableRecord
100
AcDbLinetypeTableRecord
  2
BYBLOCK
 70
     0
  3

 72
    65
 73
     0
 40
0.0
  0
LTYPE
  5
6B
330
69
100
AcDbSymbolTableRecord
100
AcDbLinetypeTableRecord
  2
BYLAYER
 70
     0
  3

 72
    65
 73
     0
 40
0.0
  0
LTYPE
  5
8
330
69
100
AcDbSymbolTableRecord
100
AcDbLinetypeTableRecord
  2
CONTINUOUS
 70
     0
  3
Solid line
 72
    65
 73
     0
 40
0.0
  0
LTYPE
  5
27C
330
69
100
AcDbSymbolTableRecord
100
AcDbLinetypeTableRecord
  2
SEKKEI_A2_
 70
     0
  3
center(A2)  ____ _ ____ _ ____ _ ____ _ ____ _ 
 72
    65
 73
     4
 40
14.28749999999999
 49
9.525
 74
     0
 49
-1.587499999999999
 74
     0
 49
1.587499999999999
 74
     0
 49
-1.587499999999999
 74
     0
  0
LTYPE
  5
2B4
330
69
100
AcDbSymbolTableRecord
100
AcDbLinetypeTableRecord
  2
HIDDEN2
 70
     0
  3
Hidden (.5x) _ _ _ _ _ _ _ _ _ _ _ _ _ _ _ _ _
 72
    65
 73
     2
 40
4.762499999999999
 49
3.174999999999999
 74
     0
 49
-1.587499999999999
 74
     0
  0
ENDTAB
  0
TABLE
  2
LAYER
  5
66
330
0
100
AcDbSymbolTable
 70
     9
  0
LAYER
  5
5E
330
66
100
AcDbSymbolTableRecord
100
AcDbLayerTableRecord
  2
0
 70
     0
 62
     7
  6
CONTINUOUS
  0
LAYER
  5
3E
330
66
100
AcDbSymbolTableRecord
100
AcDbLayerTableRecord
  2
CENTER
 70
     0
 62
     3
  6
SEKKEI_A2_
  0
LAYER
  5
2B5
330
66
100
AcDbSymbolTableRecord
100
AcDbLayerTableRecord
  2
HIDS
 70
     0
 62
     1
  6
HIDDEN2
  0
LAYER
  5
3FA
330
66
100
AcDbSymbolTableRecord
100
AcDbLayerTableRecord
  2
TITLE
 70
     0
 62
     4
  6
CONTINUOUS
  0
LAYER
  5
1775
330
66
100
AcDbSymbolTableRecord
100
AcDbLayerTableRecord
  2
HOJO
 70
     0
 62
     4
  6
CONTINUOUS
  0
ENDTAB
  0
TABLE
  2
STYLE
  5
67
330
0
100
AcDbSymbolTable
 70
     1
  0
STYLE
  5
16
330
67
100
AcDbSymbolTableRecord
100
AcDbTextStyleTableRecord
  2
STANDARD
 70
     0
 40
0.0
 41
1.0
 50
0.0
 71
     0
 42
2.0
  3
simplex.shx
  4
extfont.shx
  0
ENDTAB
  0
TABLE
  2
VIEW
  5
6C
330
0
100
AcDbSymbolTable
 70
     0
  0
ENDTAB
  0
TABLE
  2
UCS
  5
6D
330
0
100
AcDbSymbolTable
 70
     0
  0
ENDTAB
  0
TABLE
  2
APPID
  5
70
330
0
100
AcDbSymbolTable
 70
     1
  0
APPID
  5
71
330
70
100
AcDbSymbolTableRecord
100
AcDbRegAppTableRecord
  2
ACAD
 70
     0
  0
ENDTAB
  0
TABLE
  2
DIMSTYLE
  5
72
330
0
100
AcDbSymbolTable
 70
     1
  0
DIMSTYLE
105
73
102
{ACAD_REACTORS
330
A5B
330
B36
102
}
330
72
100
AcDbSymbolTableRecord
100
AcDbDimStyleTableRecord
  2
STANDARD
 70
     0
  3

  4

  5

  6

  7

 40
4.0
 41
1.8
 42
0.625
 43
3.75
 44
0.8
 45
0.0
 46
0.0
 47
0.0
 48
0.0
140
1.8
141
2.5
142
0.0
143
0.0394
144
1.0
145
0.0
146
1.0
147
0.75
 71
     0
 72
     0
 73
     0
 74
     0
 75
     0
 76
     0
 77
     1
 78
     8
170
     0
171
     4
172
     1
173
     0
174
     0
175
     0
176
     0
177
     0
178
     0
270
     8
271
     2
272
     2
273
     8
274
     4
340
16
275
     0
280
     0
281
     0
282
     0
283
     1
284
     0
285
     0
286
     0
287
     3
288
     0
  0
ENDTAB
  0
TABLE
  2
BLOCK_RECORD
  5
1
330
0
100
AcDbSymbolTable
 70
    53
  0
BLOCK_RECORD
  5
2
102
{ACAD_XDICTIONARY
360
1873
102
}
330
1
100
AcDbSymbolTableRecord
100
AcDbBlockTableRecord
  2
*MODEL_SPACE
  0
BLOCK_RECORD
  5
184C
102
{ACAD_XDICTIONARY
360
1875
102
}
330
1
100
AcDbSymbolTableRecord
100
AcDbBlockTableRecord
  2
*PAPER_SPACE
  0
ENDTAB
  0
ENDSEC
  0
SECTION
  2
BLOCKS
  0
BLOCK
  5
5D
330
2
100
AcDbEntity
  8
0
100
AcDbBlockBegin
  2
*MODEL_SPACE
 70
     0
 10
0.0
 20
0.0
 30
0.0
  3
*MODEL_SPACE
  1

  0
ENDBLK
  5
5F
330
2
100
AcDbEntity
  8
0
100
AcDbBlockEnd
  0
BLOCK
  5
184E
330
184C
100
AcDbEntity
 67
     1
  8
0
100
AcDbBlockBegin
  2
*PAPER_SPACE
 70
     0
 10
0.0
 20
0.0
 30
0.0
  3
*PAPER_SPACE
  1

  0
ENDBLK
  5
184F
330
184C
100
AcDbEntity
 67
     1
  8
0
100
AcDbBlockEnd
  0
ENDSEC
  0
SECTION
  2
ENTITIES
  0
LINE
  5
8EF
330
2
100
AcDbEntity
  8
CENTER
100
AcDbLine
 10
86.74892946923989
 20
272.0704197141253
 30
0.0
 11
333.5358033611281
 21
272.0704197141253
 31
0.0
  0
LINE
  5
8F0
330
2
100
AcDbEntity
  8
CENTER
100
AcDbLine
 10
592.2489294689097
 20
680.9702670180661
 30
0.0
 11
86.74844048083242
 21
680.9702670180652
 31
0.0
  0
LINE
  5
9E0
330
2
100
AcDbEntity
  8
CENTER
100
AcDbLine
 10
871.246569032962
 20
371.0699317141274
 30
0.0
 11
915.6979850329619
 21
371.0699317141274
 31
0.0
  0
LINE
  5
9E1
330
2
100
AcDbEntity
  8
CENTER
100
AcDbLine
 10
795.972277032962
 20
230.0704197141271
 30
0.0
 11
990.972277032962
 21
230.0704197141271
 31
0.0
  0
LINE
  5
9E2
330
2
100
AcDbEntity
  8
CENTER
100
AcDbLine
 10
738.472277032963
 20
279.5704197141262
 30
0.0
 11
981.4722770329622
 21
279.5704197141247
 31
0.0
  0
ARC
  5
9E3
330
2
100
AcDbEntity
  8
0
100
AcDbCircle
 10
893.4722770329621
 20
371.0704197141253
 30
0.0
 40
16.0
100
AcDbArc
 50
0.0
 51
180.0
  0
ARC
  5
9E4
330
2
100
AcDbEntity
  8
0
100
AcDbCircle
 10
893.4722770329621
 20
371.0704197141253
 30
0.0
 40
10.0
100
AcDbArc
 50
332.2605189999832
 51
207.7395020000438
  0
LINE
  5
9E5
330
2
100
AcDbEntity
  8
0
100
AcDbLine
 10
859.972277032962
 20
116.0704197141254
 30
0.0
 11
926.972277032962
 21
116.0704197141254
 31
0.0
  0
TEXT
  5
9E6
330
2
100
AcDbEntity
  8
TITLE
100
AcDbText
 10
760.8828207612049
 20
628.7226755457531
 30
0.0
 40
10.0
  1
H2LB-40R-300~450-T040WA
100
AcDbText
  0
LINE
  5
9E7
330
2
100
AcDbEntity
  8
0
100
AcDbLine
 10
845.659777032962
 20
327.5704197141253
 30
0.0
 11
941.409777032962
 21
327.5704197141253
 31
0.0
  0
LINE
  5
9E8
330
2
100
AcDbEntity
  8
0
100
AcDbLine
 10
848.3500850329614
 20
365.7823337141258
 30
0.0
 11
893.4722770329621
 21
366.5704197141253
 31
0.0
  0
LINE
  5
9EE
330
2
100
AcDbEntity
  8
CENTER
100
AcDbLine
 10
418.9366499683345
 20
279.5704197141253
 30
0.0
 11
555.561452969482
 21
279.5704197141253
 31
0.0
  0
LINE
  5
9EF
330
2
100
AcDbEntity
  8
CENTER
100
AcDbLine
 10
559.7220204689095
 20
750.9702670180652
 30
0.0
 11
534.7758244689088
 21
750.9702670180652
 31
0.0
  0
LINE
  5
9F0
330
2
100
AcDbEntity
  8
CENTER
100
AcDbLine
 10
559.7220204689095
 20
610.9702670180652
 30
0.0
 11
534.7758244689088
 21
610.9702670180652
 31
0.0
  0
LINE
  5
9F1
330
2
100
AcDbEntity
  8
0
100
AcDbLine
 10
539.2489294689092
 20
747.9702670180659
 30
0.0
 11
543.7127964689079
 21
747.9702670180659
 31
0.0
  0
LINE
  5
9F2
330
2
100
AcDbEntity
  8
0
100
AcDbLine
 10
418.2219524689079
 20
770.9702670180659
 30
0.0
 11
556.2759074689092
 21
770.9702670180659
 31
0.0
  0
LINE
  5
9F3
330
2
100
AcDbEntity
  8
0
100
AcDbLine
 10
391.5920694689083
 20
732.9702670180658
 30
0.0
 11
573.393094468909
 21
732.9702670180658
 31
0.0
  0
LINE
  5
9F4
330
2
100
AcDbEntity
  8
0
100
AcDbLine
 10
539.2489294689092
 20
613.9702670180659
 30
0.0
 11
543.7127964689079
 21
613.9702670180659
 31
0.0
  0
LINE
  5
9F5
330
2
100
AcDbEntity
  8
0
100
AcDbLine
 10
556.2759074689092
 20
590.9702670180658
 30
0.0
 11
510.2489294689092
 21
590.9702670180658
 31
0.0
  0
LINE
  5
9F6
330
2
100
AcDbEntity
  8
0
100
AcDbLine
 10
533.7884804689091
 20
290.0923927141261
 30
0.0
 11
550.4118934689085
 21
216.5679787141257
 31
0.0
  0
LINE
  5
9F7
330
2
100
AcDbEntity
  8
0
100
AcDbLine
 10
537.9687784689084
 20
291.0377057141254
 30
0.0
 11
554.5920694689083
 21
217.5132907141265
 31
0.0
  0
ARC
  5
9F8
330
2
100
AcDbEntity
  8
0
100
AcDbCircle
 10
517.2489294689093
 20
209.0704197141254
 30
0.0
 40
34.0
100
AcDbArc
 50
270.0
 51
12.73996000002345
  0
ARC
  5
9F9
330
2
100
AcDbEntity
  8
0
100
AcDbCircle
 10
517.2489294689093
 20
209.0704197141254
 30
0.0
 40
38.285721
100
AcDbArc
 50
270.0
 51
12.73994999995377
  0
LINE
  5
9FA
330
2
100
AcDbEntity
  8
0
100
AcDbLine
 10
524.8475624689088
 20
364.7276467141268
 30
0.0
 11
573.033109468908
 21
330.5596777141258
 31
0.0
  0
LINE
  5
9FB
330
2
100
AcDbEntity
  8
0
100
AcDbLine
 10
577.2488074689079
 20
134.5704197141254
 30
0.0
 11
397.2489294689093
 21
134.5704197141254
 31
0.0
  0
LINE
  5
9FC
330
2
100
AcDbEntity
  8
0
100
AcDbLine
 10
397.2489294689093
 20
114.5704197141254
 30
0.0
 11
577.2488074689079
 21
114.5704197141254
 31
0.0
  0
LINE
  5
9FD
330
2
100
AcDbEntity
  8
0
100
AcDbLine
 10
391.5920694689083
 20
628.9702670180659
 30
0.0
 11
573.393094468909
 21
628.9702670180659
 31
0.0
  0
LINE
  5
A02
330
2
100
AcDbEntity
  8
CENTER
100
AcDbLine
 10
332.7421260035279
 20
230.0704197141271
 30
0.0
 11
406.2086520598184
 21
230.0704197141271
 31
0.0
  0
LINE
  5
A03
330
2
100
AcDbEntity
  8
0
100
AcDbLine
 10
360.7489294689092
 20
147.5704197141254
 30
0.0
 11
387.2489294689092
 21
147.5704197141254
 31
0.0
  0
LINE
  5
A04
330
2
100
AcDbEntity
  8
0
100
AcDbLine
 10
360.7489294689092
 20
312.5704197141253
 30
0.0
 11
387.2489294689092
 21
312.5704197141253
 31
0.0
  0
LINE
  5
A05
330
2
100
AcDbEntity
  8
0
100
AcDbLine
 10
360.7489294689092
 20
312.5704197141253
 30
0.0
 11
360.7489294689092
 21
147.5704197141254
 31
0.0
  0
LINE
  5
A06
330
2
100
AcDbEntity
  8
0
100
AcDbLine
 10
348.748807468908
 20
277.6949317141265
 30
0.0
 11
348.748807468908
 21
149.833115714127
 31
0.0
  0
ARC
  5
A07
330
2
100
AcDbEntity
  8
0
100
AcDbCircle
 10
350.748807468908
 20
149.833115714127
 30
0.0
 40
2.0
100
AcDbArc
 50
180.0
 51
268.5007930000216
  0
LINE
  5
A08
330
2
100
AcDbEntity
  8
0
100
AcDbLine
 10
350.6965614689087
 20
147.8336037141257
 30
0.0
 11
360.748807468908
 21
147.5704197141254
 31
0.0
  0
LINE
  5
A1B
330
2
100
AcDbEntity
  8
0
100
AcDbLine
 10
301.7488074689079
 20
336.0699317141266
 30
0.0
 11
301.7488074689079
 21
208.0699317141266
 31
0.0
  0
LINE
  5
A1C
330
2
100
AcDbEntity
  8
0
100
AcDbLine
 10
301.7488074689079
 20
336.0704197141253
 30
0.0
 11
301.7488074689079
 21
208.0704197141254
 31
0.0
  0
LINE
  5
A1E
330
2
100
AcDbEntity
  8
0
100
AcDbLine
 10
346.0078404689082
 20
169.4610447141254
 30
0.0
 11
301.7488074689079
 21
208.0704197141254
 31
0.0
  0
ARC
  5
A27
330
2
100
AcDbEntity
  8
0
100
AcDbCircle
 10
340.7489294689093
 20
163.432724714125
 30
0.0
 40
8.0
100
AcDbArc
 50
0.0
 51
48.90050899997993
  0
LINE
  5
A28
330
2
100
AcDbEntity
  8
0
100
AcDbLine
 10
319.748807468908
 20
313.6441507141257
 30
0.0
 11
360.748807468908
 21
312.5704197141253
 31
0.0
  0
LINE
  5
A29
330
2
100
AcDbEntity
  8
0
100
AcDbLine
 10
316.8274204689095
 20
322.6129007141257
 30
0.0
 11
314.6703164689077
 21
322.6690527141258
 31
0.0
  0
LINE
  5
A2A
330
2
100
AcDbEntity
  8
0
100
AcDbLine
 10
316.8274204689095
 20
318.158798714126
 30
0.0
 11
314.6703164689077
 21
318.2154397141262
 31
0.0
  0
LINE
  5
A2B
330
2
100
AcDbEntity
  8
0
100
AcDbLine
 10
316.8274204689095
 20
308.0059667141254
 30
0.0
 11
314.6703164689077
 21
307.9493267141265
 31
0.0
  0
ARC
  5
A2C
330
2
100
AcDbEntity
  8
0
100
AcDbCircle
 10
316.748807468908
 20
319.6138767141269
 30
0.0
 40
3.0
100
AcDbArc
 50
0.0
 51
88.50000000001029
  0
ARC
  5
A2D
330
2
100
AcDbEntity
  8
0
100
AcDbCircle
 10
316.748807468908
 20
315.1597757141257
 30
0.0
 40
3.0
100
AcDbArc
 50
0.0
 51
88.50000000001029
  0
ARC
  5
A2E
330
2
100
AcDbEntity
  8
0
100
AcDbCircle
 10
316.748807468908
 20
311.0049907141269
 30
0.0
 40
3.0
100
AcDbArc
 50
271.4999999999896
 51
0.0
  0
LINE
  5
A2F
330
2
100
AcDbEntity
  8
0
100
AcDbLine
 10
319.748807468908
 20
319.6138767141269
 30
0.0
 11
319.748807468908
 21
311.0049907141269
 31
0.0
  0
LINE
  5
A30
330
2
100
AcDbEntity
  8
0
100
AcDbLine
 10
309.8010534689091
 20
335.8594827141264
 30
0.0
 11
301.7488074689079
 21
336.0704197141253
 31
0.0
  0
ARC
  5
A31
330
2
100
AcDbEntity
  8
0
100
AcDbCircle
 10
309.748807468908
 20
333.8599707141261
 30
0.0
 40
2.0
100
AcDbArc
 50
0.0
 51
88.50026699997313
  0
LINE
  5
A32
330
2
100
AcDbEntity
  8
0
100
AcDbLine
 10
311.748807468908
 20
284.6949317141266
 30
0.0
 11
311.748807468908
 21
333.8599707141261
 31
0.0
  0
ARC
  5
A33
330
2
100
AcDbEntity
  8
0
100
AcDbCircle
 10
314.748807468908
 20
325.6680767141265
 30
0.0
 40
3.0
100
AcDbArc
 50
180.0
 51
268.5000000000103
  0
ARC
  5
A34
330
2
100
AcDbEntity
  8
0
100
AcDbCircle
 10
314.748807468908
 20
321.2144627141265
 30
0.0
 40
3.0
100
AcDbArc
 50
180.0
 51
268.5000000000103
  0
ARC
  5
A35
330
2
100
AcDbEntity
  8
0
100
AcDbCircle
 10
314.748807468908
 20
304.9503027141259
 30
0.0
 40
3.0
100
AcDbArc
 50
91.49999999998968
 51
180.0
  0
LINE
  5
A3D
330
2
100
AcDbEntity
  8
CENTER
100
AcDbLine
 10
487.2489294689093
 20
381.5699317141284
 30
0.0
 11
487.2489294689093
 21
99.57041971412719
 31
0.0
  0
LINE
  5
A3E
330
2
100
AcDbEntity
  8
0
100
AcDbLine
 10
397.2489294689093
 20
163.5211037141257
 30
0.0
 11
397.2489294689093
 21
114.5704197141254
 31
0.0
  0
LINE
  5
A3F
330
2
100
AcDbEntity
  8
0
100
AcDbLine
 10
521.0063754689088
 20
139.5704197141254
 30
0.0
 11
453.4914834689097
 21
139.5704197141254
 31
0.0
  0
ARC
  5
A40
330
2
100
AcDbEntity
  8
0
100
AcDbCircle
 10
387.2489294689092
 20
137.5704197141254
 30
0.0
 40
10.0
100
AcDbArc
 50
0.0
 51
90.0
  0
LINE
  5
A41
330
2
100
AcDbEntity
  8
0
100
AcDbLine
 10
411.2489294689092
 20
131.6465917141254
 30
0.0
 11
411.2489294689092
 21
114.5704197141254
 31
0.0
  0
LINE
  5
A42
330
2
100
AcDbEntity
  8
CENTER
100
AcDbLine
 10
427.2489294689092
 20
144.5704197141271
 30
0.0
 11
427.2489294689092
 21
104.5704197141271
 31
0.0
  0
ARC
  5
A43
330
2
100
AcDbEntity
  8
0
100
AcDbCircle
 10
453.4914834689097
 20
136.5704197141254
 30
0.0
 40
3.0
100
AcDbArc
 50
90.0
 51
135.0003049999559
  0
LINE
  5
A44
330
2
100
AcDbEntity
  8
0
100
AcDbLine
 10
452.2489294689092
 20
138.7676857141273
 30
0.0
 11
452.2489294689092
 21
135.2779397141262
 31
0.0
  0
ARC
  5
A45
330
2
100
AcDbEntity
  8
0
100
AcDbCircle
 10
445.1778844689086
 20
139.5704197141254
 30
0.0
 40
5.0
100
AcDbArc
 50
270.0
 51
315.0000919999901
  0
LINE
  5
A46
330
2
100
AcDbEntity
  8
HIDS
100
AcDbLine
 10
434.7489294689093
 20
134.5704197141254
 30
0.0
 11
434.7489294689093
 21
114.5704197141254
 31
0.0
  0
LINE
  5
A47
330
2
100
AcDbEntity
  8
HIDS
100
AcDbLine
 10
419.7489294689092
 20
134.5704197141254
 30
0.0
 11
419.7489294689092
 21
114.5704197141254
 31
0.0
  0
LINE
  5
A48
330
2
100
AcDbEntity
  8
0
100
AcDbLine
 10
448.7132854689097
 20
136.0347757141258
 30
0.0
 11
451.3702674689083
 21
138.6915137141255
 31
0.0
  0
ARC
  5
A49
330
2
100
AcDbEntity
  8
0
100
AcDbCircle
 10
529.3198524689086
 20
139.5704197141254
 30
0.0
 40
5.0
100
AcDbArc
 50
225.0001070000239
 51
270.0
  0
ARC
  5
A4A
330
2
100
AcDbEntity
  8
0
100
AcDbCircle
 10
521.0063754689088
 20
136.5704197141254
 30
0.0
 40
3.0
100
AcDbArc
 50
45.00046900003288
 51
90.0
  0
LINE
  5
A4B
330
2
100
AcDbEntity
  8
0
100
AcDbLine
 10
522.2489294689093
 20
138.7676857141273
 30
0.0
 11
522.2489294689093
 21
135.2779397141262
 31
0.0
  0
LINE
  5
A4C
330
2
100
AcDbEntity
  8
0
100
AcDbLine
 10
523.127469468909
 20
138.6915137141255
 30
0.0
 11
525.7844524689079
 21
136.0347757141258
 31
0.0
  0
ARC
  5
A4D
330
2
100
AcDbEntity
  8
0
100
AcDbCircle
 10
468.4488804689079
 20
199.0962987141261
 30
0.0
 40
13.0
100
AcDbArc
 50
112.352501000008
 51
215.3744959999802
  0
ARC
  5
A4E
330
2
100
AcDbEntity
  8
0
100
AcDbCircle
 10
457.2489294689092
 20
209.0704197141254
 30
0.0
 40
34.0
100
AcDbArc
 50
167.2601010000196
 51
270.0
  0
ARC
  5
A4F
330
2
100
AcDbEntity
  8
0
100
AcDbCircle
 10
457.2489294689092
 20
209.0704197141254
 30
0.0
 40
38.285721
100
AcDbArc
 50
167.2601010000196
 51
270.0
  0
ARC
  5
A50
330
2
100
AcDbEntity
  8
0
100
AcDbCircle
 10
487.2489294689093
 20
279.5704197141253
 30
0.0
 40
47.71427899999999
100
AcDbArc
 50
167.2601010000196
 51
12.73996000002345
  0
CIRCLE
  5
A51
330
2
100
AcDbEntity
  8
0
100
AcDbCircle
 10
487.2489294689093
 20
279.5704197141253
 30
0.0
 40
46.0
  0
ARC
  5
A52
330
2
100
AcDbEntity
  8
0
100
AcDbCircle
 10
487.2489294689093
 20
279.5704197141253
 30
0.0
 40
52.0
100
AcDbArc
 50
12.73996000002345
 51
167.2601010000196
  0
LINE
  5
A53
330
2
100
AcDbEntity
  8
0
100
AcDbLine
 10
455.4344764689084
 20
366.5704197141253
 30
0.0
 11
519.0632604689088
 21
366.5704197141253
 31
0.0
  0
LINE
  5
A55
330
2
100
AcDbEntity
  8
0
100
AcDbLine
 10
424.0858434689088
 20
216.5679787141257
 30
0.0
 11
440.7092564689081
 21
290.0923927141261
 31
0.0
  0
LINE
  5
A56
330
2
100
AcDbEntity
  8
0
100
AcDbLine
 10
419.905667468909
 20
217.5132907141265
 30
0.0
 11
436.5290814689086
 21
291.0377057141254
 31
0.0
  0
LINE
  5
A57
330
2
100
AcDbEntity
  8
0
100
AcDbLine
 10
385.2489294689092
 20
168.5211037141257
 30
0.0
 11
385.2489294689092
 21
291.6192477141262
 31
0.0
  0
ARC
  5
A58
330
2
100
AcDbEntity
  8
0
100
AcDbCircle
 10
394.7489294689093
 20
163.5211037141257
 30
0.0
 40
2.5
100
AcDbArc
 50
0.0
 51
90.0
  0
ARC
  5
A59
330
2
100
AcDbEntity
  8
0
100
AcDbCircle
 10
387.7489294689092
 20
168.5211037141257
 30
0.0
 40
2.5
100
AcDbArc
 50
180.0
 51
270.0
  0
LINE
  5
A5A
330
2
100
AcDbEntity
  8
0
100
AcDbLine
 10
394.7489294689093
 20
166.0211037141257
 30
0.0
 11
387.7489294689092
 21
166.0211037141257
 31
0.0
  0
LINE
  5
A5C
330
2
100
AcDbEntity
  8
0
100
AcDbLine
 10
401.4647494689087
 20
330.5596777141258
 30
0.0
 11
449.6502964689078
 21
364.7276467141268
 31
0.0
  0
LINE
  5
A5D
330
2
100
AcDbEntity
  8
0
100
AcDbLine
 10
402.2489294689092
 20
346.5704197141253
 30
0.0
 11
423.0880414689089
 21
346.5704197141253
 31
0.0
  0
LINE
  5
A5E
330
2
100
AcDbEntity
  8
CENTER
100
AcDbLine
 10
386.6856974689088
 20
371.0699317141274
 30
0.0
 11
404.783109468908
 21
371.0699317141274
 31
0.0
  0
LINE
  5
A5F
330
2
100
AcDbEntity
  8
0
100
AcDbLine
 10
394.049344468909
 20
387.0704197141253
 30
0.0
 11
397.2468544689089
 21
387.0704197141253
 31
0.0
  0
LINE
  5
A60
330
2
100
AcDbEntity
  8
HIDS
100
AcDbLine
 10
394.049344468909
 20
381.0704197141253
 30
0.0
 11
397.2492954689095
 21
381.0704197141253
 31
0.0
  0
LINE
  5
A61
330
2
100
AcDbEntity
  8
HIDS
100
AcDbLine
 10
394.049344468909
 20
361.0704197141253
 30
0.0
 11
397.2492954689095
 21
361.0704197141253
 31
0.0
  0
LINE
  5
A62
330
2
100
AcDbEntity
  8
0
100
AcDbLine
 10
392.0493444689089
 20
329.370224714125
 30
0.0
 11
394.049344468909
 21
329.370224714125
 31
0.0
  0
LINE
  5
A63
330
2
100
AcDbEntity
  8
0
100
AcDbLine
 10
392.0493444689089
 20
344.7701267141269
 30
0.0
 11
394.049344468909
 21
344.7701267141269
 31
0.0
  0
LINE
  5
A64
330
2
100
AcDbEntity
  8
0
100
AcDbLine
 10
392.0493444689089
 20
344.7701267141269
 30
0.0
 11
392.0493444689089
 21
329.370224714125
 31
0.0
  0
LINE
  5
A65
330
2
100
AcDbEntity
  8
0
100
AcDbLine
 10
394.049344468909
 20
327.0704197141253
 30
0.0
 11
397.2492954689095
 21
327.0704197141253
 31
0.0
  0
ARC
  5
A66
330
2
100
AcDbEntity
  8
0
100
AcDbCircle
 10
394.7489294689093
 20
296.6192477141262
 30
0.0
 40
2.5
100
AcDbArc
 50
270.0
 51
0.0
  0
ARC
  5
A67
330
2
100
AcDbEntity
  8
0
100
AcDbCircle
 10
402.2489294689092
 20
341.5704197141253
 30
0.0
 40
5.0
100
AcDbArc
 50
90.0
 51
180.0
  0
ARC
  5
A68
330
2
100
AcDbEntity
  8
0
100
AcDbCircle
 10
407.2489294689092
 20
322.4024517141265
 30
0.0
 40
10.0
100
AcDbArc
 50
125.3404999999971
 51
180.0
  0
LINE
  5
A69
330
2
100
AcDbEntity
  8
0
100
AcDbLine
 10
397.2489294689093
 20
296.6192477141262
 30
0.0
 11
397.2489294689093
 21
341.5704197141253
 31
0.0
  0
ARC
  5
A6A
330
2
100
AcDbEntity
  8
0
100
AcDbCircle
 10
388.2492954689095
 20
332.1329197141253
 30
0.0
 40
1.5
100
AcDbArc
 50
90.0
 51
180.0
  0
ARC
  5
A6B
330
2
100
AcDbEntity
  8
0
100
AcDbCircle
 10
388.2492954689095
 20
331.3804787141257
 30
0.0
 40
1.5
100
AcDbArc
 50
180.0
 51
270.0
  0
ARC
  5
A6C
330
2
100
AcDbEntity
  8
0
100
AcDbCircle
 10
388.2492954689095
 20
342.7603617141262
 30
0.0
 40
1.5
100
AcDbArc
 50
90.0
 51
180.0
  0
ARC
  5
A6D
330
2
100
AcDbEntity
  8
0
100
AcDbCircle
 10
388.2492954689095
 20
342.0074317141266
 30
0.0
 40
1.5
100
AcDbArc
 50
180.0
 51
270.0
  0
ARC
  5
A6E
330
2
100
AcDbEntity
  8
0
100
AcDbCircle
 10
388.2492954689095
 20
335.1329197141253
 30
0.0
 40
1.5
100
AcDbArc
 50
180.0
 51
270.0
  0
ARC
  5
A6F
330
2
100
AcDbEntity
  8
0
100
AcDbCircle
 10
388.2492954689095
 20
339.0074317141265
 30
0.0
 40
1.5
100
AcDbArc
 50
90.0
 51
180.0
  0
LINE
  5
A70
330
2
100
AcDbEntity
  8
0
100
AcDbLine
 10
386.7492954689095
 20
342.7603617141262
 30
0.0
 11
386.7492954689095
 21
331.3804787141257
 31
0.0
  0
ARC
  5
A71
330
2
100
AcDbEntity
  8
0
100
AcDbCircle
 10
387.7489294689092
 20
291.6192477141262
 30
0.0
 40
2.5
100
AcDbArc
 50
90.0
 51
180.0
  0
LINE
  5
A72
330
2
100
AcDbEntity
  8
0
100
AcDbLine
 10
388.2492954689095
 20
333.6329197141253
 30
0.0
 11
392.0493444689089
 21
333.6329197141253
 31
0.0
  0
LINE
  5
A73
330
2
100
AcDbEntity
  8
0
100
AcDbLine
 10
388.2492954689095
 20
340.5074317141266
 30
0.0
 11
392.0493444689089
 21
340.5074317141266
 31
0.0
  0
LINE
  5
A74
330
2
100
AcDbEntity
  8
0
100
AcDbLine
 10
388.2492954689095
 20
329.8804787141257
 30
0.0
 11
392.0493444689089
 21
329.8804787141257
 31
0.0
  0
LINE
  5
A75
330
2
100
AcDbEntity
  8
0
100
AcDbLine
 10
388.2492954689095
 20
344.2603617141262
 30
0.0
 11
392.0493444689089
 21
344.2603617141262
 31
0.0
  0
LINE
  5
A76
330
2
100
AcDbEntity
  8
0
100
AcDbLine
 10
387.7489294689092
 20
294.1192477141262
 30
0.0
 11
394.7489294689093
 21
294.1192477141262
 31
0.0
  0
ARC
  5
A77
330
2
100
AcDbEntity
  8
0
100
AcDbCircle
 10
387.2489294689092
 20
322.5704197141253
 30
0.0
 40
10.0
100
AcDbArc
 50
270.0
 51
0.0
  0
LINE
  5
A78
330
2
100
AcDbEntity
  8
0
100
AcDbLine
 10
394.049344468909
 20
387.0704197141253
 30
0.0
 11
394.049344468909
 21
327.0704197141253
 31
0.0
  0
LINE
  5
A79
330
2
100
AcDbEntity
  8
0
100
AcDbLine
 10
397.2468544689089
 20
387.0704197141253
 30
0.0
 11
397.2492954689095
 21
327.0704197141253
 31
0.0
  0
ARC
  5
A7A
330
2
100
AcDbEntity
  8
0
100
AcDbCircle
 10
455.4344764689084
 20
356.5704197141253
 30
0.0
 40
10.0
100
AcDbArc
 50
90.0
 51
125.34030200002
  0
ARC
  5
A7B
330
2
100
AcDbEntity
  8
0
100
AcDbCircle
 10
423.0880414689089
 20
349.5704197141253
 30
0.0
 40
3.0
100
AcDbArc
 50
270.0
 51
305.3400879999792
  0
LINE
  5
A7C
330
2
100
AcDbEntity
  8
0
100
AcDbLine
 10
510.2489294689092
 20
273.5704197141253
 30
0.0
 11
510.2489294689092
 21
285.5704197141253
 31
0.0
  0
LINE
  5
A7D
330
2
100
AcDbEntity
  8
0
100
AcDbLine
 10
502.2489294689092
 20
273.5704197141253
 30
0.0
 11
502.2489294689092
 21
285.5704197141253
 31
0.0
  0
ARC
  5
A7E
330
2
100
AcDbEntity
  8
0
100
AcDbCircle
 10
487.2489294689093
 20
279.5704197141253
 30
0.0
 40
20.0
100
AcDbArc
 50
17.45760000004019
 51
342.5423889999627
  0
LINE
  5
A7F
330
2
100
AcDbEntity
  8
0
100
AcDbLine
 10
496.448880468908
 20
191.5704197141254
 30
0.0
 11
502.9488804689079
 21
191.5704197141254
 31
0.0
  0
LINE
  5
A80
330
2
100
AcDbEntity
  8
0
100
AcDbLine
 10
512.6141644689085
 20
211.5704197141254
 30
0.0
 11
496.448880468908
 21
211.5704197141254
 31
0.0
  0
LINE
  5
A81
330
2
100
AcDbEntity
  8
0
100
AcDbLine
 10
457.2489294689092
 20
170.7847757141258
 30
0.0
 11
517.2489294689093
 21
170.7847757141258
 31
0.0
  0
LINE
  5
A82
330
2
100
AcDbEntity
  8
0
100
AcDbLine
 10
457.2489294689092
 20
175.0704197141254
 30
0.0
 11
517.2489294689093
 21
175.0704197141254
 31
0.0
  0
LINE
  5
A83
330
2
100
AcDbEntity
  8
0
100
AcDbLine
 10
490.4488804689079
 20
204.5704197141254
 30
0.0
 11
493.9488804689079
 21
204.5704197141254
 31
0.0
  0
LINE
  5
A84
330
2
100
AcDbEntity
  8
0
100
AcDbLine
 10
493.9488804689079
 20
211.5704197141254
 30
0.0
 11
493.9488804689079
 21
204.5704197141254
 31
0.0
  0
LINE
  5
A85
330
2
100
AcDbEntity
  8
0
100
AcDbLine
 10
490.4488804689079
 20
204.5704197141254
 30
0.0
 11
490.4488804689079
 21
191.5704197141254
 31
0.0
  0
LINE
  5
A86
330
2
100
AcDbEntity
  8
0
100
AcDbLine
 10
496.448880468908
 20
211.5704197141254
 30
0.0
 11
496.448880468908
 21
191.5704197141254
 31
0.0
  0
LINE
  5
A87
330
2
100
AcDbEntity
  8
0
100
AcDbLine
 10
465.7866494689095
 20
211.5704197141254
 30
0.0
 11
477.4488804689079
 21
211.5704197141254
 31
0.0
  0
LINE
  5
A88
330
2
100
AcDbEntity
  8
0
100
AcDbLine
 10
479.948880468908
 20
211.5704197141254
 30
0.0
 11
479.948880468908
 21
204.5704197141254
 31
0.0
  0
LINE
  5
A89
330
2
100
AcDbEntity
  8
0
100
AcDbLine
 10
479.948880468908
 20
204.5704197141254
 30
0.0
 11
483.448880468908
 21
204.5704197141254
 31
0.0
  0
LINE
  5
A8A
330
2
100
AcDbEntity
  8
0
100
AcDbLine
 10
477.4488804689079
 20
204.5704197141254
 30
0.0
 11
477.4488804689079
 21
211.5704197141254
 31
0.0
  0
LINE
  5
A8B
330
2
100
AcDbEntity
  8
0
100
AcDbLine
 10
470.948880468908
 20
201.5704197141254
 30
0.0
 11
477.4488804689079
 21
201.5704197141254
 31
0.0
  0
LINE
  5
A8C
330
2
100
AcDbEntity
  8
0
100
AcDbLine
 10
467.3075234689076
 20
204.5704197141254
 30
0.0
 11
477.4488804689079
 21
204.5704197141254
 31
0.0
  0
LINE
  5
A8D
330
2
100
AcDbEntity
  8
0
100
AcDbLine
 10
483.448880468908
 20
204.5704197141254
 30
0.0
 11
483.448880468908
 21
191.5704197141254
 31
0.0
  0
LINE
  5
A8E
330
2
100
AcDbEntity
  8
0
100
AcDbLine
 10
477.4488804689079
 20
201.5704197141254
 30
0.0
 11
477.4488804689079
 21
191.5704197141254
 31
0.0
  0
LINE
  5
A8F
330
2
100
AcDbEntity
  8
0
100
AcDbLine
 10
470.948880468908
 20
201.5704197141254
 30
0.0
 11
470.948880468908
 21
193.5704197141254
 31
0.0
  0
ARC
  5
A90
330
2
100
AcDbEntity
  8
0
100
AcDbCircle
 10
464.8884564689086
 20
194.5704197141254
 30
0.0
 40
1.0
100
AcDbArc
 50
220.5301970000489
 51
270.0
  0
ARC
  5
A91
330
2
100
AcDbEntity
  8
0
100
AcDbCircle
 10
469.4488804689079
 20
198.4693457141261
 30
0.0
 40
7.0
100
AcDbArc
 50
135.5460969999979
 51
220.5290069999836
  0
ARC
  5
A92
330
2
100
AcDbEntity
  8
0
100
AcDbCircle
 10
467.3075234689076
 20
200.5704197141254
 30
0.0
 40
4.0
100
AcDbArc
 50
90.0
 51
135.54620399998
  0
LINE
  5
A93
330
2
100
AcDbEntity
  8
0
100
AcDbLine
 10
457.8489054689088
 20
191.5704197141254
 30
0.0
 11
477.4488804689079
 21
191.5704197141254
 31
0.0
  0
LINE
  5
A94
330
2
100
AcDbEntity
  8
0
100
AcDbLine
 10
464.8884564689086
 20
193.5704197141254
 30
0.0
 11
470.948880468908
 21
193.5704197141254
 31
0.0
  0
ARC
  5
A95
330
2
100
AcDbEntity
  8
0
100
AcDbCircle
 10
465.7868934689084
 20
205.5704197141254
 30
0.0
 40
6.0
100
AcDbArc
 50
90.0
 51
112.3526989999965
  0
LINE
  5
A96
330
2
100
AcDbEntity
  8
0
100
AcDbLine
 10
479.948880468908
 20
211.5704197141254
 30
0.0
 11
493.9488804689079
 21
211.5704197141254
 31
0.0
  0
LINE
  5
A97
330
2
100
AcDbEntity
  8
0
100
AcDbLine
 10
483.448880468908
 20
191.5704197141254
 30
0.0
 11
490.4488804689079
 21
191.5704197141254
 31
0.0
  0
ARC
  5
A98
330
2
100
AcDbEntity
  8
0
100
AcDbCircle
 10
512.6141644689085
 20
207.5704197141254
 30
0.0
 40
4.0
100
AcDbArc
 50
59.13309899996631
 51
90.0
  0
ARC
  5
A99
330
2
100
AcDbEntity
  8
0
100
AcDbCircle
 10
510.0488564689093
 20
203.2784277141259
 30
0.0
 40
9.0
100
AcDbArc
 50
311.8104209999762
 51
59.13299199998534
  0
ARC
  5
A9A
330
2
100
AcDbEntity
  8
0
100
AcDbCircle
 10
509.9488804689079
 20
203.0704197141254
 30
0.0
 40
1.5
100
AcDbArc
 50
270.0
 51
90.0
  0
LINE
  5
A9B
330
2
100
AcDbEntity
  8
0
100
AcDbLine
 10
505.4488804689079
 20
201.5704197141254
 30
0.0
 11
509.9488804689079
 21
201.5704197141254
 31
0.0
  0
LINE
  5
A9C
330
2
100
AcDbEntity
  8
0
100
AcDbLine
 10
511.448880468908
 20
191.5704197141254
 30
0.0
 11
519.0488564689093
 21
191.5704197141254
 31
0.0
  0
LINE
  5
A9D
330
2
100
AcDbEntity
  8
0
100
AcDbLine
 10
519.0488564689093
 20
191.5704197141254
 30
0.0
 11
516.0488564689093
 21
196.5704197141254
 31
0.0
  0
LINE
  5
A9E
330
2
100
AcDbEntity
  8
0
100
AcDbLine
 10
505.4488804689079
 20
201.5704197141254
 30
0.0
 11
511.448880468908
 21
191.5704197141254
 31
0.0
  0
LINE
  5
A9F
330
2
100
AcDbEntity
  8
0
100
AcDbLine
 10
502.9488804689079
 20
204.5704197141254
 30
0.0
 11
502.9488804689079
 21
191.5704197141254
 31
0.0
  0
LINE
  5
AA0
330
2
100
AcDbEntity
  8
0
100
AcDbLine
 10
502.9488804689079
 20
204.5704197141254
 30
0.0
 11
509.9488804689079
 21
204.5704197141254
 31
0.0
  0
LINE
  5
AA1
330
2
100
AcDbEntity
  8
0
100
AcDbLine
 10
510.2489294689092
 20
273.5704197141253
 30
0.0
 11
502.2489294689092
 21
273.5704197141253
 31
0.0
  0
ARC
  5
AA2
330
2
100
AcDbEntity
  8
0
100
AcDbCircle
 10
519.0632604689088
 20
356.5704197141253
 30
0.0
 40
10.0
100
AcDbArc
 50
54.66006900000484
 51
90.0
  0
LINE
  5
AA3
330
2
100
AcDbEntity
  8
0
100
AcDbLine
 10
510.2489294689092
 20
285.5704197141253
 30
0.0
 11
502.2489294689092
 21
285.5704197141253
 31
0.0
  0
LINE
  5
AA4
330
2
100
AcDbEntity
  8
0
100
AcDbLine
 10
380.5039344689083
 20
763.4702670180659
 30
0.0
 11
360.748807468908
 21
763.4702670180659
 31
0.0
  0
LINE
  5
AA5
330
2
100
AcDbEntity
  8
0
100
AcDbLine
 10
380.5039344689083
 20
598.4702670180658
 30
0.0
 11
360.748807468908
 21
598.4702670180658
 31
0.0
  0
LINE
  5
AB1
330
2
100
AcDbEntity
  8
0
100
AcDbLine
 10
360.748807468908
 20
763.4702670180659
 30
0.0
 11
360.748807468908
 21
598.4702670180658
 31
0.0
  0
LINE
  5
AB2
330
2
100
AcDbEntity
  8
0
100
AcDbLine
 10
301.7488074689079
 20
744.9702670180658
 30
0.0
 11
301.7488074689079
 21
616.9702670180659
 31
0.0
  0
LINE
  5
AB3
330
2
100
AcDbEntity
  8
0
100
AcDbLine
 10
311.748563468909
 20
618.7617710180656
 30
0.0
 11
311.748807468908
 21
743.1792520180652
 31
0.0
  0
LINE
  5
AB4
330
2
100
AcDbEntity
  8
0
100
AcDbLine
 10
348.7485634689091
 20
615.7397980180667
 30
0.0
 11
301.7488074689079
 21
616.9702670180659
 31
0.0
  0
LINE
  5
AB6
330
2
100
AcDbEntity
  8
0
100
AcDbLine
 10
316.8272984689082
 20
659.7969270180656
 30
0.0
 11
314.6728794689096
 21
659.8535680180648
 31
0.0
  0
LINE
  5
AB7
330
2
100
AcDbEntity
  8
0
100
AcDbLine
 10
316.8272984689082
 20
649.6440950180668
 30
0.0
 11
314.6726354689088
 21
649.587455018066
 31
0.0
  0
LINE
  5
AB8
330
2
100
AcDbEntity
  8
0
100
AcDbLine
 10
316.8272984689082
 20
645.0371620180667
 30
0.0
 11
314.6728794689096
 21
645.0933140180659
 31
0.0
  0
LINE
  5
AB9
330
2
100
AcDbEntity
  8
0
100
AcDbLine
 10
316.8272984689082
 20
634.883841018066
 30
0.0
 11
314.6723914689081
 21
634.8276890180659
 31
0.0
  0
ARC
  5
ABA
330
2
100
AcDbEntity
  8
0
100
AcDbCircle
 10
316.748807468908
 20
656.7979040180671
 30
0.0
 40
3.0
100
AcDbArc
 50
0.0
 51
88.50000000001029
  0
ARC
  5
ABB
330
2
100
AcDbEntity
  8
0
100
AcDbCircle
 10
316.748807468908
 20
652.6431190180655
 30
0.0
 40
3.0
100
AcDbArc
 50
271.4999999999896
 51
0.0
  0
LINE
  5
ABC
330
2
100
AcDbEntity
  8
0
100
AcDbLine
 10
319.748807468908
 20
656.7979040180671
 30
0.0
 11
319.748807468908
 21
652.6431190180655
 31
0.0
  0
ARC
  5
ABD
330
2
100
AcDbEntity
  8
0
100
AcDbCircle
 10
316.748807468908
 20
642.0381380180652
 30
0.0
 40
3.0
100
AcDbArc
 50
0.0
 51
88.50000000001029
  0
ARC
  5
ABE
330
2
100
AcDbEntity
  8
0
100
AcDbCircle
 10
316.748807468908
 20
637.8828650180667
 30
0.0
 40
3.0
100
AcDbArc
 50
271.4999999999896
 51
0.0
  0
LINE
  5
ABF
330
2
100
AcDbEntity
  8
0
100
AcDbLine
 10
319.748807468908
 20
642.0381380180652
 30
0.0
 11
319.748807468908
 21
637.8828650180667
 31
0.0
  0
LINE
  5
AC0
330
2
100
AcDbEntity
  8
0
100
AcDbLine
 10
311.7486854689085
 20
659.9297400180667
 30
0.0
 11
311.7514934689078
 21
659.9297400180667
 31
0.0
  0
LINE
  5
AC1
330
2
100
AcDbEntity
  8
0
100
AcDbLine
 10
311.748563468909
 20
649.5107950180663
 30
0.0
 11
311.7514934689078
 21
649.5112830180659
 31
0.0
  0
LINE
  5
AC2
330
2
100
AcDbEntity
  8
0
100
AcDbLine
 10
311.748563468909
 20
645.1699740180656
 30
0.0
 11
311.7514934689078
 21
645.1699740180656
 31
0.0
  0
LINE
  5
AC3
330
2
100
AcDbEntity
  8
0
100
AcDbLine
 10
311.748563468909
 20
634.7510290180671
 30
0.0
 11
311.7514934689078
 21
634.7510290180671
 31
0.0
  0
ARC
  5
AC4
330
2
100
AcDbEntity
  8
0
100
AcDbCircle
 10
309.748563468909
 20
618.7617710180656
 30
0.0
 40
2.0
100
AcDbArc
 50
268.4999690000197
 51
0.0
  0
ARC
  5
AC5
330
2
100
AcDbEntity
  8
0
100
AcDbCircle
 10
314.7513714689083
 20
648.0923380180656
 30
0.0
 40
3.0
100
AcDbArc
 50
194.5079799999876
 51
268.5000000000103
  0
ARC
  5
AC6
330
2
100
AcDbEntity
  8
0
100
AcDbCircle
 10
314.7508824689083
 20
631.8286660180656
 30
0.0
 40
3.0
100
AcDbArc
 50
91.50000799998046
 51
179.9895939999689
  0
ARC
  5
AC7
330
2
100
AcDbEntity
  8
0
100
AcDbCircle
 10
314.7512494689089
 20
646.5884310180663
 30
0.0
 40
3.0
100
AcDbArc
 50
91.50000799998046
 51
179.9945979999798
  0
ARC
  5
AC8
330
2
100
AcDbEntity
  8
0
100
AcDbCircle
 10
314.7513714689083
 20
662.852591018066
 30
0.0
 40
3.0
100
AcDbArc
 50
180.0
 51
268.5000000000103
  0
ARC
  5
ACB
330
2
100
AcDbEntity
  8
0
100
AcDbCircle
 10
350.7485634689091
 20
600.7329630180656
 30
0.0
 40
2.0
100
AcDbArc
 50
180.0
 51
268.4999390000015
  0
LINE
  5
ACC
330
2
100
AcDbEntity
  8
0
100
AcDbLine
 10
348.7485634689091
 20
615.7397980180667
 30
0.0
 11
348.7485634689091
 21
600.7329630180656
 31
0.0
  0
LINE
  5
ACD
330
2
100
AcDbEntity
  8
0
100
AcDbLine
 10
350.6961954689085
 20
598.7339390180659
 30
0.0
 11
360.748807468908
 21
598.4702670180658
 31
0.0
  0
LINE
  5
ACE
330
2
100
AcDbEntity
  8
0
100
AcDbLine
 10
348.748807468908
 20
746.2017130180656
 30
0.0
 11
301.7488074689079
 21
744.9702670180658
 31
0.0
  0
LINE
  5
ACF
330
2
100
AcDbEntity
  8
0
100
AcDbLine
 10
316.8272984689082
 20
716.903861018066
 30
0.0
 11
314.6728794689096
 21
716.8477090180667
 31
0.0
  0
LINE
  5
AD0
330
2
100
AcDbEntity
  8
0
100
AcDbLine
 10
316.8272984689082
 20
727.0571810180663
 30
0.0
 11
314.6723914689081
 21
727.1133340180668
 31
0.0
  0
ARC
  5
AD1
330
2
100
AcDbEntity
  8
0
100
AcDbCircle
 10
316.748807468908
 20
719.9028840180663
 30
0.0
 40
3.0
100
AcDbArc
 50
271.4999999999896
 51
0.0
  0
ARC
  5
AD2
330
2
100
AcDbEntity
  8
0
100
AcDbCircle
 10
316.748807468908
 20
724.058158018066
 30
0.0
 40
3.0
100
AcDbArc
 50
0.0
 51
88.50000000001029
  0
LINE
  5
AD3
330
2
100
AcDbEntity
  8
0
100
AcDbLine
 10
319.748807468908
 20
719.9028840180663
 30
0.0
 11
319.748807468908
 21
724.058158018066
 31
0.0
  0
LINE
  5
AD4
330
2
100
AcDbEntity
  8
0
100
AcDbLine
 10
311.7486854689085
 20
716.7710480180667
 30
0.0
 11
311.7514934689078
 21
716.7710480180667
 31
0.0
  0
LINE
  5
AD5
330
2
100
AcDbEntity
  8
0
100
AcDbLine
 10
311.7486854689085
 20
727.1899940180656
 30
0.0
 11
311.7514934689078
 21
727.1899940180656
 31
0.0
  0
ARC
  5
AD6
330
2
100
AcDbEntity
  8
0
100
AcDbCircle
 10
309.748807468908
 20
743.1792520180652
 30
0.0
 40
2.0
100
AcDbArc
 50
0.0
 51
91.50042699998248
  0
ARC
  5
AD7
330
2
100
AcDbEntity
  8
0
100
AcDbCircle
 10
314.7510044689096
 20
730.1123570180652
 30
0.0
 40
3.0
100
AcDbArc
 50
180.0097350000104
 51
268.5000000000103
  0
ARC
  5
AD8
330
2
100
AcDbEntity
  8
0
100
AcDbCircle
 10
314.7513714689083
 20
713.8486850180652
 30
0.0
 40
3.0
100
AcDbArc
 50
91.49999999998968
 51
180.0
  0
ARC
  5
AD9
330
2
100
AcDbEntity
  8
0
100
AcDbCircle
 10
350.748807468908
 20
761.2080600180652
 30
0.0
 40
2.0
100
AcDbArc
 50
91.50005300000747
 51
180.0
  0
LINE
  5
ADA
330
2
100
AcDbEntity
  8
0
100
AcDbLine
 10
348.748807468908
 20
746.2017130180656
 30
0.0
 11
348.748807468908
 21
761.2080600180652
 31
0.0
  0
LINE
  5
ADB
330
2
100
AcDbEntity
  8
0
100
AcDbLine
 10
350.6964394689092
 20
763.2070840180667
 30
0.0
 11
360.748807468908
 21
763.4702670180659
 31
0.0
  0
LINE
  5
ADC
330
2
100
AcDbEntity
  8
CENTER
100
AcDbLine
 10
487.2489294689093
 20
785.9702670180658
 30
0.0
 11
487.2489294689097
 21
525.9702670180643
 31
0.0
  0
LINE
  5
ADD
330
2
100
AcDbEntity
  8
0
100
AcDbLine
 10
506.3279094689077
 20
540.9702670180658
 30
0.0
 11
506.3279094689077
 21
600.9702670180659
 31
0.0
  0
LINE
  5
ADE
330
2
100
AcDbEntity
  8
0
100
AcDbLine
 10
510.2489294689092
 20
540.9702670180658
 30
0.0
 11
510.2489294689092
 21
600.9702670180659
 31
0.0
  0
LINE
  5
ADF
330
2
100
AcDbEntity
  8
0
100
AcDbLine
 10
467.2489294689093
 20
605.9702670180659
 30
0.0
 11
467.2489294689093
 21
540.9702670180658
 31
0.0
  0
ARC
  5
AE0
330
2
100
AcDbEntity
  8
0
100
AcDbCircle
 10
418.2219524689079
 20
600.9702670180659
 30
0.0
 40
10.0
100
AcDbArc
 50
200.2248539999652
 51
270.0
  0
ARC
  5
AE1
330
2
100
AcDbEntity
  8
0
100
AcDbCircle
 10
418.2219524689079
 20
600.9702670180659
 30
0.0
 40
10.0
100
AcDbArc
 50
200.2248539999652
 51
270.0
  0
LINE
  5
AE2
330
2
100
AcDbEntity
  8
0
100
AcDbLine
 10
418.2219524689079
 20
590.9702670180658
 30
0.0
 11
467.2489294689093
 21
590.9702670180658
 31
0.0
  0
LINE
  5
AE4
330
2
100
AcDbEntity
  8
0
100
AcDbLine
 10
510.2489294689092
 20
540.9702670180658
 30
0.0
 11
467.2489294689093
 21
540.9702670180658
 31
0.0
  0
LINE
  5
AE5
330
2
100
AcDbEntity
  8
0
100
AcDbLine
 10
529.1068394689081
 20
753.9702670180659
 30
0.0
 11
445.3910194689086
 21
753.9702670180659
 31
0.0
  0
LINE
  5
AE6
330
2
100
AcDbEntity
  8
0
100
AcDbLine
 10
529.1068394689081
 20
607.9702670180658
 30
0.0
 11
445.3910194689086
 21
607.9702670180658
 31
0.0
  0
LINE
  5
AE7
330
2
100
AcDbEntity
  8
0
100
AcDbLine
 10
398.105130468908
 20
730.0230020180651
 30
0.0
 11
397.5400674689097
 21
697.651908018066
 31
0.0
  0
LINE
  5
AE8
330
2
100
AcDbEntity
  8
0
100
AcDbLine
 10
452.2489294689092
 20
727.9702670180658
 30
0.0
 11
452.2489294689092
 21
633.9702670180659
 31
0.0
  0
LINE
  5
AE9
330
2
100
AcDbEntity
  8
0
100
AcDbLine
 10
402.2489294689092
 20
700.9702670180659
 30
0.0
 11
424.0489784689088
 21
700.9702670180659
 31
0.0
  0
ARC
  5
AEA
330
2
100
AcDbEntity
  8
0
100
AcDbCircle
 10
411.4127484689086
 20
618.9702670180659
 30
0.0
 40
10.0
100
AcDbArc
 50
15.99583199995685
 51
90.0
  0
LINE
  5
AEB
330
2
100
AcDbEntity
  8
0
100
AcDbLine
 10
402.2489294689092
 20
660.9702670180658
 30
0.0
 11
424.0489784689088
 21
660.9702670180658
 31
0.0
  0
LINE
  5
AEC
330
2
100
AcDbEntity
  8
0
100
AcDbLine
 10
392.0489784689087
 20
688.6704630180656
 30
0.0
 11
394.0489784689087
 21
688.6704630180656
 31
0.0
  0
LINE
  5
AED
330
2
100
AcDbEntity
  8
0
100
AcDbLine
 10
394.0489784689087
 20
696.9702670180659
 30
0.0
 11
397.2489294689093
 21
696.9702670180659
 31
0.0
  0
ARC
  5
AEE
330
2
100
AcDbEntity
  8
0
100
AcDbCircle
 10
402.2489294689092
 20
695.9702670180659
 30
0.0
 40
5.0
100
AcDbArc
 50
90.0
 51
180.0
  0
LINE
  5
AEF
330
2
100
AcDbEntity
  8
HIDS
100
AcDbLine
 10
394.0489784689087
 20
690.9702670180658
 30
0.0
 11
397.2489294689093
 21
690.9702670180658
 31
0.0
  0
ARC
  5
AF0
330
2
100
AcDbEntity
  8
0
100
AcDbCircle
 10
388.2489294689093
 20
686.6606970180655
 30
0.0
 40
1.5
100
AcDbArc
 50
90.0
 51
180.0
  0
LINE
  5
AF1
330
2
100
AcDbEntity
  8
0
100
AcDbLine
 10
388.2489294689093
 20
688.1606970180655
 30
0.0
 11
392.0489784689087
 21
688.1606970180655
 31
0.0
  0
LINE
  5
AF2
330
2
100
AcDbEntity
  8
0
100
AcDbLine
 10
392.0489784689087
 20
673.2705600180652
 30
0.0
 11
394.0489784689087
 21
673.2705600180652
 31
0.0
  0
LINE
  5
AF3
330
2
100
AcDbEntity
  8
0
100
AcDbLine
 10
394.0489784689087
 20
664.9702670180658
 30
0.0
 11
397.2489294689093
 21
664.9702670180658
 31
0.0
  0
LINE
  5
AF4
330
2
100
AcDbEntity
  8
0
100
AcDbLine
 10
398.105130468908
 20
631.9180210180657
 30
0.0
 11
397.5400674689097
 21
664.2891150180666
 31
0.0
  0
ARC
  5
AF5
330
2
100
AcDbEntity
  8
0
100
AcDbCircle
 10
402.2489294689092
 20
665.9702670180658
 30
0.0
 40
5.0
100
AcDbArc
 50
180.0
 51
270.0
  0
ARC
  5
AF6
330
2
100
AcDbEntity
  8
0
100
AcDbCircle
 10
401.1047644689077
 20
631.9702670180658
 30
0.0
 40
3.0
100
AcDbArc
 50
181.0000760000118
 51
270.0
  0
ARC
  5
AF7
330
2
100
AcDbEntity
  8
0
100
AcDbCircle
 10
401.1922894689085
 20
626.9448770180652
 30
0.0
 40
3.0
100
AcDbArc
 50
180.9999999999757
 51
200.2250979999887
  0
LINE
  5
AF8
330
2
100
AcDbEntity
  8
0
100
AcDbLine
 10
398.3773474689095
 20
625.9077670180658
 30
0.0
 11
408.8385294689086
 21
597.5137240180656
 31
0.0
  0
LINE
  5
AF9
330
2
100
AcDbEntity
  8
0
100
AcDbLine
 10
398.1928994689095
 20
626.8926310180659
 30
0.0
 11
398.1565224689092
 21
628.9702670180659
 31
0.0
  0
LINE
  5
AFA
330
2
100
AcDbEntity
  8
HIDS
100
AcDbLine
 10
394.0489784689087
 20
670.9702670180659
 30
0.0
 11
397.2489294689093
 21
670.9702670180659
 31
0.0
  0
ARC
  5
AFB
330
2
100
AcDbEntity
  8
0
100
AcDbCircle
 10
380.5039344689083
 20
603.4702670180658
 30
0.0
 40
5.0
100
AcDbArc
 50
270.0
 51
356.9999999999943
  0
ARC
  5
AFC
330
2
100
AcDbEntity
  8
0
100
AcDbCircle
 10
388.2489294689093
 20
676.0332560180659
 30
0.0
 40
1.5
100
AcDbArc
 50
90.0
 51
180.0
  0
ARC
  5
AFD
330
2
100
AcDbEntity
  8
0
100
AcDbCircle
 10
388.2489294689093
 20
675.2803260180662
 30
0.0
 40
1.5
100
AcDbArc
 50
180.0
 51
270.0
  0
ARC
  5
AFE
330
2
100
AcDbEntity
  8
0
100
AcDbCircle
 10
388.2489294689093
 20
685.9077670180659
 30
0.0
 40
1.5
100
AcDbArc
 50
180.0
 51
270.0
  0
ARC
  5
AFF
330
2
100
AcDbEntity
  8
0
100
AcDbCircle
 10
388.2489294689093
 20
679.0332560180659
 30
0.0
 40
1.5
100
AcDbArc
 50
180.0
 51
270.0
  0
ARC
  5
B00
330
2
100
AcDbEntity
  8
0
100
AcDbCircle
 10
388.2489294689093
 20
682.9077670180659
 30
0.0
 40
1.5
100
AcDbArc
 50
90.0
 51
180.0
  0
LINE
  5
B01
330
2
100
AcDbEntity
  8
0
100
AcDbLine
 10
386.5989054689088
 20
624.2324740180656
 30
0.0
 11
385.4970984689078
 21
603.2090370180667
 31
0.0
  0
LINE
  5
B02
330
2
100
AcDbEntity
  8
0
100
AcDbLine
 10
388.2489294689093
 20
677.5332560180658
 30
0.0
 11
392.0489784689087
 21
677.5332560180658
 31
0.0
  0
LINE
  5
B03
330
2
100
AcDbEntity
  8
0
100
AcDbLine
 10
388.2489294689093
 20
684.4077670180658
 30
0.0
 11
392.0489784689087
 21
684.4077670180658
 31
0.0
  0
LINE
  5
B04
330
2
100
AcDbEntity
  8
0
100
AcDbLine
 10
388.2489294689093
 20
673.7803260180662
 30
0.0
 11
392.0489784689087
 21
673.7803260180662
 31
0.0
  0
ARC
  5
B05
330
2
100
AcDbEntity
  8
0
100
AcDbCircle
 10
391.5920694689083
 20
623.9702670180658
 30
0.0
 40
5.0
100
AcDbArc
 50
90.0
 51
176.9999999999944
  0
LINE
  5
B06
330
2
100
AcDbEntity
  8
0
100
AcDbLine
 10
392.0489784689087
 20
688.6704630180656
 30
0.0
 11
392.0489784689087
 21
673.2705600180652
 31
0.0
  0
LINE
  5
B07
330
2
100
AcDbEntity
  8
0
100
AcDbLine
 10
394.0489784689087
 20
696.9702670180659
 30
0.0
 11
394.0489784689087
 21
664.9702670180658
 31
0.0
  0
LINE
  5
B08
330
2
100
AcDbEntity
  8
0
100
AcDbLine
 10
397.2489294689093
 20
696.9702670180659
 30
0.0
 11
397.2489294689093
 21
664.9702670180658
 31
0.0
  0
LINE
  5
B09
330
2
100
AcDbEntity
  8
0
100
AcDbLine
 10
397.2489294689093
 20
665.9702670180658
 30
0.0
 11
397.2489294689093
 21
695.9702670180659
 31
0.0
  0
LINE
  5
B0A
330
2
100
AcDbEntity
  8
0
100
AcDbLine
 10
397.2489294689093
 20
665.9702670180658
 30
0.0
 11
397.2489294689093
 21
695.9702670180659
 31
0.0
  0
LINE
  5
B0B
330
2
100
AcDbEntity
  8
0
100
AcDbLine
 10
386.7489294689093
 20
686.6606970180655
 30
0.0
 11
386.7489294689093
 21
675.2803260180662
 31
0.0
  0
LINE
  5
B0C
330
2
100
AcDbEntity
  8
CENTER
100
AcDbLine
 10
439.7220234689087
 20
610.9702670180652
 30
0.0
 11
414.7758274689079
 21
610.9702670180652
 31
0.0
  0
LINE
  5
B0D
330
2
100
AcDbEntity
  8
CENTER
100
AcDbLine
 10
427.2489254689084
 20
623.4433650180656
 30
0.0
 11
427.2489254689084
 21
598.4971690180648
 31
0.0
  0
ARC
  5
B0E
330
2
100
AcDbEntity
  8
0
100
AcDbCircle
 10
445.3910194689086
 20
617.9702670180659
 30
0.0
 40
10.0
100
AcDbArc
 50
225.0000000000046
 51
270.0
  0
LINE
  5
B0F
330
2
100
AcDbEntity
  8
0
100
AcDbLine
 10
435.2489294689092
 20
613.9702670180659
 30
0.0
 11
430.7850624689089
 21
613.9702670180659
 31
0.0
  0
LINE
  5
B10
330
2
100
AcDbEntity
  8
0
100
AcDbLine
 10
438.319974468908
 20
610.899466018066
 30
0.0
 11
435.2489294689092
 21
613.9702670180659
 31
0.0
  0
LINE
  5
B11
330
2
100
AcDbEntity
  8
0
100
AcDbLine
 10
421.1722694689086
 20
621.2148960180656
 30
0.0
 11
421.0256634689084
 21
621.7261270180651
 31
0.0
  0
ARC
  5
B12
330
2
100
AcDbEntity
  8
0
100
AcDbCircle
 10
430.7850624689089
 20
623.9702670180658
 30
0.0
 40
10.0
100
AcDbArc
 50
195.9958340000451
 51
270.0
  0
ARC
  5
B13
330
2
100
AcDbEntity
  8
0
100
AcDbCircle
 10
427.2489294689092
 20
610.9702670180658
 30
0.0
 40
7.5
100
AcDbArc
 50
121.8094480000301
 51
23.57817800001803
  0
LINE
  5
B14
330
2
100
AcDbEntity
  8
0
100
AcDbLine
 10
424.0489784689088
 20
695.9702670180659
 30
0.0
 11
424.0489784689088
 21
665.9702670180658
 31
0.0
  0
ARC
  5
B15
330
2
100
AcDbEntity
  8
0
100
AcDbCircle
 10
411.4127484689086
 20
742.9702670180659
 30
0.0
 40
10.0
100
AcDbArc
 50
270.0
 51
344.0041680000431
  0
ARC
  5
B16
330
2
100
AcDbEntity
  8
0
100
AcDbCircle
 10
418.2219524689079
 20
760.9702670180658
 30
0.0
 40
10.0
100
AcDbArc
 50
90.0
 51
159.7751010000579
  0
ARC
  5
B17
330
2
100
AcDbEntity
  8
0
100
AcDbCircle
 10
401.1047644689077
 20
729.9702670180659
 30
0.0
 40
3.0
100
AcDbArc
 50
90.0
 51
178.9999239999882
  0
ARC
  5
B18
330
2
100
AcDbEntity
  8
0
100
AcDbCircle
 10
401.1922894689085
 20
734.9961460180657
 30
0.0
 40
3.0
100
AcDbArc
 50
159.7749020000111
 51
179.0000000000242
  0
LINE
  5
B19
330
2
100
AcDbEntity
  8
0
100
AcDbLine
 10
398.3773474689095
 20
736.0332560180658
 30
0.0
 11
408.8385294689086
 21
764.4272980180667
 31
0.0
  0
LINE
  5
B1A
330
2
100
AcDbEntity
  8
0
100
AcDbLine
 10
398.1928994689095
 20
735.0483920180659
 30
0.0
 11
398.1566444689086
 21
732.9702670180658
 31
0.0
  0
ARC
  5
B1B
330
2
100
AcDbEntity
  8
0
100
AcDbCircle
 10
380.5039344689083
 20
758.4702670180659
 30
0.0
 40
5.0
100
AcDbArc
 50
3.000000000005594
 51
90.0
  0
LINE
  5
B1C
330
2
100
AcDbEntity
  8
0
100
AcDbLine
 10
386.5989054689088
 20
737.7085480180667
 30
0.0
 11
385.4970984689078
 21
758.7319860180659
 31
0.0
  0
ARC
  5
B1D
330
2
100
AcDbEntity
  8
0
100
AcDbCircle
 10
391.5920694689083
 20
737.9702670180659
 30
0.0
 40
5.0
100
AcDbArc
 50
183.0000000000056
 51
270.0
  0
LINE
  5
B1E
330
2
100
AcDbEntity
  8
CENTER
100
AcDbLine
 10
439.7220234689087
 20
750.9702670180652
 30
0.0
 11
414.7758274689079
 21
750.9702670180652
 31
0.0
  0
LINE
  5
B1F
330
2
100
AcDbEntity
  8
CENTER
100
AcDbLine
 10
427.2489254689084
 20
763.4433650180656
 30
0.0
 11
427.2489254689084
 21
738.4971690180648
 31
0.0
  0
ARC
  5
B20
330
2
100
AcDbEntity
  8
0
100
AcDbCircle
 10
445.3910194689086
 20
743.9702670180659
 30
0.0
 40
10.0
100
AcDbArc
 50
90.0
 51
134.9999999999953
  0
LINE
  5
B21
330
2
100
AcDbEntity
  8
0
100
AcDbLine
 10
435.2489294689092
 20
747.9702670180659
 30
0.0
 11
430.7850624689089
 21
747.9702670180659
 31
0.0
  0
LINE
  5
B22
330
2
100
AcDbEntity
  8
0
100
AcDbLine
 10
438.319974468908
 20
751.0415560180663
 30
0.0
 11
435.2489294689092
 21
747.9702670180659
 31
0.0
  0
LINE
  5
B23
330
2
100
AcDbEntity
  8
0
100
AcDbLine
 10
421.1722694689086
 20
740.7261270180652
 30
0.0
 11
421.0256634689084
 21
740.2148960180657
 31
0.0
  0
ARC
  5
B24
330
2
100
AcDbEntity
  8
0
100
AcDbCircle
 10
430.7850624689089
 20
737.9702670180659
 30
0.0
 40
10.0
100
AcDbArc
 50
90.0
 51
164.0041659999548
  0
ARC
  5
B25
330
2
100
AcDbEntity
  8
0
100
AcDbCircle
 10
427.2489294689092
 20
750.9702670180659
 30
0.0
 40
7.5
100
AcDbArc
 50
336.4218219999819
 51
238.1905519999698
  0
LINE
  5
B26
330
2
100
AcDbEntity
  8
0
100
AcDbLine
 10
522.2489294689093
 20
727.9702670180658
 30
0.0
 11
522.2489294689093
 21
633.9702670180659
 31
0.0
  0
LINE
  5
B27
330
2
100
AcDbEntity
  8
0
100
AcDbLine
 10
464.7489294689092
 20
605.9702670180659
 30
0.0
 11
509.7489294689093
 21
605.9702670180659
 31
0.0
  0
LINE
  5
B28
330
2
100
AcDbEntity
  8
0
100
AcDbLine
 10
464.7489294689092
 20
607.9702670180658
 30
0.0
 11
464.7489294689092
 21
605.9702670180659
 31
0.0
  0
ARC
  5
B29
330
2
100
AcDbEntity
  8
0
100
AcDbCircle
 10
529.1068394689081
 20
617.9702670180659
 30
0.0
 40
10.0
100
AcDbArc
 50
270.0
 51
314.9999999999954
  0
LINE
  5
B2A
330
2
100
AcDbEntity
  8
0
100
AcDbLine
 10
536.1778844689086
 20
610.899466018066
 30
0.0
 11
539.2489294689092
 21
613.9702670180659
 31
0.0
  0
LINE
  5
B2B
330
2
100
AcDbEntity
  8
0
100
AcDbLine
 10
506.3279094689077
 20
600.9702670180659
 30
0.0
 11
510.2489294689092
 21
600.9702670180659
 31
0.0
  0
LINE
  5
B2C
330
2
100
AcDbEntity
  8
0
100
AcDbLine
 10
509.7489294689093
 20
607.9702670180658
 30
0.0
 11
509.7489294689093
 21
605.9702670180659
 31
0.0
  0
LINE
  5
B2D
330
2
100
AcDbEntity
  8
0
100
AcDbLine
 10
507.2489294689092
 20
605.9702670180659
 30
0.0
 11
507.2489294689092
 21
600.9702670180659
 31
0.0
  0
ARC
  5
B2E
330
2
100
AcDbEntity
  8
0
100
AcDbCircle
 10
529.1068394689081
 20
743.9702670180659
 30
0.0
 40
10.0
100
AcDbArc
 50
45.0000000000046
 51
90.0
  0
LINE
  5
B2F
330
2
100
AcDbEntity
  8
0
100
AcDbLine
 10
536.1778844689086
 20
751.0415560180663
 30
0.0
 11
539.2489294689092
 21
747.9702670180659
 31
0.0
  0
LINE
  5
B34
330
2
100
AcDbEntity
  8
0
100
AcDbLine
 10
577.2488074689079
 20
322.4024517141265
 30
0.0
 11
577.2488074689079
 21
114.5704197141254
 31
0.0
  0
LINE
  5
B37
330
2
100
AcDbEntity
  8
CENTER
100
AcDbLine
 10
547.2489294689093
 20
144.5704197141271
 30
0.0
 11
547.2489294689101
 21
104.5704197141271
 31
0.0
  0
LINE
  5
B38
330
2
100
AcDbEntity
  8
0
100
AcDbLine
 10
563.248807468908
 20
131.6465917141254
 30
0.0
 11
563.248807468908
 21
114.5704197141254
 31
0.0
  0
LINE
  5
B39
330
2
100
AcDbEntity
  8
HIDS
100
AcDbLine
 10
539.7489294689092
 20
134.5704197141254
 30
0.0
 11
539.7489294689092
 21
114.5704197141254
 31
0.0
  0
LINE
  5
B3A
330
2
100
AcDbEntity
  8
HIDS
100
AcDbLine
 10
554.748807468908
 20
134.5704197141254
 30
0.0
 11
554.748807468908
 21
114.5704197141254
 31
0.0
  0
ARC
  5
B3B
330
2
100
AcDbEntity
  8
0
100
AcDbCircle
 10
567.248807468908
 20
322.4024517141265
 30
0.0
 40
10.0
100
AcDbArc
 50
0.0
 51
54.66004899998806
  0
LINE
  5
B3D
330
2
100
AcDbEntity
  8
0
100
AcDbLine
 10
841.4722770329621
 20
358.783798714126
 30
0.0
 11
841.4722770329621
 21
114.5704197141254
 31
0.0
  0
ARC
  5
B3E
330
2
100
AcDbEntity
  8
0
100
AcDbCircle
 10
808.4722770329621
 20
130.1851657141265
 30
0.0
 40
5.0
100
AcDbArc
 50
97.49627700000793
 51
180.0
  0
ARC
  5
B3F
330
2
100
AcDbEntity
  8
0
100
AcDbCircle
 10
808.4722770329621
 20
129.5704197141254
 30
0.0
 40
5.0
100
AcDbArc
 50
90.0
 51
180.0
  0
LINE
  5
B40
330
2
100
AcDbEntity
  8
0
100
AcDbLine
 10
803.472277032962
 20
114.5704197141254
 30
0.0
 11
858.4722770329621
 21
114.5704197141254
 31
0.0
  0
LINE
  5
B41
330
2
100
AcDbEntity
  8
CENTER
100
AcDbLine
 10
823.4722770329621
 20
144.5704197141271
 30
0.0
 11
823.4722770329621
 21
104.5704197141271
 31
0.0
  0
ARC
  5
B42
330
2
100
AcDbEntity
  8
0
100
AcDbCircle
 10
838.472277032962
 20
142.2012797141265
 30
0.0
 40
3.0
100
AcDbArc
 50
277.4961169999791
 51
0.0
  0
ARC
  5
B43
330
2
100
AcDbEntity
  8
0
100
AcDbCircle
 10
836.472277032962
 20
139.5704197141254
 30
0.0
 40
5.0
100
AcDbArc
 50
270.0
 51
359.6419070000338
  0
LINE
  5
B44
330
2
100
AcDbEntity
  8
HIDS
100
AcDbLine
 10
830.9722770329621
 20
134.5704197141254
 30
0.0
 11
830.9722770329621
 21
114.5704197141254
 31
0.0
  0
LINE
  5
B45
330
2
100
AcDbEntity
  8
0
100
AcDbLine
 10
803.472277032962
 20
130.1851657141265
 30
0.0
 11
803.472277032962
 21
114.5704197141254
 31
0.0
  0
LINE
  5
B46
330
2
100
AcDbEntity
  8
HIDS
100
AcDbLine
 10
815.972277032962
 20
134.5704197141254
 30
0.0
 11
815.972277032962
 21
114.5704197141254
 31
0.0
  0
LINE
  5
B47
330
2
100
AcDbEntity
  8
0
100
AcDbLine
 10
808.4722770329621
 20
134.5704197141254
 30
0.0
 11
836.472277032962
 21
134.5704197141254
 31
0.0
  0
LINE
  5
B48
330
2
100
AcDbEntity
  8
0
100
AcDbLine
 10
807.8200560329618
 20
135.1421977141258
 30
0.0
 11
838.863635032961
 21
139.2271587141254
 31
0.0
  0
LINE
  5
B49
330
2
100
AcDbEntity
  8
0
100
AcDbLine
 10
858.4722770329621
 20
114.5704197141254
 30
0.0
 11
859.972277032962
 21
116.0704197141254
 31
0.0
  0
LINE
  5
B4B
330
2
100
AcDbEntity
  8
0
100
AcDbLine
 10
807.4722770329621
 20
273.5704197141253
 30
0.0
 11
753.472277032962
 21
273.5704197141253
 31
0.0
  0
LINE
  5
B4C
330
2
100
AcDbEntity
  8
0
100
AcDbLine
 10
807.4722770329621
 20
285.5704197141253
 30
0.0
 11
753.472277032962
 21
285.5704197141253
 31
0.0
  0
LINE
  5
B4D
330
2
100
AcDbEntity
  8
0
100
AcDbLine
 10
818.4722770329621
 20
259.5704197141253
 30
0.0
 11
753.472277032962
 21
259.5704197141253
 31
0.0
  0
LINE
  5
B4E
330
2
100
AcDbEntity
  8
0
100
AcDbLine
 10
818.4722770329621
 20
299.5704197141253
 30
0.0
 11
753.472277032962
 21
299.5704197141253
 31
0.0
  0
LINE
  5
B4F
330
2
100
AcDbEntity
  8
0
100
AcDbLine
 10
753.472277032962
 20
259.5704197141253
 30
0.0
 11
753.472277032962
 21
299.5704197141253
 31
0.0
  0
LINE
  5
B50
330
2
100
AcDbEntity
  8
0
100
AcDbLine
 10
826.4722770329621
 20
182.6133887141255
 30
0.0
 11
826.4722770329621
 21
284.1954197141253
 31
0.0
  0
LINE
  5
B51
330
2
100
AcDbEntity
  8
0
100
AcDbLine
 10
820.472277032962
 20
241.1133887141255
 30
0.0
 11
820.472277032962
 21
318.0274517141265
 31
0.0
  0
ARC
  5
B52
330
2
100
AcDbEntity
  8
0
100
AcDbCircle
 10
807.4722770329621
 20
279.5704197141253
 30
0.0
 40
6.0
100
AcDbArc
 50
270.0
 51
90.0
  0
LINE
  5
B53
330
2
100
AcDbEntity
  8
0
100
AcDbLine
 10
818.4722770329621
 20
302.0704197141253
 30
0.0
 11
818.4722770329621
 21
257.0704197141253
 31
0.0
  0
ARC
  5
B54
330
2
100
AcDbEntity
  8
0
100
AcDbCircle
 10
816.4722770329621
 20
226.8306737141261
 30
0.0
 40
10.0
100
AcDbArc
 50
359.8818969999606
 51
45.57318100000004
  0
LINE
  5
B55
330
2
100
AcDbEntity
  8
0
100
AcDbLine
 10
833.7250850329613
 20
172.9981547141265
 30
0.0
 11
834.2194700329613
 21
172.8565527141259
 31
0.0
  0
ARC
  5
B56
330
2
100
AcDbEntity
  8
0
100
AcDbCircle
 10
836.472277032962
 20
182.6133887141255
 30
0.0
 40
10.0
100
AcDbArc
 50
180.0
 51
254.05490100003
  0
ARC
  5
B57
330
2
100
AcDbEntity
  8
0
100
AcDbCircle
 10
893.4722770329621
 20
230.0704197141254
 30
0.0
 40
82.5
100
AcDbArc
 50
223.8372799999939
 51
230.4511719999741
  0
ARC
  5
B58
330
2
100
AcDbEntity
  8
0
100
AcDbCircle
 10
831.472277032962
 20
163.2413187141269
 30
0.0
 40
10.0
100
AcDbArc
 50
0.0
 51
74.05468799998255
  0
LINE
  5
B59
330
2
100
AcDbEntity
  8
0
100
AcDbLine
 10
820.472277032962
 20
257.0704197141253
 30
0.0
 11
818.4722770329621
 21
257.0704197141253
 31
0.0
  0
ARC
  5
B5A
330
2
100
AcDbEntity
  8
0
100
AcDbCircle
 10
830.472277032962
 20
241.1133887141255
 30
0.0
 40
10.0
100
AcDbArc
 50
180.0
 51
225.573105000029
  0
ARC
  5
B5B
330
2
100
AcDbEntity
  8
0
100
AcDbCircle
 10
893.4722770329621
 20
230.0704197141254
 30
0.0
 40
82.5
100
AcDbArc
 50
159.0486149999929
 51
215.7268070000256
  0
ARC
  5
B5C
330
2
100
AcDbEntity
  8
0
100
AcDbCircle
 10
848.4722770329621
 20
358.783798714126
 30
0.0
 40
7.0
100
AcDbArc
 50
91.00063299998568
 51
180.0
  0
LINE
  5
B5D
330
2
100
AcDbEntity
  8
0
100
AcDbLine
 10
827.7250850329613
 20
327.6426857141273
 30
0.0
 11
834.2194700329613
 21
329.4981547141265
 31
0.0
  0
ARC
  5
B5E
330
2
100
AcDbEntity
  8
0
100
AcDbCircle
 10
831.472277032962
 20
339.1133887141254
 30
0.0
 40
10.0
100
AcDbArc
 50
285.9455870000276
 51
0.0
  0
LINE
  5
B5F
330
2
100
AcDbEntity
  8
0
100
AcDbLine
 10
820.472277032962
 20
302.0704197141253
 30
0.0
 11
818.4722770329621
 21
302.0704197141253
 31
0.0
  0
ARC
  5
B60
330
2
100
AcDbEntity
  8
0
100
AcDbCircle
 10
830.472277032962
 20
318.0274517141265
 30
0.0
 40
10.0
100
AcDbArc
 50
105.9457020000101
 51
180.0
  0
LINE
  5
B61
330
2
100
AcDbEntity
  8
0
100
AcDbLine
 10
877.4723990329615
 20
366.2911227141262
 30
0.0
 11
877.4723990329615
 21
371.0704197141253
 31
0.0
  0
ARC
  5
B62
330
2
100
AcDbEntity
  8
0
100
AcDbCircle
 10
556.2759074689092
 20
600.9702670180659
 30
0.0
 40
10.0
100
AcDbArc
 50
270.0
 51
339.7751409999478
  0
LINE
  5
B63
330
2
100
AcDbEntity
  8
0
100
AcDbLine
 10
576.304959468909
 20
735.0483920180659
 30
0.0
 11
577.2489294689092
 21
680.9702670180659
 31
0.0
  0
LINE
  5
B64
330
2
100
AcDbEntity
  8
CENTER
100
AcDbLine
 10
547.2489224689091
 20
623.4433650180656
 30
0.0
 11
547.2489224689091
 21
598.4971690180648
 31
0.0
  0
LINE
  5
B65
330
2
100
AcDbEntity
  8
0
100
AcDbLine
 10
576.120511468909
 20
625.9077670180658
 30
0.0
 11
565.6593304689084
 21
597.5137240180656
 31
0.0
  0
ARC
  5
B66
330
2
100
AcDbEntity
  8
0
100
AcDbCircle
 10
573.393094468909
 20
631.9702670180658
 30
0.0
 40
3.0
100
AcDbArc
 50
270.0
 51
358.9999390000077
  0
ARC
  5
B67
330
2
100
AcDbEntity
  8
0
100
AcDbCircle
 10
573.3055704689085
 20
626.9448770180652
 30
0.0
 40
3.0
100
AcDbArc
 50
339.7749290000311
 51
359.0000000000242
  0
LINE
  5
B68
330
2
100
AcDbEntity
  8
0
100
AcDbLine
 10
576.304959468909
 20
626.8926310180659
 30
0.0
 11
577.2489294689092
 21
680.9702670180659
 31
0.0
  0
LINE
  5
B69
330
2
100
AcDbEntity
  8
0
100
AcDbLine
 10
553.3255894689081
 20
621.2148960180656
 30
0.0
 11
553.4721964689087
 21
621.7261270180651
 31
0.0
  0
ARC
  5
B6A
330
2
100
AcDbEntity
  8
0
100
AcDbCircle
 10
543.7127964689079
 20
623.9702670180658
 30
0.0
 40
10.0
100
AcDbArc
 50
270.0
 51
344.0041680000431
  0
ARC
  5
B6B
330
2
100
AcDbEntity
  8
0
100
AcDbCircle
 10
563.0849894689089
 20
618.9702670180659
 30
0.0
 40
10.0
100
AcDbArc
 50
90.0
 51
164.0041659999548
  0
ARC
  5
B6C
330
2
100
AcDbEntity
  8
0
100
AcDbCircle
 10
547.2489294689093
 20
610.9702670180658
 30
0.0
 40
7.5
100
AcDbArc
 50
156.4218289999731
 51
58.19055199996984
  0
LINE
  5
B6D
330
2
100
AcDbEntity
  8
CENTER
100
AcDbLine
 10
547.2489224689091
 20
763.4433650180656
 30
0.0
 11
547.2489224689091
 21
738.4971690180648
 31
0.0
  0
LINE
  5
B6E
330
2
100
AcDbEntity
  8
0
100
AcDbLine
 10
576.120511468909
 20
736.0332560180658
 30
0.0
 11
565.6593304689084
 21
764.4272980180667
 31
0.0
  0
ARC
  5
B6F
330
2
100
AcDbEntity
  8
0
100
AcDbCircle
 10
573.393094468909
 20
729.9702670180659
 30
0.0
 40
3.0
100
AcDbArc
 50
1.000069000023486
 51
90.0
  0
ARC
  5
B70
330
2
100
AcDbEntity
  8
0
100
AcDbCircle
 10
573.3055704689085
 20
734.9961460180657
 30
0.0
 40
3.0
100
AcDbArc
 50
0.9999999999757104
 51
20.22510000001728
  0
LINE
  5
B71
330
2
100
AcDbEntity
  8
0
100
AcDbLine
 10
553.3255894689081
 20
740.7261270180652
 30
0.0
 11
553.4721964689087
 21
740.2148960180657
 31
0.0
  0
ARC
  5
B72
330
2
100
AcDbEntity
  8
0
100
AcDbCircle
 10
543.7127964689079
 20
737.9702670180659
 30
0.0
 40
10.0
100
AcDbArc
 50
15.99583199995685
 51
90.0
  0
ARC
  5
B73
330
2
100
AcDbEntity
  8
0
100
AcDbCircle
 10
563.0849894689089
 20
742.9702670180659
 30
0.0
 40
10.0
100
AcDbArc
 50
195.9958340000451
 51
270.0
  0
ARC
  5
B74
330
2
100
AcDbEntity
  8
0
100
AcDbCircle
 10
547.2489294689093
 20
750.9702670180659
 30
0.0
 40
7.5
100
AcDbArc
 50
301.8094480000301
 51
203.5781710000269
  0
ARC
  5
B75
330
2
100
AcDbEntity
  8
0
100
AcDbCircle
 10
556.2759074689092
 20
760.9702670180658
 30
0.0
 40
10.0
100
AcDbArc
 50
20.22489899994205
 51
90.0
  0
LINE
  5
B77
330
2
100
AcDbEntity
  8
CENTER
100
AcDbLine
 10
893.4722770329621
 20
99.57041971412719
 30
0.0
 11
893.4722770329621
 21
402.0699317141275
 31
0.0
  0
LINE
  5
B79
330
2
100
AcDbEntity
  8
0
100
AcDbLine
 10
945.472277032962
 20
362.7144627141265
 30
0.0
 11
945.472277032962
 21
114.5704197141254
 31
0.0
  0
LINE
  5
B7A
330
2
100
AcDbEntity
  8
0
100
AcDbLine
 10
979.1246210329621
 20
135.1421977141258
 30
0.0
 11
948.0809200329616
 21
139.2271587141254
 31
0.0
  0
LINE
  5
B7B
330
2
100
AcDbEntity
  8
0
100
AcDbLine
 10
978.472277032962
 20
134.5704197141254
 30
0.0
 11
950.4722770329621
 21
134.5704197141254
 31
0.0
  0
LINE
  5
B7C
330
2
100
AcDbEntity
  8
0
100
AcDbLine
 10
928.472277032962
 20
114.5704197141254
 30
0.0
 11
983.4722770329621
 21
114.5704197141254
 31
0.0
  0
LINE
  5
B7D
330
2
100
AcDbEntity
  8
0
100
AcDbLine
 10
928.472277032962
 20
114.5704197141254
 30
0.0
 11
926.972277032962
 21
116.0704197141254
 31
0.0
  0
LINE
  5
B7E
330
2
100
AcDbEntity
  8
CENTER
100
AcDbLine
 10
963.472277032962
 20
144.5704197141271
 30
0.0
 11
963.472277032962
 21
104.5704197141271
 31
0.0
  0
LINE
  5
B7F
330
2
100
AcDbEntity
  8
HIDS
100
AcDbLine
 10
955.9722770329621
 20
134.5704197141254
 30
0.0
 11
955.9722770329621
 21
114.5704197141254
 31
0.0
  0
ARC
  5
B80
330
2
100
AcDbEntity
  8
0
100
AcDbCircle
 10
950.4722770329621
 20
139.5704197141254
 30
0.0
 40
5.0
100
AcDbArc
 50
180.0
 51
270.0
  0
ARC
  5
B81
330
2
100
AcDbEntity
  8
0
100
AcDbCircle
 10
948.4722770329621
 20
142.2012797141265
 30
0.0
 40
3.0
100
AcDbArc
 50
180.0
 51
262.5044859999933
  0
ARC
  5
B82
330
2
100
AcDbEntity
  8
0
100
AcDbCircle
 10
978.472277032962
 20
129.5704197141254
 30
0.0
 40
5.0
100
AcDbArc
 50
0.0
 51
90.0
  0
ARC
  5
B83
330
2
100
AcDbEntity
  8
0
100
AcDbCircle
 10
978.472277032962
 20
130.1851657141265
 30
0.0
 40
5.0
100
AcDbArc
 50
0.0
 51
82.5042269999755
  0
LINE
  5
B84
330
2
100
AcDbEntity
  8
0
100
AcDbLine
 10
983.4722770329621
 20
130.1851657141265
 30
0.0
 11
983.4722770329621
 21
114.5704197141254
 31
0.0
  0
LINE
  5
B85
330
2
100
AcDbEntity
  8
HIDS
100
AcDbLine
 10
970.9722770329621
 20
134.5704197141254
 30
0.0
 11
970.9722770329621
 21
114.5704197141254
 31
0.0
  0
ARC
  5
B86
330
2
100
AcDbEntity
  8
0
100
AcDbCircle
 10
893.4722770329621
 20
230.0704197141254
 30
0.0
 40
82.5
100
AcDbArc
 50
324.2730870000402
 51
27.76711799997289
  0
LINE
  5
B87
330
2
100
AcDbEntity
  8
0
100
AcDbLine
 10
960.4722770329621
 20
182.6133887141255
 30
0.0
 11
960.4722770329621
 21
284.1954197141253
 31
0.0
  0
LINE
  5
B88
330
2
100
AcDbEntity
  8
0
100
AcDbLine
 10
966.4722770329621
 20
241.1133887141255
 30
0.0
 11
966.4722770329621
 21
318.0274517141265
 31
0.0
  0
ARC
  5
B89
330
2
100
AcDbEntity
  8
0
100
AcDbCircle
 10
956.4722770329622
 20
241.1133887141255
 30
0.0
 40
10.0
100
AcDbArc
 50
314.4273410000236
 51
0.0
  0
ARC
  5
B8A
330
2
100
AcDbEntity
  8
0
100
AcDbCircle
 10
970.472277032962
 20
226.8306737141261
 30
0.0
 40
10.0
100
AcDbArc
 50
134.4266970000379
 51
180.0
  0
ARC
  5
B8B
330
2
100
AcDbEntity
  8
0
100
AcDbCircle
 10
950.4722770329621
 20
182.6133887141255
 30
0.0
 40
10.0
100
AcDbArc
 50
285.9455870000276
 51
0.0
  0
LINE
  5
B8C
330
2
100
AcDbEntity
  8
0
100
AcDbLine
 10
953.2194700329613
 20
172.9981547141265
 30
0.0
 11
952.7250850329613
 21
172.8570407141265
 31
0.0
  0
ARC
  5
B8D
330
2
100
AcDbEntity
  8
0
100
AcDbCircle
 10
893.4722770329621
 20
230.0704197141254
 30
0.0
 40
82.5
100
AcDbArc
 50
309.5488890000039
 51
316.162688999993
  0
ARC
  5
B8E
330
2
100
AcDbEntity
  8
0
100
AcDbCircle
 10
955.472277032962
 20
163.2418067141266
 30
0.0
 40
10.0
100
AcDbArc
 50
105.9456019999838
 51
180.0
  0
LINE
  5
B8F
330
2
100
AcDbEntity
  8
0
100
AcDbLine
 10
942.5246450329607
 20
365.713974714125
 30
0.0
 11
893.4722770329621
 21
366.5704197141253
 31
0.0
  0
LINE
  5
B90
330
2
100
AcDbEntity
  8
0
100
AcDbLine
 10
909.4722770329621
 20
366.2911227141262
 30
0.0
 11
909.4722770329621
 21
371.0704197141253
 31
0.0
  0
ARC
  5
B91
330
2
100
AcDbEntity
  8
0
100
AcDbCircle
 10
942.4722770329621
 20
362.7144627141265
 30
0.0
 40
3.0
100
AcDbArc
 50
0.0
 51
89.0000000000243
  0
ARC
  5
B92
330
2
100
AcDbEntity
  8
0
100
AcDbCircle
 10
956.4722770329622
 20
318.0274517141265
 30
0.0
 40
10.0
100
AcDbArc
 50
0.0
 51
74.05473299999782
  0
LINE
  5
B93
330
2
100
AcDbEntity
  8
0
100
AcDbLine
 10
959.2194700329613
 20
327.6426857141273
 30
0.0
 11
952.7250850329613
 21
329.4981547141265
 31
0.0
  0
ARC
  5
B94
330
2
100
AcDbEntity
  8
0
100
AcDbCircle
 10
955.472277032962
 20
339.1133887141254
 30
0.0
 40
10.0
100
AcDbArc
 50
180.0
 51
254.05490100003
  0
ARC
  5
13FB
330
2
100
AcDbEntity
  8
0
100
AcDbCircle
 10
124.3091104689083
 20
341.0704197141253
 30
0.0
 40
1.5
100
AcDbArc
 50
90.0
 51
191.4864959999483
  0
LINE
  5
13FC
330
2
100
AcDbEntity
  8
0
100
AcDbLine
 10
167.7488074689081
 20
342.5704197141253
 30
0.0
 11
167.7488074689081
 21
285.9269134041502
 31
0.0
  0
ARC
  5
1400
330
2
100
AcDbEntity
  8
0
100
AcDbCircle
 10
242.7488074689081
 20
297.0704197141253
 30
0.0
 40
2.0
100
AcDbArc
 50
0.0
 51
90.0
  0
ARC
  5
1401
330
2
100
AcDbEntity
  8
0
100
AcDbCircle
 10
242.7488074689081
 20
247.0704197141253
 30
0.0
 40
2.0
100
AcDbArc
 50
270.0
 51
0.0
  0
LINE
  5
1402
330
2
100
AcDbEntity
  8
0
100
AcDbLine
 10
301.7488074689081
 20
208.0704197141253
 30
0.0
 11
178.6391884689082
 21
208.0704197141253
 31
0.0
  0
LINE
  5
1403
330
2
100
AcDbEntity
  8
0
100
AcDbLine
 10
293.7488074689081
 20
213.5894627141265
 30
0.0
 11
178.6222692776939
 21
213.5894627141265
 31
0.0
  0
LINE
  5
1404
330
2
100
AcDbEntity
  8
0
100
AcDbLine
 10
293.7488074689081
 20
217.5704197141253
 30
0.0
 11
177.7488074689079
 21
217.5704197141253
 31
0.0
  0
LINE
  5
1405
330
2
100
AcDbEntity
  8
0
100
AcDbLine
 10
293.7488074689081
 20
219.5704197141253
 30
0.0
 11
177.7488074689081
 21
219.5704197141253
 31
0.0
  0
LINE
  5
1406
330
2
100
AcDbEntity
  8
0
100
AcDbLine
 10
293.7488074689081
 20
224.5704197141253
 30
0.0
 11
177.7488074689081
 21
224.5704197141253
 31
0.0
  0
LINE
  5
1407
330
2
100
AcDbEntity
  8
0
100
AcDbLine
 10
293.7488074689081
 20
226.5704197141253
 30
0.0
 11
177.7488074689081
 21
226.5704197141253
 31
0.0
  0
LINE
  5
1408
330
2
100
AcDbEntity
  8
0
100
AcDbLine
 10
293.7488074689081
 20
232.0704197141253
 30
0.0
 11
177.7488074689081
 21
232.0704197141253
 31
0.0
  0
LINE
  5
1409
330
2
100
AcDbEntity
  8
0
100
AcDbLine
 10
293.7488074689081
 20
234.0704197141253
 30
0.0
 11
177.7488074689081
 21
234.0704197141253
 31
0.0
  0
LINE
  5
140A
330
2
100
AcDbEntity
  8
0
100
AcDbLine
 10
293.7488074689081
 20
239.8707127141264
 30
0.0
 11
240.7487994689083
 21
239.8707127141264
 31
0.0
  0
LINE
  5
140B
330
2
100
AcDbEntity
  8
0
100
AcDbLine
 10
293.7488074689081
 20
241.8707127141265
 30
0.0
 11
240.7487994689083
 21
241.8707127141265
 31
0.0
  0
LINE
  5
140C
330
2
100
AcDbEntity
  8
0
100
AcDbLine
 10
177.7488074689081
 20
330.5518647141257
 30
0.0
 11
293.7488074689081
 21
330.5518647141257
 31
0.0
  0
LINE
  5
140D
330
2
100
AcDbEntity
  8
0
100
AcDbLine
 10
177.7488074689081
 20
326.5704197141253
 30
0.0
 11
293.7488074689081
 21
326.5704197141253
 31
0.0
  0
LINE
  5
140E
330
2
100
AcDbEntity
  8
0
100
AcDbLine
 10
177.7488074689081
 20
324.5704197141253
 30
0.0
 11
293.7488074689081
 21
324.5704197141253
 31
0.0
  0
LINE
  5
140F
330
2
100
AcDbEntity
  8
0
100
AcDbLine
 10
177.7488074689081
 20
319.5704197141253
 30
0.0
 11
293.7488074689081
 21
319.5704197141253
 31
0.0
  0
LINE
  5
1410
330
2
100
AcDbEntity
  8
0
100
AcDbLine
 10
177.7488074689081
 20
317.5704197141253
 30
0.0
 11
293.7488074689081
 21
317.5704197141253
 31
0.0
  0
LINE
  5
1411
330
2
100
AcDbEntity
  8
0
100
AcDbLine
 10
177.7488074689081
 20
312.0704197141253
 30
0.0
 11
293.7488074689081
 21
312.0704197141253
 31
0.0
  0
LINE
  5
1412
330
2
100
AcDbEntity
  8
0
100
AcDbLine
 10
177.7488074689081
 20
310.0704197141253
 30
0.0
 11
293.7488074689081
 21
310.0704197141253
 31
0.0
  0
LINE
  5
1413
330
2
100
AcDbEntity
  8
0
100
AcDbLine
 10
240.7487994689083
 20
304.2706147141257
 30
0.0
 11
293.7488074689081
 21
304.2706147141257
 31
0.0
  0
LINE
  5
1414
330
2
100
AcDbEntity
  8
0
100
AcDbLine
 10
240.7487994689083
 20
302.2706147141257
 30
0.0
 11
293.7488074689081
 21
302.2706147141257
 31
0.0
  0
LINE
  5
1415
330
2
100
AcDbEntity
  8
0
100
AcDbLine
 10
167.7488074689081
 20
336.0704197141253
 30
0.0
 11
301.7488074689081
 21
336.0704197141253
 31
0.0
  0
LINE
  5
1419
330
2
100
AcDbEntity
  8
0
100
AcDbLine
 10
167.7488074689081
 20
202.5704197141253
 30
0.0
 11
122.8948034689083
 21
202.5704197141253
 31
0.0
  0
ARC
  5
141E
330
2
100
AcDbEntity
  8
0
100
AcDbCircle
 10
461.7488074689081
 20
272.0704197141253
 30
0.0
 40
360.0
100
AcDbArc
 50
171.3814999999797
 51
188.6186070000216
  0
ARC
  5
141F
330
2
100
AcDbEntity
  8
0
100
AcDbCircle
 10
-215.2511925310918
 20
272.0704197141253
 30
0.0
 40
345.0
100
AcDbArc
 50
348.5136699999533
 51
11.4863200000253
  0
ARC
  5
1420
330
2
100
AcDbEntity
  8
0
100
AcDbCircle
 10
118.6672644689078
 20
220.0704197141253
 30
0.0
 40
13.0
100
AcDbArc
 50
188.6186070000216
 51
270.0
  0
LINE
  5
1421
330
2
100
AcDbEntity
  8
0
100
AcDbLine
 10
118.6672644689078
 20
207.0704197141253
 30
0.0
 11
123.5702184689089
 21
207.0704197141253
 31
0.0
  0
ARC
  5
1422
330
2
100
AcDbEntity
  8
0
100
AcDbCircle
 10
124.3091104689083
 20
203.0704197141253
 30
0.0
 40
1.5
100
AcDbArc
 50
168.5137939999984
 51
199.4615020000487
  0
ARC
  5
1426
330
2
100
AcDbEntity
  8
0
100
AcDbCircle
 10
118.6672644689078
 20
324.0704197141253
 30
0.0
 40
13.0
100
AcDbArc
 50
90.0
 51
171.3818050000497
  0
LINE
  5
1427
330
2
100
AcDbEntity
  8
0
100
AcDbLine
 10
118.6671424689084
 20
337.0704197141253
 30
0.0
 11
123.5702184689089
 21
337.0704197141253
 31
0.0
  0
LINE
  5
142D
330
2
100
AcDbEntity
  8
0
100
AcDbLine
 10
240.7487994689081
 20
304.5704670186716
 30
0.0
 11
240.7487994689081
 21
239.5705280186716
 31
0.0
  0
LINE
  5
142E
330
2
100
AcDbEntity
  8
CENTER
100
AcDbLine
 10
205.7488074689081
 20
315.820361409579
 30
0.0
 11
205.7488074689081
 21
228.3204780186717
 31
0.0
  0
LINE
  5
142F
330
2
100
AcDbEntity
  8
0
100
AcDbLine
 10
170.7488074689081
 20
239.5704290186717
 30
0.0
 11
170.7488074689081
 21
304.5704750186716
 31
0.0
  0
LINE
  5
1430
330
2
100
AcDbEntity
  8
0
100
AcDbLine
 10
169.2488534689082
 20
257.5703300186717
 30
0.0
 11
169.2488534689082
 21
286.5704290186716
 31
0.0
  0
LINE
  5
1431
330
2
100
AcDbEntity
  8
0
100
AcDbLine
 10
173.2487914689081
 20
237.0704290186716
 30
0.0
 11
238.2487994689081
 21
237.0704290186716
 31
0.0
  0
LINE
  5
1432
330
2
100
AcDbEntity
  8
0
100
AcDbLine
 10
169.7488074689081
 20
257.5703300186717
 30
0.0
 11
169.7488074689081
 21
221.0694427141266
 31
0.0
  0
LINE
  5
1433
330
2
100
AcDbEntity
  8
0
100
AcDbLine
 10
167.7488074689081
 20
258.2141004830483
 30
0.0
 11
167.7488074689081
 21
202.5704197141253
 31
0.0
  0
LINE
  5
1434
330
2
100
AcDbEntity
  8
0
100
AcDbLine
 10
177.7488074689081
 20
224.5704197141253
 30
0.0
 11
177.7488074689081
 21
219.5704197141253
 31
0.0
  0
LINE
  5
1435
330
2
100
AcDbEntity
  8
0
100
AcDbLine
 10
169.7488074689081
 20
215.0694427141266
 30
0.0
 11
169.7488074689081
 21
208.0704197141253
 31
0.0
  0
ARC
  5
1436
330
2
100
AcDbEntity
  8
0
100
AcDbCircle
 10
170.6391884689082
 20
213.0694427141266
 30
0.0
 40
2.0
100
AcDbArc
 50
0.0
 51
90.0
  0
LINE
  5
1437
330
2
100
AcDbEntity
  8
0
100
AcDbLine
 10
177.7488074689081
 20
216.7374117141257
 30
0.0
 11
177.7488074689081
 21
217.5704197141253
 31
0.0
  0
ARC
  5
1438
330
2
100
AcDbEntity
  8
0
100
AcDbCircle
 10
170.6391884689082
 20
213.0694427141266
 30
0.0
 40
8.0
100
AcDbArc
 50
0.0
 51
90.0
  0
ARC
  5
1439
330
2
100
AcDbEntity
  8
0
100
AcDbCircle
 10
170.6391884689082
 20
213.0694427141266
 30
0.0
 40
5.0
100
AcDbArc
 50
0.0
 51
90.0
  0
LINE
  5
143A
330
2
100
AcDbEntity
  8
0
100
AcDbLine
 10
170.6391884689082
 20
218.0694427141265
 30
0.0
 11
167.7488074689081
 21
218.0694427141265
 31
0.0
  0
LINE
  5
143B
330
2
100
AcDbEntity
  8
0
100
AcDbLine
 10
170.6391884689082
 20
221.0694427141266
 30
0.0
 11
167.7488074689081
 21
221.0694427141266
 31
0.0
  0
LINE
  5
143C
330
2
100
AcDbEntity
  8
0
100
AcDbLine
 10
170.6391884689082
 20
215.0694427141266
 30
0.0
 11
167.7488074689081
 21
215.0694427141266
 31
0.0
  0
LINE
  5
143D
330
2
100
AcDbEntity
  8
0
100
AcDbLine
 10
167.7489294689085
 20
208.0704197141253
 30
0.0
 11
172.6391884689082
 21
208.0704197141253
 31
0.0
  0
LINE
  5
143E
330
2
100
AcDbEntity
  8
0
100
AcDbLine
 10
167.7488074689081
 20
208.0704197141253
 30
0.0
 11
172.6391884689082
 21
208.0704197141253
 31
0.0
  0
LINE
  5
143F
330
2
100
AcDbEntity
  8
0
100
AcDbLine
 10
178.1391884689082
 20
205.7535247141263
 30
0.0
 11
178.1391884689082
 21
199.6944427141265
 31
0.0
  0
LINE
  5
1440
330
2
100
AcDbEntity
  8
0
100
AcDbLine
 10
177.9392374689086
 20
205.6778407141259
 30
0.0
 11
177.9392374689086
 21
199.6944427141265
 31
0.0
  0
LINE
  5
1441
330
2
100
AcDbEntity
  8
0
100
AcDbLine
 10
177.7391644689087
 20
205.6026457141265
 30
0.0
 11
177.7391644689087
 21
199.6944427141265
 31
0.0
  0
LINE
  5
1442
330
2
100
AcDbEntity
  8
0
100
AcDbLine
 10
177.5392124689078
 20
205.5269627141265
 30
0.0
 11
177.5392124689078
 21
199.6944427141265
 31
0.0
  0
LINE
  5
1443
330
2
100
AcDbEntity
  8
0
100
AcDbLine
 10
177.3391394689078
 20
205.4512787141261
 30
0.0
 11
177.3391394689078
 21
199.6944427141265
 31
0.0
  0
LINE
  5
1444
330
2
100
AcDbEntity
  8
0
100
AcDbLine
 10
177.1391884689082
 20
205.3760837141258
 30
0.0
 11
177.1391884689082
 21
199.6944427141265
 31
0.0
  0
LINE
  5
1445
330
2
100
AcDbEntity
  8
0
100
AcDbLine
 10
175.6391884689082
 20
204.8091887141258
 30
0.0
 11
178.6391884689082
 21
205.9424897141257
 31
0.0
  0
LINE
  5
1446
330
2
100
AcDbEntity
  8
0
100
AcDbLine
 10
176.9392374689086
 20
205.3038177141266
 30
0.0
 11
176.9392374689086
 21
199.6944427141265
 31
0.0
  0
LINE
  5
1447
330
2
100
AcDbEntity
  8
0
100
AcDbLine
 10
176.1391884689082
 20
204.9981537141261
 30
0.0
 11
176.1391884689082
 21
199.6944427141265
 31
0.0
  0
LINE
  5
1448
330
2
100
AcDbEntity
  8
0
100
AcDbLine
 10
176.3391394689078
 20
205.0733487141264
 30
0.0
 11
176.3391394689078
 21
199.6944427141265
 31
0.0
  0
LINE
  5
1449
330
2
100
AcDbEntity
  8
0
100
AcDbLine
 10
176.5392124689078
 20
205.1490327141259
 30
0.0
 11
176.5392124689078
 21
199.6944427141265
 31
0.0
  0
LINE
  5
144A
330
2
100
AcDbEntity
  8
0
100
AcDbLine
 10
176.7391644689087
 20
205.2247167141262
 30
0.0
 11
176.7391644689087
 21
199.6944427141265
 31
0.0
  0
LINE
  5
144B
330
2
100
AcDbEntity
  8
0
100
AcDbLine
 10
173.1391884689083
 20
204.145126714126
 30
0.0
 11
173.1391884689083
 21
198.4131927141265
 31
0.0
  0
LINE
  5
144C
330
2
100
AcDbEntity
  8
0
100
AcDbLine
 10
175.1391884689082
 20
203.3067477141262
 30
0.0
 11
175.1391884689082
 21
198.4131927141265
 31
0.0
  0
LINE
  5
144D
330
2
100
AcDbEntity
  8
0
100
AcDbLine
 10
173.3391394689078
 20
204.0616307141267
 30
0.0
 11
173.3391394689078
 21
198.4131927141265
 31
0.0
  0
LINE
  5
144E
330
2
100
AcDbEntity
  8
0
100
AcDbLine
 10
174.9392374689086
 20
203.3902437141264
 30
0.0
 11
174.9392374689086
 21
198.4131927141265
 31
0.0
  0
LINE
  5
144F
330
2
100
AcDbEntity
  8
0
100
AcDbLine
 10
173.5392124689078
 20
203.9776457141265
 30
0.0
 11
173.5392124689078
 21
198.4131927141265
 31
0.0
  0
LINE
  5
1450
330
2
100
AcDbEntity
  8
0
100
AcDbLine
 10
174.7391644689087
 20
203.4742277141262
 30
0.0
 11
174.7391644689087
 21
198.4131927141265
 31
0.0
  0
LINE
  5
1451
330
2
100
AcDbEntity
  8
0
100
AcDbLine
 10
173.7391644689087
 20
203.8936617141257
 30
0.0
 11
173.7391644689087
 21
198.4131927141265
 31
0.0
  0
LINE
  5
1452
330
2
100
AcDbEntity
  8
0
100
AcDbLine
 10
174.5392124689078
 20
203.5582127141265
 30
0.0
 11
174.5392124689078
 21
198.4131927141265
 31
0.0
  0
LINE
  5
1453
330
2
100
AcDbEntity
  8
0
100
AcDbLine
 10
173.9392374689086
 20
203.8096767141255
 30
0.0
 11
173.9392374689086
 21
198.4131927141265
 31
0.0
  0
LINE
  5
1454
330
2
100
AcDbEntity
  8
0
100
AcDbLine
 10
174.3391394689078
 20
203.6421967141263
 30
0.0
 11
174.3391394689078
 21
198.4131927141265
 31
0.0
  0
LINE
  5
1455
330
2
100
AcDbEntity
  8
0
100
AcDbLine
 10
174.1391884689083
 20
203.7261807141262
 30
0.0
 11
174.1391884689083
 21
198.4131927141265
 31
0.0
  0
LINE
  5
1456
330
2
100
AcDbEntity
  8
0
100
AcDbLine
 10
172.6391884689082
 20
204.3550877141265
 30
0.0
 11
175.6391884689082
 21
203.0967867141257
 31
0.0
  0
LINE
  5
1457
330
2
100
AcDbEntity
  8
0
100
AcDbLine
 10
178.6391884689082
 20
213.0694427141266
 30
0.0
 11
178.6391884689082
 21
205.9424897141257
 31
0.0
  0
LINE
  5
1458
330
2
100
AcDbEntity
  8
0
100
AcDbLine
 10
175.6391884689082
 20
213.0694427141266
 30
0.0
 11
175.6391884689082
 21
203.0967867141257
 31
0.0
  0
LINE
  5
1459
330
2
100
AcDbEntity
  8
0
100
AcDbLine
 10
172.6391884689082
 20
213.0694427141266
 30
0.0
 11
172.6391884689082
 21
204.3550877141265
 31
0.0
  0
LINE
  5
145A
330
2
100
AcDbEntity
  8
0
100
AcDbLine
 10
179.7488074689081
 20
242.0704290186717
 30
0.0
 11
179.7488074689081
 21
239.5704290186717
 31
0.0
  0
ARC
  5
145B
330
2
100
AcDbEntity
  8
0
100
AcDbCircle
 10
177.4988074689081
 20
240.3204290186716
 30
0.0
 40
1.35
100
AcDbArc
 50
90.0
 51
180.0
  0
ARC
  5
145C
330
2
100
AcDbEntity
  8
0
100
AcDbCircle
 10
177.4988074689081
 20
243.8204290186717
 30
0.0
 40
1.35
100
AcDbArc
 50
180.0
 51
270.0
  0
LINE
  5
145D
330
2
100
AcDbEntity
  8
0
100
AcDbLine
 10
177.4988074689081
 20
242.4704230186716
 30
0.0
 11
177.4988074689081
 21
241.6704040186716
 31
0.0
  0
LINE
  5
145E
330
2
100
AcDbEntity
  8
0
100
AcDbLine
 10
173.9988074689081
 20
242.4704230186716
 30
0.0
 11
173.9988074689081
 21
241.6704040186716
 31
0.0
  0
ARC
  5
145F
330
2
100
AcDbEntity
  8
0
100
AcDbCircle
 10
173.9988074689081
 20
240.3204290186716
 30
0.0
 40
1.35
100
AcDbArc
 50
0.0
 51
90.0
  0
ARC
  5
1460
330
2
100
AcDbEntity
  8
0
100
AcDbCircle
 10
173.9988074689081
 20
243.8204290186717
 30
0.0
 40
1.35
100
AcDbArc
 50
270.0
 51
0.0
  0
LINE
  5
1461
330
2
100
AcDbEntity
  8
0
100
AcDbLine
 10
175.3487824689082
 20
240.3204290186716
 30
0.0
 11
176.1488014689082
 21
240.3204290186716
 31
0.0
  0
LINE
  5
1462
330
2
100
AcDbEntity
  8
0
100
AcDbLine
 10
175.3487824689082
 20
243.8204290186717
 30
0.0
 11
176.1488014689082
 21
243.8204290186717
 31
0.0
  0
ARC
  5
1463
330
2
100
AcDbEntity
  8
0
100
AcDbCircle
 10
175.7488074689081
 20
242.0704290186717
 30
0.0
 40
4.0
100
AcDbArc
 50
0.0
 51
90.0
  0
ARC
  5
1464
330
2
100
AcDbEntity
  8
0
100
AcDbCircle
 10
182.2487914689081
 20
239.5704290186717
 30
0.0
 40
2.5
100
AcDbArc
 50
180.0
 51
270.0
  0
LINE
  5
1465
330
2
100
AcDbEntity
  8
0
100
AcDbLine
 10
169.2488534689082
 20
257.5703300186717
 30
0.0
 11
170.7488074689081
 21
257.5703300186717
 31
0.0
  0
ARC
  5
1466
330
2
100
AcDbEntity
  8
0
100
AcDbCircle
 10
173.2487914689081
 20
248.5704290186717
 30
0.0
 40
2.5
100
AcDbArc
 50
180.0
 51
270.0
  0
ARC
  5
1467
330
2
100
AcDbEntity
  8
0
100
AcDbCircle
 10
173.2487914689081
 20
239.5704290186717
 30
0.0
 40
2.5
100
AcDbArc
 50
180.0
 51
270.0
  0
LINE
  5
1468
330
2
100
AcDbEntity
  8
0
100
AcDbLine
 10
175.7487844689082
 20
246.0704290186717
 30
0.0
 11
173.2487914689081
 21
246.0704290186717
 31
0.0
  0
CIRCLE
  5
1469
330
2
100
AcDbEntity
  8
0
100
AcDbCircle
 10
175.7488074689081
 20
242.0704290186717
 30
0.0
 40
2.75
  0
LINE
  5
146A
330
2
100
AcDbEntity
  8
0
100
AcDbLine
 10
177.7488074689083
 20
237.0704290186717
 30
0.0
 11
177.7488074689081
 21
234.0704197141253
 31
0.0
  0
LINE
  5
146B
330
2
100
AcDbEntity
  8
0
100
AcDbLine
 10
177.7488074689081
 20
232.0704197141253
 30
0.0
 11
177.7488074689081
 21
226.5704197141253
 31
0.0
  0
LINE
  5
146C
330
2
100
AcDbEntity
  8
0
100
AcDbLine
 10
235.7487994689081
 20
246.0704290186717
 30
0.0
 11
238.2487994689081
 21
246.0704290186717
 31
0.0
  0
ARC
  5
146D
330
2
100
AcDbEntity
  8
0
100
AcDbCircle
 10
238.2487994689081
 20
248.5704290186717
 30
0.0
 40
2.5
100
AcDbArc
 50
270.0
 51
0.0
  0
ARC
  5
146E
330
2
100
AcDbEntity
  8
0
100
AcDbCircle
 10
237.4987994689081
 20
240.3204290186716
 30
0.0
 40
1.35
100
AcDbArc
 50
90.0
 51
180.0
  0
ARC
  5
146F
330
2
100
AcDbEntity
  8
0
100
AcDbCircle
 10
237.4987994689081
 20
243.8204290186717
 30
0.0
 40
1.35
100
AcDbArc
 50
180.0
 51
270.0
  0
LINE
  5
1470
330
2
100
AcDbEntity
  8
0
100
AcDbLine
 10
235.3487754689081
 20
240.3204290186716
 30
0.0
 11
236.148793468908
 21
240.3204290186716
 31
0.0
  0
LINE
  5
1471
330
2
100
AcDbEntity
  8
0
100
AcDbLine
 10
235.3487754689081
 20
243.8204290186717
 30
0.0
 11
236.148793468908
 21
243.8204290186717
 31
0.0
  0
LINE
  5
1472
330
2
100
AcDbEntity
  8
0
100
AcDbLine
 10
237.4987994689081
 20
242.4704230186716
 30
0.0
 11
237.4987994689081
 21
241.6704040186716
 31
0.0
  0
ARC
  5
1473
330
2
100
AcDbEntity
  8
0
100
AcDbCircle
 10
238.2487994689081
 20
239.5704290186717
 30
0.0
 40
2.5
100
AcDbArc
 50
270.0
 51
0.0
  0
LINE
  5
1474
330
2
100
AcDbEntity
  8
0
100
AcDbLine
 10
233.9987994689081
 20
242.4704230186716
 30
0.0
 11
233.9987994689081
 21
241.6704040186716
 31
0.0
  0
LINE
  5
1475
330
2
100
AcDbEntity
  8
0
100
AcDbLine
 10
231.7488074689081
 20
242.0704290186717
 30
0.0
 11
231.7488074689081
 21
239.5704290186717
 31
0.0
  0
ARC
  5
1476
330
2
100
AcDbEntity
  8
0
100
AcDbCircle
 10
229.2488074689081
 20
239.5704290186717
 30
0.0
 40
2.5
100
AcDbArc
 50
270.0
 51
0.0
  0
ARC
  5
1477
330
2
100
AcDbEntity
  8
0
100
AcDbCircle
 10
235.7487994689081
 20
242.0704290186717
 30
0.0
 40
4.0
100
AcDbArc
 50
90.0
 51
180.0
  0
CIRCLE
  5
1478
330
2
100
AcDbEntity
  8
0
100
AcDbCircle
 10
235.7487994689081
 20
242.0704290186717
 30
0.0
 40
2.75
  0
ARC
  5
1479
330
2
100
AcDbEntity
  8
0
100
AcDbCircle
 10
233.9987994689081
 20
240.3204290186716
 30
0.0
 40
1.35
100
AcDbArc
 50
0.0
 51
90.0
  0
ARC
  5
147A
330
2
100
AcDbEntity
  8
0
100
AcDbCircle
 10
233.9987994689081
 20
243.8204290186717
 30
0.0
 40
1.35
100
AcDbArc
 50
270.0
 51
0.0
  0
LINE
  5
147B
330
2
100
AcDbEntity
  8
0
100
AcDbLine
 10
242.7488074689081
 20
245.0704197141253
 30
0.0
 11
240.7487994689081
 21
245.0704197141253
 31
0.0
  0
LINE
  5
147C
330
2
100
AcDbEntity
  8
0
100
AcDbLine
 10
173.2488074689081
 20
307.0704750186715
 30
0.0
 11
238.2487994689081
 21
307.0704750186715
 31
0.0
  0
LINE
  5
147D
330
2
100
AcDbEntity
  8
0
100
AcDbLine
 10
179.7488074689081
 20
302.0704750186715
 30
0.0
 11
179.7488074689081
 21
304.5704440186716
 31
0.0
  0
ARC
  5
147E
330
2
100
AcDbEntity
  8
0
100
AcDbCircle
 10
177.4988074689081
 20
303.8204670186715
 30
0.0
 40
1.35
100
AcDbArc
 50
180.0
 51
270.0
  0
LINE
  5
147F
330
2
100
AcDbEntity
  8
0
100
AcDbLine
 10
177.4988074689081
 20
302.4704610186716
 30
0.0
 11
177.4988074689081
 21
301.6704430186716
 31
0.0
  0
LINE
  5
1480
330
2
100
AcDbEntity
  8
0
100
AcDbLine
 10
173.9988074689081
 20
302.4704610186716
 30
0.0
 11
173.9988074689081
 21
301.6704430186716
 31
0.0
  0
ARC
  5
1481
330
2
100
AcDbEntity
  8
0
100
AcDbCircle
 10
173.9988074689081
 20
303.8204670186715
 30
0.0
 40
1.35
100
AcDbArc
 50
270.0
 51
0.0
  0
CIRCLE
  5
1482
330
2
100
AcDbEntity
  8
0
100
AcDbCircle
 10
175.7488074689081
 20
302.0704670186716
 30
0.0
 40
2.75
  0
LINE
  5
1483
330
2
100
AcDbEntity
  8
0
100
AcDbLine
 10
169.7488074689081
 20
336.0704197141253
 30
0.0
 11
169.7488074689081
 21
286.5704290186716
 31
0.0
  0
LINE
  5
1484
330
2
100
AcDbEntity
  8
0
100
AcDbLine
 10
175.3487824689082
 20
300.3204670186716
 30
0.0
 11
176.1488014689082
 21
300.3204670186716
 31
0.0
  0
ARC
  5
1485
330
2
100
AcDbEntity
  8
0
100
AcDbCircle
 10
175.7488074689081
 20
302.0704670186716
 30
0.0
 40
4.0
100
AcDbArc
 50
270.0
 51
0.0
  0
ARC
  5
1486
330
2
100
AcDbEntity
  8
0
100
AcDbCircle
 10
177.4988074689081
 20
300.3204670186716
 30
0.0
 40
1.35
100
AcDbArc
 50
90.0
 51
180.0
  0
ARC
  5
1487
330
2
100
AcDbEntity
  8
0
100
AcDbCircle
 10
173.9988074689081
 20
300.3204670186716
 30
0.0
 40
1.35
100
AcDbArc
 50
0.0
 51
90.0
  0
ARC
  5
1488
330
2
100
AcDbEntity
  8
0
100
AcDbCircle
 10
173.2488074689081
 20
295.5704670186715
 30
0.0
 40
2.5
100
AcDbArc
 50
90.0
 51
180.0
  0
LINE
  5
1489
330
2
100
AcDbEntity
  8
0
100
AcDbLine
 10
169.2488534689082
 20
286.5704290186716
 30
0.0
 11
170.7488074689081
 21
286.5704290186716
 31
0.0
  0
LINE
  5
148A
330
2
100
AcDbEntity
  8
0
100
AcDbLine
 10
175.7488074689081
 20
298.0704670186716
 30
0.0
 11
173.2487914689081
 21
298.0704670186716
 31
0.0
  0
LINE
  5
148B
330
2
100
AcDbEntity
  8
0
100
AcDbLine
 10
175.3487824689082
 20
303.8204670186715
 30
0.0
 11
176.1488014689082
 21
303.8204670186715
 31
0.0
  0
ARC
  5
148C
330
2
100
AcDbEntity
  8
0
100
AcDbCircle
 10
182.2488074689081
 20
304.5704670186716
 30
0.0
 40
2.5
100
AcDbArc
 50
90.0
 51
180.0
  0
ARC
  5
148D
330
2
100
AcDbEntity
  8
0
100
AcDbCircle
 10
173.2488074689081
 20
304.5704670186716
 30
0.0
 40
2.5
100
AcDbArc
 50
90.0
 51
180.0
  0
LINE
  5
148E
330
2
100
AcDbEntity
  8
0
100
AcDbLine
 10
177.7488074689081
 20
324.5704197141253
 30
0.0
 11
177.7488074689081
 21
319.5704197141253
 31
0.0
  0
LINE
  5
148F
330
2
100
AcDbEntity
  8
0
100
AcDbLine
 10
177.7488074689081
 20
330.5518647141257
 30
0.0
 11
177.7488074689081
 21
326.5704197141253
 31
0.0
  0
LINE
  5
1490
330
2
100
AcDbEntity
  8
0
100
AcDbLine
 10
177.7488074689081
 20
317.5704197141253
 30
0.0
 11
177.7488074689081
 21
312.0704197141253
 31
0.0
  0
LINE
  5
1491
330
2
100
AcDbEntity
  8
0
100
AcDbLine
 10
177.7488074689081
 20
310.0704197141253
 30
0.0
 11
177.7488074689081
 21
307.0704750186715
 31
0.0
  0
ARC
  5
1492
330
2
100
AcDbEntity
  8
0
100
AcDbCircle
 10
237.4987994689081
 20
303.8204670186715
 30
0.0
 40
1.35
100
AcDbArc
 50
180.0
 51
270.0
  0
LINE
  5
1493
330
2
100
AcDbEntity
  8
0
100
AcDbLine
 10
237.4987994689081
 20
302.4704610186716
 30
0.0
 11
237.4987994689081
 21
301.6704430186716
 31
0.0
  0
LINE
  5
1494
330
2
100
AcDbEntity
  8
0
100
AcDbLine
 10
231.7488074689081
 20
302.0704750186715
 30
0.0
 11
231.7488074689081
 21
304.5704750186716
 31
0.0
  0
LINE
  5
1495
330
2
100
AcDbEntity
  8
0
100
AcDbLine
 10
233.9987994689081
 20
302.4704610186716
 30
0.0
 11
233.9987994689081
 21
301.6704430186716
 31
0.0
  0
ARC
  5
1496
330
2
100
AcDbEntity
  8
0
100
AcDbCircle
 10
233.9987994689081
 20
303.8204670186715
 30
0.0
 40
1.35
100
AcDbArc
 50
270.0
 51
0.0
  0
CIRCLE
  5
1497
330
2
100
AcDbEntity
  8
0
100
AcDbCircle
 10
235.7487994689081
 20
302.0704670186716
 30
0.0
 40
2.75
  0
LINE
  5
1498
330
2
100
AcDbEntity
  8
0
100
AcDbLine
 10
235.7487994689081
 20
298.0704670186716
 30
0.0
 11
238.2487994689081
 21
298.0704670186716
 31
0.0
  0
LINE
  5
1499
330
2
100
AcDbEntity
  8
0
100
AcDbLine
 10
235.3487754689081
 20
300.3204670186716
 30
0.0
 11
236.148793468908
 21
300.3204670186716
 31
0.0
  0
ARC
  5
149A
330
2
100
AcDbEntity
  8
0
100
AcDbCircle
 10
238.2487994689081
 20
295.5704440186716
 30
0.0
 40
2.5
100
AcDbArc
 50
0.0
 51
90.0
  0
ARC
  5
149B
330
2
100
AcDbEntity
  8
0
100
AcDbCircle
 10
235.7487994689081
 20
302.0704670186716
 30
0.0
 40
4.0
100
AcDbArc
 50
180.0
 51
270.0
  0
ARC
  5
149C
330
2
100
AcDbEntity
  8
0
100
AcDbCircle
 10
237.4987994689081
 20
300.3204670186716
 30
0.0
 40
1.35
100
AcDbArc
 50
90.0
 51
180.0
  0
ARC
  5
149D
330
2
100
AcDbEntity
  8
0
100
AcDbCircle
 10
233.9987994689081
 20
300.3204670186716
 30
0.0
 40
1.35
100
AcDbArc
 50
0.0
 51
90.0
  0
LINE
  5
149E
330
2
100
AcDbEntity
  8
0
100
AcDbLine
 10
242.7488074689081
 20
299.0704197141253
 30
0.0
 11
240.7487994689081
 21
299.0704197141253
 31
0.0
  0
LINE
  5
149F
330
2
100
AcDbEntity
  8
0
100
AcDbLine
 10
235.3487754689081
 20
303.8204670186715
 30
0.0
 11
236.148793468908
 21
303.8204670186715
 31
0.0
  0
ARC
  5
14A0
330
2
100
AcDbEntity
  8
0
100
AcDbCircle
 10
238.2487994689081
 20
304.5704440186716
 30
0.0
 40
2.5
100
AcDbArc
 50
0.0
 51
90.0
  0
ARC
  5
14A1
330
2
100
AcDbEntity
  8
0
100
AcDbCircle
 10
229.2488074689081
 20
304.5704670186716
 30
0.0
 40
2.5
100
AcDbArc
 50
0.0
 51
90.0
  0
LINE
  5
14A2
330
2
100
AcDbEntity
  8
0
100
AcDbLine
 10
293.7488074689081
 20
257.470809714126
 30
0.0
 11
293.7488074689081
 21
263.2706147141257
 31
0.0
  0
LINE
  5
14A3
330
2
100
AcDbEntity
  8
0
100
AcDbLine
 10
244.7488074689081
 20
247.0704197141253
 30
0.0
 11
244.7488074689081
 21
297.0704197141253
 31
0.0
  0
LINE
  5
14A5
330
2
100
AcDbEntity
  8
0
100
AcDbLine
 10
244.7488074689081
 20
255.470809714126
 30
0.0
 11
293.7488074689081
 21
255.470809714126
 31
0.0
  0
LINE
  5
14A6
330
2
100
AcDbEntity
  8
0
100
AcDbLine
 10
244.7488074689081
 20
257.470809714126
 30
0.0
 11
293.7488074689081
 21
257.470809714126
 31
0.0
  0
LINE
  5
14A7
330
2
100
AcDbEntity
  8
0
100
AcDbLine
 10
244.7488074689081
 20
247.6705167141267
 30
0.0
 11
293.7488074689081
 21
247.6705167141267
 31
0.0
  0
LINE
  5
14A8
330
2
100
AcDbEntity
  8
0
100
AcDbLine
 10
244.7488074689081
 20
249.6705167141267
 30
0.0
 11
293.7488074689081
 21
249.6705167141267
 31
0.0
  0
LINE
  5
14A9
330
2
100
AcDbEntity
  8
0
100
AcDbLine
 10
293.7488074689081
 20
219.5704197141253
 30
0.0
 11
293.7488074689081
 21
224.5704197141253
 31
0.0
  0
LINE
  5
14AA
330
2
100
AcDbEntity
  8
0
100
AcDbLine
 10
293.7488074689081
 20
213.5894627141265
 30
0.0
 11
293.7488074689081
 21
217.5704197141253
 31
0.0
  0
LINE
  5
14AB
330
2
100
AcDbEntity
  8
0
100
AcDbLine
 10
293.7488074689081
 20
241.8707127141265
 30
0.0
 11
293.7488074689081
 21
247.6705167141267
 31
0.0
  0
LINE
  5
14AC
330
2
100
AcDbEntity
  8
0
100
AcDbLine
 10
293.7488074689081
 20
234.0704197141253
 30
0.0
 11
293.7488074689081
 21
239.8707127141264
 31
0.0
  0
LINE
  5
14AD
330
2
100
AcDbEntity
  8
0
100
AcDbLine
 10
293.7488074689081
 20
226.5704197141253
 30
0.0
 11
293.7488074689081
 21
232.0704197141253
 31
0.0
  0
LINE
  5
14AE
330
2
100
AcDbEntity
  8
0
100
AcDbLine
 10
293.7488074689081
 20
249.6705167141267
 30
0.0
 11
293.7488074689081
 21
255.470809714126
 31
0.0
  0
LINE
  5
14AF
330
2
100
AcDbEntity
  8
0
100
AcDbLine
 10
244.7488074689081
 20
296.470809714126
 30
0.0
 11
293.7488074689081
 21
296.470809714126
 31
0.0
  0
LINE
  5
14B0
330
2
100
AcDbEntity
  8
0
100
AcDbLine
 10
244.7488074689081
 20
294.470809714126
 30
0.0
 11
293.7488074689081
 21
294.470809714126
 31
0.0
  0
LINE
  5
14B1
330
2
100
AcDbEntity
  8
0
100
AcDbLine
 10
244.7488074689081
 20
288.6705167141267
 30
0.0
 11
293.7488074689081
 21
288.6705167141267
 31
0.0
  0
LINE
  5
14B2
330
2
100
AcDbEntity
  8
0
100
AcDbLine
 10
244.7488074689081
 20
286.6705167141267
 30
0.0
 11
293.7488074689081
 21
286.6705167141267
 31
0.0
  0
LINE
  5
14B3
330
2
100
AcDbEntity
  8
0
100
AcDbLine
 10
244.7488074689081
 20
263.2706147141257
 30
0.0
 11
293.7488074689081
 21
263.2706147141257
 31
0.0
  0
LINE
  5
14B4
330
2
100
AcDbEntity
  8
0
100
AcDbLine
 10
244.7488074689081
 20
280.8707127141265
 30
0.0
 11
293.7488074689081
 21
280.8707127141265
 31
0.0
  0
LINE
  5
14B5
330
2
100
AcDbEntity
  8
0
100
AcDbLine
 10
244.7488074689081
 20
265.2706147141257
 30
0.0
 11
293.7488074689081
 21
265.2706147141257
 31
0.0
  0
LINE
  5
14B6
330
2
100
AcDbEntity
  8
0
100
AcDbLine
 10
244.7488074689081
 20
278.8707127141265
 30
0.0
 11
293.7488074689081
 21
278.8707127141265
 31
0.0
  0
LINE
  5
14B7
330
2
100
AcDbEntity
  8
0
100
AcDbLine
 10
244.7488074689081
 20
271.0704197141253
 30
0.0
 11
293.7488074689081
 21
271.0704197141253
 31
0.0
  0
LINE
  5
14B8
330
2
100
AcDbEntity
  8
0
100
AcDbLine
 10
244.7488074689081
 20
273.0704197141253
 30
0.0
 11
293.7488074689081
 21
273.0704197141253
 31
0.0
  0
LINE
  5
14B9
330
2
100
AcDbEntity
  8
0
100
AcDbLine
 10
293.7488074689081
 20
296.470809714126
 30
0.0
 11
293.7488074689081
 21
302.2706147141257
 31
0.0
  0
LINE
  5
14BA
330
2
100
AcDbEntity
  8
0
100
AcDbLine
 10
293.7488074689081
 20
288.6705167141267
 30
0.0
 11
293.7488074689081
 21
294.470809714126
 31
0.0
  0
LINE
  5
14BB
330
2
100
AcDbEntity
  8
0
100
AcDbLine
 10
293.7488074689081
 20
280.8707127141265
 30
0.0
 11
293.7488074689081
 21
286.6705167141267
 31
0.0
  0
LINE
  5
14BC
330
2
100
AcDbEntity
  8
0
100
AcDbLine
 10
293.7488074689081
 20
265.2706147141257
 30
0.0
 11
293.7488074689081
 21
271.0704197141253
 31
0.0
  0
LINE
  5
14BD
330
2
100
AcDbEntity
  8
0
100
AcDbLine
 10
293.7488074689081
 20
273.0704197141253
 30
0.0
 11
293.7488074689081
 21
278.8707127141265
 31
0.0
  0
LINE
  5
14BE
330
2
100
AcDbEntity
  8
0
100
AcDbLine
 10
293.7488074689081
 20
319.5704197141253
 30
0.0
 11
293.7488074689081
 21
324.5704197141253
 31
0.0
  0
LINE
  5
14BF
330
2
100
AcDbEntity
  8
0
100
AcDbLine
 10
293.7488074689081
 20
330.5518647141257
 30
0.0
 11
293.7488074689081
 21
326.5704197141253
 31
0.0
  0
LINE
  5
14C0
330
2
100
AcDbEntity
  8
0
100
AcDbLine
 10
293.7488074689081
 20
312.0704197141253
 30
0.0
 11
293.7488074689081
 21
317.5704197141253
 31
0.0
  0
LINE
  5
14C1
330
2
100
AcDbEntity
  8
0
100
AcDbLine
 10
293.7488074689081
 20
304.2706147141257
 30
0.0
 11
293.7488074689081
 21
310.0704197141253
 31
0.0
  0
LINE
  5
1541
330
2
100
AcDbEntity
  8
0
100
AcDbLine
 10
167.7488074689081
 20
744.9702670180654
 30
0.0
 11
301.7488074689081
 21
744.9702670180654
 31
0.0
  0
LINE
  5
1542
330
2
100
AcDbEntity
  8
0
100
AcDbLine
 10
178.2488074689081
 20
706.9702670180654
 30
0.0
 11
293.2488074689081
 21
706.9702670180654
 31
0.0
  0
LINE
  5
1543
330
2
100
AcDbEntity
  8
0
100
AcDbLine
 10
177.7488074689081
 20
715.1870640180645
 30
0.0
 11
293.7488074689081
 21
715.1870640180645
 31
0.0
  0
LINE
  5
1544
330
2
100
AcDbEntity
  8
0
100
AcDbLine
 10
178.7488074689081
 20
719.1470240180647
 30
0.0
 11
292.7488074689081
 21
719.1470240180647
 31
0.0
  0
LINE
  5
1545
330
2
100
AcDbEntity
  8
0
100
AcDbLine
 10
177.7488074689081
 20
724.5381380180647
 30
0.0
 11
293.7488074689081
 21
724.5381380180647
 31
0.0
  0
LINE
  5
1546
330
2
100
AcDbEntity
  8
0
100
AcDbLine
 10
178.7488074689081
 20
727.9688020180643
 30
0.0
 11
292.7488074689081
 21
727.9688020180643
 31
0.0
  0
LINE
  5
1547
330
2
100
AcDbEntity
  8
0
100
AcDbLine
 10
177.7488074689081
 20
731.449759018064
 30
0.0
 11
293.7488074689081
 21
731.449759018064
 31
0.0
  0
LINE
  5
1548
330
2
100
AcDbEntity
  8
0
100
AcDbLine
 10
178.7488074689081
 20
732.9771030180658
 30
0.0
 11
292.7488074689081
 21
732.9771030180658
 31
0.0
  0
LINE
  5
1549
330
2
100
AcDbEntity
  8
0
100
AcDbLine
 10
177.7488074689081
 20
736.7041530180654
 30
0.0
 11
293.7488074689081
 21
736.7041530180654
 31
0.0
  0
LINE
  5
154A
330
2
100
AcDbEntity
  8
0
100
AcDbLine
 10
177.7488074689081
 20
740.465384018064
 30
0.0
 11
293.7488074689081
 21
740.465384018064
 31
0.0
  0
LINE
  5
154B
330
2
100
AcDbEntity
  8
0
100
AcDbLine
 10
177.7488074689081
 20
743.0107940180646
 30
0.0
 11
293.7488074689081
 21
743.0107940180646
 31
0.0
  0
LINE
  5
154C
330
2
100
AcDbEntity
  8
0
100
AcDbLine
 10
177.7488074689081
 20
744.4878450180644
 30
0.0
 11
293.7488074689081
 21
744.4878450180644
 31
0.0
  0
LINE
  5
154D
330
2
100
AcDbEntity
  8
0
100
AcDbLine
 10
178.2488074689081
 20
654.9702670180654
 30
0.0
 11
293.2488074689081
 21
654.9702670180654
 31
0.0
  0
LINE
  5
154E
330
2
100
AcDbEntity
  8
0
100
AcDbLine
 10
177.7488074689081
 20
646.7534700180644
 30
0.0
 11
293.7488074689081
 21
646.7534700180644
 31
0.0
  0
LINE
  5
154F
330
2
100
AcDbEntity
  8
0
100
AcDbLine
 10
177.7488074689081
 20
642.793509018064
 30
0.0
 11
292.7488074689081
 21
642.793509018064
 31
0.0
  0
LINE
  5
1550
330
2
100
AcDbEntity
  8
0
100
AcDbLine
 10
177.7488074689081
 20
625.2358920180654
 30
0.0
 11
293.7488074689081
 21
625.2358920180654
 31
0.0
  0
LINE
  5
1551
330
2
100
AcDbEntity
  8
0
100
AcDbLine
 10
178.7488074689081
 20
618.9702670180654
 30
0.0
 11
243.7488074689081
 21
618.9702670180654
 31
0.0
  0
LINE
  5
1552
330
2
100
AcDbEntity
  8
0
100
AcDbLine
 10
177.7488074689081
 20
637.4019070180643
 30
0.0
 11
293.7488074689081
 21
637.4019070180643
 31
0.0
  0
LINE
  5
1553
330
2
100
AcDbEntity
  8
0
100
AcDbLine
 10
177.7488074689081
 20
633.9717310180644
 30
0.0
 11
292.7488074689081
 21
633.9717310180644
 31
0.0
  0
LINE
  5
1554
330
2
100
AcDbEntity
  8
0
100
AcDbLine
 10
177.7488074689081
 20
628.9629420180631
 30
0.0
 11
292.7488074689081
 21
628.9629420180631
 31
0.0
  0
LINE
  5
1555
330
2
100
AcDbEntity
  8
0
100
AcDbLine
 10
177.7488074689081
 20
630.490286018065
 30
0.0
 11
293.7488074689081
 21
630.490286018065
 31
0.0
  0
ARC
  5
1556
330
2
100
AcDbEntity
  8
0
100
AcDbCircle
 10
229.7746024689081
 20
616.4693820180655
 30
0.0
 40
1.0
100
AcDbArc
 50
1.499300000000813
 51
90.0
  0
ARC
  5
1557
330
2
100
AcDbEntity
  8
0
100
AcDbCircle
 10
181.7230044689081
 20
616.4693820180655
 30
0.0
 40
1.0
100
AcDbArc
 50
90.0
 51
178.499404999999
  0
LINE
  5
1558
330
2
100
AcDbEntity
  8
CENTER
100
AcDbLine
 10
205.7488074689081
 20
627.5529617388911
 30
0.0
 11
205.7488074689081
 21
546.3757840180655
 31
0.0
  0
ARC
  5
1559
330
2
100
AcDbEntity
  8
0
100
AcDbCircle
 10
118.6672034689079
 20
628.9731960180638
 30
0.0
 40
13.0
100
AcDbArc
 50
188.6181999999977
 51
270.0
  0
ARC
  5
155A
330
2
100
AcDbEntity
  8
0
100
AcDbCircle
 10
467.548543468908
 20
680.9717310180644
 30
0.0
 40
345.0
100
AcDbArc
 50
180.0002329999556
 51
191.5879999999779
  0
LINE
  5
155B
330
2
100
AcDbEntity
  8
0
100
AcDbLine
 10
167.7488074689081
 20
610.4697780180654
 30
0.0
 11
167.7488074689081
 21
751.4702670180654
 31
0.0
  0
LINE
  5
155E
330
2
100
AcDbEntity
  8
CENTER
100
AcDbLine
 10
177.4299630582172
 20
580.4693820180655
 30
0.0
 11
133.9990890780027
 21
580.4693820180655
 31
0.0
  0
LINE
  5
155F
330
2
100
AcDbEntity
  8
0
100
AcDbLine
 10
131.0499854689078
 20
610.4717310180644
 30
0.0
 11
167.7488074689081
 21
610.4697780180654
 31
0.0
  0
LINE
  5
1560
330
2
100
AcDbEntity
  8
0
100
AcDbLine
 10
124.3091104689083
 20
342.5704197141253
 30
0.0
 11
167.7488074689081
 21
342.5704197141253
 31
0.0
  0
LINE
  5
1561
330
2
100
AcDbEntity
  8
0
100
AcDbLine
 10
118.6672034689081
 20
615.9731960180638
 30
0.0
 11
128.1013464689076
 21
615.9731960180638
 31
0.0
  0
ARC
  5
156D
330
2
100
AcDbEntity
  8
0
100
AcDbCircle
 10
131.0501384689075
 20
611.9717310180645
 30
0.0
 40
1.5
100
AcDbArc
 50
191.587909999979
 51
270.0
  0
ARC
  5
156E
330
2
100
AcDbEntity
  8
0
100
AcDbCircle
 10
127.9015784689079
 20
614.9731960180638
 30
0.0
 40
1.0
100
AcDbArc
 50
10.99650600004569
 51
90.0
  0
ARC
  5
1572
330
2
100
AcDbEntity
  8
0
100
AcDbCircle
 10
205.7488074689081
 20
674.9693820180655
 30
0.0
 40
68.800003
100
AcDbArc
 50
258.8441999999981
 51
281.1558000000018
  0
LINE
  5
1573
330
2
100
AcDbEntity
  8
0
100
AcDbLine
 10
240.7487994689081
 20
564.4693820180654
 30
0.0
 11
170.7488074689081
 21
564.4693820180654
 31
0.0
  0
LINE
  5
1574
330
2
100
AcDbEntity
  8
0
100
AcDbLine
 10
240.7487994689081
 20
563.4693820180655
 30
0.0
 11
170.7488074689081
 21
563.4693820180655
 31
0.0
  0
LINE
  5
1575
330
2
100
AcDbEntity
  8
0
100
AcDbLine
 10
173.2488074689081
 20
558.4693820180653
 30
0.0
 11
238.2487994689081
 21
558.4693820180653
 31
0.0
  0
LINE
  5
1576
330
2
100
AcDbEntity
  8
0
100
AcDbLine
 10
171.8112074689081
 20
604.5475680180654
 30
0.0
 11
170.7488074689081
 21
564.4693820180654
 31
0.0
  0
LINE
  5
1577
330
2
100
AcDbEntity
  8
0
100
AcDbLine
 10
169.2488074689081
 20
594.9695800180655
 30
0.0
 11
169.2488074689081
 21
565.9693820180653
 31
0.0
  0
ARC
  5
1578
330
2
100
AcDbEntity
  8
0
100
AcDbCircle
 10
180.8016024689082
 20
559.4693820180655
 30
0.0
 40
1.0
100
AcDbArc
 50
181.5003969999999
 51
270.0
  0
LINE
  5
1579
330
2
100
AcDbEntity
  8
0
100
AcDbLine
 10
179.7616014689081
 20
560.9825810180654
 30
0.0
 11
179.8018004689081
 21
559.4431820180655
 31
0.0
  0
LINE
  5
157A
330
2
100
AcDbEntity
  8
0
100
AcDbLine
 10
175.7488074689081
 20
558.9693820180655
 30
0.0
 11
176.030003468908
 21
558.4825810180655
 31
0.0
  0
LINE
  5
157B
330
2
100
AcDbEntity
  8
0
100
AcDbLine
 10
175.7488074689081
 20
558.9693820180655
 30
0.0
 11
175.4678014689081
 21
558.4825810180655
 31
0.0
  0
ARC
  5
157C
330
2
100
AcDbEntity
  8
0
100
AcDbCircle
 10
179.2618074689082
 20
560.9693820180654
 30
0.0
 40
0.5
100
AcDbArc
 50
1.500199999999713
 51
90.0
  0
LINE
  5
157D
330
2
100
AcDbEntity
  8
0
100
AcDbLine
 10
170.7488074689081
 20
563.4693820180655
 30
0.0
 11
170.7488074689081
 21
564.4693820180654
 31
0.0
  0
LINE
  5
157E
330
2
100
AcDbEntity
  8
0
100
AcDbLine
 10
169.2488074689081
 20
565.9693820180653
 30
0.0
 11
170.7886024689082
 21
565.9693820180653
 31
0.0
  0
ARC
  5
157F
330
2
100
AcDbEntity
  8
0
100
AcDbCircle
 10
173.2488074689081
 20
560.9693820180654
 30
0.0
 40
2.5
100
AcDbArc
 50
180.0
 51
270.0
  0
ARC
  5
1580
330
2
100
AcDbEntity
  8
0
100
AcDbCircle
 10
171.7488074689081
 20
562.4693820180653
 30
0.0
 40
1.0
100
AcDbArc
 50
180.0
 51
270.0
  0
LINE
  5
1581
330
2
100
AcDbEntity
  8
0
100
AcDbLine
 10
170.7488074689081
 20
560.9693820180654
 30
0.0
 11
170.7488074689081
 21
563.4693820180655
 31
0.0
  0
LINE
  5
1582
330
2
100
AcDbEntity
  8
0
100
AcDbLine
 10
178.7068074689082
 20
560.9693820180654
 30
0.0
 11
172.7908064689081
 21
560.9693820180654
 31
0.0
  0
ARC
  5
1583
330
2
100
AcDbEntity
  8
0
100
AcDbCircle
 10
175.7488074689081
 20
561.4693820180654
 30
0.0
 40
3.0
100
AcDbArc
 50
180.0
 51
0.0
  0
LINE
  5
1584
330
2
100
AcDbEntity
  8
0
100
AcDbLine
 10
179.2618074689082
 20
561.4693820180654
 30
0.0
 11
171.7488074689081
 21
561.4693820180654
 31
0.0
  0
LINE
  5
1585
330
2
100
AcDbEntity
  8
0
100
AcDbLine
 10
174.7970024689082
 20
607.4693820180655
 30
0.0
 11
192.4376044689083
 21
607.4693820180655
 31
0.0
  0
ARC
  5
1586
330
2
100
AcDbEntity
  8
0
100
AcDbCircle
 10
178.538586468908
 20
609.4693820180655
 30
0.0
 40
2.0
100
AcDbArc
 50
270.0
 51
358.5000920000001
  0
LINE
  5
1587
330
2
100
AcDbEntity
  8
0
100
AcDbLine
 10
180.7232484689081
 20
616.4955660180653
 30
0.0
 11
180.5379004689082
 21
609.4170440180655
 31
0.0
  0
LINE
  5
1588
330
2
100
AcDbEntity
  8
0
100
AcDbLine
 10
169.2488074689081
 20
594.9695800180655
 30
0.0
 11
171.5574004689081
 21
594.9695800180655
 31
0.0
  0
ARC
  5
1589
330
2
100
AcDbEntity
  8
0
100
AcDbCircle
 10
174.7968034689081
 20
604.4693820180655
 30
0.0
 40
3.0
100
AcDbArc
 50
90.0
 51
178.5002749999988
  0
LINE
  5
158A
330
2
100
AcDbEntity
  8
0
100
AcDbLine
 10
239.685811468908
 20
604.5475680180654
 30
0.0
 11
240.7487994689081
 21
564.4693820180654
 31
0.0
  0
LINE
  5
158B
330
2
100
AcDbEntity
  8
0
100
AcDbLine
 10
240.7487994689081
 20
563.4693820180655
 30
0.0
 11
240.7487994689081
 21
564.4693820180654
 31
0.0
  0
LINE
  5
158C
330
2
100
AcDbEntity
  8
0
100
AcDbLine
 10
235.7487994689081
 20
558.9693820180655
 30
0.0
 11
236.030003468908
 21
558.4825810180655
 31
0.0
  0
LINE
  5
158D
330
2
100
AcDbEntity
  8
0
100
AcDbLine
 10
235.7487994689081
 20
558.9693820180655
 30
0.0
 11
235.467808468908
 21
558.4825810180655
 31
0.0
  0
ARC
  5
158E
330
2
100
AcDbEntity
  8
0
100
AcDbCircle
 10
238.2487994689081
 20
560.9693820180654
 30
0.0
 40
2.5
100
AcDbArc
 50
270.0
 51
0.0
  0
ARC
  5
158F
330
2
100
AcDbEntity
  8
0
100
AcDbCircle
 10
239.7487994689081
 20
562.4693820180653
 30
0.0
 40
1.0
100
AcDbArc
 50
270.0
 51
0.0
  0
LINE
  5
1590
330
2
100
AcDbEntity
  8
0
100
AcDbLine
 10
240.7487994689081
 20
560.9693820180654
 30
0.0
 11
240.7487994689081
 21
563.4693820180655
 31
0.0
  0
LINE
  5
1591
330
2
100
AcDbEntity
  8
0
100
AcDbLine
 10
231.7360054689079
 20
560.9825810180654
 30
0.0
 11
231.695805468908
 21
559.4431820180655
 31
0.0
  0
ARC
  5
1592
330
2
100
AcDbEntity
  8
0
100
AcDbCircle
 10
230.6962024689082
 20
559.4693820180655
 30
0.0
 40
1.0
100
AcDbArc
 50
270.0
 51
358.5001999999988
  0
ARC
  5
1593
330
2
100
AcDbEntity
  8
0
100
AcDbCircle
 10
232.2360054689084
 20
560.9693820180654
 30
0.0
 40
0.5
100
AcDbArc
 50
90.0
 51
178.5000000000004
  0
LINE
  5
1594
330
2
100
AcDbEntity
  8
0
100
AcDbLine
 10
238.7068074689082
 20
560.9693820180654
 30
0.0
 11
232.7908064689081
 21
560.9693820180654
 31
0.0
  0
ARC
  5
1595
330
2
100
AcDbEntity
  8
0
100
AcDbCircle
 10
235.7487994689081
 20
561.4693820180654
 30
0.0
 40
3.0
100
AcDbArc
 50
180.0
 51
0.0
  0
LINE
  5
1596
330
2
100
AcDbEntity
  8
0
100
AcDbLine
 10
232.2360054689084
 20
561.4693820180654
 30
0.0
 11
239.7487994689081
 21
561.4693820180654
 31
0.0
  0
LINE
  5
1597
330
2
100
AcDbEntity
  8
0
100
AcDbLine
 10
236.7000014689083
 20
607.4693820180655
 30
0.0
 11
219.0600024689083
 21
607.4693820180655
 31
0.0
  0
ARC
  5
1598
330
2
100
AcDbEntity
  8
0
100
AcDbCircle
 10
236.7000014689083
 20
604.4693820180655
 30
0.0
 40
3.0
100
AcDbArc
 50
1.499899999999632
 51
90.0
  0
ARC
  5
1599
330
2
100
AcDbEntity
  8
0
100
AcDbCircle
 10
232.959004468908
 20
609.4693820180655
 30
0.0
 40
2.0
100
AcDbArc
 50
181.5033719999999
 51
270.0
  0
LINE
  5
159A
330
2
100
AcDbEntity
  8
0
100
AcDbLine
 10
230.7739154689079
 20
616.4955350180655
 30
0.0
 11
230.9596914689082
 21
609.4169220180654
 31
0.0
  0
LINE
  5
159B
330
2
100
AcDbEntity
  8
0
100
AcDbLine
 10
131.0499854689078
 20
751.4683140180645
 30
0.0
 11
167.7488074689081
 21
751.4702670180654
 31
0.0
  0
ARC
  5
159C
330
2
100
AcDbEntity
  8
0
100
AcDbCircle
 10
461.7485024689076
 20
680.9673370180648
 30
0.0
 40
360.0
100
AcDbArc
 50
171.3813929999783
 51
180.0
  0
ARC
  5
159D
330
2
100
AcDbEntity
  8
0
100
AcDbCircle
 10
467.548543468908
 20
680.9688020180642
 30
0.0
 40
345.0
100
AcDbArc
 50
168.411987000042
 51
179.9997559999962
  0
ARC
  5
159E
330
2
100
AcDbEntity
  8
0
100
AcDbCircle
 10
461.7485024689076
 20
680.9731960180638
 30
0.0
 40
360.0
100
AcDbArc
 50
180.0
 51
188.6186070000216
  0
LINE
  5
159F
330
2
100
AcDbEntity
  8
0
100
AcDbLine
 10
118.6672034689081
 20
745.9673370180649
 30
0.0
 11
128.1013464689076
 21
745.9673370180649
 31
0.0
  0
ARC
  5
15A0
330
2
100
AcDbEntity
  8
0
100
AcDbCircle
 10
118.6672034689081
 20
732.9673370180649
 30
0.0
 40
13.0
100
AcDbArc
 50
90.0
 51
171.3818050000497
  0
ARC
  5
15A1
330
2
100
AcDbEntity
  8
0
100
AcDbCircle
 10
127.9015784689081
 20
746.9673370180649
 30
0.0
 40
1.0
100
AcDbArc
 50
270.0
 51
349.0034939999542
  0
ARC
  5
15A2
330
2
100
AcDbEntity
  8
0
100
AcDbCircle
 10
131.0501384689077
 20
749.9683140180645
 30
0.0
 40
1.5
100
AcDbArc
 50
90.0
 51
168.4120900000209
  0
LINE
  5
15A3
330
2
100
AcDbEntity
  8
0
100
AcDbLine
 10
169.7488074689081
 20
616.9702670180654
 30
0.0
 11
169.7488074689081
 21
744.9702670180654
 31
0.0
  0
LINE
  5
15A4
330
2
100
AcDbEntity
  8
0
100
AcDbLine
 10
229.7746024689081
 20
617.4693820180655
 30
0.0
 11
181.7230044689081
 21
617.4693820180655
 31
0.0
  0
LINE
  5
15A5
330
2
100
AcDbEntity
  8
0
100
AcDbLine
 10
182.7488074689081
 20
617.4693820180655
 30
0.0
 11
182.7488074689081
 21
618.9693820180655
 31
0.0
  0
ARC
  5
15A6
330
2
100
AcDbEntity
  8
0
100
AcDbCircle
 10
178.2488074689078
 20
654.4702670180654
 30
0.0
 40
0.5
100
AcDbArc
 50
90.0
 51
180.0
  0
ARC
  5
15A7
330
2
100
AcDbEntity
  8
0
100
AcDbCircle
 10
178.7488074689079
 20
619.9702670180654
 30
0.0
 40
1.0
100
AcDbArc
 50
180.0
 51
270.0
  0
LINE
  5
15A8
330
2
100
AcDbEntity
  8
0
100
AcDbLine
 10
167.7488074689081
 20
616.9702670180654
 30
0.0
 11
177.7488074689081
 21
616.9702670180654
 31
0.0
  0
LINE
  5
15A9
330
2
100
AcDbEntity
  8
0
100
AcDbLine
 10
177.7488074689081
 20
654.4702670180654
 30
0.0
 11
177.7488074689081
 21
616.9702670180654
 31
0.0
  0
LINE
  5
15AA
330
2
100
AcDbEntity
  8
0
100
AcDbLine
 10
228.7488074689081
 20
617.4693820180655
 30
0.0
 11
228.7488074689081
 21
618.9693820180655
 31
0.0
  0
LINE
  5
15AB
330
2
100
AcDbEntity
  8
0
100
AcDbLine
 10
177.7488074689081
 20
707.4702670180654
 30
0.0
 11
177.7488074689081
 21
744.9702670180654
 31
0.0
  0
ARC
  5
15AC
330
2
100
AcDbEntity
  8
0
100
AcDbCircle
 10
178.2488074689078
 20
707.4702670180654
 30
0.0
 40
0.5
100
AcDbArc
 50
180.0
 51
270.0
  0
LINE
  5
15AE
330
2
100
AcDbEntity
  8
0
100
AcDbLine
 10
245.2488074689081
 20
616.9702670180654
 30
0.0
 11
301.7488074689081
 21
616.9702670180654
 31
0.0
  0
LINE
  5
15AF
330
2
100
AcDbEntity
  8
0
100
AcDbLine
 10
244.7488074689081
 20
621.474661018065
 30
0.0
 11
293.7488074689081
 21
621.474661018065
 31
0.0
  0
LINE
  5
15B0
330
2
100
AcDbEntity
  8
0
100
AcDbLine
 10
244.7488074689081
 20
618.9297390180641
 30
0.0
 11
293.7488074689081
 21
618.9297390180641
 31
0.0
  0
LINE
  5
15B1
330
2
100
AcDbEntity
  8
0
100
AcDbLine
 10
245.2488074689081
 20
617.4522000180645
 30
0.0
 11
293.7488074689081
 21
617.4522000180645
 31
0.0
  0
LINE
  5
15B2
330
2
100
AcDbEntity
  8
0
100
AcDbLine
 10
244.7488074689081
 20
617.4702670180654
 30
0.0
 11
244.7488074689081
 21
624.2358920180654
 31
0.0
  0
ARC
  5
15B3
330
2
100
AcDbEntity
  8
0
100
AcDbCircle
 10
245.2488074689081
 20
617.4702670180654
 30
0.0
 40
0.5
100
AcDbArc
 50
180.0
 51
270.0
  0
ARC
  5
15B4
330
2
100
AcDbEntity
  8
0
100
AcDbCircle
 10
245.2488074689081
 20
617.9522000180646
 30
0.0
 40
0.5
100
AcDbArc
 50
180.0
 51
270.0
  0
ARC
  5
15B5
330
2
100
AcDbEntity
  8
0
100
AcDbCircle
 10
243.7488074689081
 20
619.9702670180654
 30
0.0
 40
1.0
100
AcDbArc
 50
270.0
 51
0.0
  0
ARC
  5
15B6
330
2
100
AcDbEntity
  8
0
100
AcDbCircle
 10
245.7488074689081
 20
624.2358920180654
 30
0.0
 40
1.0
100
AcDbArc
 50
90.0
 51
180.0
  0
ARC
  5
15B7
330
2
100
AcDbEntity
  8
0
100
AcDbCircle
 10
293.2488074689081
 20
654.4702670180654
 30
0.0
 40
0.5
100
AcDbArc
 50
0.0
 51
90.0
  0
LINE
  5
15B8
330
2
100
AcDbEntity
  8
0
100
AcDbLine
 10
293.7488074689081
 20
654.4702670180654
 30
0.0
 11
293.7488074689081
 21
616.9702670180654
 31
0.0
  0
LINE
  5
15B9
330
2
100
AcDbEntity
  8
0
100
AcDbLine
 10
293.7488074689081
 20
707.4702670180654
 30
0.0
 11
293.7488074689081
 21
744.9702670180654
 31
0.0
  0
ARC
  5
15BA
330
2
100
AcDbEntity
  8
0
100
AcDbCircle
 10
293.2488074689081
 20
707.4702670180654
 30
0.0
 40
0.5
100
AcDbArc
 50
270.0
 51
0.0
  0
LINE
  5
161E
330
2
100
AcDbEntity
  8
CENTER
100
AcDbLine
 10
792.9713920329616
 20
314.5274197141252
 30
0.0
 11
792.9713920329616
 21
227.8305777141254
 31
0.0
  0
LINE
  5
161F
330
2
100
AcDbEntity
  8
0
100
AcDbLine
 10
776.971392032962
 20
307.0704197141251
 30
0.0
 11
776.9713920329621
 21
299.5704197141253
 31
0.0
  0
LINE
  5
1620
330
2
100
AcDbEntity
  8
0
100
AcDbLine
 10
775.9713920329616
 20
307.0704197141251
 30
0.0
 11
775.9713920329616
 21
299.5704197141253
 31
0.0
  0
LINE
  5
1621
330
2
100
AcDbEntity
  8
0
100
AcDbLine
 10
770.9713920329615
 20
239.5704227141252
 30
0.0
 11
770.9713920329615
 21
259.5704197141253
 31
0.0
  0
LINE
  5
1622
330
2
100
AcDbEntity
  8
0
100
AcDbLine
 10
776.971392032962
 20
307.0704197141251
 30
0.0
 11
776.9713920329621
 21
299.5704197141253
 31
0.0
  0
LINE
  5
1625
330
2
100
AcDbEntity
  8
0
100
AcDbLine
 10
811.352490037785
 20
237.9818408169825
 30
0.0
 11
776.971392032962
 21
237.0704227141252
 31
0.0
  0
LINE
  5
1626
330
2
100
AcDbEntity
  8
0
100
AcDbLine
 10
775.9713920329616
 20
237.0704227141252
 30
0.0
 11
776.971392032962
 21
237.0704227141252
 31
0.0
  0
ARC
  5
1627
330
2
100
AcDbEntity
  8
0
100
AcDbCircle
 10
773.4713920329616
 20
245.5833627141253
 30
0.0
 40
0.5
100
AcDbArc
 50
0.0
 51
88.49980199999491
  0
LINE
  5
1628
330
2
100
AcDbEntity
  8
0
100
AcDbLine
 10
773.4713920329616
 20
245.0284307141253
 30
0.0
 11
773.4713920329616
 21
239.1124117141253
 31
0.0
  0
LINE
  5
1629
330
2
100
AcDbEntity
  8
0
100
AcDbLine
 10
773.9713920329616
 20
245.5833627141253
 30
0.0
 11
773.9713920329616
 21
238.0704227141252
 31
0.0
  0
ARC
  5
162A
330
2
100
AcDbEntity
  8
0
100
AcDbCircle
 10
774.971392032962
 20
238.0704227141252
 30
0.0
 40
1.0
100
AcDbArc
 50
180.0
 51
270.0
  0
LINE
  5
162B
330
2
100
AcDbEntity
  8
0
100
AcDbLine
 10
773.4713920329616
 20
237.0704227141252
 30
0.0
 11
775.9713920329616
 21
237.0704227141252
 31
0.0
  0
ARC
  5
162C
330
2
100
AcDbEntity
  8
0
100
AcDbCircle
 10
771.9713920329616
 20
247.1231497141254
 30
0.0
 40
1.0
100
AcDbArc
 50
180.0
 51
268.4996030000016
  0
LINE
  5
162D
330
2
100
AcDbEntity
  8
0
100
AcDbLine
 10
771.4713920329615
 20
242.0704227141252
 30
0.0
 11
770.9845760329614
 21
242.3515507141253
 31
0.0
  0
LINE
  5
162E
330
2
100
AcDbEntity
  8
0
100
AcDbLine
 10
771.4713920329615
 20
242.0704227141252
 30
0.0
 11
770.9845760329614
 21
241.7893527141252
 31
0.0
  0
LINE
  5
162F
330
2
100
AcDbEntity
  8
0
100
AcDbLine
 10
773.4844840329617
 20
246.0832407141253
 30
0.0
 11
771.9451780329616
 21
246.1235197141254
 31
0.0
  0
ARC
  5
1630
330
2
100
AcDbEntity
  8
0
100
AcDbCircle
 10
773.4713920329616
 20
239.5704227141252
 30
0.0
 40
2.5
100
AcDbArc
 50
180.0
 51
270.0
  0
ARC
  5
1631
330
2
100
AcDbEntity
  8
0
100
AcDbCircle
 10
773.9713920329616
 20
242.0704227141252
 30
0.0
 40
3.0
100
AcDbArc
 50
90.0
 51
270.0
  0
LINE
  5
1639
330
2
100
AcDbEntity
  8
0
100
AcDbLine
 10
817.049548032962
 20
306.0074687141252
 30
0.0
 11
776.971392032962
 21
307.0704197141251
 31
0.0
  0
LINE
  5
163A
330
2
100
AcDbEntity
  8
0
100
AcDbLine
 10
773.9713920329617
 20
299.5704197141252
 30
0.0
 11
773.9713920329616
 21
306.0704197141251
 31
0.0
  0
ARC
  5
163B
330
2
100
AcDbEntity
  8
0
100
AcDbCircle
 10
773.4713920329616
 20
304.5704197141253
 30
0.0
 40
2.5
100
AcDbArc
 50
90.0
 51
180.0
  0
LINE
  5
163C
330
2
100
AcDbEntity
  8
0
100
AcDbLine
 10
773.4713920329616
 20
305.0284197141252
 30
0.0
 11
773.4713920329616
 21
299.5704197141252
 31
0.0
  0
LINE
  5
163F
330
2
100
AcDbEntity
  8
0
100
AcDbLine
 10
771.4713920329615
 20
302.0704197141251
 30
0.0
 11
770.9845760329614
 21
302.3515247141253
 31
0.0
  0
LINE
  5
1640
330
2
100
AcDbEntity
  8
0
100
AcDbLine
 10
771.4713920329615
 20
302.0704197141251
 30
0.0
 11
770.9845760329614
 21
301.7893217141252
 31
0.0
  0
ARC
  5
1641
330
2
100
AcDbEntity
  8
0
100
AcDbCircle
 10
773.9713920329616
 20
302.0704197141251
 30
0.0
 40
3.0
100
AcDbArc
 50
90.0
 51
236.4426902380707
  0
LINE
  5
1643
330
2
100
AcDbEntity
  8
0
100
AcDbLine
 10
775.9713920329616
 20
307.0704197141251
 30
0.0
 11
776.971392032962
 21
307.0704197141251
 31
0.0
  0
ARC
  5
1644
330
2
100
AcDbEntity
  8
0
100
AcDbCircle
 10
774.971392032962
 20
306.0704197141251
 30
0.0
 40
1.0
100
AcDbArc
 50
90.0
 51
180.0
  0
LINE
  5
1645
330
2
100
AcDbEntity
  8
0
100
AcDbLine
 10
773.4713920329616
 20
307.0704197141251
 30
0.0
 11
775.9713920329616
 21
307.0704197141251
 31
0.0
  0
ARC
  5
1647
330
2
100
AcDbEntity
  8
0
100
AcDbCircle
 10
816.9713920329616
 20
303.0217207141252
 30
0.0
 40
3.0
100
AcDbArc
 50
0.0
 51
88.50009899999827
  0
LINE
  5
164B
330
2
100
AcDbEntity
  8
0
100
AcDbLine
 10
819.9713920329616
 20
303.0217207141252
 30
0.0
 11
819.9713920329616
 21
302.0704197141253
 31
0.0
  0
LINE
  5
16C3
330
2
100
AcDbEntity
  8
CENTER
100
AcDbLine
 10
755.9713920329616
 20
272.0704197141253
 30
0.0
 11
981.4722770329622
 21
272.0704197141253
 31
0.0
  0
LINE
  5
16C4
330
2
100
AcDbEntity
  8
0
100
AcDbLine
 10
776.9713920329621
 20
259.5704197141253
 30
0.0
 11
776.971392032962
 21
237.0704227141252
 31
0.0
  0
LINE
  5
16C5
330
2
100
AcDbEntity
  8
0
100
AcDbLine
 10
775.9713920329616
 20
259.5704197141253
 30
0.0
 11
775.9713920329616
 21
237.0704227141252
 31
0.0
  0
LINE
  5
16C6
330
2
100
AcDbEntity
  8
0
100
AcDbLine
 10
776.9713920329621
 20
259.5704197141253
 30
0.0
 11
776.971392032962
 21
237.0704227141252
 31
0.0
  0
LINE
  5
16C7
330
2
100
AcDbEntity
  8
0
100
AcDbLine
 10
770.9713920329615
 20
299.5704197141253
 30
0.0
 11
770.9713920329615
 21
304.5704197141253
 31
0.0
  0
TEXT
  5
1713
330
2
100
AcDbEntity
  8
TITLE
100
AcDbText
 10
760.8828207612049
 20
648.7226755457531
 30
0.0
 40
10.0
  1
H2LB-40R-300~450-T040A
100
AcDbText
  0
LINE
  5
17C3
330
2
100
AcDbEntity
  8
0
100
AcDbLine
 10
142.7488534689082
 20
265.1423037133237
 30
0.0
 11
150.7488534689082
 21
265.1423037133237
 31
0.0
  0
LINE
  5
17C4
330
2
100
AcDbEntity
  8
0
100
AcDbLine
 10
142.7488534689082
 20
278.9987101738748
 30
0.0
 11
150.7488534689082
 21
278.9987101738748
 31
0.0
  0
LINE
  5
17C5
330
2
100
AcDbEntity
  8
0
100
AcDbLine
 10
142.7488534689082
 20
285.9269134041502
 30
0.0
 11
150.7488534689082
 21
285.9269134041502
 31
0.0
  0
LINE
  5
17C6
330
2
100
AcDbEntity
  8
0
100
AcDbLine
 10
142.7488534689082
 20
258.2141004830483
 30
0.0
 11
150.7488534689082
 21
258.2141004830483
 31
0.0
  0
LINE
  5
17C7
330
2
100
AcDbEntity
  8
0
100
AcDbLine
 10
142.7488534689082
 20
258.2141004830483
 30
0.0
 11
142.7488534689082
 21
285.9269134041502
 31
0.0
  0
LINE
  5
17C8
330
2
100
AcDbEntity
  8
0
100
AcDbLine
 10
159.7488534689082
 20
260.0704900638284
 30
0.0
 11
159.7488534689082
 21
284.0704900638336
 31
0.0
  0
LINE
  5
17C9
330
2
100
AcDbEntity
  8
0
100
AcDbLine
 10
164.7488534689082
 20
258.2141004830483
 30
0.0
 11
164.7488534689082
 21
285.9269134041502
 31
0.0
  0
LINE
  5
17CB
330
2
100
AcDbEntity
  8
0
100
AcDbLine
 10
150.7488534689082
 20
258.2141004830483
 30
0.0
 11
150.7488534689082
 21
285.9269134041502
 31
0.0
  0
LINE
  5
17CC
330
2
100
AcDbEntity
  8
HOJO
100
AcDbLine
 10
159.7488534689082
 20
281.370490063833
 30
0.0
 11
164.7488534689082
 21
281.3704867861937
 31
0.0
  0
LINE
  5
17CD
330
2
100
AcDbEntity
  8
0
100
AcDbLine
 10
159.7488534689082
 20
261.5705018633304
 30
0.0
 11
164.7488534689082
 21
261.5705051409698
 31
0.0
  0
LINE
  5
17CE
330
2
100
AcDbEntity
  8
HOJO
100
AcDbLine
 10
159.7488534689082
 20
262.7705018633307
 30
0.0
 11
164.7488534689082
 21
262.7705051409701
 31
0.0
  0
LINE
  5
17CF
330
2
100
AcDbEntity
  8
0
100
AcDbLine
 10
150.7488534689082
 20
260.0704959635793
 30
0.0
 11
159.7488534689082
 21
260.0704900638284
 31
0.0
  0
LINE
  5
17D0
330
2
100
AcDbEntity
  8
0
100
AcDbLine
 10
164.7488534689082
 20
258.2141004830483
 30
0.0
 11
169.2488534689082
 21
258.2141004830483
 31
0.0
  0
LINE
  5
17D2
330
2
100
AcDbEntity
  8
0
100
AcDbLine
 10
164.7488534689082
 20
265.1423037133237
 30
0.0
 11
169.2488534689082
 21
265.1423037133237
 31
0.0
  0
LINE
  5
17D3
330
2
100
AcDbEntity
  8
0
100
AcDbLine
 10
164.7488534689082
 20
278.9987101738747
 30
0.0
 11
169.2488534689082
 21
278.9987101738747
 31
0.0
  0
LINE
  5
17D4
330
2
100
AcDbEntity
  8
0
100
AcDbLine
 10
159.7488534689082
 20
282.5704900638332
 30
0.0
 11
164.7488534689082
 21
282.5704867861939
 31
0.0
  0
LINE
  5
17D5
330
2
100
AcDbEntity
  8
0
100
AcDbLine
 10
150.7488534689082
 20
284.0704959635844
 30
0.0
 11
159.7488534689082
 21
284.0704900638336
 31
0.0
  0
LINE
  5
17D6
330
2
100
AcDbEntity
  8
0
100
AcDbLine
 10
164.7488534689082
 20
285.9269134041502
 30
0.0
 11
169.2488534689082
 21
285.9269134041502
 31
0.0
  0
LINE
  5
17DC
330
2
100
AcDbEntity
  8
0
100
AcDbLine
 10
142.7489754689079
 20
592.469382018068
 30
0.0
 11
159.7489754689079
 21
592.4693708740942
 31
0.0
  0
LINE
  5
17DD
330
2
100
AcDbEntity
  8
0
100
AcDbLine
 10
150.7489754689079
 20
580.4693877538599
 30
0.0
 11
142.7489754689079
 21
580.4693820180655
 31
0.0
  0
LINE
  5
17DE
330
2
100
AcDbEntity
  8
0
100
AcDbLine
 10
142.7489754689079
 20
568.469382018063
 30
0.0
 11
159.7489754689079
 21
568.4693708740891
 31
0.0
  0
LINE
  5
17DF
330
2
100
AcDbEntity
  8
0
100
AcDbLine
 10
142.7489754689079
 20
568.469382018063
 30
0.0
 11
142.7489754689079
 21
592.469382018068
 31
0.0
  0
LINE
  5
17E0
330
2
100
AcDbEntity
  8
0
100
AcDbLine
 10
150.7489754689079
 20
568.4693877538599
 30
0.0
 11
150.7489754689079
 21
592.4693877538599
 31
0.0
  0
LINE
  5
17E1
330
2
100
AcDbEntity
  8
0
100
AcDbLine
 10
159.7489754689079
 20
568.4693708740891
 30
0.0
 11
159.7489754689079
 21
592.4693708740942
 31
0.0
  0
LINE
  5
17E2
330
2
100
AcDbEntity
  8
0
100
AcDbLine
 10
164.7488034689079
 20
592.4693708740942
 30
0.0
 11
164.7488034689079
 21
568.4693708740891
 31
0.0
  0
LINE
  5
17E3
330
2
100
AcDbEntity
  8
0
100
AcDbLine
 10
159.7489754689079
 20
590.9693708740938
 30
0.0
 11
164.7489754689079
 21
590.9693675964545
 31
0.0
  0
LINE
  5
17E4
330
2
100
AcDbEntity
  8
HOJO
100
AcDbLine
 10
159.7489754689079
 20
589.7693708740937
 30
0.0
 11
164.7489754689079
 21
589.7693675964543
 31
0.0
  0
LINE
  5
17E5
330
2
100
AcDbEntity
  8
HOJO
100
AcDbLine
 10
159.7489754689079
 20
571.1693826735913
 30
0.0
 11
164.7489754689079
 21
571.1693859512307
 31
0.0
  0
LINE
  5
17E6
330
2
100
AcDbEntity
  8
0
100
AcDbLine
 10
159.7489754689079
 20
569.969382673591
 30
0.0
 11
164.7489754689079
 21
569.9693859512304
 31
0.0
  0
LINE
  5
17E7
330
2
100
AcDbEntity
  8
0
100
AcDbLine
 10
164.7488034689079
 20
568.4693708740891
 30
0.0
 11
169.2488074689081
 21
568.4693708740891
 31
0.0
  0
LINE
  5
17E8
330
2
100
AcDbEntity
  8
0
100
AcDbLine
 10
169.2488074689081
 20
580.4693741004789
 30
0.0
 11
164.7488034689079
 21
580.4693708740917
 31
0.0
  0
LINE
  5
17EA
330
2
100
AcDbEntity
  8
0
100
AcDbLine
 10
164.7488034689079
 20
592.4693708740942
 30
0.0
 11
169.2488074689081
 21
592.4693708740942
 31
0.0
  0
ENDSEC
  0
SECTION
  2
OBJECTS
  0
DICTIONARY
  5
7
330
0
100
AcDbDictionary
  3
ACAD_GROUP
350
75
  3
ACAD_LAYOUT
350
61
  3
ACAD_MLINESTYLE
350
76
  3
ACAD_PLOTSETTINGS
350
77
  3
ACAD_PLOTSTYLENAME
350
6
  3
ACADDIM
350
480
  3
ACDBHEADERROUNDTRIPXREC
350
1852
  3
ACDBVARIABLEDICTIONARY
350
102
  3
DWGPROPS
350
3D2
  0
DICTIONARY
  5
1873
330
2
100
AcDbDictionary
280
     1
  3
ACAD_LAYOUTSELFREF
360
1874
  0
DICTIONARY
  5
1875
330
184C
100
AcDbDictionary
280
     1
  3
ACAD_LAYOUTSELFREF
360
1876
  0
DICTIONARY
  5
75
102
{ACAD_REACTORS
330
7
102
}
330
7
100
AcDbDictionary
  0
DICTIONARY
  5
61
102
{ACAD_REACTORS
330
7
102
}
330
7
100
AcDbDictionary
  0
DICTIONARY
  5
76
102
{ACAD_REACTORS
330
7
102
}
330
7
100
AcDbDictionary
  3
STANDARD
350
78
  0
DICTIONARY
  5
77
102
{ACAD_REACTORS
330
7
102
}
330
7
100
AcDbDictionary
  0
ACDBDICTIONARYWDFLT
  5
6
102
{ACAD_REACTORS
330
7
102
}
330
7
100
AcDbDictionary
281
     1
  3
Normal
350
5
100
AcDbDictionaryWithDefault
340
5
  0
XRECORD
  5
480
102
{ACAD_REACTORS
330
7
102
}
330
7
100
AcDbXrecord
 90
   990106
  3

 60
     0
 61
     0
 62
     1
 63
     3
 64
     1
 65
     0
 66
     0
 67
     3
 68
     1
 69
     0
 70
     0
 71
     0
 72
     0
 40
0.0
170
     2
340
0
  0
DICTIONARY
  5
1852
102
{ACAD_REACTORS
330
7
102
}
330
7
100
AcDbDictionary
  3
CEPSNTYPE
350
185C
  3
DIMSTYLEDATA
350
1860
  3
FINGERPRINTGUID
350
185D
  3
HYPERLINKBASE
350
1855
  3
INSUNITS
350
185B
  3
LAYOUTDICT
350
1857
  3
LWETCUNION
350
185A
  3
PLOTSETDICT
350
1858
  3
PLOTSTYLNAMDICT
350
1859
  3
PSVPSCALE
350
185F
  3
PUCSBASE
350
1863
  3
PUCSORGBACK
350
1869
  3
PUCSORGBOTTOM
350
1865
  3
PUCSORGFRONT
350
1868
  3
PUCSORGLEFT
350
1866
  3
PUCSORGRIGHT
350
1867
  3
PUCSORGTOP
350
1864
  3
PUCSORTHOREF
350
1861
  3
PUCSORTHOVIEW
350
1862
  3
STYLESHEET
350
1856
  3
TSTACKALIGN
350
1853
  3
TSTACKSIZE
350
1854
  3
UCSBASE
350
186C
  3
UCSORGBACK
350
1872
  3
UCSORGBOTTOM
350
186E
  3
UCSORGFRONT
350
1871
  3
UCSORGLEFT
350
186F
  3
UCSORGRIGHT
350
1870
  3
UCSORGTOP
350
186D
  3
UCSORTHOREF
350
186A
  3
UCSORTHOVIEW
350
186B
  3
VERSIONGUID
350
185E
  0
DICTIONARY
  5
102
102
{ACAD_REACTORS
330
7
102
}
330
7
100
AcDbDictionary
  3
DIMASSOC
350
103
  0
XRECORD
  5
3D2
102
{ACAD_REACTORS
330
7
102
}
330
7
100
AcDbXrecord
  1
DWGPROPS COOKIE
  2

  3

  4

  6

  7

  8

  9

300
=
301
=
302
=
303
=
304
=
305
=
306
=
307
=
308
=
309
=
 40
0.5353330671296296
 41
2452052.431989363
 42
2453406.550756377
  1

 90
        0
  0
XRECORD
  5
1874
102
{ACAD_REACTORS
330
1873
102
}
330
1873
100
AcDbXrecord
340
2
  0
XRECORD
  5
1876
102
{ACAD_REACTORS
330
1875
102
}
330
1875
100
AcDbXrecord
340
184C
  0
MLINESTYLE
  5
78
102
{ACAD_REACTORS
330
76
102
}
330
76
100
AcDbMlineStyle
  2
STANDARD
 70
     0
  3

 62
     0
 51
90.0
 52
90.0
 71
     2
 49
0.5
 62
   256
  6
BYLAYER
 49
-0.5
 62
   256
  6
BYLAYER
  0
ACDBPLACEHOLDER
  5
5
102
{ACAD_REACTORS
330
6
102
}
330
6
100
AcDbPlaceHolder
280
     0
  0
XRECORD
  5
185C
102
{ACAD_REACTORS
330
1852
102
}
330
1852
100
AcDbXrecord
 90
        0
  0
XRECORD
  5
1860
102
{ACAD_REACTORS
330
1852
102
}
330
1852
100
AcDbXrecord
1000
DSTYLE
1002
{
1070
   179
 70
     2
1070
   277
 70
     6
1002
}
  0
XRECORD
  5
185D
102
{ACAD_REACTORS
330
1852
102
}
330
1852
100
AcDbXrecord
  1
{6385560B-F4B1-4644-A7C2-A3E32AC3D232}
  0
XRECORD
  5
1855
102
{ACAD_REACTORS
330
1852
102
}
330
1852
100
AcDbXrecord
  1

  0
XRECORD
  5
185B
102
{ACAD_REACTORS
330
1852
102
}
330
1852
100
AcDbXrecord
 90
        0
  0
XRECORD
  5
1857
102
{ACAD_REACTORS
330
1852
102
}
330
1852
100
AcDbXrecord
340
61
  0
XRECORD
  5
185A
102
{ACAD_REACTORS
330
1852
102
}
330
1852
100
AcDbXrecord
 90
    10781
  0
XRECORD
  5
1858
102
{ACAD_REACTORS
330
1852
102
}
330
1852
100
AcDbXrecord
340
77
  0
XRECORD
  5
1859
102
{ACAD_REACTORS
330
1852
102
}
330
1852
100
AcDbXrecord
340
6
  0
XRECORD
  5
185F
102
{ACAD_REACTORS
330
1852
102
}
330
1852
100
AcDbXrecord
 40
0.0
  0
XRECORD
  5
1863
102
{ACAD_REACTORS
330
1852
102
}
330
1852
100
AcDbXrecord
340
0
  0
XRECORD
  5
1869
102
{ACAD_REACTORS
330
1852
102
}
330
1852
100
AcDbXrecord
 10
0.0
 20
0.0
 30
0.0
  0
XRECORD
  5
1865
102
{ACAD_REACTORS
330
1852
102
}
330
1852
100
AcDbXrecord
 10
0.0
 20
0.0
 30
0.0
  0
XRECORD
  5
1868
102
{ACAD_REACTORS
330
1852
102
}
330
1852
100
AcDbXrecord
 10
0.0
 20
0.0
 30
0.0
  0
XRECORD
  5
1866
102
{ACAD_REACTORS
330
1852
102
}
330
1852
100
AcDbXrecord
 10
0.0
 20
0.0
 30
0.0
  0
XRECORD
  5
1867
102
{ACAD_REACTORS
330
1852
102
}
330
1852
100
AcDbXrecord
 10
0.0
 20
0.0
 30
0.0
  0
XRECORD
  5
1864
102
{ACAD_REACTORS
330
1852
102
}
330
1852
100
AcDbXrecord
 10
0.0
 20
0.0
 30
0.0
  0
XRECORD
  5
1861
102
{ACAD_REACTORS
330
1852
102
}
330
1852
100
AcDbXrecord
340
0
  0
XRECORD
  5
1862
102
{ACAD_REACTORS
330
1852
102
}
330
1852
100
AcDbXrecord
 70
     0
  0
XRECORD
  5
1856
102
{ACAD_REACTORS
330
1852
102
}
330
1852
100
AcDbXrecord
  1
Sekkei.ctb
  0
XRECORD
  5
1853
102
{ACAD_REACTORS
330
1852
102
}
330
1852
100
AcDbXrecord
 90
        1
  0
XRECORD
  5
1854
102
{ACAD_REACTORS
330
1852
102
}
330
1852
100
AcDbXrecord
 90
       70
  0
XRECORD
  5
186C
102
{ACAD_REACTORS
330
1852
102
}
330
1852
100
AcDbXrecord
340
0
  0
XRECORD
  5
1872
102
{ACAD_REACTORS
330
1852
102
}
330
1852
100
AcDbXrecord
 10
0.0
 20
0.0
 30
0.0
  0
XRECORD
  5
186E
102
{ACAD_REACTORS
330
1852
102
}
330
1852
100
AcDbXrecord
 10
0.0
 20
0.0
 30
0.0
  0
XRECORD
  5
1871
102
{ACAD_REACTORS
330
1852
102
}
330
1852
100
AcDbXrecord
 10
0.0
 20
0.0
 30
0.0
  0
XRECORD
  5
186F
102
{ACAD_REACTORS
330
1852
102
}
330
1852
100
AcDbXrecord
 10
0.0
 20
0.0
 30
0.0
  0
XRECORD
  5
1870
102
{ACAD_REACTORS
330
1852
102
}
330
1852
100
AcDbXrecord
 10
0.0
 20
0.0
 30
0.0
  0
XRECORD
  5
186D
102
{ACAD_REACTORS
330
1852
102
}
330
1852
100
AcDbXrecord
 10
0.0
 20
0.0
 30
0.0
  0
XRECORD
  5
186A
102
{ACAD_REACTORS
330
1852
102
}
330
1852
100
AcDbXrecord
340
0
  0
XRECORD
  5
186B
102
{ACAD_REACTORS
330
1852
102
}
330
1852
100
AcDbXrecord
 70
     0
  0
XRECORD
  5
185E
102
{ACAD_REACTORS
330
1852
102
}
330
1852
100
AcDbXrecord
  1
{9DE62874-772E-4FD1-BEDF-61EBED32154E}
  0
DICTIONARYVAR
  5
103
102
{ACAD_REACTORS
330
102
102
}
330
102
100
DictionaryVariables
280
     0
  1
1
  0
ENDSEC
  0
EOF
