  0
SECTION
  2
HEADER
  9
$ACADVER
  1
AC1014
  9
$ACADMAINTVER
 70
     9
  9
$DWGCODEPAGE
  3
ANSI_932
  9
$INSBASE
 10
0.0
 20
0.0
 30
0.0
  9
$EXTMIN
 10
84.61275543485863
 20
131.8827353575541
 30
0.0
  9
$EXTMAX
 10
1123.166077144124
 20
941.5003827148579
 30
0.0
  9
$LIMMIN
 10
0.0
 20
0.0
  9
$LIMMAX
 10
297.0
 20
210.0
  9
$ORTHOMODE
 70
     1
  9
$REGENMODE
 70
     1
  9
$FILLMODE
 70
     1
  9
$QTEXTMODE
 70
     0
  9
$MIRRTEXT
 70
     0
  9
$DRAGMODE
 70
     2
  9
$LTSCALE
 40
5.0
  9
$OSMODE
 70
    37
  9
$ATTMODE
 70
     1
  9
$TEXTSIZE
 40
2.0
  9
$TRACEWID
 40
1.0
  9
$TEXTSTYLE
  7
STANDARD
  9
$CLAYER
  8
0
  9
$CELTYPE
  6
BYLAYER
  9
$CECOLOR
 62
   256
  9
$CELTSCALE
 40
1.0
  9
$DELOBJ
 70
     1
  9
$DISPSILH
 70
     0
  9
$DIMSCALE
 40
5.0
  9
$DIMASZ
 40
1.8
  9
$DIMEXO
 40
0.625
  9
$DIMDLI
 40
3.75
  9
$DIMRND
 40
0.0
  9
$DIMDLE
 40
0.0
  9
$DIMEXE
 40
0.8
  9
$DIMTP
 40
0.0
  9
$DIMTM
 40
0.0
  9
$DIMTXT
 40
1.8
  9
$DIMCEN
 40
2.5
  9
$DIMTSZ
 40
0.0
  9
$DIMTOL
 70
     0
  9
$DIMLIM
 70
     0
  9
$DIMTIH
 70
     0
  9
$DIMTOH
 70
     0
  9
$DIMSE1
 70
     0
  9
$DIMSE2
 70
     0
  9
$DIMTAD
 70
     1
  9
$DIMZIN
 70
     8
  9
$DIMBLK
  1

  9
$DIMASO
 70
     1
  9
$DIMSHO
 70
     1
  9
$DIMPOST
  1

  9
$DIMAPOST
  1

  9
$DIMALT
 70
     0
  9
$DIMALTD
 70
     4
  9
$DIMALTF
 40
0.0394
  9
$DIMLFAC
 40
1.0
  9
$DIMTOFL
 70
     1
  9
$DIMTVP
 40
0.0
  9
$DIMTIX
 70
     0
  9
$DIMSOXD
 70
     0
  9
$DIMSAH
 70
     0
  9
$DIMBLK1
  1

  9
$DIMBLK2
  1

  9
$DIMSTYLE
  2
STANDARD
  9
$DIMCLRD
 70
     0
  9
$DIMCLRE
 70
     0
  9
$DIMCLRT
 70
     0
  9
$DIMTFAC
 40
1.0
  9
$DIMGAP
 40
0.75
  9
$DIMJUST
 70
     0
  9
$DIMSD1
 70
     0
  9
$DIMSD2
 70
     0
  9
$DIMTOLJ
 70
     1
  9
$DIMTZIN
 70
     0
  9
$DIMALTZ
 70
     0
  9
$DIMALTTZ
 70
     0
  9
$DIMFIT
 70
     3
  9
$DIMUPT
 70
     0
  9
$DIMUNIT
 70
     8
  9
$DIMDEC
 70
     2
  9
$DIMTDEC
 70
     2
  9
$DIMALTU
 70
     8
  9
$DIMALTTD
 70
     4
  9
$DIMTXSTY
  7
STANDARD
  9
$DIMAUNIT
 70
     0
  9
$LUNITS
 70
     2
  9
$LUPREC
 70
     3
  9
$SKETCHINC
 40
1.0
  9
$FILLETRAD
 40
10.0
  9
$AUNITS
 70
     0
  9
$AUPREC
 70
     2
  9
$MENU
  1
.
  9
$ELEVATION
 40
0.0
  9
$PELEVATION
 40
0.0
  9
$THICKNESS
 40
0.0
  9
$LIMCHECK
 70
     0
  9
$BLIPMODE
 70
     0
  9
$CHAMFERA
 40
0.0
  9
$CHAMFERB
 40
0.0
  9
$CHAMFERC
 40
20.0
  9
$CHAMFERD
 40
0.0
  9
$SKPOLY
 70
     0
  9
$TDCREATE
 40
2453868.468247604
  9
$TDUPDATE
 40
2454028.473714005
  9
$TDINDWG
 40
0.1060120255
  9
$TDUSRTIMER
 40
0.1060120255
  9
$USRTIMER
 70
     1
  9
$ANGBASE
 50
0.0
  9
$ANGDIR
 70
     0
  9
$PDMODE
 70
     0
  9
$PDSIZE
 40
-10.0
  9
$PLINEWID
 40
0.0
  9
$COORDS
 70
     2
  9
$SPLFRAME
 70
     0
  9
$SPLINETYPE
 70
     6
  9
$SPLINESEGS
 70
     8
  9
$ATTDIA
 70
     0
  9
$ATTREQ
 70
     1
  9
$HANDLING
 70
-16383
  9
$HANDSEED
  5
235A
  9
$SURFTAB1
 70
     6
  9
$SURFTAB2
 70
     6
  9
$SURFTYPE
 70
     6
  9
$SURFU
 70
     6
  9
$SURFV
 70
     6
  9
$UCSNAME
  2

  9
$UCSORG
 10
0.0
 20
0.0
 30
0.0
  9
$UCSXDIR
 10
1.0
 20
0.0
 30
0.0
  9
$UCSYDIR
 10
0.0
 20
1.0
 30
0.0
  9
$PUCSNAME
  2

  9
$PUCSORG
 10
0.0
 20
0.0
 30
0.0
  9
$PUCSXDIR
 10
1.0
 20
0.0
 30
0.0
  9
$PUCSYDIR
 10
0.0
 20
1.0
 30
0.0
  9
$USERI1
 70
     0
  9
$USERI2
 70
     0
  9
$USERI3
 70
     0
  9
$USERI4
 70
     0
  9
$USERI5
 70
     0
  9
$USERR1
 40
0.0
  9
$USERR2
 40
0.0
  9
$USERR3
 40
0.0
  9
$USERR4
 40
0.0
  9
$USERR5
 40
0.0
  9
$WORLDVIEW
 70
     1
  9
$SHADEDGE
 70
     3
  9
$SHADEDIF
 70
    70
  9
$TILEMODE
 70
     1
  9
$MAXACTVP
 70
    48
  9
$PINSBASE
 10
0.0
 20
0.0
 30
0.0
  9
$PLIMCHECK
 70
     0
  9
$PEXTMIN
 10
0.0
 20
0.0
 30
0.0
  9
$PEXTMAX
 10
0.0
 20
0.0
 30
0.0
  9
$PLIMMIN
 10
0.0
 20
0.0
  9
$PLIMMAX
 10
12.0
 20
9.0
  9
$UNITMODE
 70
     0
  9
$VISRETAIN
 70
     1
  9
$PLINEGEN
 70
     0
  9
$PSLTSCALE
 70
     1
  9
$TREEDEPTH
 70
  3020
  9
$PICKSTYLE
 70
     1
  9
$CMLSTYLE
  2
STANDARD
  9
$CMLJUST
 70
     0
  9
$CMLSCALE
 40
1.0
  9
$PROXYGRAPHICS
 70
     1
  9
$MEASUREMENT
 70
     0
  0
ENDSEC
  0
SECTION
  2
CLASSES
  0
CLASS
  1
DICTIONARYVAR
  2
AcDbDictionaryVar
  3
AutoCAD 2000
 90
        0
280
     0
281
     0
  0
CLASS
  1
ACDBDICTIONARYWDFLT
  2
AcDbDictionaryWithDefault
  3
AutoCAD 2000
 90
        0
280
     0
281
     0
  0
CLASS
  1
ACDBPLACEHOLDER
  2
AcDbPlaceHolder
  3
AutoCAD 2000
 90
        0
280
     0
281
     0
  0
CLASS
  1
LAYOUT
  2
AcDbLayout
  3
AutoCAD 2000
 90
        0
280
     0
281
     0
  0
CLASS
  1
LONG_TRANSACTION
  2
AcDbLongTransaction
  3
AutoCAD 2000
 90
        0
280
     0
281
     0
  0
CLASS
  1
LWPOLYLINE
  2
AcDbPolyline
  3
AutoCAD 2000
 90
        0
280
     0
281
     1
  0
CLASS
  1
HATCH
  2
AcDbHatch
  3
AutoCAD 2000
 90
        0
280
     0
281
     1
  0
CLASS
  1
XRECORD
  2
AcDbXrecord
  3
AutoCAD 2000
 90
        0
280
     0
281
     0
  0
ENDSEC
  0
SECTION
  2
TABLES
  0
TABLE
  2
VPORT
  5
6E
330
0
100
AcDbSymbolTable
 70
     2
  0
VPORT
  5
2334
330
6E
100
AcDbSymbolTableRecord
100
AcDbViewportTableRecord
  2
*ACTIVE
 70
     0
 10
0.0
 20
0.0
 11
1.0
 21
1.0
 12
590.1360784003384
 22
505.0288879983709
 13
0.0
 23
0.0
 14
10.0
 24
10.0
 15
10.0
 25
10.0
 16
0.0
 26
0.0
 36
1.0
 17
0.0
 27
0.0
 37
0.0
 40
879.8609780003713
 41
1.566970091027308
 42
50.0
 43
0.0
 44
0.0
 50
0.0
 51
0.0
 71
     0
 72
   100
 73
     1
 74
     3
 75
     0
 76
     0
 77
     0
 78
     0
  0
ENDTAB
  0
TABLE
  2
LTYPE
  5
69
330
0
100
AcDbSymbolTable
 70
     3
  0
LTYPE
  5
6A
330
69
100
AcDbSymbolTableRecord
100
AcDbLinetypeTableRecord
  2
BYBLOCK
 70
     0
  3

 72
    65
 73
     0
 40
0.0
  0
LTYPE
  5
6B
330
69
100
AcDbSymbolTableRecord
100
AcDbLinetypeTableRecord
  2
BYLAYER
 70
     0
  3

 72
    65
 73
     0
 40
0.0
  0
LTYPE
  5
8
330
69
100
AcDbSymbolTableRecord
100
AcDbLinetypeTableRecord
  2
CONTINUOUS
 70
     0
  3
Solid line
 72
    65
 73
     0
 40
0.0
  0
LTYPE
  5
27C
330
69
100
AcDbSymbolTableRecord
100
AcDbLinetypeTableRecord
  2
SEKKEI_A2_
 70
     0
  3
center(A2)  ____ _ ____ _ ____ _ ____ _ ____ _ 
 72
    65
 73
     4
 40
14.28749999999999
 49
9.525
 74
     0
 49
-1.587499999999999
 74
     0
 49
1.587499999999999
 74
     0
 49
-1.587499999999999
 74
     0
  0
LTYPE
  5
2B4
330
69
100
AcDbSymbolTableRecord
100
AcDbLinetypeTableRecord
  2
HIDDEN2
 70
     0
  3
Hidden (.5x) _ _ _ _ _ _ _ _ _ _ _ _ _ _ _ _ _
 72
    65
 73
     2
 40
4.762499999999999
 49
3.174999999999999
 74
     0
 49
-1.587499999999999
 74
     0
  0
ENDTAB
  0
TABLE
  2
LAYER
  5
66
330
0
100
AcDbSymbolTable
 70
     9
  0
LAYER
  5
5E
330
66
100
AcDbSymbolTableRecord
100
AcDbLayerTableRecord
  2
0
 70
     0
 62
     7
  6
CONTINUOUS
  0
LAYER
  5
3E
330
66
100
AcDbSymbolTableRecord
100
AcDbLayerTableRecord
  2
CENTER
 70
     0
 62
     3
  6
SEKKEI_A2_
  0
LAYER
  5
2B5
330
66
100
AcDbSymbolTableRecord
100
AcDbLayerTableRecord
  2
HIDS
 70
     0
 62
     1
  6
HIDDEN2
  0
LAYER
  5
3FA
330
66
100
AcDbSymbolTableRecord
100
AcDbLayerTableRecord
  2
TITLE
 70
     0
 62
     4
  6
CONTINUOUS
  0
LAYER
  5
2258
330
66
100
AcDbSymbolTableRecord
100
AcDbLayerTableRecord
  2
HOJO
 70
     0
 62
     4
  6
CONTINUOUS
  0
ENDTAB
  0
TABLE
  2
STYLE
  5
67
330
0
100
AcDbSymbolTable
 70
     1
  0
STYLE
  5
16
330
67
100
AcDbSymbolTableRecord
100
AcDbTextStyleTableRecord
  2
STANDARD
 70
     0
 40
0.0
 41
1.0
 50
0.0
 71
     0
 42
2.0
  3
simplex.shx
  4
extfont.shx
  0
ENDTAB
  0
TABLE
  2
VIEW
  5
6C
330
0
100
AcDbSymbolTable
 70
     0
  0
ENDTAB
  0
TABLE
  2
UCS
  5
6D
330
0
100
AcDbSymbolTable
 70
     0
  0
ENDTAB
  0
TABLE
  2
APPID
  5
70
330
0
100
AcDbSymbolTable
 70
     1
  0
APPID
  5
71
330
70
100
AcDbSymbolTableRecord
100
AcDbRegAppTableRecord
  2
ACAD
 70
     0
  0
ENDTAB
  0
TABLE
  2
DIMSTYLE
  5
72
330
0
100
AcDbSymbolTable
 70
     1
  0
DIMSTYLE
105
73
102
{ACAD_REACTORS
330
9ED
330
A11
102
}
330
72
100
AcDbSymbolTableRecord
100
AcDbDimStyleTableRecord
  2
STANDARD
 70
     0
  3

  4

  5

  6

  7

 40
5.0
 41
1.8
 42
0.625
 43
3.75
 44
0.8
 45
0.0
 46
0.0
 47
0.0
 48
0.0
140
1.8
141
2.5
142
0.0
143
0.0394
144
1.0
145
0.0
146
1.0
147
0.75
 71
     0
 72
     0
 73
     0
 74
     0
 75
     0
 76
     0
 77
     1
 78
     8
170
     0
171
     4
172
     1
173
     0
174
     0
175
     0
176
     0
177
     0
178
     0
270
     8
271
     2
272
     2
273
     8
274
     4
340
16
275
     0
280
     0
281
     0
282
     0
283
     1
284
     0
285
     0
286
     0
287
     3
288
     0
  0
ENDTAB
  0
TABLE
  2
BLOCK_RECORD
  5
1
330
0
100
AcDbSymbolTable
 70
    50
  0
BLOCK_RECORD
  5
2
102
{ACAD_XDICTIONARY
360
2356
102
}
330
1
100
AcDbSymbolTableRecord
100
AcDbBlockTableRecord
  2
*MODEL_SPACE
  0
BLOCK_RECORD
  5
232F
102
{ACAD_XDICTIONARY
360
2358
102
}
330
1
100
AcDbSymbolTableRecord
100
AcDbBlockTableRecord
  2
*PAPER_SPACE
  0
ENDTAB
  0
ENDSEC
  0
SECTION
  2
BLOCKS
  0
BLOCK
  5
5D
330
2
100
AcDbEntity
  8
0
100
AcDbBlockBegin
  2
*MODEL_SPACE
 70
     0
 10
0.0
 20
0.0
 30
0.0
  3
*MODEL_SPACE
  1

  0
ENDBLK
  5
5F
330
2
100
AcDbEntity
  8
0
100
AcDbBlockEnd
  0
BLOCK
  5
2331
330
232F
100
AcDbEntity
 67
     1
  8
0
100
AcDbBlockBegin
  2
*PAPER_SPACE
 70
     0
 10
0.0
 20
0.0
 30
0.0
  3
*PAPER_SPACE
  1

  0
ENDBLK
  5
2332
330
232F
100
AcDbEntity
 67
     1
  8
0
100
AcDbBlockEnd
  0
ENDSEC
  0
SECTION
  2
ENTITIES
  0
LINE
  5
8E1
330
2
100
AcDbEntity
  8
CENTER
100
AcDbLine
 10
84.61275543485863
 20
328.8827353575541
 30
0.0
 11
343.8687108779204
 21
328.8827353575541
 31
0.0
  0
LINE
  5
8E2
330
2
100
AcDbEntity
  8
CENTER
100
AcDbLine
 10
619.1129994229363
 20
806.5003827148572
 30
0.0
 11
84.61275543485863
 21
806.5003827148593
 31
0.0
  0
LINE
  5
9F3
330
2
100
AcDbEntity
  8
CENTER
100
AcDbLine
 10
992.7303446348682
 20
131.8827353575541
 30
0.0
 11
992.7303446348664
 21
479.8827353575541
 31
0.0
  0
LINE
  5
9F4
330
2
100
AcDbEntity
  8
CENTER
100
AcDbLine
 10
494.1129994229349
 20
479.8827353575541
 30
0.0
 11
494.1129994229331
 21
131.8827353575559
 31
0.0
  0
LINE
  5
9F5
330
2
100
AcDbEntity
  8
0
100
AcDbLine
 10
396.0015494229337
 20
419.3114463575545
 30
0.0
 11
455.4071894229346
 21
457.4999233575542
 31
0.0
  0
LINE
  5
9F6
330
2
100
AcDbEntity
  8
0
100
AcDbLine
 10
387.1111684229345
 20
456.8827353575541
 30
0.0
 11
387.1136104229353
 21
396.8827353575541
 31
0.0
  0
LINE
  5
9F7
330
2
100
AcDbEntity
  8
0
100
AcDbLine
 10
383.913536422935
 20
456.8827353575541
 30
0.0
 11
383.913536422935
 21
396.8827353575541
 31
0.0
  0
LINE
  5
9F8
330
2
100
AcDbEntity
  8
0
100
AcDbLine
 10
532.8188104229338
 20
457.4999233575542
 30
0.0
 11
592.2243274229349
 21
419.3114463575545
 31
0.0
  0
LINE
  5
9F9
330
2
100
AcDbEntity
  8
0
100
AcDbLine
 10
927.7303446348673
 20
448.9208213575546
 30
0.0
 11
927.7303446348673
 21
151.882735357554
 31
0.0
  0
LINE
  5
9FA
330
2
100
AcDbEntity
  8
0
100
AcDbLine
 10
1057.730344634867
 20
453.8348843575547
 30
0.0
 11
1057.730344634867
 21
151.882735357554
 31
0.0
  0
LINE
  5
9FE
330
2
100
AcDbEntity
  8
CENTER
100
AcDbLine
 10
807.7303446348683
 20
351.8827353575541
 30
0.0
 11
1099.730344634867
 21
351.8827353575539
 31
0.0
  0
LINE
  5
9FF
330
2
100
AcDbEntity
  8
CENTER
100
AcDbLine
 10
890.2303446348682
 20
286.8827353575541
 30
0.0
 11
1095.230344634868
 21
286.8827353575541
 31
0.0
  0
LINE
  5
A00
330
2
100
AcDbEntity
  8
0
100
AcDbLine
 10
1103.597410634866
 20
176.8065633575549
 30
0.0
 11
1061.863401634866
 21
184.1551963575545
 31
0.0
  0
LINE
  5
A01
330
2
100
AcDbEntity
  8
0
100
AcDbLine
 10
1107.730344634867
 20
151.882735357554
 30
0.0
 11
1042.730344634867
 21
151.882735357554
 31
0.0
  0
ARC
  5
A02
330
2
100
AcDbEntity
  8
0
100
AcDbCircle
 10
1066.730344634867
 20
185.882735357554
 30
0.0
 40
9.0
100
AcDbArc
 50
180.0
 51
270.0
  0
ARC
  5
A03
330
2
100
AcDbEntity
  8
0
100
AcDbCircle
 10
1072.730344634867
 20
203.0438683575555
 30
0.0
 40
15.0
100
AcDbArc
 50
115.6793979999619
 51
180.0
  0
ARC
  5
A04
330
2
100
AcDbEntity
  8
0
100
AcDbCircle
 10
1072.730344634867
 20
424.3397673575543
 30
0.0
 40
15.0
100
AcDbArc
 50
180.0
 51
254.5339049999779
  0
LINE
  5
A07
330
2
100
AcDbEntity
  8
0
100
AcDbLine
 10
351.6128774229346
 20
334.5077353575541
 30
0.0
 11
351.6128774229346
 21
206.6454313575539
 31
0.0
  0
LINE
  5
A08
330
2
100
AcDbEntity
  8
0
100
AcDbLine
 10
363.6129994229341
 20
369.3827353575541
 30
0.0
 11
363.6129994229341
 21
204.3827353575541
 31
0.0
  0
ARC
  5
A09
330
2
100
AcDbEntity
  8
0
100
AcDbCircle
 10
460.112999422934
 20
265.8827353575541
 30
0.0
 40
47.0
100
AcDbArc
 50
164.2378999999962
 51
270.0
  0
ARC
  5
A0A
330
2
100
AcDbEntity
  8
0
100
AcDbCircle
 10
460.112999422934
 20
265.8827353575541
 30
0.0
 40
51.639999
100
AcDbArc
 50
164.2378999999962
 51
270.0
  0
LINE
  5
A0B
330
2
100
AcDbEntity
  8
0
100
AcDbLine
 10
389.112999422934
 20
233.5770713575545
 30
0.0
 11
389.112999422934
 21
151.8827353575541
 31
0.0
  0
LINE
  5
A0C
330
2
100
AcDbEntity
  8
0
100
AcDbLine
 10
599.112999422934
 20
406.693282357555
 30
0.0
 11
599.112999422934
 21
151.8827353575541
 31
0.0
  0
ARC
  5
A0D
330
2
100
AcDbEntity
  8
0
100
AcDbCircle
 10
528.112999422934
 20
265.8827353575541
 30
0.0
 40
51.639999
100
AcDbArc
 50
270.0
 51
15.76219000003032
  0
ARC
  5
A0E
330
2
100
AcDbEntity
  8
0
100
AcDbCircle
 10
528.112999422934
 20
265.8827353575541
 30
0.0
 40
47.0
100
AcDbArc
 50
270.0
 51
15.76219000003032
  0
ARC
  5
A0F
330
2
100
AcDbEntity
  8
0
100
AcDbCircle
 10
912.7303446348674
 20
203.0438683575555
 30
0.0
 40
15.0
100
AcDbArc
 50
359.9985959999835
 51
64.32064800000844
  0
LINE
  5
A14
330
2
100
AcDbEntity
  8
0
100
AcDbLine
 10
389.112999422934
 20
151.8827353575541
 30
0.0
 11
599.112999422934
 21
151.8827353575541
 31
0.0
  0
LINE
  5
A15
330
2
100
AcDbEntity
  8
0
100
AcDbLine
 10
599.112999422934
 20
176.8827353575541
 30
0.0
 11
389.112999422934
 21
176.8827353575541
 31
0.0
  0
LINE
  5
A16
330
2
100
AcDbEntity
  8
0
100
AcDbLine
 10
451.8841174229346
 20
184.8827353575541
 30
0.0
 11
536.341759422934
 21
184.8827353575541
 31
0.0
  0
LINE
  5
A17
330
2
100
AcDbEntity
  8
CENTER
100
AcDbLine
 10
419.1129994229331
 20
186.8827353575541
 30
0.0
 11
419.1129994229349
 21
141.8827353575541
 31
0.0
  0
LINE
  5
A18
330
2
100
AcDbEntity
  8
0
100
AcDbLine
 10
407.112999422934
 20
151.8827353575541
 30
0.0
 11
407.112999422934
 21
173.9452353575541
 31
0.0
  0
LINE
  5
A19
330
2
100
AcDbEntity
  8
HIDS
100
AcDbLine
 10
428.112999422934
 20
176.8827353575541
 30
0.0
 11
428.112999422934
 21
151.8827353575541
 31
0.0
  0
LINE
  5
A1A
330
2
100
AcDbEntity
  8
HIDS
100
AcDbLine
 10
410.112999422934
 20
176.8827353575541
 30
0.0
 11
410.112999422934
 21
151.8827353575541
 31
0.0
  0
LINE
  5
A1B
330
2
100
AcDbEntity
  8
0
100
AcDbLine
 10
353.5606314229353
 20
204.6454313575539
 30
0.0
 11
363.6128774229346
 21
204.3827353575541
 31
0.0
  0
ARC
  5
A1C
330
2
100
AcDbEntity
  8
0
100
AcDbCircle
 10
353.6128774229346
 20
206.6454313575539
 30
0.0
 40
2.0
100
AcDbArc
 50
180.0
 51
268.5007930000216
  0
LINE
  5
A1D
330
2
100
AcDbEntity
  8
0
100
AcDbLine
 10
447.6441274229346
 20
182.5331263575551
 30
0.0
 11
446.1691524229336
 21
180.1727743575554
 31
0.0
  0
LINE
  5
A1E
330
2
100
AcDbEntity
  8
0
100
AcDbLine
 10
449.112999422934
 20
182.9169153575546
 30
0.0
 11
449.112999422934
 21
179.8827353575541
 31
0.0
  0
ARC
  5
A1F
330
2
100
AcDbEntity
  8
0
100
AcDbCircle
 10
446.1129994229341
 20
179.8827353575541
 30
0.0
 40
3.0
100
AcDbArc
 50
270.0
 51
0.0
  0
ARC
  5
A20
330
2
100
AcDbEntity
  8
0
100
AcDbCircle
 10
440.2331164229345
 20
183.882735357554
 30
0.0
 40
7.0
100
AcDbArc
 50
270.0
 51
327.9946900000469
  0
LINE
  5
A21
330
2
100
AcDbEntity
  8
0
100
AcDbLine
 10
374.1129994229341
 20
204.3827353575541
 30
0.0
 11
363.6129994229341
 21
204.3827353575541
 31
0.0
  0
ARC
  5
A22
330
2
100
AcDbEntity
  8
0
100
AcDbCircle
 10
374.1129994229341
 20
189.3827353575541
 30
0.0
 40
15.0
100
AcDbArc
 50
0.0
 51
90.0
  0
ARC
  5
A23
330
2
100
AcDbEntity
  8
0
100
AcDbCircle
 10
451.8841174229346
 20
179.8827353575541
 30
0.0
 40
5.0
100
AcDbArc
 50
90.0
 51
147.9947970000503
  0
LINE
  5
A24
330
2
100
AcDbEntity
  8
CENTER
100
AcDbLine
 10
569.1129994229363
 20
186.8827353575541
 30
0.0
 11
569.1129994229345
 21
141.8827353575541
 31
0.0
  0
LINE
  5
A25
330
2
100
AcDbEntity
  8
HIDS
100
AcDbLine
 10
560.112999422934
 20
176.8827353575541
 30
0.0
 11
560.112999422934
 21
151.8827353575541
 31
0.0
  0
LINE
  5
A26
330
2
100
AcDbEntity
  8
HIDS
100
AcDbLine
 10
578.112999422934
 20
176.8827353575541
 30
0.0
 11
578.112999422934
 21
151.8827353575541
 31
0.0
  0
LINE
  5
A27
330
2
100
AcDbEntity
  8
0
100
AcDbLine
 10
581.112999422934
 20
173.9452353575541
 30
0.0
 11
581.112999422934
 21
151.8827353575541
 31
0.0
  0
LINE
  5
A28
330
2
100
AcDbEntity
  8
0
100
AcDbLine
 10
539.112999422934
 20
182.9169153575546
 30
0.0
 11
539.112999422934
 21
179.8827353575541
 31
0.0
  0
LINE
  5
A29
330
2
100
AcDbEntity
  8
0
100
AcDbLine
 10
542.0567254229336
 20
180.1727743575554
 30
0.0
 11
540.581749422934
 21
182.5331263575551
 31
0.0
  0
ARC
  5
A2A
330
2
100
AcDbEntity
  8
0
100
AcDbCircle
 10
547.9927604229342
 20
183.882735357554
 30
0.0
 40
7.0
100
AcDbArc
 50
212.0052029999496
 51
270.0
  0
ARC
  5
A2B
330
2
100
AcDbEntity
  8
0
100
AcDbCircle
 10
542.1129994229341
 20
179.8827353575541
 30
0.0
 40
3.0
100
AcDbArc
 50
180.0
 51
270.0
  0
ARC
  5
A2C
330
2
100
AcDbEntity
  8
0
100
AcDbCircle
 10
536.341759422934
 20
179.8827353575541
 30
0.0
 40
5.0
100
AcDbArc
 50
32.00542099997961
 51
90.0
  0
LINE
  5
A2E
330
2
100
AcDbEntity
  8
CENTER
100
AcDbLine
 10
902.7303446348682
 20
186.8827353575541
 30
0.0
 11
902.7303446348682
 21
141.8827353575541
 31
0.0
  0
LINE
  5
A2F
330
2
100
AcDbEntity
  8
HIDS
100
AcDbLine
 10
893.7303446348673
 20
176.882735357554
 30
0.0
 11
893.7303446348673
 21
151.882735357554
 31
0.0
  0
LINE
  5
A30
330
2
100
AcDbEntity
  8
0
100
AcDbLine
 10
877.7303446348673
 20
171.882735357554
 30
0.0
 11
877.7303446348673
 21
151.882735357554
 31
0.0
  0
LINE
  5
A31
330
2
100
AcDbEntity
  8
HIDS
100
AcDbLine
 10
911.7303446348673
 20
176.882735357554
 30
0.0
 11
911.7303446348673
 21
151.882735357554
 31
0.0
  0
LINE
  5
A32
330
2
100
AcDbEntity
  8
0
100
AcDbLine
 10
942.7303446348673
 20
151.882735357554
 30
0.0
 11
944.7303446348673
 21
153.882735357554
 31
0.0
  0
LINE
  5
A33
330
2
100
AcDbEntity
  8
0
100
AcDbLine
 10
1042.730344634867
 20
151.882735357554
 30
0.0
 11
1040.730344634867
 21
153.882735357554
 31
0.0
  0
LINE
  5
A34
330
2
100
AcDbEntity
  8
0
100
AcDbLine
 10
877.7303446348673
 20
151.882735357554
 30
0.0
 11
942.7303446348673
 21
151.882735357554
 31
0.0
  0
LINE
  5
A35
330
2
100
AcDbEntity
  8
0
100
AcDbLine
 10
944.7303446348673
 20
153.882735357554
 30
0.0
 11
1040.730344634867
 21
153.882735357554
 31
0.0
  0
LINE
  5
A36
330
2
100
AcDbEntity
  8
0
100
AcDbLine
 10
881.8634016348665
 20
176.8065633575549
 30
0.0
 11
923.5974106348662
 21
184.1551963575545
 31
0.0
  0
ARC
  5
A37
330
2
100
AcDbEntity
  8
0
100
AcDbCircle
 10
918.7303446348673
 20
185.882735357554
 30
0.0
 40
9.0
100
AcDbArc
 50
270.0
 51
0.0
  0
LINE
  5
A38
330
2
100
AcDbEntity
  8
0
100
AcDbLine
 10
882.7303446348674
 20
176.882735357554
 30
0.0
 11
918.7303446348673
 21
176.882735357554
 31
0.0
  0
ARC
  5
A39
330
2
100
AcDbEntity
  8
0
100
AcDbCircle
 10
882.7303446348674
 20
171.882735357554
 30
0.0
 40
5.0
100
AcDbArc
 50
90.0
 51
180.0
  0
ARC
  5
A3A
330
2
100
AcDbEntity
  8
0
100
AcDbCircle
 10
922.7303446348674
 20
189.0790243575553
 30
0.0
 40
5.0
100
AcDbArc
 50
279.9857789999785
 51
0.0
  0
ARC
  5
A3B
330
2
100
AcDbEntity
  8
0
100
AcDbCircle
 10
1062.730344634867
 20
189.0790243575553
 30
0.0
 40
5.0
100
AcDbArc
 50
180.0
 51
260.014587000001
  0
ARC
  5
A3E
330
2
100
AcDbEntity
  8
0
100
AcDbCircle
 10
494.112999422934
 20
351.8827353575541
 30
0.0
 40
56.360001
100
AcDbArc
 50
164.2378999999962
 51
15.76219000003032
  0
CIRCLE
  5
A3F
330
2
100
AcDbEntity
  8
0
100
AcDbCircle
 10
494.112999422934
 20
351.8827353575541
 30
0.0
 40
55.0
  0
LINE
  5
A40
330
2
100
AcDbEntity
  8
0
100
AcDbLine
 10
304.6128774229346
 20
392.8827353575541
 30
0.0
 11
304.6128774229346
 21
264.8827353575541
 31
0.0
  0
LINE
  5
A41
330
2
100
AcDbEntity
  8
0
100
AcDbLine
 10
304.6128774229346
 20
392.8827353575541
 30
0.0
 11
304.6128774229346
 21
264.8827353575541
 31
0.0
  0
LINE
  5
A43
330
2
100
AcDbEntity
  8
0
100
AcDbLine
 10
414.8802114229347
 20
278.6503133575549
 30
0.0
 11
439.8721554229341
 21
367.1923063575539
 31
0.0
  0
LINE
  5
A44
330
2
100
AcDbEntity
  8
0
100
AcDbLine
 10
410.4147574229337
 20
279.9100793575541
 30
0.0
 11
435.4068234229344
 21
368.4530483575542
 31
0.0
  0
LINE
  5
A45
330
2
100
AcDbEntity
  8
0
100
AcDbLine
 10
380.1129994229341
 20
238.5770713575545
 30
0.0
 11
380.1129994229341
 21
335.1883993575554
 31
0.0
  0
LINE
  5
A46
330
2
100
AcDbEntity
  8
0
100
AcDbLine
 10
552.819176422934
 20
368.4530483575542
 30
0.0
 11
577.8111194229349
 21
279.9100793575541
 31
0.0
  0
LINE
  5
A47
330
2
100
AcDbEntity
  8
0
100
AcDbLine
 10
548.3537224229348
 20
367.1923063575539
 30
0.0
 11
573.3455434229345
 21
278.6503133575549
 31
0.0
  0
LINE
  5
A48
330
2
100
AcDbEntity
  8
0
100
AcDbLine
 10
454.6129994229341
 20
242.8827353575541
 30
0.0
 11
479.1129994229341
 21
242.8827353575541
 31
0.0
  0
ARC
  5
A49
330
2
100
AcDbEntity
  8
0
100
AcDbCircle
 10
467.862999422934
 20
252.2899623575538
 30
0.0
 40
16.25
100
AcDbArc
 50
112.3525010000054
 51
215.3744960000164
  0
LINE
  5
A4A
330
2
100
AcDbEntity
  8
0
100
AcDbLine
 10
348.8719104229348
 20
226.273360357554
 30
0.0
 11
304.6128774229346
 21
264.8827353575541
 31
0.0
  0
ARC
  5
A4B
330
2
100
AcDbEntity
  8
0
100
AcDbCircle
 10
343.6128774229346
 20
220.2450403575546
 30
0.0
 40
8.0
100
AcDbArc
 50
0.0
 51
48.90050899996147
  0
ARC
  5
A4C
330
2
100
AcDbEntity
  8
0
100
AcDbCircle
 10
386.6129994229341
 20
233.5770713575545
 30
0.0
 40
2.5
100
AcDbArc
 50
0.0
 51
90.0
  0
ARC
  5
A4D
330
2
100
AcDbEntity
  8
0
100
AcDbCircle
 10
382.612999422934
 20
238.5770713575545
 30
0.0
 40
2.5
100
AcDbArc
 50
180.0
 51
270.0
  0
LINE
  5
A4E
330
2
100
AcDbEntity
  8
0
100
AcDbLine
 10
382.612999422934
 20
236.0770713575545
 30
0.0
 11
386.6129994229341
 21
236.0770713575545
 31
0.0
  0
LINE
  5
A4F
330
2
100
AcDbEntity
  8
CENTER
100
AcDbLine
 10
328.2122619729352
 20
286.8827353575541
 30
0.0
 11
405.0504994229349
 21
286.8827353575541
 31
0.0
  0
LINE
  5
A57
330
2
100
AcDbEntity
  8
0
100
AcDbLine
 10
388.112999422934
 20
282.3827353575541
 30
0.0
 11
388.112999422934
 21
291.3827353575541
 31
0.0
  0
LINE
  5
A58
330
2
100
AcDbEntity
  8
0
100
AcDbLine
 10
382.612999422934
 20
293.8827353575541
 30
0.0
 11
385.612999422934
 21
293.8827353575541
 31
0.0
  0
LINE
  5
A59
330
2
100
AcDbEntity
  8
0
100
AcDbLine
 10
382.612999422934
 20
279.8827353575541
 30
0.0
 11
385.612999422934
 21
279.8827353575541
 31
0.0
  0
ARC
  5
A5A
330
2
100
AcDbEntity
  8
0
100
AcDbCircle
 10
382.612999422934
 20
277.3827353575541
 30
0.0
 40
2.5
100
AcDbArc
 50
90.0
 51
180.0
  0
ARC
  5
A5B
330
2
100
AcDbEntity
  8
0
100
AcDbCircle
 10
382.612999422934
 20
296.382735357554
 30
0.0
 40
2.5
100
AcDbArc
 50
180.0
 51
270.0
  0
ARC
  5
A5C
330
2
100
AcDbEntity
  8
0
100
AcDbCircle
 10
385.612999422934
 20
282.3827353575541
 30
0.0
 40
2.5
100
AcDbArc
 50
270.0
 51
0.0
  0
ARC
  5
A5D
330
2
100
AcDbEntity
  8
0
100
AcDbCircle
 10
385.612999422934
 20
291.3827353575541
 30
0.0
 40
2.5
100
AcDbArc
 50
0.0
 51
90.0
  0
LINE
  5
A5E
330
2
100
AcDbEntity
  8
0
100
AcDbLine
 10
460.112999422934
 20
214.2430873575538
 30
0.0
 11
528.112999422934
 21
214.2430873575538
 31
0.0
  0
LINE
  5
A5F
330
2
100
AcDbEntity
  8
0
100
AcDbLine
 10
460.112999422934
 20
218.8827353575541
 30
0.0
 11
528.112999422934
 21
218.8827353575541
 31
0.0
  0
LINE
  5
A60
330
2
100
AcDbEntity
  8
0
100
AcDbLine
 10
485.112999422934
 20
259.1327353575541
 30
0.0
 11
489.4879994229341
 21
259.1327353575541
 31
0.0
  0
LINE
  5
A61
330
2
100
AcDbEntity
  8
0
100
AcDbLine
 10
485.112999422934
 20
267.8827353575541
 30
0.0
 11
502.612999422934
 21
267.8827353575541
 31
0.0
  0
LINE
  5
A62
330
2
100
AcDbEntity
  8
0
100
AcDbLine
 10
466.436119422935
 20
259.1327353575541
 30
0.0
 11
479.1129994229341
 21
259.1327353575541
 31
0.0
  0
LINE
  5
A63
330
2
100
AcDbEntity
  8
0
100
AcDbLine
 10
470.987999422934
 20
255.3827353575541
 30
0.0
 11
479.1129994229341
 21
255.3827353575541
 31
0.0
  0
LINE
  5
A64
330
2
100
AcDbEntity
  8
0
100
AcDbLine
 10
464.5353634229341
 20
267.8827353575541
 30
0.0
 11
479.1129994229341
 21
267.8827353575541
 31
0.0
  0
LINE
  5
A65
330
2
100
AcDbEntity
  8
0
100
AcDbLine
 10
470.987999422934
 20
255.3827353575541
 30
0.0
 11
470.987999422934
 21
245.3827353575541
 31
0.0
  0
LINE
  5
A66
330
2
100
AcDbEntity
  8
0
100
AcDbLine
 10
463.4123164229349
 20
245.3827353575541
 30
0.0
 11
470.987999422934
 21
245.3827353575541
 31
0.0
  0
ARC
  5
A67
330
2
100
AcDbEntity
  8
0
100
AcDbCircle
 10
463.4123164229349
 20
246.6327353575541
 30
0.0
 40
1.25
100
AcDbArc
 50
220.5301970000281
 51
270.0
  0
ARC
  5
A68
330
2
100
AcDbEntity
  8
0
100
AcDbCircle
 10
464.5353634229341
 20
260.3827353575541
 30
0.0
 40
7.5
100
AcDbArc
 50
90.0
 51
112.3526989999965
  0
ARC
  5
A69
330
2
100
AcDbEntity
  8
0
100
AcDbCircle
 10
466.436119422935
 20
254.1327353575541
 30
0.0
 40
5.0
100
AcDbArc
 50
90.0
 51
135.5462039999592
  0
ARC
  5
A6A
330
2
100
AcDbEntity
  8
0
100
AcDbCircle
 10
469.112999422934
 20
251.5067593575547
 30
0.0
 40
8.75
100
AcDbArc
 50
135.5460969999703
 51
220.529006999976
  0
LINE
  5
A6B
330
2
100
AcDbEntity
  8
0
100
AcDbLine
 10
479.1129994229341
 20
255.3827353575541
 30
0.0
 11
479.1129994229341
 21
242.8827353575541
 31
0.0
  0
LINE
  5
A6C
330
2
100
AcDbEntity
  8
0
100
AcDbLine
 10
479.1129994229341
 20
259.1327353575541
 30
0.0
 11
479.1129994229341
 21
267.8827353575541
 31
0.0
  0
LINE
  5
A6D
330
2
100
AcDbEntity
  8
0
100
AcDbLine
 10
485.112999422934
 20
267.8827353575541
 30
0.0
 11
485.112999422934
 21
259.1327353575541
 31
0.0
  0
LINE
  5
A6E
330
2
100
AcDbEntity
  8
0
100
AcDbLine
 10
502.612999422934
 20
267.8827353575541
 30
0.0
 11
502.612999422934
 21
259.1327353575541
 31
0.0
  0
LINE
  5
A6F
330
2
100
AcDbEntity
  8
0
100
AcDbLine
 10
489.4879994229341
 20
259.1327353575541
 30
0.0
 11
489.4879994229341
 21
242.8827353575541
 31
0.0
  0
LINE
  5
A70
330
2
100
AcDbEntity
  8
0
100
AcDbLine
 10
498.237999422934
 20
259.1327353575541
 30
0.0
 11
498.237999422934
 21
242.8827353575541
 31
0.0
  0
LINE
  5
A71
330
2
100
AcDbEntity
  8
0
100
AcDbLine
 10
489.4879994229341
 20
242.8827353575541
 30
0.0
 11
498.237999422934
 21
242.8827353575541
 31
0.0
  0
LINE
  5
A72
330
2
100
AcDbEntity
  8
0
100
AcDbLine
 10
498.237999422934
 20
259.1327353575541
 30
0.0
 11
502.612999422934
 21
259.1327353575541
 31
0.0
  0
LINE
  5
A73
330
2
100
AcDbEntity
  8
0
100
AcDbLine
 10
528.5695424229343
 20
267.8827353575541
 30
0.0
 11
508.362999422934
 21
267.8827353575541
 31
0.0
  0
LINE
  5
A74
330
2
100
AcDbEntity
  8
0
100
AcDbLine
 10
516.487999422934
 20
259.1327353575541
 30
0.0
 11
525.237999422934
 21
259.1327353575541
 31
0.0
  0
LINE
  5
A75
330
2
100
AcDbEntity
  8
0
100
AcDbLine
 10
519.612999422934
 20
255.3827353575541
 30
0.0
 11
525.237999422934
 21
255.3827353575541
 31
0.0
  0
LINE
  5
A76
330
2
100
AcDbEntity
  8
0
100
AcDbLine
 10
519.612999422934
 20
255.3827353575541
 30
0.0
 11
527.112999422934
 21
242.8827353575541
 31
0.0
  0
LINE
  5
A77
330
2
100
AcDbEntity
  8
0
100
AcDbLine
 10
508.362999422934
 20
242.8827353575541
 30
0.0
 11
516.487999422934
 21
242.8827353575541
 31
0.0
  0
LINE
  5
A78
330
2
100
AcDbEntity
  8
0
100
AcDbLine
 10
508.362999422934
 20
267.8827353575541
 30
0.0
 11
508.362999422934
 21
242.8827353575541
 31
0.0
  0
LINE
  5
A79
330
2
100
AcDbEntity
  8
0
100
AcDbLine
 10
516.487999422934
 20
259.1327353575541
 30
0.0
 11
516.487999422934
 21
242.8827353575541
 31
0.0
  0
LINE
  5
A7A
330
2
100
AcDbEntity
  8
0
100
AcDbLine
 10
536.612999422934
 20
242.8827353575541
 30
0.0
 11
532.862999422934
 21
249.1327353575541
 31
0.0
  0
ARC
  5
A7B
330
2
100
AcDbEntity
  8
0
100
AcDbCircle
 10
528.5695424229343
 20
262.8827353575541
 30
0.0
 40
5.0
100
AcDbArc
 50
59.13309899999227
 51
90.0
  0
LINE
  5
A7C
330
2
100
AcDbEntity
  8
0
100
AcDbLine
 10
527.112999422934
 20
242.8827353575541
 30
0.0
 11
536.612999422934
 21
242.8827353575541
 31
0.0
  0
ARC
  5
A7D
330
2
100
AcDbEntity
  8
0
100
AcDbCircle
 10
525.237999422934
 20
257.2577353575541
 30
0.0
 40
1.875
100
AcDbArc
 50
270.0
 51
90.0
  0
ARC
  5
A7E
330
2
100
AcDbEntity
  8
0
100
AcDbCircle
 10
525.362999422934
 20
257.5175013575551
 30
0.0
 40
11.25
100
AcDbArc
 50
311.8104209999502
 51
59.13299200004121
  0
LINE
  5
A7F
330
2
100
AcDbEntity
  8
CENTER
100
AcDbLine
 10
410.729844262013
 20
351.8827353575541
 30
0.0
 11
577.496397583855
 21
351.8827353575541
 31
0.0
  0
ARC
  5
A80
330
2
100
AcDbEntity
  8
0
100
AcDbCircle
 10
494.112999422934
 20
351.8827353575541
 30
0.0
 40
61.0
100
AcDbArc
 50
15.76219000003032
 51
164.2378999999962
  0
LINE
  5
A81
330
2
100
AcDbEntity
  8
0
100
AcDbLine
 10
314.6128774229346
 20
341.507735357554
 30
0.0
 11
314.6128774229346
 21
390.6727743575554
 31
0.0
  0
LINE
  5
A83
330
2
100
AcDbEntity
  8
0
100
AcDbLine
 10
389.112999422934
 20
340.1883993575554
 30
0.0
 11
389.112999422934
 21
406.693282357555
 31
0.0
  0
ARC
  5
A84
330
2
100
AcDbEntity
  8
0
100
AcDbCircle
 10
374.1129994229341
 20
384.3827353575541
 30
0.0
 40
15.0
100
AcDbArc
 50
270.0
 51
0.0
  0
LINE
  5
A85
330
2
100
AcDbEntity
  8
0
100
AcDbLine
 10
322.6128774229346
 20
370.4569543575542
 30
0.0
 11
363.6128774229346
 21
369.3827353575541
 31
0.0
  0
ARC
  5
A8A
330
2
100
AcDbEntity
  8
0
100
AcDbCircle
 10
317.6128774229346
 20
378.0262903575546
 30
0.0
 40
3.0
100
AcDbArc
 50
180.0
 51
268.5000000000103
  0
ARC
  5
A8B
330
2
100
AcDbEntity
  8
0
100
AcDbCircle
 10
317.6128774229346
 20
382.4803923575543
 30
0.0
 40
3.0
100
AcDbArc
 50
180.0
 51
268.5000000000103
  0
ARC
  5
A8C
330
2
100
AcDbEntity
  8
0
100
AcDbCircle
 10
317.6128774229346
 20
361.7626183575555
 30
0.0
 40
3.0
100
AcDbArc
 50
91.49999999998968
 51
180.0
  0
LINE
  5
A90
330
2
100
AcDbEntity
  8
0
100
AcDbLine
 10
322.6128774229346
 20
376.4266813575539
 30
0.0
 11
322.6128774229346
 21
367.8173063575538
 31
0.0
  0
LINE
  5
A91
330
2
100
AcDbEntity
  8
0
100
AcDbLine
 10
319.6914914229346
 20
374.9716023575544
 30
0.0
 11
317.5343864229343
 21
375.0272673575543
 31
0.0
  0
ARC
  5
A92
330
2
100
AcDbEntity
  8
0
100
AcDbCircle
 10
319.6128774229346
 20
371.9725793575542
 30
0.0
 40
3.0
100
AcDbArc
 50
0.0
 51
88.50000000001029
  0
LINE
  5
A93
330
2
100
AcDbEntity
  8
0
100
AcDbLine
 10
319.6914914229346
 20
379.4247283575548
 30
0.0
 11
317.5343864229343
 21
379.4813683575555
 31
0.0
  0
ARC
  5
A94
330
2
100
AcDbEntity
  8
0
100
AcDbCircle
 10
319.6128774229346
 20
376.4266813575539
 30
0.0
 40
3.0
100
AcDbArc
 50
0.0
 51
88.50000000001029
  0
LINE
  5
A95
330
2
100
AcDbEntity
  8
0
100
AcDbLine
 10
319.6914914229346
 20
364.818282357555
 30
0.0
 11
317.5343864229343
 21
364.7616423575543
 31
0.0
  0
ARC
  5
A96
330
2
100
AcDbEntity
  8
0
100
AcDbCircle
 10
319.6128774229346
 20
367.8173063575538
 30
0.0
 40
3.0
100
AcDbArc
 50
271.4999999999896
 51
0.0
  0
ARC
  5
A97
330
2
100
AcDbEntity
  8
0
100
AcDbCircle
 10
386.6129994229341
 20
340.1883993575554
 30
0.0
 40
2.5
100
AcDbArc
 50
270.0
 51
0.0
  0
ARC
  5
A98
330
2
100
AcDbEntity
  8
0
100
AcDbCircle
 10
382.612999422934
 20
335.1883993575554
 30
0.0
 40
2.5
100
AcDbArc
 50
90.0
 51
180.0
  0
LINE
  5
A99
330
2
100
AcDbEntity
  8
0
100
AcDbLine
 10
382.612999422934
 20
337.6883993575554
 30
0.0
 11
386.6129994229341
 21
337.6883993575554
 31
0.0
  0
LINE
  5
A9A
330
2
100
AcDbEntity
  8
0
100
AcDbLine
 10
363.6129994229341
 20
369.3827353575541
 30
0.0
 11
374.1128774229346
 21
369.3827353575541
 31
0.0
  0
ARC
  5
A9B
330
2
100
AcDbEntity
  8
0
100
AcDbCircle
 10
312.6128774229346
 20
390.6727743575554
 30
0.0
 40
2.0
100
AcDbArc
 50
0.0
 51
88.50026699997313
  0
LINE
  5
A9C
330
2
100
AcDbEntity
  8
0
100
AcDbLine
 10
312.6651234229338
 20
392.6717983575542
 30
0.0
 11
304.6128774229346
 21
392.8827353575541
 31
0.0
  0
ARC
  5
A9D
330
2
100
AcDbEntity
  8
0
100
AcDbCircle
 10
404.1129994229341
 20
406.693282357555
 30
0.0
 40
15.0
100
AcDbArc
 50
122.7356029999903
 51
180.0
  0
LINE
  5
A9E
330
2
100
AcDbEntity
  8
0
100
AcDbLine
 10
387.1131214229335
 20
419.882735357554
 30
0.0
 11
387.1131214229335
 21
398.8827353575541
 31
0.0
  0
LINE
  5
A9F
330
2
100
AcDbEntity
  8
0
100
AcDbLine
 10
387.1131214229335
 20
419.882735357554
 30
0.0
 11
387.1131214229335
 21
398.8827353575541
 31
0.0
  0
LINE
  5
AA0
330
2
100
AcDbEntity
  8
0
100
AcDbLine
 10
381.913536422935
 20
414.5829313575538
 30
0.0
 11
381.913536422935
 21
399.1825403575546
 31
0.0
  0
LINE
  5
AA1
330
2
100
AcDbEntity
  8
0
100
AcDbLine
 10
376.6136104229353
 20
412.572188357555
 30
0.0
 11
376.6136104229353
 21
401.1923063575538
 31
0.0
  0
LINE
  5
AA2
330
2
100
AcDbEntity
  8
0
100
AcDbLine
 10
387.1131214229335
 20
398.8827353575541
 30
0.0
 11
389.112999422934
 21
397.8827353575541
 31
0.0
  0
LINE
  5
AA3
330
2
100
AcDbEntity
  8
0
100
AcDbLine
 10
378.1136104229354
 20
399.6923063575538
 30
0.0
 11
381.913536422935
 21
399.6923063575538
 31
0.0
  0
LINE
  5
AA4
330
2
100
AcDbEntity
  8
0
100
AcDbLine
 10
378.1136104229354
 20
410.320235357554
 30
0.0
 11
381.913536422935
 21
410.320235357554
 31
0.0
  0
LINE
  5
AA5
330
2
100
AcDbEntity
  8
0
100
AcDbLine
 10
378.1136104229354
 20
403.4452353575541
 30
0.0
 11
381.913536422935
 21
403.4452353575541
 31
0.0
  0
LINE
  5
AA6
330
2
100
AcDbEntity
  8
0
100
AcDbLine
 10
381.913536422935
 20
399.1825403575546
 30
0.0
 11
383.913536422935
 21
399.1825403575546
 31
0.0
  0
ARC
  5
AA7
330
2
100
AcDbEntity
  8
0
100
AcDbCircle
 10
378.1136104229354
 20
408.8202353575541
 30
0.0
 40
1.5
100
AcDbArc
 50
90.0
 51
180.0
  0
ARC
  5
AA8
330
2
100
AcDbEntity
  8
0
100
AcDbCircle
 10
378.1136104229354
 20
404.945235357554
 30
0.0
 40
1.5
100
AcDbArc
 50
180.0
 51
270.0
  0
ARC
  5
AA9
330
2
100
AcDbEntity
  8
0
100
AcDbCircle
 10
378.1136104229354
 20
411.8202353575541
 30
0.0
 40
1.5
100
AcDbArc
 50
180.0
 51
270.0
  0
ARC
  5
AAA
330
2
100
AcDbEntity
  8
0
100
AcDbCircle
 10
378.1136104229354
 20
401.1923063575538
 30
0.0
 40
1.5
100
AcDbArc
 50
180.0
 51
270.0
  0
ARC
  5
AAB
330
2
100
AcDbEntity
  8
0
100
AcDbCircle
 10
378.1136104229354
 20
401.9452353575541
 30
0.0
 40
1.5
100
AcDbArc
 50
90.0
 51
180.0
  0
LINE
  5
AAC
330
2
100
AcDbEntity
  8
0
100
AcDbLine
 10
383.913536422935
 20
396.8827353575541
 30
0.0
 11
387.1136104229353
 21
396.8827353575541
 31
0.0
  0
LINE
  5
AAD
330
2
100
AcDbEntity
  8
CENTER
100
AcDbLine
 10
376.5500104229368
 20
440.882735357554
 30
0.0
 11
394.6474224229359
 21
440.882735357554
 31
0.0
  0
ARC
  5
AAE
330
2
100
AcDbEntity
  8
0
100
AcDbCircle
 10
397.8263784229348
 20
427.6171103575541
 30
0.0
 40
6.0
100
AcDbArc
 50
278.8204039999608
 51
302.7352289999869
  0
LINE
  5
AAF
330
2
100
AcDbEntity
  8
0
100
AcDbLine
 10
387.1131214229335
 20
419.882735357554
 30
0.0
 11
398.7463004229339
 21
421.6874233575542
 31
0.0
  0
LINE
  5
AB0
330
2
100
AcDbEntity
  8
0
100
AcDbLine
 10
378.1136104229354
 20
414.0721883575549
 30
0.0
 11
381.913536422935
 21
414.0721883575549
 31
0.0
  0
LINE
  5
AB1
330
2
100
AcDbEntity
  8
0
100
AcDbLine
 10
381.913536422935
 20
414.5829313575538
 30
0.0
 11
383.913536422935
 21
414.5829313575538
 31
0.0
  0
ARC
  5
AB2
330
2
100
AcDbEntity
  8
0
100
AcDbCircle
 10
378.1136104229354
 20
412.572188357555
 30
0.0
 40
1.5
100
AcDbArc
 50
90.0
 51
180.0
  0
LINE
  5
AB3
330
2
100
AcDbEntity
  8
HIDS
100
AcDbLine
 10
383.913536422935
 20
430.8827353575541
 30
0.0
 11
387.1136104229353
 21
430.8827353575541
 31
0.0
  0
ARC
  5
AB5
330
2
100
AcDbEntity
  8
0
100
AcDbCircle
 10
494.112999422934
 20
351.8827353575541
 30
0.0
 40
25.0
100
AcDbArc
 50
16.26018899994059
 51
343.7398070000404
  0
LINE
  5
AB6
330
2
100
AcDbEntity
  8
0
100
AcDbLine
 10
513.6129994229341
 20
344.8827353575541
 30
0.0
 11
513.6129994229341
 21
358.8827353575541
 31
0.0
  0
LINE
  5
AB7
330
2
100
AcDbEntity
  8
0
100
AcDbLine
 10
522.612999422934
 20
344.8827353575541
 30
0.0
 11
522.612999422934
 21
358.8827353575541
 31
0.0
  0
LINE
  5
AB8
330
2
100
AcDbEntity
  8
0
100
AcDbLine
 10
522.612999422934
 20
344.8827353575541
 30
0.0
 11
513.6129994229341
 21
344.8827353575541
 31
0.0
  0
LINE
  5
AB9
330
2
100
AcDbEntity
  8
0
100
AcDbLine
 10
522.612999422934
 20
358.8827353575541
 30
0.0
 11
513.6129994229341
 21
358.8827353575541
 31
0.0
  0
ARC
  5
ABA
330
2
100
AcDbEntity
  8
0
100
AcDbCircle
 10
584.1129994229341
 20
406.693282357555
 30
0.0
 40
15.0
100
AcDbArc
 50
0.0
 51
57.26491899999164
  0
LINE
  5
ABB
330
2
100
AcDbEntity
  8
0
100
AcDbLine
 10
910.7303446348673
 20
362.8075403575546
 30
0.0
 11
910.7303446348673
 21
230.0809783575548
 31
0.0
  0
LINE
  5
ABC
330
2
100
AcDbEntity
  8
0
100
AcDbLine
 10
905.7303446348674
 20
395.4257043575541
 30
0.0
 11
905.7303446348674
 21
304.4921103575541
 31
0.0
  0
LINE
  5
ABD
330
2
100
AcDbEntity
  8
0
100
AcDbLine
 10
902.7303446348673
 20
379.3827353575541
 30
0.0
 11
902.7303446348673
 21
324.3827353575541
 31
0.0
  0
ARC
  5
ABE
330
2
100
AcDbEntity
  8
0
100
AcDbCircle
 10
925.7303446348673
 20
230.0809783575548
 30
0.0
 40
15.0
100
AcDbArc
 50
180.0
 51
244.320602000038
  0
ARC
  5
ABF
330
2
100
AcDbEntity
  8
0
100
AcDbCircle
 10
920.7303446348673
 20
304.4921103575541
 30
0.0
 40
15.0
100
AcDbArc
 50
180.0
 51
213.5572969999927
  0
ARC
  5
AC0
330
2
100
AcDbEntity
  8
0
100
AcDbCircle
 10
895.7303446348673
 20
287.9091023575544
 30
0.0
 40
15.0
100
AcDbArc
 50
0.0
 51
33.55733100000394
  0
ARC
  5
AC1
330
2
100
AcDbEntity
  8
0
100
AcDbCircle
 10
992.7303446348673
 20
286.8827353575541
 30
0.0
 40
82.5
100
AcDbArc
 50
176.9468540000374
 51
186.3112489999999
  0
LINE
  5
AC2
330
2
100
AcDbEntity
  8
0
100
AcDbLine
 10
905.7303446348674
 20
324.3827353575541
 30
0.0
 11
902.7303446348673
 21
324.3827353575541
 31
0.0
  0
LINE
  5
AC3
330
2
100
AcDbEntity
  8
0
100
AcDbLine
 10
902.7303446348673
 20
326.8827353575541
 30
0.0
 11
827.7303446348673
 21
326.8827353575541
 31
0.0
  0
LINE
  5
AC4
330
2
100
AcDbEntity
  8
0
100
AcDbLine
 10
890.7303446348674
 20
358.8827353575541
 30
0.0
 11
827.7303446348673
 21
358.8827353575541
 31
0.0
  0
LINE
  5
AC5
330
2
100
AcDbEntity
  8
0
100
AcDbLine
 10
890.7303446348674
 20
344.8827353575541
 30
0.0
 11
827.7303446348673
 21
344.8827353575541
 31
0.0
  0
LINE
  5
AC6
330
2
100
AcDbEntity
  8
0
100
AcDbLine
 10
902.7303446348673
 20
376.8827353575541
 30
0.0
 11
827.7303446348673
 21
376.8827353575541
 31
0.0
  0
LINE
  5
AC8
330
2
100
AcDbEntity
  8
0
100
AcDbLine
 10
827.7303446348673
 20
326.8827353575541
 30
0.0
 11
827.7303446348673
 21
376.8827353575541
 31
0.0
  0
ARC
  5
AC9
330
2
100
AcDbEntity
  8
0
100
AcDbCircle
 10
890.7303446348674
 20
351.8827353575541
 30
0.0
 40
7.0
100
AcDbArc
 50
270.0
 51
90.0
  0
LINE
  5
ACA
330
2
100
AcDbEntity
  8
0
100
AcDbLine
 10
905.7303446348674
 20
379.3827353575541
 30
0.0
 11
902.7303446348673
 21
379.3827353575541
 31
0.0
  0
LINE
  5
ACB
330
2
100
AcDbEntity
  8
0
100
AcDbLine
 10
931.8242176348672
 20
414.8827353575541
 30
0.0
 11
1053.624143634867
 21
414.8827353575541
 31
0.0
  0
ARC
  5
ACC
330
2
100
AcDbEntity
  8
0
100
AcDbCircle
 10
912.7303446348674
 20
424.3397673575543
 30
0.0
 40
15.0
100
AcDbArc
 50
285.255188000001
 51
0.0
  0
ARC
  5
ACD
330
2
100
AcDbEntity
  8
0
100
AcDbCircle
 10
920.7303446348673
 20
395.4257043575541
 30
0.0
 40
15.0
100
AcDbArc
 50
105.2552029999693
 51
180.0
  0
LINE
  5
ACE
330
2
100
AcDbEntity
  8
CENTER
100
AcDbLine
 10
1082.730344634868
 20
186.8827353575541
 30
0.0
 11
1082.730344634868
 21
141.8827353575541
 31
0.0
  0
LINE
  5
ACF
330
2
100
AcDbEntity
  8
HIDS
100
AcDbLine
 10
1073.730344634867
 20
176.882735357554
 30
0.0
 11
1073.730344634867
 21
151.882735357554
 31
0.0
  0
LINE
  5
AD0
330
2
100
AcDbEntity
  8
HIDS
100
AcDbLine
 10
1091.730344634867
 20
176.882735357554
 30
0.0
 11
1091.730344634867
 21
151.882735357554
 31
0.0
  0
LINE
  5
AD1
330
2
100
AcDbEntity
  8
0
100
AcDbLine
 10
1107.730344634867
 20
172.6190633575549
 30
0.0
 11
1107.730344634867
 21
151.882735357554
 31
0.0
  0
LINE
  5
AD2
330
2
100
AcDbEntity
  8
0
100
AcDbLine
 10
1102.730344634867
 20
176.882735357554
 30
0.0
 11
1066.730344634867
 21
176.882735357554
 31
0.0
  0
ARC
  5
AD3
330
2
100
AcDbEntity
  8
0
100
AcDbCircle
 10
1102.730344634867
 20
171.882735357554
 30
0.0
 40
5.0
100
AcDbArc
 50
0.0
 51
90.0
  0
LINE
  5
AD4
330
2
100
AcDbEntity
  8
0
100
AcDbLine
 10
1074.730344634867
 20
357.6425013575551
 30
0.0
 11
1074.730344634867
 21
230.0809783575548
 31
0.0
  0
LINE
  5
AD5
330
2
100
AcDbEntity
  8
0
100
AcDbLine
 10
1079.730344634867
 20
395.4257043575541
 30
0.0
 11
1079.730344634867
 21
304.4921103575541
 31
0.0
  0
ARC
  5
AD6
330
2
100
AcDbEntity
  8
0
100
AcDbCircle
 10
1059.730344634867
 20
230.0809783575548
 30
0.0
 40
15.0
100
AcDbArc
 50
295.679382000049
 51
0.0
  0
ARC
  5
AD7
330
2
100
AcDbEntity
  8
0
100
AcDbCircle
 10
1064.730344634867
 20
304.4921103575541
 30
0.0
 40
15.0
100
AcDbArc
 50
326.7492099999457
 51
0.0
  0
ARC
  5
AD8
330
2
100
AcDbEntity
  8
0
100
AcDbCircle
 10
1089.730344634867
 20
287.9091023575544
 30
0.0
 40
15.0
100
AcDbArc
 50
146.4427030000072
 51
180.0
  0
ARC
  5
AD9
330
2
100
AcDbEntity
  8
0
100
AcDbCircle
 10
992.7303446348673
 20
286.8827353575541
 30
0.0
 40
82.5
100
AcDbArc
 50
353.6887520000133
 51
3.05315200000683
  0
ARC
  5
ADA
330
2
100
AcDbEntity
  8
0
100
AcDbCircle
 10
1064.730344634867
 20
395.4257043575541
 30
0.0
 40
15.0
100
AcDbArc
 50
0.0
 51
74.74484300004482
  0
LINE
  5
ADB
330
2
100
AcDbEntity
  8
CENTER
100
AcDbLine
 10
494.1129994229331
 20
941.5003827148579
 30
0.0
 11
494.1129994229349
 21
621.5003827148591
 31
0.0
  0
LINE
  5
ADC
330
2
100
AcDbEntity
  8
CENTER
100
AcDbLine
 10
419.1129994229349
 20
911.2519847148593
 30
0.0
 11
419.1129994229349
 21
881.7487807148589
 31
0.0
  0
LINE
  5
ADD
330
2
100
AcDbEntity
  8
CENTER
100
AcDbLine
 10
569.1129964229335
 20
911.2519847148593
 30
0.0
 11
569.1129964229335
 21
881.7487807148589
 31
0.0
  0
LINE
  5
ADE
330
2
100
AcDbEntity
  8
0
100
AcDbLine
 10
389.2569204229348
 20
871.9007737148588
 30
0.0
 11
403.5421994229345
 21
911.5814377148582
 31
0.0
  0
ARC
  5
ADF
330
2
100
AcDbEntity
  8
0
100
AcDbCircle
 10
419.112999422934
 20
896.5003827148578
 30
0.0
 40
9.0
100
AcDbArc
 50
296.2366559999636
 51
270.4464110000059
  0
LINE
  5
AE0
330
2
100
AcDbEntity
  8
0
100
AcDbLine
 10
597.7803584229349
 20
875.2025307148581
 30
0.0
 11
584.6840444229346
 21
911.5814377148582
 31
0.0
  0
ARC
  5
AE1
330
2
100
AcDbEntity
  8
0
100
AcDbCircle
 10
569.112999422934
 20
896.5003827148578
 30
0.0
 40
9.0
100
AcDbArc
 50
269.5536039999558
 51
243.7633509999841
  0
TEXT
  5
AE2
330
2
100
AcDbEntity
  8
TITLE
100
AcDbText
 10
827.3327438107921
 20
743.2254441060788
 30
0.0
 40
12.5
  1
H2LB-50R-600~1500-T040WZ
100
AcDbText
  0
LINE
  5
AE3
330
2
100
AcDbEntity
  8
0
100
AcDbLine
 10
469.112999422934
 20
716.5003827148577
 30
0.0
 11
469.112999422934
 21
641.5003827148577
 31
0.0
  0
LINE
  5
AE4
330
2
100
AcDbEntity
  8
0
100
AcDbLine
 10
518.112999422934
 20
711.5003827148577
 30
0.0
 11
518.112999422934
 21
641.5003827148577
 31
0.0
  0
LINE
  5
AE5
330
2
100
AcDbEntity
  8
0
100
AcDbLine
 10
522.612999422934
 20
711.5003827148577
 30
0.0
 11
522.612999422934
 21
641.5003827148577
 31
0.0
  0
ARC
  5
AE6
330
2
100
AcDbEntity
  8
0
100
AcDbCircle
 10
463.5185174229355
 20
444.882735357554
 30
0.0
 40
15.0
100
AcDbArc
 50
90.0
 51
122.7354969999514
  0
LINE
  5
AE7
330
2
100
AcDbEntity
  8
HIDS
100
AcDbLine
 10
383.913536422935
 20
450.8827353575541
 30
0.0
 11
387.1136104229353
 21
450.8827353575541
 31
0.0
  0
LINE
  5
AE8
330
2
100
AcDbEntity
  8
0
100
AcDbLine
 10
383.913536422935
 20
456.8827353575541
 30
0.0
 11
387.1111684229345
 21
456.8827353575541
 31
0.0
  0
LINE
  5
AEA
330
2
100
AcDbEntity
  8
0
100
AcDbLine
 10
463.5185174229355
 20
459.8827353575541
 30
0.0
 11
524.7073604229353
 21
459.8827353575541
 31
0.0
  0
ARC
  5
AEB
330
2
100
AcDbEntity
  8
0
100
AcDbCircle
 10
524.7076044229343
 20
444.882735357554
 30
0.0
 40
15.0
100
AcDbArc
 50
57.26489999999835
 51
90.0
  0
LINE
  5
AEC
330
2
100
AcDbEntity
  8
0
100
AcDbLine
 10
522.612999422934
 20
641.5003827148577
 30
0.0
 11
469.112999422934
 21
641.5003827148577
 31
0.0
  0
LINE
  5
AED
330
2
100
AcDbEntity
  8
0
100
AcDbLine
 10
937.5557846348678
 20
458.9198453575552
 30
0.0
 11
992.7303446348673
 21
459.8827353575541
 31
0.0
  0
ARC
  5
AEE
330
2
100
AcDbEntity
  8
0
100
AcDbCircle
 10
937.7303446348674
 20
448.9208213575546
 30
0.0
 40
10.0
100
AcDbArc
 50
91.00058700003261
 51
180.0
  0
LINE
  5
AEF
330
2
100
AcDbEntity
  8
0
100
AcDbLine
 10
1052.817625634867
 20
458.833907357555
 30
0.0
 11
992.7303446348673
 21
459.8827353575541
 31
0.0
  0
ARC
  5
AF0
330
2
100
AcDbEntity
  8
0
100
AcDbCircle
 10
1052.730344634867
 20
453.8348843575547
 30
0.0
 40
5.0
100
AcDbArc
 50
0.0
 51
89.00039699996883
  0
LINE
  5
AF1
330
2
100
AcDbEntity
  8
0
100
AcDbLine
 10
314.6128774229346
 20
744.2923747148581
 30
0.0
 11
314.612999422934
 21
868.7093667148586
 31
0.0
  0
ARC
  5
AF2
330
2
100
AcDbEntity
  8
0
100
AcDbCircle
 10
317.6155634229344
 20
788.3831947148594
 30
0.0
 40
3.0
100
AcDbArc
 50
180.0
 51
268.5000000000103
  0
LINE
  5
AF3
330
2
100
AcDbEntity
  8
0
100
AcDbLine
 10
304.6131214229335
 20
870.5003827148578
 30
0.0
 11
304.6131214229335
 21
742.5003827148578
 31
0.0
  0
LINE
  5
AF4
330
2
100
AcDbEntity
  8
0
100
AcDbLine
 10
363.6131214229335
 20
889.0003827148577
 30
0.0
 11
363.6131214229335
 21
724.0003827148577
 31
0.0
  0
LINE
  5
AF5
330
2
100
AcDbEntity
  8
0
100
AcDbLine
 10
390.0760124229345
 20
751.3265547148587
 30
0.0
 11
389.366051422934
 21
792.0003827148577
 31
0.0
  0
LINE
  5
AF6
330
2
100
AcDbEntity
  8
0
100
AcDbLine
 10
459.1129994229341
 20
864.5003827148578
 30
0.0
 11
459.1129994229341
 21
748.5003827148577
 31
0.0
  0
LINE
  5
AF7
330
2
100
AcDbEntity
  8
0
100
AcDbLine
 10
597.9278194229355
 20
738.6019447148594
 30
0.0
 11
599.112999422934
 21
806.5003827148577
 31
0.0
  0
LINE
  5
AF8
330
2
100
AcDbEntity
  8
0
100
AcDbLine
 10
529.1129994229341
 20
864.5003827148578
 30
0.0
 11
529.1129994229341
 21
748.5003827148577
 31
0.0
  0
LINE
  5
AF9
330
2
100
AcDbEntity
  8
0
100
AcDbLine
 10
588.1514514229348
 20
741.5003827148577
 30
0.0
 11
389.112999422934
 21
741.5003827148577
 31
0.0
  0
LINE
  5
AFA
330
2
100
AcDbEntity
  8
0
100
AcDbLine
 10
543.6822134229351
 20
719.5003827148577
 30
0.0
 11
444.5436634229354
 21
719.5003827148577
 31
0.0
  0
LINE
  5
AFB
330
2
100
AcDbEntity
  8
0
100
AcDbLine
 10
417.655358422935
 20
691.5003827148577
 30
0.0
 11
469.112999422934
 21
691.5003827148577
 31
0.0
  0
LINE
  5
AFC
330
2
100
AcDbEntity
  8
CENTER
100
AcDbLine
 10
419.1129994229349
 20
731.2519847148593
 30
0.0
 11
419.1129994229349
 21
701.7487807148588
 31
0.0
  0
LINE
  5
AFD
330
2
100
AcDbEntity
  8
0
100
AcDbLine
 10
351.6128774229346
 20
741.2699137148595
 30
0.0
 11
351.6128774229346
 21
726.263077714859
 31
0.0
  0
LINE
  5
AFE
330
2
100
AcDbEntity
  8
0
100
AcDbLine
 10
389.2608264229347
 20
741.0902267148578
 30
0.0
 11
403.5421994229345
 21
701.4203047148587
 31
0.0
  0
LINE
  5
AFF
330
2
100
AcDbEntity
  8
0
100
AcDbLine
 10
379.2818234229343
 20
736.763077714859
 30
0.0
 11
378.8614124229334
 21
728.7396407148592
 31
0.0
  0
ARC
  5
B00
330
2
100
AcDbEntity
  8
0
100
AcDbCircle
 10
424.5675894229334
 20
739.5003827148578
 30
0.0
 40
15.0
100
AcDbArc
 50
205.6792909999961
 51
270.0
  0
LINE
  5
B01
330
2
100
AcDbEntity
  8
0
100
AcDbLine
 10
353.560509422934
 20
724.2640547148587
 30
0.0
 11
363.6131214229335
 21
724.0003827148577
 31
0.0
  0
ARC
  5
B02
330
2
100
AcDbEntity
  8
0
100
AcDbCircle
 10
353.6128774229346
 20
726.263077714859
 30
0.0
 40
2.0
100
AcDbArc
 50
180.0
 51
268.4999389999493
  0
ARC
  5
B03
330
2
100
AcDbEntity
  8
0
100
AcDbCircle
 10
417.655358422935
 20
706.5003827148577
 30
0.0
 40
15.0
100
AcDbArc
 50
199.7989039999632
 51
270.0
  0
LINE
  5
B04
330
2
100
AcDbEntity
  8
CENTER
100
AcDbLine
 10
433.8646014229352
 20
716.5003827148591
 30
0.0
 11
404.3613974229347
 21
716.5003827148591
 31
0.0
  0
LINE
  5
B05
330
2
100
AcDbEntity
  8
0
100
AcDbLine
 10
373.8682484229339
 20
724.0003827148577
 30
0.0
 11
363.6131214229335
 21
724.0003827148577
 31
0.0
  0
ARC
  5
B06
330
2
100
AcDbEntity
  8
0
100
AcDbCircle
 10
373.8682484229339
 20
729.0003827148577
 30
0.0
 40
5.0
100
AcDbArc
 50
270.0
 51
356.9999999999968
  0
ARC
  5
B07
330
2
100
AcDbEntity
  8
0
100
AcDbCircle
 10
444.5436634229354
 20
734.5003827148578
 30
0.0
 40
15.0
100
AcDbArc
 50
230.1944270000179
 51
270.0
  0
LINE
  5
B08
330
2
100
AcDbEntity
  8
0
100
AcDbLine
 10
434.9410024229346
 20
722.9779217148591
 30
0.0
 11
433.1129994229341
 21
724.5003827148577
 31
0.0
  0
LINE
  5
B09
330
2
100
AcDbEntity
  8
0
100
AcDbLine
 10
424.5675894229334
 20
724.5003827148577
 30
0.0
 11
433.1129994229341
 21
724.5003827148577
 31
0.0
  0
ARC
  5
B0A
330
2
100
AcDbEntity
  8
0
100
AcDbCircle
 10
419.112999422934
 20
716.5003827148577
 30
0.0
 40
9.0
100
AcDbArc
 50
89.5535889999941
 51
63.76334800002408
  0
ARC
  5
B0B
330
2
100
AcDbEntity
  8
0
100
AcDbCircle
 10
317.6151974229342
 20
757.358780714858
 30
0.0
 40
3.0
100
AcDbArc
 50
91.50000799998046
 51
179.9895939999689
  0
LINE
  5
B0D
330
2
100
AcDbEntity
  8
0
100
AcDbLine
 10
351.6128774229346
 20
741.2699137148595
 30
0.0
 11
304.6131214229335
 21
742.5003827148578
 31
0.0
  0
ARC
  5
B0E
330
2
100
AcDbEntity
  8
0
100
AcDbCircle
 10
312.6128774229346
 20
744.2923747148581
 30
0.0
 40
2.0
100
AcDbArc
 50
268.4999689999676
 51
0.0
  0
ARC
  5
B0F
330
2
100
AcDbEntity
  8
0
100
AcDbCircle
 10
317.6154414229349
 20
772.1185467148591
 30
0.0
 40
3.0
100
AcDbArc
 50
91.50000799998046
 51
179.9945979999798
  0
ARC
  5
B10
330
2
100
AcDbEntity
  8
0
100
AcDbCircle
 10
317.6156854229339
 20
773.622452714859
 30
0.0
 40
3.0
100
AcDbArc
 50
194.5079799999969
 51
268.5000000000103
  0
LINE
  5
B12
330
2
100
AcDbEntity
  8
0
100
AcDbLine
 10
314.6128774229346
 20
760.2816327148578
 30
0.0
 11
314.6156854229339
 21
760.2816327148578
 31
0.0
  0
LINE
  5
B13
330
2
100
AcDbEntity
  8
0
100
AcDbLine
 10
314.6128774229346
 20
770.700577714859
 30
0.0
 11
314.6156854229339
 21
770.700577714859
 31
0.0
  0
LINE
  5
B14
330
2
100
AcDbEntity
  8
0
100
AcDbLine
 10
314.6128774229346
 20
775.0413977148585
 30
0.0
 11
314.6156854229339
 21
775.0413977148585
 31
0.0
  0
LINE
  5
B15
330
2
100
AcDbEntity
  8
0
100
AcDbLine
 10
314.6128774229346
 20
785.4603437148583
 30
0.0
 11
314.6156854229339
 21
785.4603437148583
 31
0.0
  0
LINE
  5
B16
330
2
100
AcDbEntity
  8
0
100
AcDbLine
 10
319.691613422934
 20
760.4144447148594
 30
0.0
 11
317.5367054229336
 21
760.3578047148587
 31
0.0
  0
LINE
  5
B17
330
2
100
AcDbEntity
  8
0
100
AcDbLine
 10
319.691613422934
 20
770.5677657148592
 30
0.0
 11
317.5370724229342
 21
770.6234297148587
 31
0.0
  0
LINE
  5
B18
330
2
100
AcDbEntity
  8
0
100
AcDbLine
 10
322.6131214229335
 20
767.5687417148585
 30
0.0
 11
322.6131214229335
 21
763.4134687148582
 31
0.0
  0
ARC
  5
B19
330
2
100
AcDbEntity
  8
0
100
AcDbCircle
 10
319.6131214229335
 20
763.4134687148582
 30
0.0
 40
3.0
100
AcDbArc
 50
271.4999999999896
 51
0.0
  0
ARC
  5
B1A
330
2
100
AcDbEntity
  8
0
100
AcDbCircle
 10
319.6131214229335
 20
767.5687417148585
 30
0.0
 40
3.0
100
AcDbArc
 50
0.0
 51
88.50000000001029
  0
LINE
  5
B1B
330
2
100
AcDbEntity
  8
0
100
AcDbLine
 10
319.691613422934
 20
775.1742107148587
 30
0.0
 11
317.5369494229344
 21
775.1175697148594
 31
0.0
  0
LINE
  5
B1C
330
2
100
AcDbEntity
  8
0
100
AcDbLine
 10
319.691613422934
 20
785.3275307148581
 30
0.0
 11
317.5370724229342
 21
785.3841717148591
 31
0.0
  0
LINE
  5
B1D
330
2
100
AcDbEntity
  8
0
100
AcDbLine
 10
322.6131214229335
 20
782.3285077148577
 30
0.0
 11
322.6131214229335
 21
778.1732337148589
 31
0.0
  0
ARC
  5
B1E
330
2
100
AcDbEntity
  8
0
100
AcDbCircle
 10
319.6131214229335
 20
778.1732337148589
 30
0.0
 40
3.0
100
AcDbArc
 50
271.4999999999896
 51
0.0
  0
ARC
  5
B1F
330
2
100
AcDbEntity
  8
0
100
AcDbCircle
 10
319.6131214229335
 20
782.3285077148577
 30
0.0
 40
3.0
100
AcDbArc
 50
0.0
 51
88.50000000001029
  0
ARC
  5
B20
330
2
100
AcDbEntity
  8
0
100
AcDbCircle
 10
397.5304804229344
 20
726.5003827148578
 30
0.0
 40
15.0
100
AcDbArc
 50
25.679288999966
 51
90.0
  0
LINE
  5
B21
330
2
100
AcDbEntity
  8
0
100
AcDbLine
 10
388.112999422934
 20
739.0003827148578
 30
0.0
 11
388.112999422934
 21
737.0003827148577
 31
0.0
  0
ARC
  5
B22
330
2
100
AcDbEntity
  8
0
100
AcDbCircle
 10
390.612999422934
 20
739.0003827148578
 30
0.0
 40
2.5
100
AcDbArc
 50
90.0
 51
180.0
  0
ARC
  5
B23
330
2
100
AcDbEntity
  8
0
100
AcDbCircle
 10
400.0745474229352
 20
751.5003827148578
 30
0.0
 40
10.0
100
AcDbArc
 50
180.9999999999757
 51
270.0
  0
ARC
  5
B24
330
2
100
AcDbEntity
  8
0
100
AcDbCircle
 10
384.2749874229339
 20
736.5003827148577
 30
0.0
 40
5.0
100
AcDbArc
 50
90.0
 51
176.9999999999968
  0
LINE
  5
B25
330
2
100
AcDbEntity
  8
0
100
AcDbLine
 10
383.1131214229335
 20
732.0003827148577
 30
0.0
 11
381.4047474229337
 21
732.0003827148577
 31
0.0
  0
ARC
  5
B26
330
2
100
AcDbEntity
  8
0
100
AcDbCircle
 10
381.4047474229337
 20
729.5003827148577
 30
0.0
 40
2.5
100
AcDbArc
 50
90.0
 51
176.9999999999968
  0
LINE
  5
B27
330
2
100
AcDbEntity
  8
0
100
AcDbLine
 10
384.2749874229339
 20
741.5003827148577
 30
0.0
 11
389.112999422934
 21
741.5003827148577
 31
0.0
  0
ARC
  5
B28
330
2
100
AcDbEntity
  8
0
100
AcDbCircle
 10
383.1131214229335
 20
737.0003827148577
 30
0.0
 40
5.0
100
AcDbArc
 50
270.0
 51
0.0
  0
LINE
  5
B29
330
2
100
AcDbEntity
  8
CENTER
100
AcDbLine
 10
569.1129964229335
 20
731.2519847148593
 30
0.0
 11
569.1129964229335
 21
701.7487807148588
 31
0.0
  0
LINE
  5
B2A
330
2
100
AcDbEntity
  8
0
100
AcDbLine
 10
597.7803584229349
 20
737.7992107148586
 30
0.0
 11
584.6839224229352
 21
701.4203047148587
 31
0.0
  0
ARC
  5
B2B
330
2
100
AcDbEntity
  8
0
100
AcDbCircle
 10
563.6584094229347
 20
739.5003827148578
 30
0.0
 40
15.0
100
AcDbArc
 50
270.0
 51
334.3207110000339
  0
LINE
  5
B2C
330
2
100
AcDbEntity
  8
0
100
AcDbLine
 10
570.5707634229347
 20
691.5003827148577
 30
0.0
 11
522.612999422934
 21
691.5003827148577
 31
0.0
  0
ARC
  5
B2D
330
2
100
AcDbEntity
  8
0
100
AcDbCircle
 10
543.6822134229351
 20
734.5003827148578
 30
0.0
 40
15.0
100
AcDbArc
 50
270.0
 51
309.805572999982
  0
LINE
  5
B2E
330
2
100
AcDbEntity
  8
0
100
AcDbLine
 10
466.6129994229341
 20
716.5003827148577
 30
0.0
 11
521.6129994229341
 21
716.5003827148577
 31
0.0
  0
LINE
  5
B2F
330
2
100
AcDbEntity
  8
0
100
AcDbLine
 10
466.6129994229341
 20
719.5003827148577
 30
0.0
 11
466.6129994229341
 21
716.5003827148577
 31
0.0
  0
LINE
  5
B30
330
2
100
AcDbEntity
  8
0
100
AcDbLine
 10
518.112999422934
 20
711.5003827148577
 30
0.0
 11
522.612999422934
 21
711.5003827148577
 31
0.0
  0
LINE
  5
B31
330
2
100
AcDbEntity
  8
0
100
AcDbLine
 10
519.112999422934
 20
716.5003827148577
 30
0.0
 11
519.112999422934
 21
711.5003827148577
 31
0.0
  0
LINE
  5
B32
330
2
100
AcDbEntity
  8
0
100
AcDbLine
 10
521.6129994229341
 20
719.5003827148577
 30
0.0
 11
521.6129994229341
 21
716.5003827148577
 31
0.0
  0
ARC
  5
B33
330
2
100
AcDbEntity
  8
0
100
AcDbCircle
 10
570.5707634229347
 20
706.5003827148577
 30
0.0
 40
15.0
100
AcDbArc
 50
270.0
 51
340.2011300000091
  0
LINE
  5
B34
330
2
100
AcDbEntity
  8
CENTER
100
AcDbLine
 10
583.8645984229337
 20
716.5003827148591
 30
0.0
 11
554.3613944229332
 21
716.5003827148591
 31
0.0
  0
LINE
  5
B35
330
2
100
AcDbEntity
  8
0
100
AcDbLine
 10
563.6584094229347
 20
724.5003827148577
 30
0.0
 11
555.1129994229341
 21
724.5003827148577
 31
0.0
  0
ARC
  5
B36
330
2
100
AcDbEntity
  8
0
100
AcDbCircle
 10
569.112999422934
 20
716.5003827148577
 30
0.0
 40
9.0
100
AcDbArc
 50
116.2366490000158
 51
90.44639600004416
  0
LINE
  5
B37
330
2
100
AcDbEntity
  8
0
100
AcDbLine
 10
553.2849964229335
 20
722.9779217148591
 30
0.0
 11
555.1129994229341
 21
724.5003827148577
 31
0.0
  0
ARC
  5
B38
330
2
100
AcDbEntity
  8
0
100
AcDbCircle
 10
588.1514514229348
 20
751.5003827148578
 30
0.0
 40
10.0
100
AcDbArc
 50
270.0
 51
359.0000000000242
  0
ARC
  5
B39
330
2
100
AcDbEntity
  8
0
100
AcDbCircle
 10
590.6953974229345
 20
726.5003827148578
 30
0.0
 40
15.0
100
AcDbArc
 50
90.0
 51
154.3207090000038
  0
ARC
  5
B3A
330
2
100
AcDbEntity
  8
0
100
AcDbCircle
 10
595.4281854229338
 20
738.6458907148591
 30
0.0
 40
2.5
100
AcDbArc
 50
340.2012020000094
 51
359.0000000000242
  0
LINE
  5
B3B
330
2
100
AcDbEntity
  8
0
100
AcDbLine
 10
593.064904422934
 20
871.5003827148578
 30
0.0
 11
389.112999422934
 21
871.5003827148578
 31
0.0
  0
LINE
  5
B3C
330
2
100
AcDbEntity
  8
0
100
AcDbLine
 10
543.6822134229351
 20
893.5003827148577
 30
0.0
 11
444.5436634229354
 21
893.5003827148577
 31
0.0
  0
ARC
  5
B3D
330
2
100
AcDbEntity
  8
0
100
AcDbCircle
 10
319.6131214229335
 20
845.4329997148581
 30
0.0
 40
3.0
100
AcDbArc
 50
271.4999999999896
 51
0.0
  0
LINE
  5
B3F
330
2
100
AcDbEntity
  8
0
100
AcDbLine
 10
390.1618274229349
 20
866.5882737148589
 30
0.0
 11
389.366051422934
 21
821.0003827148577
 31
0.0
  0
ARC
  5
B40
330
2
100
AcDbEntity
  8
0
100
AcDbCircle
 10
317.6156854229339
 20
839.3792887148595
 30
0.0
 40
3.0
100
AcDbArc
 50
91.49999999998968
 51
180.0
  0
LINE
  5
B42
330
2
100
AcDbEntity
  8
0
100
AcDbLine
 10
314.612999422934
 20
842.3011637148595
 30
0.0
 11
314.6156854229339
 21
842.3011637148595
 31
0.0
  0
LINE
  5
B43
330
2
100
AcDbEntity
  8
0
100
AcDbLine
 10
319.691613422934
 20
842.4339767148579
 30
0.0
 11
317.5370724229342
 21
842.3783127148583
 31
0.0
  0
LINE
  5
B44
330
2
100
AcDbEntity
  8
0
100
AcDbLine
 10
387.1131214229335
 20
821.0003827148577
 30
0.0
 11
387.1131214229335
 21
792.0003827148577
 31
0.0
  0
LINE
  5
B45
330
2
100
AcDbEntity
  8
0
100
AcDbLine
 10
400.0017934229345
 20
794.5003827148577
 30
0.0
 11
400.0017934229345
 21
818.5003827148577
 31
0.0
  0
LINE
  5
B46
330
2
100
AcDbEntity
  8
0
100
AcDbLine
 10
387.1131214229335
 20
822.5003827148578
 30
0.0
 11
387.1131214229335
 21
790.5003827148577
 31
0.0
  0
LINE
  5
B47
330
2
100
AcDbEntity
  8
0
100
AcDbLine
 10
383.9131704229348
 20
822.5003827148578
 30
0.0
 11
383.9131704229348
 21
790.5003827148577
 31
0.0
  0
LINE
  5
B48
330
2
100
AcDbEntity
  8
0
100
AcDbLine
 10
387.1131214229335
 20
792.0003827148577
 30
0.0
 11
397.5017934229345
 21
792.0003827148577
 31
0.0
  0
LINE
  5
B49
330
2
100
AcDbEntity
  8
0
100
AcDbLine
 10
378.1132434229348
 20
813.6908127148583
 30
0.0
 11
381.9131704229348
 21
813.6908127148583
 31
0.0
  0
LINE
  5
B4A
330
2
100
AcDbEntity
  8
0
100
AcDbLine
 10
381.9131704229348
 20
814.200577714859
 30
0.0
 11
383.9131704229348
 21
814.200577714859
 31
0.0
  0
LINE
  5
B4B
330
2
100
AcDbEntity
  8
0
100
AcDbLine
 10
378.1132434229348
 20
799.3109297148587
 30
0.0
 11
381.9131704229348
 21
799.3109297148587
 31
0.0
  0
LINE
  5
B4C
330
2
100
AcDbEntity
  8
0
100
AcDbLine
 10
378.1132434229348
 20
809.9378827148578
 30
0.0
 11
381.9131704229348
 21
809.9378827148578
 31
0.0
  0
LINE
  5
B4D
330
2
100
AcDbEntity
  8
0
100
AcDbLine
 10
378.1132434229348
 20
803.0638587148589
 30
0.0
 11
381.9131704229348
 21
803.0638587148589
 31
0.0
  0
LINE
  5
B4E
330
2
100
AcDbEntity
  8
0
100
AcDbLine
 10
381.9131704229348
 20
798.8011637148595
 30
0.0
 11
383.9131704229348
 21
798.8011637148595
 31
0.0
  0
LINE
  5
B4F
330
2
100
AcDbEntity
  8
0
100
AcDbLine
 10
376.6132434229348
 20
812.1908127148582
 30
0.0
 11
376.6132434229348
 21
800.8109297148587
 31
0.0
  0
ARC
  5
B50
330
2
100
AcDbEntity
  8
0
100
AcDbCircle
 10
378.1132434229348
 20
808.4378827148578
 30
0.0
 40
1.5
100
AcDbArc
 50
90.0
 51
180.0
  0
ARC
  5
B51
330
2
100
AcDbEntity
  8
0
100
AcDbCircle
 10
378.1132434229348
 20
804.5638587148589
 30
0.0
 40
1.5
100
AcDbArc
 50
180.0
 51
270.0
  0
ARC
  5
B52
330
2
100
AcDbEntity
  8
0
100
AcDbCircle
 10
378.1132434229348
 20
811.4378827148577
 30
0.0
 40
1.5
100
AcDbArc
 50
180.0
 51
270.0
  0
ARC
  5
B53
330
2
100
AcDbEntity
  8
0
100
AcDbCircle
 10
378.1132434229348
 20
800.8109297148587
 30
0.0
 40
1.5
100
AcDbArc
 50
180.0
 51
270.0
  0
ARC
  5
B54
330
2
100
AcDbEntity
  8
0
100
AcDbCircle
 10
378.1132434229348
 20
801.563858714859
 30
0.0
 40
1.5
100
AcDbArc
 50
90.0
 51
180.0
  0
ARC
  5
B55
330
2
100
AcDbEntity
  8
0
100
AcDbCircle
 10
378.1132434229348
 20
812.1908127148582
 30
0.0
 40
1.5
100
AcDbArc
 50
90.0
 51
180.0
  0
LINE
  5
B56
330
2
100
AcDbEntity
  8
0
100
AcDbLine
 10
381.9131704229348
 20
814.200577714859
 30
0.0
 11
381.9131704229348
 21
798.8011637148595
 31
0.0
  0
LINE
  5
B57
330
2
100
AcDbEntity
  8
HIDS
100
AcDbLine
 10
383.9131704229348
 20
796.5003827148578
 30
0.0
 11
387.1131214229335
 21
796.5003827148578
 31
0.0
  0
LINE
  5
B58
330
2
100
AcDbEntity
  8
0
100
AcDbLine
 10
383.9131704229348
 20
790.5003827148577
 30
0.0
 11
387.1131214229335
 21
790.5003827148577
 31
0.0
  0
LINE
  5
B59
330
2
100
AcDbEntity
  8
0
100
AcDbLine
 10
387.1131214229335
 20
821.0003827148577
 30
0.0
 11
397.5017934229345
 21
821.0003827148577
 31
0.0
  0
LINE
  5
B5A
330
2
100
AcDbEntity
  8
HIDS
100
AcDbLine
 10
383.9131704229348
 20
816.5003827148577
 30
0.0
 11
387.1131214229335
 21
816.5003827148577
 31
0.0
  0
LINE
  5
B5B
330
2
100
AcDbEntity
  8
0
100
AcDbLine
 10
383.9131704229348
 20
822.5003827148578
 30
0.0
 11
387.1131214229335
 21
822.5003827148578
 31
0.0
  0
LINE
  5
B5C
330
2
100
AcDbEntity
  8
0
100
AcDbLine
 10
353.5607534229348
 20
888.7376877148582
 30
0.0
 11
363.6131214229335
 21
889.0003827148577
 31
0.0
  0
LINE
  5
B5D
330
2
100
AcDbEntity
  8
0
100
AcDbLine
 10
351.6131214229335
 20
871.731827714859
 30
0.0
 11
351.6131214229335
 21
886.7386637148594
 31
0.0
  0
LINE
  5
B5E
330
2
100
AcDbEntity
  8
0
100
AcDbLine
 10
351.6131214229335
 20
871.731827714859
 30
0.0
 11
304.6131214229335
 21
870.5003827148578
 31
0.0
  0
ARC
  5
B5F
330
2
100
AcDbEntity
  8
0
100
AcDbCircle
 10
317.6151974229342
 20
855.6429607148587
 30
0.0
 40
3.0
100
AcDbArc
 50
180.0097350000104
 51
268.5000000000103
  0
ARC
  5
B60
330
2
100
AcDbEntity
  8
0
100
AcDbCircle
 10
312.612999422934
 20
868.7093667148586
 30
0.0
 40
2.0
100
AcDbArc
 50
0.0
 51
91.50042700003462
  0
LINE
  5
B61
330
2
100
AcDbEntity
  8
0
100
AcDbLine
 10
314.612999422934
 20
852.720108714859
 30
0.0
 11
314.6156854229339
 21
852.720108714859
 31
0.0
  0
LINE
  5
B62
330
2
100
AcDbEntity
  8
0
100
AcDbLine
 10
319.691613422934
 20
852.5872967148591
 30
0.0
 11
317.5367054229336
 21
852.6439377148584
 31
0.0
  0
LINE
  5
B63
330
2
100
AcDbEntity
  8
0
100
AcDbLine
 10
322.6131214229335
 20
845.4329997148581
 30
0.0
 11
322.6131214229335
 21
849.5882737148587
 31
0.0
  0
ARC
  5
B64
330
2
100
AcDbEntity
  8
0
100
AcDbCircle
 10
319.6131214229335
 20
849.5882737148587
 30
0.0
 40
3.0
100
AcDbArc
 50
0.0
 51
88.50000000001029
  0
ARC
  5
B65
330
2
100
AcDbEntity
  8
0
100
AcDbCircle
 10
353.6131214229335
 20
886.7386637148594
 30
0.0
 40
2.0
100
AcDbArc
 50
91.50005299995532
 51
180.0
  0
ARC
  5
B66
330
2
100
AcDbEntity
  8
0
100
AcDbCircle
 10
397.5304804229344
 20
886.5003827148578
 30
0.0
 40
15.0
100
AcDbArc
 50
270.0
 51
334.3207110000339
  0
ARC
  5
B67
330
2
100
AcDbEntity
  8
0
100
AcDbCircle
 10
390.612999422934
 20
874.0003827148578
 30
0.0
 40
2.5
100
AcDbArc
 50
180.0
 51
270.0
  0
ARC
  5
B68
330
2
100
AcDbEntity
  8
0
100
AcDbCircle
 10
384.2749874229339
 20
876.5003827148577
 30
0.0
 40
5.0
100
AcDbArc
 50
183.0000000000031
 51
270.0
  0
ARC
  5
B69
330
2
100
AcDbEntity
  8
0
100
AcDbCircle
 10
395.1610954229345
 20
866.5003827148577
 30
0.0
 40
5.0
100
AcDbArc
 50
90.0
 51
179.0000000000242
  0
LINE
  5
B6A
330
2
100
AcDbEntity
  8
0
100
AcDbLine
 10
384.2749874229339
 20
871.5003827148578
 30
0.0
 11
389.112999422934
 21
871.5003827148578
 31
0.0
  0
LINE
  5
B6B
330
2
100
AcDbEntity
  8
CENTER
100
AcDbLine
 10
433.8646014229352
 20
896.500382714859
 30
0.0
 11
404.3613974229347
 21
896.500382714859
 31
0.0
  0
ARC
  5
B6C
330
2
100
AcDbEntity
  8
0
100
AcDbCircle
 10
424.5675894229334
 20
873.5003827148577
 30
0.0
 40
15.0
100
AcDbArc
 50
90.0
 51
154.3207090000038
  0
LINE
  5
B6D
330
2
100
AcDbEntity
  8
0
100
AcDbLine
 10
373.8682484229339
 20
889.0003827148577
 30
0.0
 11
363.6131214229335
 21
889.0003827148577
 31
0.0
  0
LINE
  5
B6E
330
2
100
AcDbEntity
  8
0
100
AcDbLine
 10
388.112999422934
 20
874.0003827148578
 30
0.0
 11
388.112999422934
 21
876.0003827148578
 31
0.0
  0
LINE
  5
B6F
330
2
100
AcDbEntity
  8
0
100
AcDbLine
 10
379.2818234229343
 20
876.2386637148594
 30
0.0
 11
378.8614124229334
 21
884.2621017148578
 31
0.0
  0
LINE
  5
B70
330
2
100
AcDbEntity
  8
0
100
AcDbLine
 10
383.1131214229335
 20
881.0003827148577
 30
0.0
 11
381.4047474229337
 21
881.0003827148577
 31
0.0
  0
ARC
  5
B71
330
2
100
AcDbEntity
  8
0
100
AcDbCircle
 10
381.4047474229337
 20
883.5003827148577
 30
0.0
 40
2.5
100
AcDbArc
 50
183.0000000000031
 51
270.0
  0
ARC
  5
B72
330
2
100
AcDbEntity
  8
0
100
AcDbCircle
 10
373.8682484229339
 20
884.0003827148578
 30
0.0
 40
5.0
100
AcDbArc
 50
3.000000000003155
 51
90.0
  0
ARC
  5
B73
330
2
100
AcDbEntity
  8
0
100
AcDbCircle
 10
383.1131214229335
 20
876.0003827148578
 30
0.0
 40
5.0
100
AcDbArc
 50
0.0
 51
90.0
  0
ARC
  5
B74
330
2
100
AcDbEntity
  8
0
100
AcDbCircle
 10
444.5436634229354
 20
878.5003827148578
 30
0.0
 40
15.0
100
AcDbArc
 50
90.0
 51
129.805572999982
  0
LINE
  5
B75
330
2
100
AcDbEntity
  8
0
100
AcDbLine
 10
434.9410024229346
 20
890.0238197148594
 30
0.0
 11
433.1129994229341
 21
888.5003827148578
 31
0.0
  0
LINE
  5
B76
330
2
100
AcDbEntity
  8
0
100
AcDbLine
 10
424.5675894229334
 20
888.5003827148578
 30
0.0
 11
433.1129994229341
 21
888.5003827148578
 31
0.0
  0
LINE
  5
B77
330
2
100
AcDbEntity
  8
0
100
AcDbLine
 10
597.9278194229355
 20
874.3988197148594
 30
0.0
 11
599.112999422934
 21
806.5003827148577
 31
0.0
  0
ARC
  5
B78
330
2
100
AcDbEntity
  8
0
100
AcDbCircle
 10
543.6822134229351
 20
878.5003827148578
 30
0.0
 40
15.0
100
AcDbArc
 50
50.19442700001797
 51
90.0
  0
ARC
  5
B79
330
2
100
AcDbEntity
  8
0
100
AcDbCircle
 10
590.6953974229345
 20
886.5003827148578
 30
0.0
 40
15.0
100
AcDbArc
 50
205.6792909999961
 51
270.0
  0
ARC
  5
B7A
330
2
100
AcDbEntity
  8
0
100
AcDbCircle
 10
593.064904422934
 20
866.5003827148577
 30
0.0
 40
5.0
100
AcDbArc
 50
0.9999999999757104
 51
90.0
  0
LINE
  5
B7B
330
2
100
AcDbEntity
  8
CENTER
100
AcDbLine
 10
583.8645984229337
 20
896.500382714859
 30
0.0
 11
554.3613944229332
 21
896.500382714859
 31
0.0
  0
LINE
  5
B7C
330
2
100
AcDbEntity
  8
0
100
AcDbLine
 10
563.6584094229347
 20
888.5003827148578
 30
0.0
 11
555.1129994229341
 21
888.5003827148578
 31
0.0
  0
LINE
  5
B7D
330
2
100
AcDbEntity
  8
0
100
AcDbLine
 10
553.2849964229335
 20
890.0238197148594
 30
0.0
 11
555.1129994229341
 21
888.5003827148578
 31
0.0
  0
ARC
  5
B7E
330
2
100
AcDbEntity
  8
0
100
AcDbCircle
 10
563.6584094229347
 20
873.5003827148577
 30
0.0
 40
15.0
100
AcDbArc
 50
25.679288999966
 51
90.0
  0
ARC
  5
B7F
330
2
100
AcDbEntity
  8
0
100
AcDbCircle
 10
595.4281854229338
 20
874.3558517148578
 30
0.0
 40
2.5
100
AcDbArc
 50
0.9999999999757104
 51
19.79869300000316
  0
LINE
  5
B80
330
2
100
AcDbEntity
  8
0
100
AcDbLine
 10
417.655358422935
 20
921.5003827148578
 30
0.0
 11
570.5707634229347
 21
921.5003827148578
 31
0.0
  0
ARC
  5
B81
330
2
100
AcDbEntity
  8
0
100
AcDbCircle
 10
417.655358422935
 20
906.5003827148577
 30
0.0
 40
15.0
100
AcDbArc
 50
90.0
 51
160.2010960000367
  0
ARC
  5
B82
330
2
100
AcDbEntity
  8
0
100
AcDbCircle
 10
570.5707634229347
 20
906.5003827148577
 30
0.0
 40
15.0
100
AcDbArc
 50
19.79890100002122
 51
90.0
  0
LINE
  5
15F2
330
2
100
AcDbEntity
  8
0
100
AcDbLine
 10
170.6131214229335
 20
870.5003827148585
 30
0.0
 11
304.6131214229335
 21
870.5003827148585
 31
0.0
  0
LINE
  5
15F3
330
2
100
AcDbEntity
  8
0
100
AcDbLine
 10
181.1131214229335
 20
832.5003827148584
 30
0.0
 11
296.1131214229335
 21
832.5003827148584
 31
0.0
  0
LINE
  5
15F4
330
2
100
AcDbEntity
  8
0
100
AcDbLine
 10
180.6131214229335
 20
840.7171797148576
 30
0.0
 11
296.6131214229335
 21
840.7171797148576
 31
0.0
  0
LINE
  5
15F5
330
2
100
AcDbEntity
  8
0
100
AcDbLine
 10
181.6131214229335
 20
844.6771397148577
 30
0.0
 11
295.6131214229335
 21
844.6771397148577
 31
0.0
  0
LINE
  5
15F6
330
2
100
AcDbEntity
  8
0
100
AcDbLine
 10
180.6131214229335
 20
850.0682537148577
 30
0.0
 11
296.6131214229335
 21
850.0682537148577
 31
0.0
  0
LINE
  5
15F7
330
2
100
AcDbEntity
  8
0
100
AcDbLine
 10
181.6131214229335
 20
853.4989177148572
 30
0.0
 11
295.6131214229335
 21
853.4989177148572
 31
0.0
  0
LINE
  5
15F8
330
2
100
AcDbEntity
  8
0
100
AcDbLine
 10
180.6131214229335
 20
856.9798747148571
 30
0.0
 11
296.6131214229335
 21
856.9798747148571
 31
0.0
  0
LINE
  5
15F9
330
2
100
AcDbEntity
  8
0
100
AcDbLine
 10
181.6131214229335
 20
858.507218714859
 30
0.0
 11
295.6131214229335
 21
858.507218714859
 31
0.0
  0
LINE
  5
15FA
330
2
100
AcDbEntity
  8
0
100
AcDbLine
 10
180.6131214229335
 20
862.2342687148584
 30
0.0
 11
296.6131214229335
 21
862.2342687148584
 31
0.0
  0
LINE
  5
15FB
330
2
100
AcDbEntity
  8
0
100
AcDbLine
 10
180.6131214229335
 20
865.995499714857
 30
0.0
 11
296.6131214229335
 21
865.995499714857
 31
0.0
  0
LINE
  5
15FC
330
2
100
AcDbEntity
  8
0
100
AcDbLine
 10
180.6131214229335
 20
868.5409097148577
 30
0.0
 11
296.6131214229335
 21
868.5409097148577
 31
0.0
  0
LINE
  5
15FD
330
2
100
AcDbEntity
  8
0
100
AcDbLine
 10
180.6131214229335
 20
870.0179607148575
 30
0.0
 11
296.6131214229335
 21
870.0179607148575
 31
0.0
  0
LINE
  5
15FE
330
2
100
AcDbEntity
  8
0
100
AcDbLine
 10
181.1131214229335
 20
780.5003827148584
 30
0.0
 11
296.1131214229335
 21
780.5003827148584
 31
0.0
  0
LINE
  5
15FF
330
2
100
AcDbEntity
  8
0
100
AcDbLine
 10
180.6131214229335
 20
772.2835857148575
 30
0.0
 11
296.6131214229335
 21
772.2835857148575
 31
0.0
  0
LINE
  5
1600
330
2
100
AcDbEntity
  8
0
100
AcDbLine
 10
180.6131214229335
 20
768.323624714857
 30
0.0
 11
295.6131214229335
 21
768.323624714857
 31
0.0
  0
LINE
  5
1601
330
2
100
AcDbEntity
  8
0
100
AcDbLine
 10
180.6131214229335
 20
750.7660077148584
 30
0.0
 11
296.6131214229335
 21
750.7660077148584
 31
0.0
  0
LINE
  5
1602
330
2
100
AcDbEntity
  8
0
100
AcDbLine
 10
181.6131214229335
 20
744.5003827148584
 30
0.0
 11
246.6131214229335
 21
744.5003827148584
 31
0.0
  0
LINE
  5
1603
330
2
100
AcDbEntity
  8
0
100
AcDbLine
 10
180.6131214229335
 20
762.9320227148573
 30
0.0
 11
296.6131214229335
 21
762.9320227148573
 31
0.0
  0
LINE
  5
1604
330
2
100
AcDbEntity
  8
0
100
AcDbLine
 10
180.6131214229335
 20
759.5018467148575
 30
0.0
 11
295.6131214229335
 21
759.5018467148575
 31
0.0
  0
LINE
  5
1605
330
2
100
AcDbEntity
  8
0
100
AcDbLine
 10
180.6131214229335
 20
754.4930577148561
 30
0.0
 11
295.6131214229335
 21
754.4930577148561
 31
0.0
  0
LINE
  5
1606
330
2
100
AcDbEntity
  8
0
100
AcDbLine
 10
180.6131214229335
 20
756.020401714858
 30
0.0
 11
296.6131214229335
 21
756.020401714858
 31
0.0
  0
ARC
  5
1607
330
2
100
AcDbEntity
  8
0
100
AcDbCircle
 10
232.6389164229335
 20
741.9994977148585
 30
0.0
 40
1.0
100
AcDbArc
 50
1.499300000000813
 51
90.0
  0
ARC
  5
1608
330
2
100
AcDbEntity
  8
0
100
AcDbCircle
 10
184.5873184229335
 20
741.9994977148585
 30
0.0
 40
1.0
100
AcDbArc
 50
90.0
 51
178.499404999999
  0
LINE
  5
1609
330
2
100
AcDbEntity
  8
CENTER
100
AcDbLine
 10
208.6131214229335
 20
753.0830774356841
 30
0.0
 11
208.6131214229335
 21
671.9058997148585
 31
0.0
  0
ARC
  5
160A
330
2
100
AcDbEntity
  8
0
100
AcDbCircle
 10
121.5315174229333
 20
754.5033117148569
 30
0.0
 40
13.0
100
AcDbArc
 50
188.6181999999977
 51
270.0
  0
ARC
  5
160B
330
2
100
AcDbEntity
  8
0
100
AcDbCircle
 10
470.4128574229335
 20
806.5018467148574
 30
0.0
 40
345.0
100
AcDbArc
 50
180.0002329999556
 51
191.5879999999779
  0
LINE
  5
160C
330
2
100
AcDbEntity
  8
0
100
AcDbLine
 10
170.6131214229335
 20
735.9998937148584
 30
0.0
 11
170.6131214229335
 21
877.0003827148585
 31
0.0
  0
LINE
  5
160F
330
2
100
AcDbEntity
  8
CENTER
100
AcDbLine
 10
180.2942770122426
 20
705.9994977148585
 30
0.0
 11
136.8634030320281
 21
705.9994977148585
 31
0.0
  0
LINE
  5
1610
330
2
100
AcDbEntity
  8
0
100
AcDbLine
 10
133.9142994229332
 20
736.0018467148575
 30
0.0
 11
170.6131214229335
 21
735.9998937148584
 31
0.0
  0
LINE
  5
1612
330
2
100
AcDbEntity
  8
0
100
AcDbLine
 10
121.5315174229335
 20
741.5033117148568
 30
0.0
 11
130.965660422933
 21
741.5033117148568
 31
0.0
  0
ARC
  5
161E
330
2
100
AcDbEntity
  8
0
100
AcDbCircle
 10
133.9144524229329
 20
737.5018467148574
 30
0.0
 40
1.5
100
AcDbArc
 50
191.587909999979
 51
270.0
  0
ARC
  5
161F
330
2
100
AcDbEntity
  8
0
100
AcDbCircle
 10
130.7658924229333
 20
740.5033117148568
 30
0.0
 40
1.0
100
AcDbArc
 50
10.99650600004569
 51
90.0
  0
ARC
  5
1623
330
2
100
AcDbEntity
  8
0
100
AcDbCircle
 10
208.6131214229335
 20
800.4994977148585
 30
0.0
 40
68.800003
100
AcDbArc
 50
258.8441999999981
 51
281.1558000000018
  0
LINE
  5
1624
330
2
100
AcDbEntity
  8
0
100
AcDbLine
 10
243.6131134229335
 20
689.9994977148584
 30
0.0
 11
173.6131214229335
 21
689.9994977148584
 31
0.0
  0
LINE
  5
1625
330
2
100
AcDbEntity
  8
0
100
AcDbLine
 10
243.6131134229335
 20
688.9994977148585
 30
0.0
 11
173.6131214229335
 21
688.9994977148585
 31
0.0
  0
LINE
  5
1626
330
2
100
AcDbEntity
  8
0
100
AcDbLine
 10
176.1131214229335
 20
683.9994977148584
 30
0.0
 11
241.1131134229335
 21
683.9994977148584
 31
0.0
  0
LINE
  5
1627
330
2
100
AcDbEntity
  8
0
100
AcDbLine
 10
174.6755214229335
 20
730.0776837148585
 30
0.0
 11
173.6131214229335
 21
689.9994977148584
 31
0.0
  0
LINE
  5
1628
330
2
100
AcDbEntity
  8
0
100
AcDbLine
 10
172.1131214229335
 20
720.4996957148584
 30
0.0
 11
172.1131214229335
 21
691.4994977148584
 31
0.0
  0
ARC
  5
1629
330
2
100
AcDbEntity
  8
0
100
AcDbCircle
 10
183.6659164229336
 20
684.9994977148585
 30
0.0
 40
1.0
100
AcDbArc
 50
181.5003969999999
 51
270.0
  0
LINE
  5
162A
330
2
100
AcDbEntity
  8
0
100
AcDbLine
 10
182.6259154229335
 20
686.5126967148585
 30
0.0
 11
182.6661144229335
 21
684.9732977148585
 31
0.0
  0
LINE
  5
162B
330
2
100
AcDbEntity
  8
0
100
AcDbLine
 10
178.6131214229335
 20
684.4994977148585
 30
0.0
 11
178.8943174229334
 21
684.0126967148584
 31
0.0
  0
LINE
  5
162C
330
2
100
AcDbEntity
  8
0
100
AcDbLine
 10
178.6131214229335
 20
684.4994977148585
 30
0.0
 11
178.3321154229336
 21
684.0126967148584
 31
0.0
  0
ARC
  5
162D
330
2
100
AcDbEntity
  8
0
100
AcDbCircle
 10
182.1261214229336
 20
686.4994977148585
 30
0.0
 40
0.5
100
AcDbArc
 50
1.500199999999713
 51
90.0
  0
LINE
  5
162E
330
2
100
AcDbEntity
  8
0
100
AcDbLine
 10
173.6131214229335
 20
688.9994977148585
 30
0.0
 11
173.6131214229335
 21
689.9994977148584
 31
0.0
  0
LINE
  5
162F
330
2
100
AcDbEntity
  8
0
100
AcDbLine
 10
172.1131214229335
 20
691.4994977148584
 30
0.0
 11
173.6529164229336
 21
691.4994977148584
 31
0.0
  0
ARC
  5
1630
330
2
100
AcDbEntity
  8
0
100
AcDbCircle
 10
176.1131214229335
 20
686.4994977148585
 30
0.0
 40
2.5
100
AcDbArc
 50
180.0
 51
270.0
  0
ARC
  5
1631
330
2
100
AcDbEntity
  8
0
100
AcDbCircle
 10
174.6131214229335
 20
687.9994977148584
 30
0.0
 40
1.0
100
AcDbArc
 50
180.0
 51
270.0
  0
LINE
  5
1632
330
2
100
AcDbEntity
  8
0
100
AcDbLine
 10
173.6131214229335
 20
686.4994977148585
 30
0.0
 11
173.6131214229335
 21
688.9994977148585
 31
0.0
  0
LINE
  5
1633
330
2
100
AcDbEntity
  8
0
100
AcDbLine
 10
181.5711214229336
 20
686.4994977148585
 30
0.0
 11
175.6551204229335
 21
686.4994977148585
 31
0.0
  0
ARC
  5
1634
330
2
100
AcDbEntity
  8
0
100
AcDbCircle
 10
178.6131214229335
 20
686.9994977148585
 30
0.0
 40
3.0
100
AcDbArc
 50
180.0
 51
0.0
  0
LINE
  5
1635
330
2
100
AcDbEntity
  8
0
100
AcDbLine
 10
182.1261214229336
 20
686.9994977148585
 30
0.0
 11
174.6131214229335
 21
686.9994977148585
 31
0.0
  0
LINE
  5
1636
330
2
100
AcDbEntity
  8
0
100
AcDbLine
 10
177.6613164229336
 20
732.9994977148585
 30
0.0
 11
195.3019184229338
 21
732.9994977148585
 31
0.0
  0
ARC
  5
1637
330
2
100
AcDbEntity
  8
0
100
AcDbCircle
 10
181.4029004229334
 20
734.9994977148585
 30
0.0
 40
2.0
100
AcDbArc
 50
270.0
 51
358.5000920000001
  0
LINE
  5
1638
330
2
100
AcDbEntity
  8
0
100
AcDbLine
 10
183.5875624229336
 20
742.0256817148583
 30
0.0
 11
183.4022144229336
 21
734.9471597148585
 31
0.0
  0
LINE
  5
1639
330
2
100
AcDbEntity
  8
0
100
AcDbLine
 10
172.1131214229335
 20
720.4996957148584
 30
0.0
 11
174.4217144229335
 21
720.4996957148584
 31
0.0
  0
ARC
  5
163A
330
2
100
AcDbEntity
  8
0
100
AcDbCircle
 10
177.6611174229335
 20
729.9994977148585
 30
0.0
 40
3.0
100
AcDbArc
 50
90.0
 51
178.5002749999988
  0
LINE
  5
163B
330
2
100
AcDbEntity
  8
0
100
AcDbLine
 10
242.5501254229334
 20
730.0776837148585
 30
0.0
 11
243.6131134229335
 21
689.9994977148584
 31
0.0
  0
LINE
  5
163C
330
2
100
AcDbEntity
  8
0
100
AcDbLine
 10
243.6131134229335
 20
688.9994977148585
 30
0.0
 11
243.6131134229335
 21
689.9994977148584
 31
0.0
  0
LINE
  5
163D
330
2
100
AcDbEntity
  8
0
100
AcDbLine
 10
238.6131134229335
 20
684.4994977148585
 30
0.0
 11
238.8943174229334
 21
684.0126967148584
 31
0.0
  0
LINE
  5
163E
330
2
100
AcDbEntity
  8
0
100
AcDbLine
 10
238.6131134229335
 20
684.4994977148585
 30
0.0
 11
238.3321224229334
 21
684.0126967148584
 31
0.0
  0
ARC
  5
163F
330
2
100
AcDbEntity
  8
0
100
AcDbCircle
 10
241.1131134229335
 20
686.4994977148585
 30
0.0
 40
2.5
100
AcDbArc
 50
270.0
 51
0.0
  0
ARC
  5
1640
330
2
100
AcDbEntity
  8
0
100
AcDbCircle
 10
242.6131134229335
 20
687.9994977148584
 30
0.0
 40
1.0
100
AcDbArc
 50
270.0
 51
0.0
  0
LINE
  5
1641
330
2
100
AcDbEntity
  8
0
100
AcDbLine
 10
243.6131134229335
 20
686.4994977148585
 30
0.0
 11
243.6131134229335
 21
688.9994977148585
 31
0.0
  0
LINE
  5
1642
330
2
100
AcDbEntity
  8
0
100
AcDbLine
 10
234.6003194229333
 20
686.5126967148585
 30
0.0
 11
234.5601194229334
 21
684.9732977148585
 31
0.0
  0
ARC
  5
1643
330
2
100
AcDbEntity
  8
0
100
AcDbCircle
 10
233.5605164229336
 20
684.9994977148585
 30
0.0
 40
1.0
100
AcDbArc
 50
270.0
 51
358.5001999999988
  0
ARC
  5
1644
330
2
100
AcDbEntity
  8
0
100
AcDbCircle
 10
235.1003194229338
 20
686.4994977148585
 30
0.0
 40
0.5
100
AcDbArc
 50
90.0
 51
178.5000000000004
  0
LINE
  5
1645
330
2
100
AcDbEntity
  8
0
100
AcDbLine
 10
241.5711214229336
 20
686.4994977148585
 30
0.0
 11
235.6551204229335
 21
686.4994977148585
 31
0.0
  0
ARC
  5
1646
330
2
100
AcDbEntity
  8
0
100
AcDbCircle
 10
238.6131134229335
 20
686.9994977148585
 30
0.0
 40
3.0
100
AcDbArc
 50
180.0
 51
0.0
  0
LINE
  5
1647
330
2
100
AcDbEntity
  8
0
100
AcDbLine
 10
235.1003194229338
 20
686.9994977148585
 30
0.0
 11
242.6131134229335
 21
686.9994977148585
 31
0.0
  0
LINE
  5
1648
330
2
100
AcDbEntity
  8
0
100
AcDbLine
 10
239.5643154229337
 20
732.9994977148585
 30
0.0
 11
221.9243164229337
 21
732.9994977148585
 31
0.0
  0
ARC
  5
1649
330
2
100
AcDbEntity
  8
0
100
AcDbCircle
 10
239.5643154229337
 20
729.9994977148585
 30
0.0
 40
3.0
100
AcDbArc
 50
1.499899999999632
 51
90.0
  0
ARC
  5
164A
330
2
100
AcDbEntity
  8
0
100
AcDbCircle
 10
235.8233184229334
 20
734.9994977148585
 30
0.0
 40
2.0
100
AcDbArc
 50
181.5033719999999
 51
270.0
  0
LINE
  5
164B
330
2
100
AcDbEntity
  8
0
100
AcDbLine
 10
233.6382294229333
 20
742.0256507148585
 30
0.0
 11
233.8240054229336
 21
734.9470377148584
 31
0.0
  0
LINE
  5
164C
330
2
100
AcDbEntity
  8
0
100
AcDbLine
 10
133.9142994229332
 20
876.9984297148576
 30
0.0
 11
170.6131214229335
 21
877.0003827148585
 31
0.0
  0
ARC
  5
164D
330
2
100
AcDbEntity
  8
0
100
AcDbCircle
 10
464.612816422933
 20
806.4974527148578
 30
0.0
 40
360.0
100
AcDbArc
 50
171.3813929999783
 51
180.0
  0
ARC
  5
164E
330
2
100
AcDbEntity
  8
0
100
AcDbCircle
 10
470.4128574229335
 20
806.4989177148571
 30
0.0
 40
345.0
100
AcDbArc
 50
168.411987000042
 51
179.9997559999962
  0
ARC
  5
164F
330
2
100
AcDbEntity
  8
0
100
AcDbCircle
 10
464.612816422933
 20
806.5033117148569
 30
0.0
 40
360.0
100
AcDbArc
 50
180.0
 51
188.6186070000216
  0
LINE
  5
1650
330
2
100
AcDbEntity
  8
0
100
AcDbLine
 10
121.5315174229335
 20
871.4974527148578
 30
0.0
 11
130.965660422933
 21
871.4974527148578
 31
0.0
  0
ARC
  5
1651
330
2
100
AcDbEntity
  8
0
100
AcDbCircle
 10
121.5315174229335
 20
858.4974527148579
 30
0.0
 40
13.0
100
AcDbArc
 50
90.0
 51
171.3818050000497
  0
ARC
  5
1652
330
2
100
AcDbEntity
  8
0
100
AcDbCircle
 10
130.7658924229335
 20
872.4974527148578
 30
0.0
 40
1.0
100
AcDbArc
 50
270.0
 51
349.0034939999542
  0
ARC
  5
1653
330
2
100
AcDbEntity
  8
0
100
AcDbCircle
 10
133.9144524229332
 20
875.4984297148576
 30
0.0
 40
1.5
100
AcDbArc
 50
90.0
 51
168.4120900000209
  0
LINE
  5
1654
330
2
100
AcDbEntity
  8
0
100
AcDbLine
 10
172.6131214229335
 20
742.5003827148584
 30
0.0
 11
172.6131214229335
 21
870.5003827148585
 31
0.0
  0
LINE
  5
1655
330
2
100
AcDbEntity
  8
0
100
AcDbLine
 10
232.6389164229335
 20
742.9994977148585
 30
0.0
 11
184.5873184229335
 21
742.9994977148585
 31
0.0
  0
LINE
  5
1656
330
2
100
AcDbEntity
  8
0
100
AcDbLine
 10
185.6131214229335
 20
742.9994977148585
 30
0.0
 11
185.6131214229335
 21
744.4994977148585
 31
0.0
  0
ARC
  5
1657
330
2
100
AcDbEntity
  8
0
100
AcDbCircle
 10
181.1131214229333
 20
780.0003827148584
 30
0.0
 40
0.5
100
AcDbArc
 50
90.0
 51
180.0
  0
ARC
  5
1658
330
2
100
AcDbEntity
  8
0
100
AcDbCircle
 10
181.6131214229333
 20
745.5003827148584
 30
0.0
 40
1.0
100
AcDbArc
 50
180.0
 51
270.0
  0
LINE
  5
1659
330
2
100
AcDbEntity
  8
0
100
AcDbLine
 10
170.6131214229335
 20
742.5003827148584
 30
0.0
 11
180.6131214229335
 21
742.5003827148584
 31
0.0
  0
LINE
  5
165A
330
2
100
AcDbEntity
  8
0
100
AcDbLine
 10
180.6131214229335
 20
780.0003827148584
 30
0.0
 11
180.6131214229335
 21
742.5003827148584
 31
0.0
  0
LINE
  5
165B
330
2
100
AcDbEntity
  8
0
100
AcDbLine
 10
231.6131214229335
 20
742.9994977148585
 30
0.0
 11
231.6131214229335
 21
744.4994977148585
 31
0.0
  0
LINE
  5
165C
330
2
100
AcDbEntity
  8
0
100
AcDbLine
 10
180.6131214229335
 20
833.0003827148583
 30
0.0
 11
180.6131214229335
 21
870.5003827148585
 31
0.0
  0
ARC
  5
165D
330
2
100
AcDbEntity
  8
0
100
AcDbCircle
 10
181.1131214229333
 20
833.0003827148583
 30
0.0
 40
0.5
100
AcDbArc
 50
180.0
 51
270.0
  0
LINE
  5
165F
330
2
100
AcDbEntity
  8
0
100
AcDbLine
 10
248.1131214229335
 20
742.5003827148584
 30
0.0
 11
304.6131214229335
 21
742.5003827148584
 31
0.0
  0
LINE
  5
1660
330
2
100
AcDbEntity
  8
0
100
AcDbLine
 10
247.6131214229335
 20
747.004776714858
 30
0.0
 11
296.6131214229335
 21
747.004776714858
 31
0.0
  0
LINE
  5
1661
330
2
100
AcDbEntity
  8
0
100
AcDbLine
 10
247.6131214229335
 20
744.459854714857
 30
0.0
 11
296.6131214229335
 21
744.459854714857
 31
0.0
  0
LINE
  5
1662
330
2
100
AcDbEntity
  8
0
100
AcDbLine
 10
248.1131214229335
 20
742.9823157148575
 30
0.0
 11
296.6131214229335
 21
742.9823157148575
 31
0.0
  0
LINE
  5
1663
330
2
100
AcDbEntity
  8
0
100
AcDbLine
 10
247.6131214229335
 20
743.0003827148584
 30
0.0
 11
247.6131214229335
 21
749.7660077148585
 31
0.0
  0
ARC
  5
1664
330
2
100
AcDbEntity
  8
0
100
AcDbCircle
 10
248.1131214229335
 20
743.0003827148584
 30
0.0
 40
0.5
100
AcDbArc
 50
180.0
 51
270.0
  0
ARC
  5
1665
330
2
100
AcDbEntity
  8
0
100
AcDbCircle
 10
248.1131214229335
 20
743.4823157148575
 30
0.0
 40
0.5
100
AcDbArc
 50
180.0
 51
270.0
  0
ARC
  5
1666
330
2
100
AcDbEntity
  8
0
100
AcDbCircle
 10
246.6131214229335
 20
745.5003827148584
 30
0.0
 40
1.0
100
AcDbArc
 50
270.0
 51
0.0
  0
ARC
  5
1667
330
2
100
AcDbEntity
  8
0
100
AcDbCircle
 10
248.6131214229335
 20
749.7660077148585
 30
0.0
 40
1.0
100
AcDbArc
 50
90.0
 51
180.0
  0
ARC
  5
1668
330
2
100
AcDbEntity
  8
0
100
AcDbCircle
 10
296.1131214229335
 20
780.0003827148584
 30
0.0
 40
0.5
100
AcDbArc
 50
0.0
 51
90.0
  0
LINE
  5
1669
330
2
100
AcDbEntity
  8
0
100
AcDbLine
 10
296.6131214229335
 20
780.0003827148584
 30
0.0
 11
296.6131214229335
 21
742.5003827148584
 31
0.0
  0
LINE
  5
166A
330
2
100
AcDbEntity
  8
0
100
AcDbLine
 10
296.6131214229335
 20
833.0003827148583
 30
0.0
 11
296.6131214229335
 21
870.5003827148585
 31
0.0
  0
ARC
  5
166B
330
2
100
AcDbEntity
  8
0
100
AcDbCircle
 10
296.1131214229335
 20
833.0003827148583
 30
0.0
 40
0.5
100
AcDbArc
 50
270.0
 51
0.0
  0
LINE
  5
16CF
330
2
100
AcDbEntity
  8
CENTER
100
AcDbLine
 10
892.229459634867
 20
371.3393913575548
 30
0.0
 11
892.229459634867
 21
284.642549357555
 31
0.0
  0
LINE
  5
16D0
330
2
100
AcDbEntity
  8
0
100
AcDbLine
 10
876.229459634867
 20
326.8827353575541
 30
0.0
 11
876.229459634867
 21
293.8823943575548
 31
0.0
  0
LINE
  5
16D1
330
2
100
AcDbEntity
  8
0
100
AcDbLine
 10
875.229459634867
 20
326.8827353575541
 30
0.0
 11
875.229459634867
 21
293.8823943575548
 31
0.0
  0
LINE
  5
16D2
330
2
100
AcDbEntity
  8
0
100
AcDbLine
 10
870.229459634867
 20
296.3823943575548
 30
0.0
 11
870.229459634867
 21
326.8827353575541
 31
0.0
  0
LINE
  5
16D3
330
2
100
AcDbEntity
  8
0
100
AcDbLine
 10
876.229459634867
 20
326.8827353575541
 30
0.0
 11
876.229459634867
 21
293.8823943575548
 31
0.0
  0
LINE
  5
16D6
330
2
100
AcDbEntity
  8
0
100
AcDbLine
 10
909.0779490983962
 20
294.7531841137278
 30
0.0
 11
876.229459634867
 21
293.8823943575548
 31
0.0
  0
LINE
  5
16D7
330
2
100
AcDbEntity
  8
0
100
AcDbLine
 10
875.229459634867
 20
293.8823943575548
 30
0.0
 11
876.229459634867
 21
293.8823943575548
 31
0.0
  0
ARC
  5
16D8
330
2
100
AcDbEntity
  8
0
100
AcDbCircle
 10
872.729459634867
 20
302.3953343575549
 30
0.0
 40
0.5
100
AcDbArc
 50
0.0
 51
88.49980199999491
  0
LINE
  5
16D9
330
2
100
AcDbEntity
  8
0
100
AcDbLine
 10
872.729459634867
 20
301.8404023575549
 30
0.0
 11
872.729459634867
 21
295.9243833575549
 31
0.0
  0
LINE
  5
16DA
330
2
100
AcDbEntity
  8
0
100
AcDbLine
 10
873.2294596348669
 20
302.3953343575549
 30
0.0
 11
873.2294596348669
 21
294.8823943575548
 31
0.0
  0
ARC
  5
16DB
330
2
100
AcDbEntity
  8
0
100
AcDbCircle
 10
874.2294596348669
 20
294.8823943575548
 30
0.0
 40
1.0
100
AcDbArc
 50
180.0
 51
270.0
  0
LINE
  5
16DC
330
2
100
AcDbEntity
  8
0
100
AcDbLine
 10
872.729459634867
 20
293.8823943575548
 30
0.0
 11
875.229459634867
 21
293.8823943575548
 31
0.0
  0
ARC
  5
16DD
330
2
100
AcDbEntity
  8
0
100
AcDbCircle
 10
871.2294596348669
 20
303.935121357555
 30
0.0
 40
1.0
100
AcDbArc
 50
180.0
 51
268.4996030000016
  0
LINE
  5
16DE
330
2
100
AcDbEntity
  8
0
100
AcDbLine
 10
870.729459634867
 20
298.8823943575548
 30
0.0
 11
870.2426436348664
 21
299.1635223575549
 31
0.0
  0
LINE
  5
16DF
330
2
100
AcDbEntity
  8
0
100
AcDbLine
 10
870.729459634867
 20
298.8823943575548
 30
0.0
 11
870.2426436348664
 21
298.6013243575548
 31
0.0
  0
LINE
  5
16E0
330
2
100
AcDbEntity
  8
0
100
AcDbLine
 10
872.7425516348672
 20
302.895212357555
 30
0.0
 11
871.2032456348666
 21
302.935491357555
 31
0.0
  0
ARC
  5
16E1
330
2
100
AcDbEntity
  8
0
100
AcDbCircle
 10
872.729459634867
 20
296.3823943575548
 30
0.0
 40
2.5
100
AcDbArc
 50
180.0
 51
270.0
  0
ARC
  5
16E2
330
2
100
AcDbEntity
  8
0
100
AcDbCircle
 10
873.2294596348669
 20
298.8823943575548
 30
0.0
 40
3.0
100
AcDbArc
 50
90.0
 51
270.0
  0
LINE
  5
1CD9
330
2
100
AcDbEntity
  8
CENTER
100
AcDbLine
 10
850.229459634867
 20
328.8823913575549
 30
0.0
 11
1099.730344634867
 21
328.8823913575549
 31
0.0
  0
TEXT
  5
1D24
330
2
100
AcDbEntity
  8
TITLE
100
AcDbText
 10
827.3327438107921
 20
766.2254441060788
 30
0.0
 40
12.5
  1
H2LB-50R-600~1500-T040Z
100
AcDbText
  0
ARC
  5
1FAD
330
2
100
AcDbEntity
  8
0
100
AcDbCircle
 10
121.5313344229343
 20
380.8827353575541
 30
0.0
 40
13.0
100
AcDbArc
 50
90.0
 51
171.3818050000505
  0
ARC
  5
1FAE
330
2
100
AcDbEntity
  8
0
100
AcDbCircle
 10
121.5313344229343
 20
276.8827353575541
 30
0.0
 40
13.0
100
AcDbArc
 50
188.6186070000228
 51
270.0
  0
ARC
  5
1FB0
330
2
100
AcDbEntity
  8
0
100
AcDbCircle
 10
464.6128774229346
 20
328.8827353575541
 30
0.0
 40
360.0
100
AcDbArc
 50
171.3814999999797
 51
188.6186070000228
  0
LINE
  5
1FB3
330
2
100
AcDbEntity
  8
0
100
AcDbLine
 10
296.6128774229346
 20
274.3827353575541
 30
0.0
 11
203.0001448985419
 21
274.3827353575541
 31
0.0
  0
LINE
  5
1FB4
330
2
100
AcDbEntity
  8
0
100
AcDbLine
 10
296.6128774229346
 20
276.3827353575541
 30
0.0
 11
205.9483205979224
 21
276.3827353575541
 31
0.0
  0
LINE
  5
1FB5
330
2
100
AcDbEntity
  8
0
100
AcDbLine
 10
296.6128774229346
 20
283.3827353575541
 30
0.0
 11
210.4757167848404
 21
283.3827353575541
 31
0.0
  0
LINE
  5
1FB6
330
2
100
AcDbEntity
  8
0
100
AcDbLine
 10
296.6128774229346
 20
281.3827353575541
 30
0.0
 11
209.7139680177381
 21
281.3827353575541
 31
0.0
  0
LINE
  5
1FB7
330
2
100
AcDbEntity
  8
0
100
AcDbLine
 10
247.6128774229346
 20
353.2831253575547
 30
0.0
 11
296.6128774229346
 21
353.2831253575547
 31
0.0
  0
LINE
  5
1FB8
330
2
100
AcDbEntity
  8
0
100
AcDbLine
 10
247.6128774229346
 20
351.2831253575548
 30
0.0
 11
296.6128774229346
 21
351.2831253575548
 31
0.0
  0
LINE
  5
1FB9
330
2
100
AcDbEntity
  8
0
100
AcDbLine
 10
247.6128774229346
 20
345.4828323575554
 30
0.0
 11
296.6128774229346
 21
345.4828323575554
 31
0.0
  0
LINE
  5
1FBA
330
2
100
AcDbEntity
  8
0
100
AcDbLine
 10
247.6128774229346
 20
343.4828323575554
 30
0.0
 11
296.6128774229346
 21
343.4828323575554
 31
0.0
  0
LINE
  5
1FBB
330
2
100
AcDbEntity
  8
0
100
AcDbLine
 10
247.6128774229346
 20
320.0829303575544
 30
0.0
 11
296.6128774229346
 21
320.0829303575544
 31
0.0
  0
LINE
  5
1FBC
330
2
100
AcDbEntity
  8
0
100
AcDbLine
 10
247.6128774229346
 20
337.6830283575552
 30
0.0
 11
296.6128774229346
 21
337.6830283575552
 31
0.0
  0
LINE
  5
1FBD
330
2
100
AcDbEntity
  8
0
100
AcDbLine
 10
247.6128774229346
 20
322.0829303575544
 30
0.0
 11
296.6128774229346
 21
322.0829303575544
 31
0.0
  0
LINE
  5
1FBE
330
2
100
AcDbEntity
  8
0
100
AcDbLine
 10
247.6128774229346
 20
335.6830283575552
 30
0.0
 11
296.6128774229346
 21
335.6830283575552
 31
0.0
  0
LINE
  5
1FBF
330
2
100
AcDbEntity
  8
0
100
AcDbLine
 10
247.6128774229346
 20
327.8827353575541
 30
0.0
 11
296.6128774229346
 21
327.8827353575541
 31
0.0
  0
LINE
  5
1FC0
330
2
100
AcDbEntity
  8
0
100
AcDbLine
 10
247.6128774229346
 20
329.8827353575541
 30
0.0
 11
296.6128774229346
 21
329.8827353575541
 31
0.0
  0
LINE
  5
1FC1
330
2
100
AcDbEntity
  8
0
100
AcDbLine
 10
247.6128774229346
 20
312.2831253575548
 30
0.0
 11
296.6128774229346
 21
312.2831253575548
 31
0.0
  0
LINE
  5
1FC2
330
2
100
AcDbEntity
  8
0
100
AcDbLine
 10
247.6128774229346
 20
314.2831253575548
 30
0.0
 11
296.6128774229346
 21
314.2831253575548
 31
0.0
  0
LINE
  5
1FC3
330
2
100
AcDbEntity
  8
0
100
AcDbLine
 10
247.6128774229346
 20
304.4828323575554
 30
0.0
 11
296.6128774229346
 21
304.4828323575554
 31
0.0
  0
LINE
  5
1FC4
330
2
100
AcDbEntity
  8
0
100
AcDbLine
 10
247.6128774229346
 20
306.4828323575554
 30
0.0
 11
296.6128774229346
 21
306.4828323575554
 31
0.0
  0
LINE
  5
1FC5
330
2
100
AcDbEntity
  8
0
100
AcDbLine
 10
304.6128774229346
 20
264.8827353575541
 30
0.0
 11
170.6128774229346
 21
264.8827353575541
 31
0.0
  0
LINE
  5
1FC6
330
2
100
AcDbEntity
  8
0
100
AcDbLine
 10
296.6128774229346
 20
270.4017783575552
 30
0.0
 11
180.6128774229346
 21
270.4017783575552
 31
0.0
  0
LINE
  5
1FC7
330
2
100
AcDbEntity
  8
0
100
AcDbLine
 10
296.6128774229346
 20
288.8827353575541
 30
0.0
 11
211.1128230479455
 21
288.8827353575541
 31
0.0
  0
LINE
  5
1FC8
330
2
100
AcDbEntity
  8
0
100
AcDbLine
 10
296.6128774229346
 20
290.8827353575541
 30
0.0
 11
211.1128774229348
 21
290.8827353575541
 31
0.0
  0
LINE
  5
1FC9
330
2
100
AcDbEntity
  8
0
100
AcDbLine
 10
296.6128774229346
 20
296.6830283575552
 30
0.0
 11
243.6128694229348
 21
296.6830283575552
 31
0.0
  0
LINE
  5
1FCA
330
2
100
AcDbEntity
  8
0
100
AcDbLine
 10
296.6128774229346
 20
298.6830283575552
 30
0.0
 11
243.6128694229348
 21
298.6830283575553
 31
0.0
  0
LINE
  5
1FCB
330
2
100
AcDbEntity
  8
0
100
AcDbLine
 10
180.6128774229346
 20
387.3641803575544
 30
0.0
 11
296.6128774229346
 21
387.3641803575544
 31
0.0
  0
LINE
  5
1FCC
330
2
100
AcDbEntity
  8
0
100
AcDbLine
 10
180.6128774229346
 20
383.3827353575541
 30
0.0
 11
296.6128774229346
 21
383.3827353575541
 31
0.0
  0
LINE
  5
1FCD
330
2
100
AcDbEntity
  8
0
100
AcDbLine
 10
180.6128774229346
 20
381.3827353575541
 30
0.0
 11
296.6128774229346
 21
381.3827353575541
 31
0.0
  0
LINE
  5
1FCE
330
2
100
AcDbEntity
  8
0
100
AcDbLine
 10
180.6128774229346
 20
376.3827353575541
 30
0.0
 11
296.6128774229346
 21
376.3827353575541
 31
0.0
  0
LINE
  5
1FCF
330
2
100
AcDbEntity
  8
0
100
AcDbLine
 10
180.6128774229346
 20
374.3827353575541
 30
0.0
 11
296.6128774229346
 21
374.3827353575541
 31
0.0
  0
LINE
  5
1FD0
330
2
100
AcDbEntity
  8
0
100
AcDbLine
 10
180.6128774229346
 20
368.8827353575541
 30
0.0
 11
296.6128774229346
 21
368.8827353575541
 31
0.0
  0
LINE
  5
1FD1
330
2
100
AcDbEntity
  8
0
100
AcDbLine
 10
180.6128774229346
 20
366.8827353575541
 30
0.0
 11
296.6128774229346
 21
366.8827353575541
 31
0.0
  0
LINE
  5
1FD2
330
2
100
AcDbEntity
  8
0
100
AcDbLine
 10
243.6128694229348
 20
361.0829303575544
 30
0.0
 11
296.6128774229346
 21
361.0829303575544
 31
0.0
  0
LINE
  5
1FD3
330
2
100
AcDbEntity
  8
0
100
AcDbLine
 10
243.6128694229348
 20
359.0829303575545
 30
0.0
 11
296.6128774229346
 21
359.0829303575544
 31
0.0
  0
LINE
  5
1FD4
330
2
100
AcDbEntity
  8
0
100
AcDbLine
 10
170.6128774229346
 20
392.8827353575541
 30
0.0
 11
304.6128774229346
 21
392.8827353575541
 31
0.0
  0
ARC
  5
1FD5
330
2
100
AcDbEntity
  8
0
100
AcDbCircle
 10
-212.3871225770654
 20
328.8827353575541
 30
0.0
 40
345.0
100
AcDbArc
 50
348.5136699999522
 51
11.4863200000225
  0
LINE
  5
1FD6
330
2
100
AcDbEntity
  8
0
100
AcDbLine
 10
170.6128774229346
 20
315.0263520042861
 30
0.0
 11
170.6128774229346
 21
259.382735357554
 31
0.0
  0
LINE
  5
1FD7
330
2
100
AcDbEntity
  8
0
100
AcDbLine
 10
170.6128774229346
 20
259.382735357554
 30
0.0
 11
125.7588734229348
 21
259.382735357554
 31
0.0
  0
ARC
  5
1FD8
330
2
100
AcDbEntity
  8
0
100
AcDbCircle
 10
127.1731804229348
 20
259.8827353575541
 30
0.0
 40
1.5
100
AcDbArc
 50
168.5137939999984
 51
199.4615020000453
  0
LINE
  5
1FD9
330
2
100
AcDbEntity
  8
0
100
AcDbLine
 10
203.8581769889976
 20
281.3827353575541
 30
0.0
 11
180.6128774229346
 21
281.3827353575541
 31
0.0
  0
LINE
  5
1FDA
330
2
100
AcDbEntity
  8
0
100
AcDbLine
 10
205.1290381655074
 20
283.3827353575541
 30
0.0
 11
180.6128774229346
 21
283.3827353575541
 31
0.0
  0
ARC
  5
1FDB
330
2
100
AcDbEntity
  8
0
100
AcDbCircle
 10
196.1128774229346
 20
287.708107649518
 30
0.0
 40
10.0
100
AcDbArc
 50
270.0
 51
0.0
  0
ARC
  5
1FDC
330
2
100
AcDbEntity
  8
0
100
AcDbCircle
 10
196.1128774229346
 20
287.708107649518
 30
0.0
 40
15.0
100
AcDbArc
 50
270.0
 51
0.0
  0
LINE
  5
1FDD
330
2
100
AcDbEntity
  8
0
100
AcDbLine
 10
206.1128774229348
 20
288.8827353575541
 30
0.0
 11
180.6128774229346
 21
288.8827353575541
 31
0.0
  0
LINE
  5
1FDE
330
2
100
AcDbEntity
  8
0
100
AcDbLine
 10
206.1128774229348
 20
290.8827353575541
 30
0.0
 11
180.6128774229346
 21
290.8827353575541
 31
0.0
  0
LINE
  5
1FDF
330
2
100
AcDbEntity
  8
0
100
AcDbLine
 10
176.1128774229348
 20
363.8827906621003
 30
0.0
 11
241.1128694229346
 21
363.8827906621003
 31
0.0
  0
LINE
  5
1FE0
330
2
100
AcDbEntity
  8
0
100
AcDbLine
 10
176.1128614229346
 20
293.8827446621004
 30
0.0
 11
241.1128694229346
 21
293.8827446621004
 31
0.0
  0
LINE
  5
1FE1
330
2
100
AcDbEntity
  8
0
100
AcDbLine
 10
173.6128774229348
 20
296.3827446621004
 30
0.0
 11
173.6128774229348
 21
361.3827906621005
 31
0.0
  0
LINE
  5
1FE2
330
2
100
AcDbEntity
  8
0
100
AcDbLine
 10
170.6128774229346
 20
399.3827353575541
 30
0.0
 11
170.6128774229346
 21
342.7391649253881
 31
0.0
  0
LINE
  5
1FE3
330
2
100
AcDbEntity
  8
0
100
AcDbLine
 10
172.6128774229346
 20
392.8827353575541
 30
0.0
 11
172.6128774229346
 21
343.3827446621004
 31
0.0
  0
LINE
  5
1FE6
330
2
100
AcDbEntity
  8
0
100
AcDbLine
 10
121.5313344229343
 20
263.8827353575541
 30
0.0
 11
126.4342884229354
 21
263.8827353575541
 31
0.0
  0
LINE
  5
1FED
330
2
100
AcDbEntity
  8
0
100
AcDbLine
 10
172.6128774229346
 20
314.3826456621004
 30
0.0
 11
172.6128774229348
 21
277.708107649518
 31
0.0
  0
LINE
  5
1FEE
330
2
100
AcDbEntity
  8
0
100
AcDbLine
 10
196.1128774229346
 20
277.708107649518
 30
0.0
 11
170.6128624229345
 21
277.708107649518
 31
0.0
  0
LINE
  5
1FEF
330
2
100
AcDbEntity
  8
0
100
AcDbLine
 10
196.1128774229346
 20
272.708107649518
 30
0.0
 11
170.6128624229345
 21
272.708107649518
 31
0.0
  0
LINE
  5
1FF0
330
2
100
AcDbEntity
  8
0
100
AcDbLine
 10
180.6128774229346
 20
281.3827353575541
 30
0.0
 11
180.6128774229341
 21
277.708107649518
 31
0.0
  0
LINE
  5
1FF1
330
2
100
AcDbEntity
  8
0
100
AcDbLine
 10
172.6128774229346
 20
272.708107649518
 30
0.0
 11
172.6128774229348
 21
264.8827353575541
 31
0.0
  0
LINE
  5
1FF2
330
2
100
AcDbEntity
  8
0
100
AcDbLine
 10
180.6128774229346
 20
270.4017783575552
 30
0.0
 11
180.6128774229346
 21
272.708107649518
 31
0.0
  0
ARC
  5
1FF3
330
2
100
AcDbEntity
  8
0
100
AcDbCircle
 10
176.1128614229346
 20
296.3827446621004
 30
0.0
 40
2.5
100
AcDbArc
 50
180.0
 51
270.0
  0
LINE
  5
1FF4
330
2
100
AcDbEntity
  8
0
100
AcDbLine
 10
180.6128774229348
 20
293.8827446621004
 30
0.0
 11
180.6128774229346
 21
290.8827353575541
 31
0.0
  0
LINE
  5
1FF5
330
2
100
AcDbEntity
  8
0
100
AcDbLine
 10
180.6128774229346
 20
288.8827353575541
 30
0.0
 11
180.6128774229346
 21
283.3827353575541
 31
0.0
  0
LINE
  5
1FF8
330
2
100
AcDbEntity
  8
0
100
AcDbLine
 10
172.1129234229347
 20
343.3827446621004
 30
0.0
 11
173.6128774229348
 21
343.3827446621004
 31
0.0
  0
LINE
  5
1FFB
330
2
100
AcDbEntity
  8
0
100
AcDbLine
 10
172.1129234229347
 20
314.3826456621004
 30
0.0
 11
173.6128774229348
 21
314.3826456621004
 31
0.0
  0
LINE
  5
1FFC
330
2
100
AcDbEntity
  8
0
100
AcDbLine
 10
172.1129234229347
 20
314.3826456621004
 30
0.0
 11
172.1129234229347
 21
343.3827446621004
 31
0.0
  0
LINE
  5
1FFF
330
2
100
AcDbEntity
  8
0
100
AcDbLine
 10
127.1731804229348
 20
399.3827353575541
 30
0.0
 11
170.6128774229346
 21
399.3827353575541
 31
0.0
  0
ARC
  5
2000
330
2
100
AcDbEntity
  8
0
100
AcDbCircle
 10
127.1731804229348
 20
397.8827353575541
 30
0.0
 40
1.5
100
AcDbArc
 50
90.0
 51
191.4864959999471
  0
LINE
  5
2001
330
2
100
AcDbEntity
  8
0
100
AcDbLine
 10
121.5312124229349
 20
393.8827353575541
 30
0.0
 11
126.4342884229354
 21
393.8827353575541
 31
0.0
  0
ARC
  5
2002
330
2
100
AcDbEntity
  8
0
100
AcDbCircle
 10
176.1128774229348
 20
361.3827826621003
 30
0.0
 40
2.5
100
AcDbArc
 50
90.0
 51
180.0
  0
LINE
  5
2003
330
2
100
AcDbEntity
  8
0
100
AcDbLine
 10
180.6128774229346
 20
387.3641803575544
 30
0.0
 11
180.6128774229346
 21
383.3827353575541
 31
0.0
  0
LINE
  5
2004
330
2
100
AcDbEntity
  8
0
100
AcDbLine
 10
180.6128774229346
 20
374.3827353575541
 30
0.0
 11
180.6128774229346
 21
368.8827353575541
 31
0.0
  0
LINE
  5
2005
330
2
100
AcDbEntity
  8
0
100
AcDbLine
 10
180.6128774229346
 20
381.3827353575541
 30
0.0
 11
180.6128774229346
 21
376.3827353575541
 31
0.0
  0
LINE
  5
2006
330
2
100
AcDbEntity
  8
0
100
AcDbLine
 10
180.6128774229346
 20
366.8827353575541
 30
0.0
 11
180.6128774229346
 21
363.8827906621003
 31
0.0
  0
LINE
  5
2007
330
2
100
AcDbEntity
  8
0
100
AcDbLine
 10
243.6128694229346
 20
361.3827826621003
 30
0.0
 11
243.6128694229346
 21
296.3828436621005
 31
0.0
  0
LINE
  5
2008
330
2
100
AcDbEntity
  8
CENTER
100
AcDbLine
 10
208.6128774229346
 20
371.8827906621004
 30
0.0
 11
208.6128774229346
 21
285.8827446621004
 31
0.0
  0
ARC
  5
2009
330
2
100
AcDbEntity
  8
0
100
AcDbCircle
 10
245.6128774229346
 20
353.8827353575541
 30
0.0
 40
2.0
100
AcDbArc
 50
0.0
 51
90.0
  0
LINE
  5
200A
330
2
100
AcDbEntity
  8
0
100
AcDbLine
 10
245.6128774229346
 20
301.8827353575541
 30
0.0
 11
243.6128694229346
 21
301.882735357554
 31
0.0
  0
LINE
  5
200B
330
2
100
AcDbEntity
  8
0
100
AcDbLine
 10
206.1128774229346
 20
287.708107649518
 30
0.0
 11
206.1128774229346
 21
293.8827853575542
 31
0.0
  0
LINE
  5
200C
330
2
100
AcDbEntity
  8
0
100
AcDbLine
 10
211.1128774229346
 20
287.708107649518
 30
0.0
 11
211.1128774229346
 21
293.8827853575542
 31
0.0
  0
ARC
  5
200D
330
2
100
AcDbEntity
  8
0
100
AcDbCircle
 10
241.1128694229346
 20
296.3827446621004
 30
0.0
 40
2.5
100
AcDbArc
 50
270.0
 51
0.0
  0
LINE
  5
200E
330
2
100
AcDbEntity
  8
0
100
AcDbLine
 10
247.6128774229346
 20
303.8827353575541
 30
0.0
 11
247.6128774229346
 21
353.8827353575541
 31
0.0
  0
ARC
  5
200F
330
2
100
AcDbEntity
  8
0
100
AcDbCircle
 10
245.6128774229346
 20
303.8827353575541
 30
0.0
 40
2.0
100
AcDbArc
 50
270.0
 51
0.0
  0
LINE
  5
2010
330
2
100
AcDbEntity
  8
0
100
AcDbLine
 10
245.6128774229346
 20
355.8827353575541
 30
0.0
 11
243.6128694229346
 21
355.882735357554
 31
0.0
  0
ARC
  5
2011
330
2
100
AcDbEntity
  8
0
100
AcDbCircle
 10
241.1128694229346
 20
361.3827596621003
 30
0.0
 40
2.5
100
AcDbArc
 50
0.0
 51
90.0
  0
LINE
  5
2012
330
2
100
AcDbEntity
  8
0
100
AcDbLine
 10
296.6128774229346
 20
353.2831253575547
 30
0.0
 11
296.6128774229346
 21
359.0829303575544
 31
0.0
  0
LINE
  5
2014
330
2
100
AcDbEntity
  8
0
100
AcDbLine
 10
296.6128774229346
 20
306.4828323575554
 30
0.0
 11
296.6128774229346
 21
312.2831253575548
 31
0.0
  0
LINE
  5
2015
330
2
100
AcDbEntity
  8
0
100
AcDbLine
 10
296.6128774229346
 20
298.6830283575552
 30
0.0
 11
296.6128774229346
 21
304.4828323575554
 31
0.0
  0
LINE
  5
2016
330
2
100
AcDbEntity
  8
0
100
AcDbLine
 10
296.6128774229346
 20
276.3827353575541
 30
0.0
 11
296.6128774229346
 21
281.3827353575541
 31
0.0
  0
LINE
  5
2017
330
2
100
AcDbEntity
  8
0
100
AcDbLine
 10
296.6128774229346
 20
283.3827353575541
 30
0.0
 11
296.6128774229346
 21
288.8827353575541
 31
0.0
  0
LINE
  5
2018
330
2
100
AcDbEntity
  8
0
100
AcDbLine
 10
296.6128774229346
 20
290.8827353575541
 30
0.0
 11
296.6128774229346
 21
296.6830283575552
 31
0.0
  0
LINE
  5
2019
330
2
100
AcDbEntity
  8
0
100
AcDbLine
 10
296.6128774229346
 20
270.4017783575552
 30
0.0
 11
296.6128774229346
 21
274.3827353575541
 31
0.0
  0
LINE
  5
201A
330
2
100
AcDbEntity
  8
0
100
AcDbLine
 10
296.6128774229346
 20
345.4828323575554
 30
0.0
 11
296.6128774229346
 21
351.2831253575548
 31
0.0
  0
LINE
  5
201B
330
2
100
AcDbEntity
  8
0
100
AcDbLine
 10
296.6128774229346
 20
337.6830283575552
 30
0.0
 11
296.6128774229346
 21
343.4828323575554
 31
0.0
  0
LINE
  5
201C
330
2
100
AcDbEntity
  8
0
100
AcDbLine
 10
296.6128774229346
 20
322.0829303575544
 30
0.0
 11
296.6128774229346
 21
327.8827353575541
 31
0.0
  0
LINE
  5
201D
330
2
100
AcDbEntity
  8
0
100
AcDbLine
 10
296.6128774229346
 20
329.8827353575541
 30
0.0
 11
296.6128774229346
 21
335.6830283575552
 31
0.0
  0
LINE
  5
201E
330
2
100
AcDbEntity
  8
0
100
AcDbLine
 10
296.6128774229346
 20
314.2831253575548
 30
0.0
 11
296.6128774229346
 21
320.0829303575544
 31
0.0
  0
LINE
  5
201F
330
2
100
AcDbEntity
  8
0
100
AcDbLine
 10
296.6128774229346
 20
387.3641803575544
 30
0.0
 11
296.6128774229346
 21
383.3827353575541
 31
0.0
  0
LINE
  5
2020
330
2
100
AcDbEntity
  8
0
100
AcDbLine
 10
296.6128774229346
 20
368.8827353575541
 30
0.0
 11
296.6128774229346
 21
374.3827353575541
 31
0.0
  0
LINE
  5
2021
330
2
100
AcDbEntity
  8
0
100
AcDbLine
 10
296.6128774229346
 20
376.3827353575541
 30
0.0
 11
296.6128774229346
 21
381.3827353575541
 31
0.0
  0
LINE
  5
2022
330
2
100
AcDbEntity
  8
0
100
AcDbLine
 10
296.6128774229346
 20
361.0829303575544
 30
0.0
 11
296.6128774229346
 21
366.8827353575541
 31
0.0
  0
ARC
  5
221C
330
2
100
AcDbEntity
  8
0
100
AcDbCircle
 10
241.1128694229346
 20
352.3827596621006
 30
0.0
 40
2.5
100
AcDbArc
 50
0.0
 51
90.0
  0
CIRCLE
  5
221D
330
2
100
AcDbEntity
  8
0
100
AcDbCircle
 10
238.6128694229346
 20
358.8827826621004
 30
0.0
 40
2.75
  0
ARC
  5
221E
330
2
100
AcDbEntity
  8
0
100
AcDbCircle
 10
238.6128694229346
 20
358.8827826621004
 30
0.0
 40
4.0
100
AcDbArc
 50
180.0
 51
270.0
  0
LINE
  5
221F
330
2
100
AcDbEntity
  8
0
100
AcDbLine
 10
238.6128694229346
 20
354.8827826621004
 30
0.0
 11
241.1128694229346
 21
354.8827826621004
 31
0.0
  0
ARC
  5
2220
330
2
100
AcDbEntity
  8
0
100
AcDbCircle
 10
232.1128774229346
 20
361.3827826621004
 30
0.0
 40
2.5
100
AcDbArc
 50
0.0
 51
90.0
  0
LINE
  5
2221
330
2
100
AcDbEntity
  8
0
100
AcDbLine
 10
234.6128774229346
 20
358.8827906621004
 30
0.0
 11
234.6128774229346
 21
361.3827906621006
 31
0.0
  0
LINE
  5
2222
330
2
100
AcDbEntity
  8
0
100
AcDbLine
 10
238.2128454229345
 20
360.6327826621004
 30
0.0
 11
239.0128634229347
 21
360.6327826621004
 31
0.0
  0
LINE
  5
2223
330
2
100
AcDbEntity
  8
0
100
AcDbLine
 10
238.2128454229345
 20
357.1327826621004
 30
0.0
 11
239.0128634229347
 21
357.1327826621004
 31
0.0
  0
ARC
  5
2224
330
2
100
AcDbEntity
  8
0
100
AcDbCircle
 10
240.3628694229346
 20
357.1327826621004
 30
0.0
 40
1.35
100
AcDbArc
 50
90.0
 51
180.0
  0
ARC
  5
2225
330
2
100
AcDbEntity
  8
0
100
AcDbCircle
 10
240.3628694229346
 20
360.6327826621004
 30
0.0
 40
1.35
100
AcDbArc
 50
180.0
 51
270.0
  0
LINE
  5
2226
330
2
100
AcDbEntity
  8
0
100
AcDbLine
 10
236.8628694229346
 20
359.2827766621005
 30
0.0
 11
236.8628694229346
 21
358.4827586621006
 31
0.0
  0
ARC
  5
2227
330
2
100
AcDbEntity
  8
0
100
AcDbCircle
 10
236.8628694229346
 20
357.1327826621004
 30
0.0
 40
1.35
100
AcDbArc
 50
0.0
 51
90.0
  0
ARC
  5
2228
330
2
100
AcDbEntity
  8
0
100
AcDbCircle
 10
236.8628694229346
 20
360.6327826621004
 30
0.0
 40
1.35
100
AcDbArc
 50
270.0
 51
0.0
  0
LINE
  5
2229
330
2
100
AcDbEntity
  8
0
100
AcDbLine
 10
240.3628694229346
 20
359.2827766621005
 30
0.0
 11
240.3628694229346
 21
358.4827586621006
 31
0.0
  0
CIRCLE
  5
222A
330
2
100
AcDbEntity
  8
0
100
AcDbCircle
 10
178.6128774229348
 20
358.8827826621004
 30
0.0
 40
2.75
  0
ARC
  5
222B
330
2
100
AcDbEntity
  8
0
100
AcDbCircle
 10
178.6128774229348
 20
358.8827826621004
 30
0.0
 40
4.0
100
AcDbArc
 50
270.0
 51
0.0
  0
LINE
  5
222C
330
2
100
AcDbEntity
  8
0
100
AcDbLine
 10
178.6128774229348
 20
354.8827826621004
 30
0.0
 11
176.1128614229346
 21
354.8827826621004
 31
0.0
  0
ARC
  5
222D
330
2
100
AcDbEntity
  8
0
100
AcDbCircle
 10
176.1128774229348
 20
352.3827826621004
 30
0.0
 40
2.5
100
AcDbArc
 50
90.0
 51
180.0
  0
ARC
  5
222E
330
2
100
AcDbEntity
  8
0
100
AcDbCircle
 10
180.3628774229348
 20
357.1327826621004
 30
0.0
 40
1.35
100
AcDbArc
 50
90.0
 51
180.0
  0
ARC
  5
222F
330
2
100
AcDbEntity
  8
0
100
AcDbCircle
 10
180.3628774229348
 20
360.6327826621004
 30
0.0
 40
1.35
100
AcDbArc
 50
180.0
 51
270.0
  0
LINE
  5
2230
330
2
100
AcDbEntity
  8
0
100
AcDbLine
 10
178.2128524229347
 20
360.6327826621004
 30
0.0
 11
179.0128714229347
 21
360.6327826621004
 31
0.0
  0
ARC
  5
2231
330
2
100
AcDbEntity
  8
0
100
AcDbCircle
 10
176.8628774229348
 20
357.1327826621004
 30
0.0
 40
1.35
100
AcDbArc
 50
0.0
 51
90.0
  0
LINE
  5
2232
330
2
100
AcDbEntity
  8
0
100
AcDbLine
 10
176.8628774229348
 20
359.2827766621005
 30
0.0
 11
176.8628774229348
 21
358.4827586621006
 31
0.0
  0
LINE
  5
2233
330
2
100
AcDbEntity
  8
0
100
AcDbLine
 10
178.2128524229347
 20
357.1327826621004
 30
0.0
 11
179.0128714229347
 21
357.1327826621004
 31
0.0
  0
ARC
  5
2234
330
2
100
AcDbEntity
  8
0
100
AcDbCircle
 10
176.8628774229348
 20
360.6327826621004
 30
0.0
 40
1.35
100
AcDbArc
 50
270.0
 51
0.0
  0
LINE
  5
2235
330
2
100
AcDbEntity
  8
0
100
AcDbLine
 10
182.6128774229348
 20
358.8827906621004
 30
0.0
 11
182.6128774229348
 21
361.3827596621003
 31
0.0
  0
LINE
  5
2236
330
2
100
AcDbEntity
  8
0
100
AcDbLine
 10
180.3628774229348
 20
359.2827766621005
 30
0.0
 11
180.3628774229348
 21
358.4827586621006
 31
0.0
  0
ARC
  5
2237
330
2
100
AcDbEntity
  8
0
100
AcDbCircle
 10
185.1128774229348
 20
361.3827826621004
 30
0.0
 40
2.5
100
AcDbArc
 50
90.0
 51
180.0
  0
CIRCLE
  5
2238
330
2
100
AcDbEntity
  8
0
100
AcDbCircle
 10
178.6128774229348
 20
298.8827446621005
 30
0.0
 40
2.75
  0
ARC
  5
2239
330
2
100
AcDbEntity
  8
0
100
AcDbCircle
 10
176.8628774229348
 20
300.6327446621005
 30
0.0
 40
1.35
100
AcDbArc
 50
270.0
 51
0.0
  0
ARC
  5
223A
330
2
100
AcDbEntity
  8
0
100
AcDbCircle
 10
180.3628774229348
 20
300.6327446621005
 30
0.0
 40
1.35
100
AcDbArc
 50
180.0
 51
270.0
  0
ARC
  5
223B
330
2
100
AcDbEntity
  8
0
100
AcDbCircle
 10
178.6128774229348
 20
298.8827446621005
 30
0.0
 40
4.0
100
AcDbArc
 50
0.0
 51
90.0
  0
ARC
  5
223C
330
2
100
AcDbEntity
  8
0
100
AcDbCircle
 10
180.3628774229348
 20
297.1327446621005
 30
0.0
 40
1.35
100
AcDbArc
 50
90.0
 51
180.0
  0
ARC
  5
223D
330
2
100
AcDbEntity
  8
0
100
AcDbCircle
 10
176.8628774229348
 20
297.1327446621005
 30
0.0
 40
1.35
100
AcDbArc
 50
0.0
 51
90.0
  0
LINE
  5
223E
330
2
100
AcDbEntity
  8
0
100
AcDbLine
 10
176.8628774229348
 20
299.2827386621006
 30
0.0
 11
176.8628774229348
 21
298.4827196621006
 31
0.0
  0
LINE
  5
223F
330
2
100
AcDbEntity
  8
0
100
AcDbLine
 10
178.2128524229347
 20
297.1327446621005
 30
0.0
 11
179.0128714229347
 21
297.1327446621005
 31
0.0
  0
LINE
  5
2240
330
2
100
AcDbEntity
  8
0
100
AcDbLine
 10
182.6128774229348
 20
298.8827446621005
 30
0.0
 11
182.6128774229348
 21
296.3827446621005
 31
0.0
  0
LINE
  5
2241
330
2
100
AcDbEntity
  8
0
100
AcDbLine
 10
180.3628774229348
 20
299.2827386621006
 30
0.0
 11
180.3628774229348
 21
298.4827196621006
 31
0.0
  0
ARC
  5
2242
330
2
100
AcDbEntity
  8
0
100
AcDbCircle
 10
185.1128614229346
 20
296.3827446621005
 30
0.0
 40
2.5
100
AcDbArc
 50
180.0
 51
270.0
  0
LINE
  5
2243
330
2
100
AcDbEntity
  8
0
100
AcDbLine
 10
178.2128524229347
 20
300.6327446621005
 30
0.0
 11
179.0128714229347
 21
300.6327446621005
 31
0.0
  0
LINE
  5
2244
330
2
100
AcDbEntity
  8
0
100
AcDbLine
 10
178.6128544229347
 20
302.8827446621005
 30
0.0
 11
176.1128614229346
 21
302.8827446621005
 31
0.0
  0
ARC
  5
2245
330
2
100
AcDbEntity
  8
0
100
AcDbCircle
 10
176.1128614229346
 20
305.3827446621005
 30
0.0
 40
2.5
100
AcDbArc
 50
180.0
 51
270.0
  0
ARC
  5
2246
330
2
100
AcDbEntity
  8
0
100
AcDbCircle
 10
241.1128694229346
 20
305.3827446621005
 30
0.0
 40
2.5
100
AcDbArc
 50
270.0
 51
0.0
  0
CIRCLE
  5
2247
330
2
100
AcDbEntity
  8
0
100
AcDbCircle
 10
238.6128694229346
 20
298.8827446621005
 30
0.0
 40
2.75
  0
ARC
  5
2248
330
2
100
AcDbEntity
  8
0
100
AcDbCircle
 10
238.6128694229346
 20
298.8827446621005
 30
0.0
 40
4.0
100
AcDbArc
 50
90.0
 51
180.0
  0
ARC
  5
2249
330
2
100
AcDbEntity
  8
0
100
AcDbCircle
 10
240.3628694229346
 20
300.6327446621005
 30
0.0
 40
1.35
100
AcDbArc
 50
180.0
 51
270.0
  0
ARC
  5
224A
330
2
100
AcDbEntity
  8
0
100
AcDbCircle
 10
236.8628694229346
 20
300.6327446621005
 30
0.0
 40
1.35
100
AcDbArc
 50
270.0
 51
0.0
  0
ARC
  5
224B
330
2
100
AcDbEntity
  8
0
100
AcDbCircle
 10
232.1128774229346
 20
296.3827446621005
 30
0.0
 40
2.5
100
AcDbArc
 50
270.0
 51
0.0
  0
LINE
  5
224C
330
2
100
AcDbEntity
  8
0
100
AcDbLine
 10
234.6128774229346
 20
298.8827446621005
 30
0.0
 11
234.6128774229346
 21
296.3827446621005
 31
0.0
  0
LINE
  5
224D
330
2
100
AcDbEntity
  8
0
100
AcDbLine
 10
238.2128454229345
 20
297.1327446621005
 30
0.0
 11
239.0128634229347
 21
297.1327446621005
 31
0.0
  0
ARC
  5
224E
330
2
100
AcDbEntity
  8
0
100
AcDbCircle
 10
240.3628694229346
 20
297.1327446621005
 30
0.0
 40
1.35
100
AcDbArc
 50
90.0
 51
180.0
  0
LINE
  5
224F
330
2
100
AcDbEntity
  8
0
100
AcDbLine
 10
236.8628694229346
 20
299.2827386621006
 30
0.0
 11
236.8628694229346
 21
298.4827196621006
 31
0.0
  0
ARC
  5
2250
330
2
100
AcDbEntity
  8
0
100
AcDbCircle
 10
236.8628694229346
 20
297.1327446621005
 30
0.0
 40
1.35
100
AcDbArc
 50
0.0
 51
90.0
  0
LINE
  5
2251
330
2
100
AcDbEntity
  8
0
100
AcDbLine
 10
240.3628694229346
 20
299.2827386621006
 30
0.0
 11
240.3628694229346
 21
298.4827196621006
 31
0.0
  0
LINE
  5
2252
330
2
100
AcDbEntity
  8
0
100
AcDbLine
 10
238.2128454229345
 20
300.6327446621005
 30
0.0
 11
239.0128634229347
 21
300.6327446621005
 31
0.0
  0
LINE
  5
2253
330
2
100
AcDbEntity
  8
0
100
AcDbLine
 10
238.6128694229346
 20
302.8827446621005
 30
0.0
 11
241.1128694229346
 21
302.8827446621005
 31
0.0
  0
LINE
  5
22A5
330
2
100
AcDbEntity
  8
0
100
AcDbLine
 10
153.6129234229347
 20
340.8827474848223
 30
0.0
 11
162.6129234229347
 21
340.8827415850714
 31
0.0
  0
LINE
  5
22A6
330
2
100
AcDbEntity
  8
0
100
AcDbLine
 10
153.6129234229347
 20
316.8827474848171
 30
0.0
 11
162.6129234229347
 21
316.8827415850662
 31
0.0
  0
LINE
  5
22A7
330
2
100
AcDbEntity
  8
0
100
AcDbLine
 10
153.6129234229347
 20
315.0263520042861
 30
0.0
 11
153.6129234229347
 21
342.7391649253881
 31
0.0
  0
LINE
  5
22A8
330
2
100
AcDbEntity
  8
0
100
AcDbLine
 10
145.6129234229347
 20
315.0263520042861
 30
0.0
 11
145.6129234229347
 21
342.7391649253881
 31
0.0
  0
LINE
  5
22A9
330
2
100
AcDbEntity
  8
0
100
AcDbLine
 10
145.6129234229347
 20
315.0263520042861
 30
0.0
 11
153.6129234229347
 21
315.0263520042861
 31
0.0
  0
LINE
  5
22AA
330
2
100
AcDbEntity
  8
0
100
AcDbLine
 10
145.6129234229347
 20
321.9545552345616
 30
0.0
 11
153.6129234229347
 21
321.9545552345616
 31
0.0
  0
LINE
  5
22AB
330
2
100
AcDbEntity
  8
0
100
AcDbLine
 10
145.6129234229347
 20
335.8109616951125
 30
0.0
 11
153.6129234229347
 21
335.8109616951125
 31
0.0
  0
LINE
  5
22AC
330
2
100
AcDbEntity
  8
0
100
AcDbLine
 10
145.6129234229347
 20
342.7391649253881
 30
0.0
 11
153.6129234229347
 21
342.7391649253881
 31
0.0
  0
LINE
  5
22AE
330
2
100
AcDbEntity
  8
0
100
AcDbLine
 10
167.6129234229347
 20
315.0263520042861
 30
0.0
 11
167.6129234229347
 21
342.7391649253881
 31
0.0
  0
LINE
  5
22AF
330
2
100
AcDbEntity
  8
0
100
AcDbLine
 10
162.6129234229347
 20
316.8827415850662
 30
0.0
 11
162.6129234229347
 21
340.8827415850714
 31
0.0
  0
LINE
  5
22B1
330
2
100
AcDbEntity
  8
0
100
AcDbLine
 10
167.6129234229347
 20
315.0263520042861
 30
0.0
 11
172.1129234229347
 21
315.0263520042861
 31
0.0
  0
LINE
  5
22B2
330
2
100
AcDbEntity
  8
HOJO
100
AcDbLine
 10
162.6129234229347
 20
319.5827533845686
 30
0.0
 11
167.6129234229347
 21
319.5827566622079
 31
0.0
  0
LINE
  5
22B3
330
2
100
AcDbEntity
  8
0
100
AcDbLine
 10
162.6129234229347
 20
318.3827533845683
 30
0.0
 11
167.6129234229347
 21
318.3827566622077
 31
0.0
  0
LINE
  5
22B4
330
2
100
AcDbEntity
  8
0
100
AcDbLine
 10
167.6129234229347
 20
321.9545552345616
 30
0.0
 11
172.1129234229347
 21
321.9545552345616
 31
0.0
  0
LINE
  5
22B5
330
2
100
AcDbEntity
  8
HOJO
100
AcDbLine
 10
162.6129234229347
 20
338.1827415850708
 30
0.0
 11
167.6129234229347
 21
338.1827383074314
 31
0.0
  0
LINE
  5
22B6
330
2
100
AcDbEntity
  8
0
100
AcDbLine
 10
167.6129234229347
 20
335.8109616951125
 30
0.0
 11
172.1129234229347
 21
335.8109616951125
 31
0.0
  0
LINE
  5
22B7
330
2
100
AcDbEntity
  8
0
100
AcDbLine
 10
162.6129234229347
 20
339.3827415850711
 30
0.0
 11
167.6129234229347
 21
339.3827383074317
 31
0.0
  0
LINE
  5
22B9
330
2
100
AcDbEntity
  8
0
100
AcDbLine
 10
167.6129234229347
 20
342.7391649253881
 30
0.0
 11
172.1129234229347
 21
342.7391649253881
 31
0.0
  0
LINE
  5
22BB
330
2
100
AcDbEntity
  8
0
100
AcDbLine
 10
167.6131174229333
 20
717.9994944884738
 30
0.0
 11
167.6131174229333
 21
693.9994944884687
 31
0.0
  0
LINE
  5
22BC
330
2
100
AcDbEntity
  8
0
100
AcDbLine
 10
162.6132894229333
 20
693.9994944884687
 30
0.0
 11
162.6132894229333
 21
717.9994944884738
 31
0.0
  0
LINE
  5
22BD
330
2
100
AcDbEntity
  8
0
100
AcDbLine
 10
153.6132894229333
 20
693.9995113682394
 30
0.0
 11
153.6132894229333
 21
717.9995113682394
 31
0.0
  0
LINE
  5
22BE
330
2
100
AcDbEntity
  8
0
100
AcDbLine
 10
145.6132894229333
 20
693.9995056324426
 30
0.0
 11
145.6132894229333
 21
717.9995056324476
 31
0.0
  0
LINE
  5
22BF
330
2
100
AcDbEntity
  8
0
100
AcDbLine
 10
145.6132894229333
 20
693.9995056324426
 30
0.0
 11
162.6132894229333
 21
693.9994944884687
 31
0.0
  0
LINE
  5
22C1
330
2
100
AcDbEntity
  8
0
100
AcDbLine
 10
153.6132894229333
 20
705.9995113682394
 30
0.0
 11
145.6132894229333
 21
705.9995056324451
 31
0.0
  0
LINE
  5
22C2
330
2
100
AcDbEntity
  8
0
100
AcDbLine
 10
162.6132894229333
 20
695.4995062879707
 30
0.0
 11
167.6132894229333
 21
695.4995095656101
 31
0.0
  0
LINE
  5
22C3
330
2
100
AcDbEntity
  8
HOJO
100
AcDbLine
 10
162.6132894229333
 20
696.699506287971
 30
0.0
 11
167.6132894229333
 21
696.6995095656102
 31
0.0
  0
LINE
  5
22C5
330
2
100
AcDbEntity
  8
0
100
AcDbLine
 10
167.6131174229333
 20
693.9994944884687
 30
0.0
 11
172.1131214229335
 21
693.9994944884687
 31
0.0
  0
LINE
  5
22C6
330
2
100
AcDbEntity
  8
0
100
AcDbLine
 10
172.1131214229335
 20
705.9994977148585
 30
0.0
 11
167.6131174229333
 21
705.9994944884713
 31
0.0
  0
LINE
  5
22C7
330
2
100
AcDbEntity
  8
0
100
AcDbLine
 10
145.6132894229333
 20
717.9995056324476
 30
0.0
 11
162.6132894229333
 21
717.9994944884738
 31
0.0
  0
LINE
  5
22C8
330
2
100
AcDbEntity
  8
HOJO
100
AcDbLine
 10
162.6132894229333
 20
715.2994944884733
 30
0.0
 11
167.6132894229333
 21
715.2994912108339
 31
0.0
  0
LINE
  5
22C9
330
2
100
AcDbEntity
  8
0
100
AcDbLine
 10
162.6132894229333
 20
716.4994944884734
 30
0.0
 11
167.6132894229333
 21
716.499491210834
 31
0.0
  0
LINE
  5
22CB
330
2
100
AcDbEntity
  8
0
100
AcDbLine
 10
167.6131174229333
 20
717.9994944884738
 30
0.0
 11
172.1131214229335
 21
717.9994944884738
 31
0.0
  0
ENDSEC
  0
SECTION
  2
OBJECTS
  0
DICTIONARY
  5
7
330
0
100
AcDbDictionary
  3
ACAD_GROUP
350
75
  3
ACAD_LAYOUT
350
61
  3
ACAD_MLINESTYLE
350
76
  3
ACAD_PLOTSETTINGS
350
77
  3
ACAD_PLOTSTYLENAME
350
6
  3
ACADDIM
350
480
  3
ACDBHEADERROUNDTRIPXREC
350
2335
  3
ACDBVARIABLEDICTIONARY
350
102
  3
DWGPROPS
350
3D2
  0
DICTIONARY
  5
2356
330
2
100
AcDbDictionary
280
     1
  3
ACAD_LAYOUTSELFREF
360
2357
  0
DICTIONARY
  5
2358
330
232F
100
AcDbDictionary
280
     1
  3
ACAD_LAYOUTSELFREF
360
2359
  0
DICTIONARY
  5
75
102
{ACAD_REACTORS
330
7
102
}
330
7
100
AcDbDictionary
  0
DICTIONARY
  5
61
102
{ACAD_REACTORS
330
7
102
}
330
7
100
AcDbDictionary
  0
DICTIONARY
  5
76
102
{ACAD_REACTORS
330
7
102
}
330
7
100
AcDbDictionary
  3
STANDARD
350
78
  0
DICTIONARY
  5
77
102
{ACAD_REACTORS
330
7
102
}
330
7
100
AcDbDictionary
  0
ACDBDICTIONARYWDFLT
  5
6
102
{ACAD_REACTORS
330
7
102
}
330
7
100
AcDbDictionary
281
     1
  3
Normal
350
5
100
AcDbDictionaryWithDefault
340
5
  0
XRECORD
  5
480
102
{ACAD_REACTORS
330
7
102
}
330
7
100
AcDbXrecord
 90
   990106
  3

 60
     0
 61
     0
 62
     1
 63
     3
 64
     1
 65
     0
 66
     0
 67
     3
 68
     1
 69
     0
 70
     0
 71
     0
 72
     0
 40
0.0
170
     2
340
0
  0
DICTIONARY
  5
2335
102
{ACAD_REACTORS
330
7
102
}
330
7
100
AcDbDictionary
  3
CEPSNTYPE
350
233F
  3
DIMSTYLEDATA
350
2343
  3
FINGERPRINTGUID
350
2340
  3
HYPERLINKBASE
350
2338
  3
INSUNITS
350
233E
  3
LAYOUTDICT
350
233A
  3
LWETCUNION
350
233D
  3
PLOTSETDICT
350
233B
  3
PLOTSTYLNAMDICT
350
233C
  3
PSVPSCALE
350
2342
  3
PUCSBASE
350
2346
  3
PUCSORGBACK
350
234C
  3
PUCSORGBOTTOM
350
2348
  3
PUCSORGFRONT
350
234B
  3
PUCSORGLEFT
350
2349
  3
PUCSORGRIGHT
350
234A
  3
PUCSORGTOP
350
2347
  3
PUCSORTHOREF
350
2344
  3
PUCSORTHOVIEW
350
2345
  3
STYLESHEET
350
2339
  3
TSTACKALIGN
350
2336
  3
TSTACKSIZE
350
2337
  3
UCSBASE
350
234F
  3
UCSORGBACK
350
2355
  3
UCSORGBOTTOM
350
2351
  3
UCSORGFRONT
350
2354
  3
UCSORGLEFT
350
2352
  3
UCSORGRIGHT
350
2353
  3
UCSORGTOP
350
2350
  3
UCSORTHOREF
350
234D
  3
UCSORTHOVIEW
350
234E
  3
VERSIONGUID
350
2341
  0
DICTIONARY
  5
102
102
{ACAD_REACTORS
330
7
102
}
330
7
100
AcDbDictionary
  3
DIMASSOC
350
103
  0
XRECORD
  5
3D2
102
{ACAD_REACTORS
330
7
102
}
330
7
100
AcDbXrecord
  1
DWGPROPS COOKIE
  2

  3

  4

  6

  7

  8

  9

300
=
301
=
302
=
303
=
304
=
305
=
306
=
307
=
308
=
309
=
 40
0.5353330671296296
 41
2452052.431989363
 42
2453406.550756377
  1

 90
        0
  0
XRECORD
  5
2357
102
{ACAD_REACTORS
330
2356
102
}
330
2356
100
AcDbXrecord
340
2
  0
XRECORD
  5
2359
102
{ACAD_REACTORS
330
2358
102
}
330
2358
100
AcDbXrecord
340
232F
  0
MLINESTYLE
  5
78
102
{ACAD_REACTORS
330
76
102
}
330
76
100
AcDbMlineStyle
  2
STANDARD
 70
     0
  3

 62
     0
 51
90.0
 52
90.0
 71
     2
 49
0.5
 62
   256
  6
BYLAYER
 49
-0.5
 62
   256
  6
BYLAYER
  0
ACDBPLACEHOLDER
  5
5
102
{ACAD_REACTORS
330
6
102
}
330
6
100
AcDbPlaceHolder
280
     0
  0
XRECORD
  5
233F
102
{ACAD_REACTORS
330
2335
102
}
330
2335
100
AcDbXrecord
 90
        0
  0
XRECORD
  5
2343
102
{ACAD_REACTORS
330
2335
102
}
330
2335
100
AcDbXrecord
1000
DSTYLE
1002
{
1070
   179
 70
     2
1070
   277
 70
     6
1002
}
  0
XRECORD
  5
2340
102
{ACAD_REACTORS
330
2335
102
}
330
2335
100
AcDbXrecord
  1
{6385560B-F4B1-4644-A7C2-A3E32AC3D232}
  0
XRECORD
  5
2338
102
{ACAD_REACTORS
330
2335
102
}
330
2335
100
AcDbXrecord
  1

  0
XRECORD
  5
233E
102
{ACAD_REACTORS
330
2335
102
}
330
2335
100
AcDbXrecord
 90
        0
  0
XRECORD
  5
233A
102
{ACAD_REACTORS
330
2335
102
}
330
2335
100
AcDbXrecord
340
61
  0
XRECORD
  5
233D
102
{ACAD_REACTORS
330
2335
102
}
330
2335
100
AcDbXrecord
 90
    10781
  0
XRECORD
  5
233B
102
{ACAD_REACTORS
330
2335
102
}
330
2335
100
AcDbXrecord
340
77
  0
XRECORD
  5
233C
102
{ACAD_REACTORS
330
2335
102
}
330
2335
100
AcDbXrecord
340
6
  0
XRECORD
  5
2342
102
{ACAD_REACTORS
330
2335
102
}
330
2335
100
AcDbXrecord
 40
0.0
  0
XRECORD
  5
2346
102
{ACAD_REACTORS
330
2335
102
}
330
2335
100
AcDbXrecord
340
0
  0
XRECORD
  5
234C
102
{ACAD_REACTORS
330
2335
102
}
330
2335
100
AcDbXrecord
 10
0.0
 20
0.0
 30
0.0
  0
XRECORD
  5
2348
102
{ACAD_REACTORS
330
2335
102
}
330
2335
100
AcDbXrecord
 10
0.0
 20
0.0
 30
0.0
  0
XRECORD
  5
234B
102
{ACAD_REACTORS
330
2335
102
}
330
2335
100
AcDbXrecord
 10
0.0
 20
0.0
 30
0.0
  0
XRECORD
  5
2349
102
{ACAD_REACTORS
330
2335
102
}
330
2335
100
AcDbXrecord
 10
0.0
 20
0.0
 30
0.0
  0
XRECORD
  5
234A
102
{ACAD_REACTORS
330
2335
102
}
330
2335
100
AcDbXrecord
 10
0.0
 20
0.0
 30
0.0
  0
XRECORD
  5
2347
102
{ACAD_REACTORS
330
2335
102
}
330
2335
100
AcDbXrecord
 10
0.0
 20
0.0
 30
0.0
  0
XRECORD
  5
2344
102
{ACAD_REACTORS
330
2335
102
}
330
2335
100
AcDbXrecord
340
0
  0
XRECORD
  5
2345
102
{ACAD_REACTORS
330
2335
102
}
330
2335
100
AcDbXrecord
 70
     0
  0
XRECORD
  5
2339
102
{ACAD_REACTORS
330
2335
102
}
330
2335
100
AcDbXrecord
  1
Sekkei.ctb
  0
XRECORD
  5
2336
102
{ACAD_REACTORS
330
2335
102
}
330
2335
100
AcDbXrecord
 90
        1
  0
XRECORD
  5
2337
102
{ACAD_REACTORS
330
2335
102
}
330
2335
100
AcDbXrecord
 90
       70
  0
XRECORD
  5
234F
102
{ACAD_REACTORS
330
2335
102
}
330
2335
100
AcDbXrecord
340
0
  0
XRECORD
  5
2355
102
{ACAD_REACTORS
330
2335
102
}
330
2335
100
AcDbXrecord
 10
0.0
 20
0.0
 30
0.0
  0
XRECORD
  5
2351
102
{ACAD_REACTORS
330
2335
102
}
330
2335
100
AcDbXrecord
 10
0.0
 20
0.0
 30
0.0
  0
XRECORD
  5
2354
102
{ACAD_REACTORS
330
2335
102
}
330
2335
100
AcDbXrecord
 10
0.0
 20
0.0
 30
0.0
  0
XRECORD
  5
2352
102
{ACAD_REACTORS
330
2335
102
}
330
2335
100
AcDbXrecord
 10
0.0
 20
0.0
 30
0.0
  0
XRECORD
  5
2353
102
{ACAD_REACTORS
330
2335
102
}
330
2335
100
AcDbXrecord
 10
0.0
 20
0.0
 30
0.0
  0
XRECORD
  5
2350
102
{ACAD_REACTORS
330
2335
102
}
330
2335
100
AcDbXrecord
 10
0.0
 20
0.0
 30
0.0
  0
XRECORD
  5
234D
102
{ACAD_REACTORS
330
2335
102
}
330
2335
100
AcDbXrecord
340
0
  0
XRECORD
  5
234E
102
{ACAD_REACTORS
330
2335
102
}
330
2335
100
AcDbXrecord
 70
     0
  0
XRECORD
  5
2341
102
{ACAD_REACTORS
330
2335
102
}
330
2335
100
AcDbXrecord
  1
{14A80F78-E33B-4CDB-8937-A05D36D336CA}
  0
DICTIONARYVAR
  5
103
102
{ACAD_REACTORS
330
102
102
}
330
102
100
DictionaryVariables
280
     0
  1
1
  0
ENDSEC
  0
EOF
