  0
SECTION
  2
HEADER
  9
$ACADVER
  1
AC1014
  9
$ACADMAINTVER
 70
     9
  9
$DWGCODEPAGE
  3
ANSI_932
  9
$INSBASE
 10
0.0
 20
0.0
 30
0.0
  9
$EXTMIN
 10
20.98142231362476
 20
14.72647840617661
 30
0.0
  9
$EXTMAX
 10
765.0449522255796
 20
393.7534834837172
 30
0.0
  9
$LIMMIN
 10
0.0
 20
0.0
  9
$LIMMAX
 10
297.0
 20
210.0
  9
$ORTHOMODE
 70
     1
  9
$REGENMODE
 70
     1
  9
$FILLMODE
 70
     1
  9
$QTEXTMODE
 70
     0
  9
$MIRRTEXT
 70
     0
  9
$DRAGMODE
 70
     2
  9
$LTSCALE
 40
2.0
  9
$OSMODE
 70
    37
  9
$ATTMODE
 70
     1
  9
$TEXTSIZE
 40
2.0
  9
$TRACEWID
 40
1.0
  9
$TEXTSTYLE
  7
STANDARD
  9
$CLAYER
  8
0
  9
$CELTYPE
  6
BYLAYER
  9
$CECOLOR
 62
   256
  9
$CELTSCALE
 40
1.0
  9
$DELOBJ
 70
     1
  9
$DISPSILH
 70
     0
  9
$DIMSCALE
 40
2.0
  9
$DIMASZ
 40
1.8
  9
$DIMEXO
 40
0.625
  9
$DIMDLI
 40
3.75
  9
$DIMRND
 40
0.0
  9
$DIMDLE
 40
0.0
  9
$DIMEXE
 40
0.8
  9
$DIMTP
 40
0.0
  9
$DIMTM
 40
0.0
  9
$DIMTXT
 40
1.8
  9
$DIMCEN
 40
2.5
  9
$DIMTSZ
 40
0.0
  9
$DIMTOL
 70
     0
  9
$DIMLIM
 70
     0
  9
$DIMTIH
 70
     0
  9
$DIMTOH
 70
     0
  9
$DIMSE1
 70
     0
  9
$DIMSE2
 70
     0
  9
$DIMTAD
 70
     1
  9
$DIMZIN
 70
     8
  9
$DIMBLK
  1

  9
$DIMASO
 70
     1
  9
$DIMSHO
 70
     1
  9
$DIMPOST
  1

  9
$DIMAPOST
  1

  9
$DIMALT
 70
     0
  9
$DIMALTD
 70
     4
  9
$DIMALTF
 40
0.0394
  9
$DIMLFAC
 40
1.0
  9
$DIMTOFL
 70
     1
  9
$DIMTVP
 40
0.0
  9
$DIMTIX
 70
     0
  9
$DIMSOXD
 70
     0
  9
$DIMSAH
 70
     0
  9
$DIMBLK1
  1

  9
$DIMBLK2
  1

  9
$DIMSTYLE
  2
STANDARD
  9
$DIMCLRD
 70
     0
  9
$DIMCLRE
 70
     0
  9
$DIMCLRT
 70
     0
  9
$DIMTFAC
 40
1.0
  9
$DIMGAP
 40
0.75
  9
$DIMJUST
 70
     0
  9
$DIMSD1
 70
     0
  9
$DIMSD2
 70
     0
  9
$DIMTOLJ
 70
     1
  9
$DIMTZIN
 70
     0
  9
$DIMALTZ
 70
     0
  9
$DIMALTTZ
 70
     0
  9
$DIMFIT
 70
     3
  9
$DIMUPT
 70
     0
  9
$DIMUNIT
 70
     2
  9
$DIMDEC
 70
     2
  9
$DIMTDEC
 70
     2
  9
$DIMALTU
 70
     8
  9
$DIMALTTD
 70
     4
  9
$DIMTXSTY
  7
STANDARD
  9
$DIMAUNIT
 70
     0
  9
$LUNITS
 70
     2
  9
$LUPREC
 70
     3
  9
$SKETCHINC
 40
1.0
  9
$FILLETRAD
 40
10.0
  9
$AUNITS
 70
     0
  9
$AUPREC
 70
     2
  9
$MENU
  1
.
  9
$ELEVATION
 40
0.0
  9
$PELEVATION
 40
0.0
  9
$THICKNESS
 40
0.0
  9
$LIMCHECK
 70
     0
  9
$BLIPMODE
 70
     0
  9
$CHAMFERA
 40
0.0
  9
$CHAMFERB
 40
0.0
  9
$CHAMFERC
 40
20.0
  9
$CHAMFERD
 40
0.0
  9
$SKPOLY
 70
     0
  9
$TDCREATE
 40
2453557.740709630
  9
$TDUPDATE
 40
2453664.559240451
  9
$TDINDWG
 40
0.3004450694
  9
$TDUSRTIMER
 40
0.3004450694
  9
$USRTIMER
 70
     1
  9
$ANGBASE
 50
0.0
  9
$ANGDIR
 70
     0
  9
$PDMODE
 70
     0
  9
$PDSIZE
 40
-10.0
  9
$PLINEWID
 40
0.0
  9
$COORDS
 70
     2
  9
$SPLFRAME
 70
     0
  9
$SPLINETYPE
 70
     6
  9
$SPLINESEGS
 70
     8
  9
$ATTDIA
 70
     0
  9
$ATTREQ
 70
     1
  9
$HANDLING
 70
-16383
  9
$HANDSEED
  5
23E1
  9
$SURFTAB1
 70
     6
  9
$SURFTAB2
 70
     6
  9
$SURFTYPE
 70
     6
  9
$SURFU
 70
     6
  9
$SURFV
 70
     6
  9
$UCSNAME
  2

  9
$UCSORG
 10
0.0
 20
0.0
 30
0.0
  9
$UCSXDIR
 10
1.0
 20
0.0
 30
0.0
  9
$UCSYDIR
 10
0.0
 20
1.0
 30
0.0
  9
$PUCSNAME
  2

  9
$PUCSORG
 10
0.0
 20
0.0
 30
0.0
  9
$PUCSXDIR
 10
1.0
 20
0.0
 30
0.0
  9
$PUCSYDIR
 10
0.0
 20
1.0
 30
0.0
  9
$USERI1
 70
     0
  9
$USERI2
 70
     0
  9
$USERI3
 70
     0
  9
$USERI4
 70
     0
  9
$USERI5
 70
     0
  9
$USERR1
 40
0.0
  9
$USERR2
 40
0.0
  9
$USERR3
 40
0.0
  9
$USERR4
 40
0.0
  9
$USERR5
 40
0.0
  9
$WORLDVIEW
 70
     1
  9
$SHADEDGE
 70
     3
  9
$SHADEDIF
 70
    70
  9
$TILEMODE
 70
     1
  9
$MAXACTVP
 70
    48
  9
$PINSBASE
 10
0.0
 20
0.0
 30
0.0
  9
$PLIMCHECK
 70
     0
  9
$PEXTMIN
 10
0.0
 20
0.0
 30
0.0
  9
$PEXTMAX
 10
0.0
 20
0.0
 30
0.0
  9
$PLIMMIN
 10
0.0
 20
0.0
  9
$PLIMMAX
 10
12.0
 20
9.0
  9
$UNITMODE
 70
     0
  9
$VISRETAIN
 70
     1
  9
$PLINEGEN
 70
     0
  9
$PSLTSCALE
 70
     1
  9
$TREEDEPTH
 70
  3020
  9
$PICKSTYLE
 70
     1
  9
$CMLSTYLE
  2
STANDARD
  9
$CMLJUST
 70
     0
  9
$CMLSCALE
 40
1.0
  9
$PROXYGRAPHICS
 70
     1
  9
$MEASUREMENT
 70
     0
  0
ENDSEC
  0
SECTION
  2
CLASSES
  0
CLASS
  1
DICTIONARYVAR
  2
AcDbDictionaryVar
  3
AutoCAD 2000
 90
        0
280
     0
281
     0
  0
CLASS
  1
ACDBDICTIONARYWDFLT
  2
AcDbDictionaryWithDefault
  3
AutoCAD 2000
 90
        0
280
     0
281
     0
  0
CLASS
  1
ACDBPLACEHOLDER
  2
AcDbPlaceHolder
  3
AutoCAD 2000
 90
        0
280
     0
281
     0
  0
CLASS
  1
LAYOUT
  2
AcDbLayout
  3
AutoCAD 2000
 90
        0
280
     0
281
     0
  0
CLASS
  1
LONG_TRANSACTION
  2
AcDbLongTransaction
  3
AutoCAD 2000
 90
        0
280
     0
281
     0
  0
CLASS
  1
LWPOLYLINE
  2
AcDbPolyline
  3
AutoCAD 2000
 90
        0
280
     0
281
     1
  0
CLASS
  1
HATCH
  2
AcDbHatch
  3
AutoCAD 2000
 90
        0
280
     0
281
     1
  0
CLASS
  1
XRECORD
  2
AcDbXrecord
  3
AutoCAD 2000
 90
        0
280
     0
281
     0
  0
CLASS
  1
LONG_TRANSACTION
  2
AcDbLongTransaction
  3
AutoCAD 2000
 90
        0
280
     0
281
     0
  0
CLASS
  1
LWPOLYLINE
  2
AcDbPolyline
  3
AutoCAD 2000
 90
        0
280
     0
281
     1
  0
CLASS
  1
HATCH
  2
AcDbHatch
  3
AutoCAD 2000
 90
        0
280
     0
281
     1
  0
CLASS
  1
XRECORD
  2
AcDbXrecord
  3
AutoCAD 2000
 90
        0
280
     0
281
     0
  0
ENDSEC
  0
SECTION
  2
TABLES
  0
TABLE
  2
VPORT
  5
6E
330
0
100
AcDbSymbolTable
 70
     2
  0
VPORT
  5
23BC
330
6E
100
AcDbSymbolTableRecord
100
AcDbViewportTableRecord
  2
*ACTIVE
 70
     0
 10
0.0
 20
0.0
 11
1.0
 21
1.0
 12
398.3431942815836
 22
204.2367893174061
 13
0.0
 23
0.0
 14
10.0
 24
10.0
 15
10.0
 25
10.0
 16
0.0
 26
0.0
 36
1.0
 17
0.0
 27
0.0
 37
0.0
 40
484.2690008930608
 41
1.566970091027308
 42
50.0
 43
0.0
 44
0.0
 50
0.0
 51
0.0
 71
     0
 72
   100
 73
     1
 74
     3
 75
     0
 76
     0
 77
     0
 78
     0
  0
ENDTAB
  0
TABLE
  2
LTYPE
  5
69
330
0
100
AcDbSymbolTable
 70
     4
  0
LTYPE
  5
6A
330
69
100
AcDbSymbolTableRecord
100
AcDbLinetypeTableRecord
  2
BYBLOCK
 70
     0
  3

 72
    65
 73
     0
 40
0.0
  0
LTYPE
  5
6B
330
69
100
AcDbSymbolTableRecord
100
AcDbLinetypeTableRecord
  2
BYLAYER
 70
     0
  3

 72
    65
 73
     0
 40
0.0
  0
LTYPE
  5
8
330
69
100
AcDbSymbolTableRecord
100
AcDbLinetypeTableRecord
  2
CONTINUOUS
 70
     0
  3
Solid line
 72
    65
 73
     0
 40
0.0
  0
LTYPE
  5
27C
330
69
100
AcDbSymbolTableRecord
100
AcDbLinetypeTableRecord
  2
SEKKEI_A2_
 70
     0
  3
center(A2)  ____ _ ____ _ ____ _ ____ _ ____ _ 
 72
    65
 73
     4
 40
14.28749999999999
 49
9.525
 74
     0
 49
-1.587499999999999
 74
     0
 49
1.587499999999999
 74
     0
 49
-1.587499999999999
 74
     0
  0
LTYPE
  5
2B4
330
69
100
AcDbSymbolTableRecord
100
AcDbLinetypeTableRecord
  2
HIDDEN2
 70
     0
  3
Hidden (.5x) _ _ _ _ _ _ _ _ _ _ _ _ _ _ _ _ _
 72
    65
 73
     2
 40
4.762499999999998
 49
3.174999999999998
 74
     0
 49
-1.587499999999999
 74
     0
  0
LTYPE
  5
48F
330
69
100
AcDbSymbolTableRecord
100
AcDbLinetypeTableRecord
  2
SEKKEI_H
 70
     0
  3
Hidden-S _ _ _ _ _ _ _ _ _ _ _ _ _ _ _ _ _
 72
    65
 73
     2
 40
2.381249999999999
 49
1.587499999999999
 74
     0
 49
-0.79375
 74
     0
  0
ENDTAB
  0
TABLE
  2
LAYER
  5
66
330
0
100
AcDbSymbolTable
 70
     8
  0
LAYER
  5
5E
330
66
100
AcDbSymbolTableRecord
100
AcDbLayerTableRecord
  2
0
 70
     0
 62
     7
  6
CONTINUOUS
  0
LAYER
  5
3E
330
66
100
AcDbSymbolTableRecord
100
AcDbLayerTableRecord
  2
CENTER
 70
     0
 62
     3
  6
SEKKEI_A2_
  0
LAYER
  5
135
330
66
100
AcDbSymbolTableRecord
100
AcDbLayerTableRecord
  2
DEFPOINTS
 70
     0
 62
     7
  6
CONTINUOUS
  0
LAYER
  5
2B5
330
66
100
AcDbSymbolTableRecord
100
AcDbLayerTableRecord
  2
HIDS
 70
     0
 62
     1
  6
HIDDEN2
  0
LAYER
  5
2BA
330
66
100
AcDbSymbolTableRecord
100
AcDbLayerTableRecord
  2
HOJO
 70
     0
 62
     4
  6
CONTINUOUS
  0
LAYER
  5
3FA
330
66
100
AcDbSymbolTableRecord
100
AcDbLayerTableRecord
  2
TITLE
 70
     0
 62
     4
  6
CONTINUOUS
  0
ENDTAB
  0
TABLE
  2
STYLE
  5
67
330
0
100
AcDbSymbolTable
 70
     1
  0
STYLE
  5
16
330
67
100
AcDbSymbolTableRecord
100
AcDbTextStyleTableRecord
  2
STANDARD
 70
     0
 40
0.0
 41
1.0
 50
0.0
 71
     0
 42
2.0
  3
simplex.shx
  4
extfont.shx
  0
ENDTAB
  0
TABLE
  2
VIEW
  5
6C
330
0
100
AcDbSymbolTable
 70
     0
  0
ENDTAB
  0
TABLE
  2
UCS
  5
6D
330
0
100
AcDbSymbolTable
 70
     0
  0
ENDTAB
  0
TABLE
  2
APPID
  5
70
330
0
100
AcDbSymbolTable
 70
     2
  0
APPID
  5
71
330
70
100
AcDbSymbolTableRecord
100
AcDbRegAppTableRecord
  2
ACAD
 70
     0
  0
APPID
  5
239D
330
70
100
AcDbSymbolTableRecord
100
AcDbRegAppTableRecord
  2
CONTENTBLOCKICON
 70
     0
  0
ENDTAB
  0
TABLE
  2
DIMSTYLE
  5
72
330
0
100
AcDbSymbolTable
 70
     1
  0
DIMSTYLE
105
73
330
72
100
AcDbSymbolTableRecord
100
AcDbDimStyleTableRecord
  2
STANDARD
 70
     0
  3

  4

  5

  6

  7

 40
2.0
 41
1.8
 42
0.625
 43
3.75
 44
0.8
 45
0.0
 46
0.0
 47
0.0
 48
0.0
140
1.8
141
2.5
142
0.0
143
0.0394
144
1.0
145
0.0
146
1.0
147
0.75
 71
     0
 72
     0
 73
     0
 74
     0
 75
     0
 76
     0
 77
     1
 78
     8
170
     0
171
     4
172
     1
173
     0
174
     0
175
     0
176
     0
177
     0
178
     0
270
     2
271
     2
272
     2
273
     8
274
     4
340
16
275
     0
280
     0
281
     0
282
     0
283
     1
284
     0
285
     0
286
     0
287
     3
288
     0
  0
ENDTAB
  0
TABLE
  2
BLOCK_RECORD
  5
1
330
0
100
AcDbSymbolTable
 70
    18
  0
BLOCK_RECORD
  5
2
102
{ACAD_XDICTIONARY
360
2399
102
}
330
1
100
AcDbSymbolTableRecord
100
AcDbBlockTableRecord
  2
*MODEL_SPACE
  0
BLOCK_RECORD
  5
23B7
102
{ACAD_XDICTIONARY
360
23DF
102
}
330
1
100
AcDbSymbolTableRecord
100
AcDbBlockTableRecord
  2
*PAPER_SPACE
  0
ENDTAB
  0
ENDSEC
  0
SECTION
  2
BLOCKS
  0
BLOCK
  5
5D
330
2
100
AcDbEntity
  8
0
100
AcDbBlockBegin
  2
*MODEL_SPACE
 70
     0
 10
0.0
 20
0.0
 30
0.0
  3
*MODEL_SPACE
  1

  0
ENDBLK
  5
5F
330
2
100
AcDbEntity
  8
0
100
AcDbBlockEnd
  0
BLOCK
  5
23B9
330
23B7
100
AcDbEntity
 67
     1
  8
0
100
AcDbBlockBegin
  2
*PAPER_SPACE
 70
     0
 10
0.0
 20
0.0
 30
0.0
  3
*PAPER_SPACE
  1

  0
ENDBLK
  5
23BA
330
23B7
100
AcDbEntity
 67
     1
  8
0
100
AcDbBlockEnd
  0
ENDSEC
  0
SECTION
  2
ENTITIES
  0
LINE
  5
7A0
330
2
100
AcDbEntity
  8
0
100
AcDbLine
 10
342.8265968717435
 20
110.4921235768587
 30
0.0
 11
411.3265968717434
 21
110.4921235768587
 31
0.0
  0
LINE
  5
7A1
330
2
100
AcDbEntity
  8
0
100
AcDbLine
 10
342.8265968717435
 20
103.6921355768587
 30
0.0
 11
411.3265968717434
 21
103.6921355768587
 31
0.0
  0
LINE
  5
7A2
330
2
100
AcDbEntity
  8
HIDS
100
AcDbLine
 10
342.8265968717435
 20
170.6921355768588
 30
0.0
 11
411.3265968717434
 21
170.6921355768588
 31
0.0
  0
LINE
  5
7A3
330
2
100
AcDbEntity
  8
HIDS
100
AcDbLine
 10
342.8265968717435
 20
177.4921235768588
 30
0.0
 11
411.3265968717434
 21
177.4921235768588
 31
0.0
  0
LINE
  5
7A4
330
2
100
AcDbEntity
  8
HIDS
100
AcDbLine
 10
347.8265968717434
 20
100.5921295768587
 30
0.0
 11
392.3951388717434
 21
100.5921295768587
 31
0.0
  0
LINE
  5
7A5
330
2
100
AcDbEntity
  8
HIDS
100
AcDbLine
 10
393.8265968717434
 20
180.5921295768588
 30
0.0
 11
349.2580548717434
 21
180.5921295768588
 31
0.0
  0
LINE
  5
7A6
330
2
100
AcDbEntity
  8
CENTER
100
AcDbLine
 10
327.8216228717435
 20
174.0921295768588
 30
0.0
 11
414.8703588717435
 21
174.0921295768588
 31
0.0
  0
LINE
  5
7A7
330
2
100
AcDbEntity
  8
CENTER
100
AcDbLine
 10
327.8216228717435
 20
107.0921295768587
 30
0.0
 11
414.8703588717435
 21
107.0921295768587
 31
0.0
  0
ARC
  5
7A8
330
2
100
AcDbEntity
  8
0
100
AcDbCircle
 10
377.8265968717434
 20
153.5070775768588
 30
0.0
 40
2.0
100
AcDbArc
 50
91.00000000000013
 51
180.0
  0
ARC
  5
7A9
330
2
100
AcDbEntity
  8
0
100
AcDbCircle
 10
377.8265968717434
 20
127.6771815768587
 30
0.0
 40
2.0
100
AcDbArc
 50
180.0
 51
268.9999999999998
  0
LINE
  5
7AA
330
2
100
AcDbEntity
  8
0
100
AcDbLine
 10
378.5883768717435
 20
130.3989225768587
 30
0.0
 11
376.2554608717436
 21
126.4396335768587
 31
0.0
  0
LINE
  5
7AB
330
2
100
AcDbEntity
  8
0
100
AcDbLine
 10
378.5883768717435
 20
150.7853665768588
 30
0.0
 11
376.2554608717436
 21
154.7446255768587
 31
0.0
  0
LINE
  5
7AC
330
2
100
AcDbEntity
  8
HIDS
100
AcDbLine
 10
391.8615088717436
 20
102.9593015768587
 30
0.0
 11
370.8265968717434
 21
102.5921295768587
 31
0.0
  0
LINE
  5
7AD
330
2
100
AcDbEntity
  8
HIDS
100
AcDbLine
 10
391.8615088717436
 20
178.2249725768588
 30
0.0
 11
370.8265968717434
 21
178.5921295768588
 31
0.0
  0
LINE
  5
7AE
330
2
100
AcDbEntity
  8
0
100
AcDbLine
 10
370.8265968717434
 20
100.0921295768587
 30
0.0
 11
411.3265968717434
 21
100.7990535768587
 31
0.0
  0
LINE
  5
7AF
330
2
100
AcDbEntity
  8
0
100
AcDbLine
 10
370.8265968717434
 20
181.0921295768588
 30
0.0
 11
411.3265968717434
 21
180.3851895768588
 31
0.0
  0
CIRCLE
  5
7B1
330
2
100
AcDbEntity
  8
HOJO
100
AcDbCircle
 10
168.0574442818589
 20
107.0921295768587
 30
0.0
 40
4.0
  0
CIRCLE
  5
7B2
330
2
100
AcDbEntity
  8
0
100
AcDbCircle
 10
168.0574442818589
 20
107.0921295768587
 30
0.0
 40
4.25
  0
CIRCLE
  5
7B3
330
2
100
AcDbEntity
  8
HOJO
100
AcDbCircle
 10
254.0574442818591
 20
107.0921295768587
 30
0.0
 40
4.0
  0
CIRCLE
  5
7B4
330
2
100
AcDbEntity
  8
0
100
AcDbCircle
 10
254.0574442818591
 20
107.0921295768587
 30
0.0
 40
4.25
  0
LINE
  5
7B5
330
2
100
AcDbEntity
  8
HOJO
100
AcDbLine
 10
362.8265968717434
 20
111.0921295768587
 30
0.0
 11
362.8265968717434
 21
103.0921295768587
 31
0.0
  0
CIRCLE
  5
7B6
330
2
100
AcDbEntity
  8
0
100
AcDbCircle
 10
254.0574442818591
 20
107.0921295768587
 30
0.0
 40
3.399999999999999
  0
CIRCLE
  5
7B7
330
2
100
AcDbEntity
  8
0
100
AcDbCircle
 10
168.0574442818589
 20
107.0921295768587
 30
0.0
 40
3.399999999999999
  0
LINE
  5
7B8
330
2
100
AcDbEntity
  8
HIDS
100
AcDbLine
 10
337.4296238717434
 20
114.5921295768587
 30
0.0
 11
344.8265968717434
 21
107.1951565768587
 31
0.0
  0
LINE
  5
7B9
330
2
100
AcDbEntity
  8
0
100
AcDbLine
 10
29.50195228185906
 20
175.5921295768588
 30
0.0
 11
29.50195228185906
 21
105.5921295768587
 31
0.0
  0
LINE
  5
7BA
330
2
100
AcDbEntity
  8
0
100
AcDbLine
 10
78.50194028185909
 20
100.5921295768587
 30
0.0
 11
78.50194028185909
 21
180.5921295768588
 31
0.0
  0
LINE
  5
7BB
330
2
100
AcDbEntity
  8
0
100
AcDbLine
 10
88.00194028185911
 20
178.5921295768588
 30
0.0
 11
88.00194028185911
 21
102.5921295768587
 31
0.0
  0
LINE
  5
7BC
330
2
100
AcDbEntity
  8
0
100
AcDbLine
 10
185.057444281859
 20
109.5921295768587
 30
0.0
 11
185.057444281859
 21
107.7272005768587
 31
0.0
  0
LINE
  5
7BD
330
2
100
AcDbEntity
  8
0
100
AcDbLine
 10
183.0574442818591
 20
108.8522915768587
 30
0.0
 11
183.0574442818591
 21
108.3571445768587
 31
0.0
  0
LINE
  5
7BE
330
2
100
AcDbEntity
  8
0
100
AcDbLine
 10
237.0574442818591
 20
109.5921295768587
 30
0.0
 11
237.0574442818591
 21
107.7272005768587
 31
0.0
  0
LINE
  5
7BF
330
2
100
AcDbEntity
  8
0
100
AcDbLine
 10
239.0574442818591
 20
108.8522915768587
 30
0.0
 11
239.0574442818591
 21
108.3571445768587
 31
0.0
  0
LINE
  5
7C0
330
2
100
AcDbEntity
  8
0
100
AcDbLine
 10
161.057444281859
 20
124.2636995768587
 30
0.0
 11
161.057444281859
 21
107.0921295768587
 31
0.0
  0
LINE
  5
7C1
330
2
100
AcDbEntity
  8
0
100
AcDbLine
 10
261.057444281859
 20
107.0921295768587
 30
0.0
 11
261.057444281859
 21
174.0921295768588
 31
0.0
  0
LINE
  5
7C4
330
2
100
AcDbEntity
  8
0
100
AcDbLine
 10
330.3265968717435
 20
180.3851895768588
 30
0.0
 11
330.3265968717435
 21
100.7990535768587
 31
0.0
  0
LINE
  5
7C5
330
2
100
AcDbEntity
  8
HIDS
100
AcDbLine
 10
347.8265968717434
 20
104.9589965768587
 30
0.0
 11
347.8265968717434
 21
108.8904085768587
 31
0.0
  0
LINE
  5
7C6
330
2
100
AcDbEntity
  8
0
100
AcDbLine
 10
342.8265968717435
 20
180.6033905768588
 30
0.0
 11
342.8265968717435
 21
100.5808685768587
 31
0.0
  0
LINE
  5
7C8
330
2
100
AcDbEntity
  8
0
100
AcDbLine
 10
88.00194028185911
 20
102.5921295768587
 30
0.0
 11
159.6986952818591
 21
102.5921295768587
 31
0.0
  0
LINE
  5
7CA
330
2
100
AcDbEntity
  8
0
100
AcDbLine
 10
34.50195228185906
 20
100.5921295768587
 30
0.0
 11
78.50194028185909
 21
100.5921295768587
 31
0.0
  0
ARC
  5
7CB
330
2
100
AcDbEntity
  8
0
100
AcDbCircle
 10
34.50195928185911
 20
105.5921295768587
 30
0.0
 40
5.0
100
AcDbArc
 50
180.0
 51
270.0
  0
LINE
  5
7CC
330
2
100
AcDbEntity
  8
0
100
AcDbLine
 10
78.50194028185909
 20
102.5921295768587
 30
0.0
 11
88.00194028185911
 21
102.5921295768587
 31
0.0
  0
ARC
  5
7CD
330
2
100
AcDbEntity
  8
0
100
AcDbCircle
 10
245.2520552818591
 20
97.52839357685886
 30
0.0
 40
6.0
100
AcDbArc
 50
47.3640670000003
 51
120.3582990000006
  0
LINE
  5
7CE
330
2
100
AcDbEntity
  8
0
100
AcDbLine
 10
168.0574442818589
 20
100.0921295768587
 30
0.0
 11
254.0574442818591
 21
100.0921295768587
 31
0.0
  0
ARC
  5
7CF
330
2
100
AcDbEntity
  8
0
100
AcDbCircle
 10
187.057444281859
 20
107.7272005768587
 30
0.0
 40
2.0
100
AcDbArc
 50
180.0
 51
255.5224910000001
  0
ARC
  5
7D0
330
2
100
AcDbEntity
  8
0
100
AcDbCircle
 10
192.057444281859
 20
127.0921295768587
 30
0.0
 40
22.0
100
AcDbArc
 50
249.5126880000004
 51
270.0
  0
ARC
  5
7D1
330
2
100
AcDbEntity
  8
0
100
AcDbCircle
 10
187.4581092818591
 20
110.0921295768587
 30
0.0
 40
10.0
100
AcDbArc
 50
247.6683579999995
 51
270.0
  0
ARC
  5
7D2
330
2
100
AcDbEntity
  8
0
100
AcDbCircle
 10
168.0574442818589
 20
107.0921295768587
 30
0.0
 40
7.0
100
AcDbArc
 50
180.0
 51
312.6359249999997
  0
LINE
  5
7D4
330
2
100
AcDbEntity
  8
0
100
AcDbLine
 10
160.3938242818589
 20
102.4674345768587
 30
0.0
 11
165.6244612818589
 21
100.5285465768587
 31
0.0
  0
ARC
  5
7D5
330
2
100
AcDbEntity
  8
0
100
AcDbCircle
 10
159.6986952818591
 20
100.5921295768587
 30
0.0
 40
2.0
100
AcDbArc
 50
69.66127000000013
 51
90.0
  0
ARC
  5
7D6
330
2
100
AcDbEntity
  8
0
100
AcDbCircle
 10
176.862833281859
 20
97.52839357685886
 30
0.0
 40
6.0
100
AcDbArc
 50
59.64169699999963
 51
132.6359249999995
  0
ARC
  5
7D7
330
2
100
AcDbEntity
  8
0
100
AcDbCircle
 10
185.057444281859
 20
108.3571445768587
 30
0.0
 40
2.0
100
AcDbArc
 50
180.0
 51
249.51268
  0
ARC
  5
7D8
330
2
100
AcDbEntity
  8
0
100
AcDbCircle
 10
195.057444281859
 20
128.5921295768587
 30
0.0
 40
30.0
100
AcDbArc
 50
239.6417009999993
 51
247.6683579999995
  0
LINE
  5
7D9
330
2
100
AcDbEntity
  8
0
100
AcDbLine
 10
230.0574442818589
 20
105.0921295768587
 30
0.0
 11
192.057444281859
 21
105.0921295768587
 31
0.0
  0
ARC
  5
7DA
330
2
100
AcDbEntity
  8
0
100
AcDbCircle
 10
230.0574442818589
 20
127.0921295768587
 30
0.0
 40
22.0
100
AcDbArc
 50
270.0
 51
290.4873049999998
  0
ARC
  5
7DB
330
2
100
AcDbEntity
  8
0
100
AcDbCircle
 10
237.0574442818591
 20
108.3571445768587
 30
0.0
 40
2.0
100
AcDbArc
 50
290.4873119999995
 51
0.0
  0
ARC
  5
7DC
330
2
100
AcDbEntity
  8
0
100
AcDbCircle
 10
227.057444281859
 20
128.5921295768587
 30
0.0
 40
30.0
100
AcDbArc
 50
292.3316420000002
 51
300.3583030000003
  0
ARC
  5
7DD
330
2
100
AcDbEntity
  8
0
100
AcDbCircle
 10
235.0574442818591
 20
107.7272005768587
 30
0.0
 40
2.0
100
AcDbArc
 50
284.4775089999998
 51
0.0
  0
ARC
  5
7DE
330
2
100
AcDbEntity
  8
0
100
AcDbCircle
 10
234.6567792818591
 20
110.0921295768587
 30
0.0
 40
10.0
100
AcDbArc
 50
270.0
 51
292.3316420000002
  0
ARC
  5
7DF
330
2
100
AcDbEntity
  8
0
100
AcDbCircle
 10
254.0574442818591
 20
107.0921295768587
 30
0.0
 40
7.0
100
AcDbArc
 50
227.364075
 51
0.0
  0
LINE
  5
7E1
330
2
100
AcDbEntity
  8
HOJO
100
AcDbLine
 10
342.8265968717435
 20
103.0921295768587
 30
0.0
 11
362.8265968717434
 21
103.0921295768587
 31
0.0
  0
ARC
  5
7E2
330
2
100
AcDbEntity
  8
HIDS
100
AcDbCircle
 10
347.8265968717434
 20
103.5921295768587
 30
0.0
 40
3.0
100
AcDbArc
 50
180.0
 51
270.0
  0
LINE
  5
7E3
330
2
100
AcDbEntity
  8
0
100
AcDbLine
 10
370.8265968717434
 20
100.0921295768587
 30
0.0
 11
330.3265968717435
 21
100.7990535768587
 31
0.0
  0
LINE
  5
7E4
330
2
100
AcDbEntity
  8
0
100
AcDbLine
 10
330.3265968717435
 20
102.8421295768587
 30
0.0
 11
342.8265968717435
 21
102.8421295768587
 31
0.0
  0
LINE
  5
7E5
330
2
100
AcDbEntity
  8
HIDS
100
AcDbLine
 10
344.8265968717434
 20
103.5921295768587
 30
0.0
 11
344.8265968717434
 21
107.1951565768587
 31
0.0
  0
LINE
  5
7E6
330
2
100
AcDbEntity
  8
HIDS
100
AcDbLine
 10
349.7916848717435
 20
102.9593015768587
 30
0.0
 11
370.8265968717434
 21
102.5921295768587
 31
0.0
  0
ARC
  5
7E7
330
2
100
AcDbEntity
  8
HIDS
100
AcDbCircle
 10
349.8265968717434
 20
104.9589965768587
 30
0.0
 40
2.0
100
AcDbArc
 50
180.0
 51
268.9999999999998
  0
LINE
  5
7E8
330
2
100
AcDbEntity
  8
0
100
AcDbLine
 10
88.00194028185911
 20
170.8410915768588
 30
0.0
 11
161.057444281859
 21
170.8410915768588
 31
0.0
  0
LINE
  5
7E9
330
2
100
AcDbEntity
  8
0
100
AcDbLine
 10
88.00194028185911
 20
110.3431675768588
 30
0.0
 11
161.057444281859
 21
110.3431675768588
 31
0.0
  0
LINE
  5
7EA
330
2
100
AcDbEntity
  8
0
100
AcDbLine
 10
88.00194028185911
 20
178.5921295768588
 30
0.0
 11
159.6986952818591
 21
178.5921295768588
 31
0.0
  0
LINE
  5
7EB
330
2
100
AcDbEntity
  8
CENTER
100
AcDbLine
 10
268.5982152818591
 20
140.5921295768587
 30
0.0
 11
20.98142231362476
 21
140.5921295768587
 31
0.0
  0
LINE
  5
7F0
330
2
100
AcDbEntity
  8
0
100
AcDbLine
 10
32.25195228185906
 20
164.5921295768587
 30
0.0
 11
78.50194028185909
 21
164.5921295768587
 31
0.0
  0
LINE
  5
7F1
330
2
100
AcDbEntity
  8
0
100
AcDbLine
 10
32.25195228185906
 20
114.5921295768587
 30
0.0
 11
78.50194028185909
 21
114.5921295768587
 31
0.0
  0
LINE
  5
7F2
330
2
100
AcDbEntity
  8
0
100
AcDbLine
 10
34.50195228185906
 20
180.5921295768588
 30
0.0
 11
78.50194028185909
 21
180.5921295768588
 31
0.0
  0
ARC
  5
7F3
330
2
100
AcDbEntity
  8
0
100
AcDbCircle
 10
34.50195228185906
 20
175.5921295768588
 30
0.0
 40
5.0
100
AcDbArc
 50
90.0
 51
180.0
  0
LINE
  5
7F4
330
2
100
AcDbEntity
  8
0
100
AcDbLine
 10
78.50194028185909
 20
110.3431365768587
 30
0.0
 11
88.00194028185911
 21
110.3431365768587
 31
0.0
  0
ARC
  5
7F5
330
2
100
AcDbEntity
  8
0
100
AcDbCircle
 10
78.50194028185909
 20
164.1215175768587
 30
0.0
 40
4.5
100
AcDbArc
 50
0.0
 51
90.0
  0
LINE
  5
7F6
330
2
100
AcDbEntity
  8
HOJO
100
AcDbLine
 10
80.00194028185909
 20
159.1215175768587
 30
0.0
 11
81.50194028185911
 21
159.6215175768588
 31
0.0
  0
ARC
  5
7F7
330
2
100
AcDbEntity
  8
0
100
AcDbCircle
 10
78.50194028185909
 20
164.1215175768587
 30
0.0
 40
3.0
100
AcDbArc
 50
0.0
 51
90.0
  0
LINE
  5
7F8
330
2
100
AcDbEntity
  8
0
100
AcDbLine
 10
80.00194028185909
 20
164.1215175768587
 30
0.0
 11
80.00194028185909
 21
159.1059235768588
 31
0.0
  0
ARC
  5
7F9
330
2
100
AcDbEntity
  8
0
100
AcDbCircle
 10
78.50194028185909
 20
164.1215175768587
 30
0.0
 40
1.5
100
AcDbArc
 50
0.0
 51
90.0
  0
LINE
  5
7FA
330
2
100
AcDbEntity
  8
HOJO
100
AcDbLine
 10
81.50194028185911
 20
160.1215175768587
 30
0.0
 11
83.00194028185911
 21
159.6215175768588
 31
0.0
  0
LINE
  5
7FB
330
2
100
AcDbEntity
  8
0
100
AcDbLine
 10
83.00194028185911
 20
164.1215175768587
 30
0.0
 11
83.00194028185911
 21
159.6215175768588
 31
0.0
  0
LINE
  5
7FC
330
2
100
AcDbEntity
  8
0
100
AcDbLine
 10
81.50194028185911
 20
164.1215175768587
 30
0.0
 11
81.50194028185911
 21
159.6215175768588
 31
0.0
  0
LINE
  5
7FD
330
2
100
AcDbEntity
  8
0
100
AcDbLine
 10
78.50194028185909
 20
170.8411225768587
 30
0.0
 11
88.00194028185911
 21
170.8411225768587
 31
0.0
  0
LINE
  5
7FE
330
2
100
AcDbEntity
  8
0
100
AcDbLine
 10
78.50194028185909
 20
178.5921295768588
 30
0.0
 11
88.00194028185911
 21
178.5921295768588
 31
0.0
  0
CIRCLE
  5
806
330
2
100
AcDbEntity
  8
0
100
AcDbCircle
 10
222.0574442818591
 20
140.5921295768587
 30
0.0
 40
25.002001
  0
ARC
  5
807
330
2
100
AcDbEntity
  8
0
100
AcDbCircle
 10
245.2520552818591
 20
183.6558805768586
 30
0.0
 40
6.0
100
AcDbArc
 50
239.6417009999993
 51
312.6359329999996
  0
LINE
  5
808
330
2
100
AcDbEntity
  8
0
100
AcDbLine
 10
246.538920281859
 20
121.3937045768587
 30
0.0
 11
237.538935281859
 21
110.8937045768587
 31
0.0
  0
LINE
  5
809
330
2
100
AcDbEntity
  8
0
100
AcDbLine
 10
247.458811281859
 20
119.3937045768587
 30
0.0
 11
239.5389202818591
 21
110.1538665768587
 31
0.0
  0
LINE
  5
80A
330
2
100
AcDbEntity
  8
0
100
AcDbLine
 10
246.538920281859
 20
159.7905545768588
 30
0.0
 11
237.538935281859
 21
170.2905545768587
 31
0.0
  0
LINE
  5
80B
330
2
100
AcDbEntity
  8
0
100
AcDbLine
 10
247.458811281859
 20
161.7905545768588
 30
0.0
 11
239.5389202818591
 21
171.0303925768588
 31
0.0
  0
LINE
  5
80C
330
2
100
AcDbEntity
  8
0
100
AcDbLine
 10
168.0574442818589
 20
181.0921295768588
 30
0.0
 11
254.0574442818591
 21
181.0921295768588
 31
0.0
  0
ARC
  5
80D
330
2
100
AcDbEntity
  8
0
100
AcDbCircle
 10
187.057444281859
 20
173.4570585768588
 30
0.0
 40
2.0
100
AcDbArc
 50
104.4775089999999
 51
180.0
  0
ARC
  5
80E
330
2
100
AcDbEntity
  8
0
100
AcDbCircle
 10
192.057444281859
 20
154.0921295768588
 30
0.0
 40
22.0
100
AcDbArc
 50
90.0
 51
110.4873119999995
  0
ARC
  5
80F
330
2
100
AcDbEntity
  8
0
100
AcDbCircle
 10
187.4581092818591
 20
171.0921295768588
 30
0.0
 40
10.0
100
AcDbArc
 50
90.0
 51
112.3316420000002
  0
LINE
  5
810
330
2
100
AcDbEntity
  8
0
100
AcDbLine
 10
170.057444281859
 20
154.0921295768588
 30
0.0
 11
170.057444281859
 21
127.0921295768587
 31
0.0
  0
LINE
  5
811
330
2
100
AcDbEntity
  8
0
100
AcDbLine
 10
165.057444281859
 20
129.9205595768587
 30
0.0
 11
165.057444281859
 21
151.2636995768588
 31
0.0
  0
LINE
  5
812
330
2
100
AcDbEntity
  8
0
100
AcDbLine
 10
160.557444281859
 20
166.2825895768588
 30
0.0
 11
160.557444281859
 21
114.9016695768587
 31
0.0
  0
ARC
  5
813
330
2
100
AcDbEntity
  8
0
100
AcDbCircle
 10
163.0574442818589
 20
129.9205595768587
 30
0.0
 40
2.0
100
AcDbArc
 50
314.9999999999997
 51
0.0
  0
ARC
  5
814
330
2
100
AcDbEntity
  8
0
100
AcDbCircle
 10
172.692530281859
 20
122.0921295768587
 30
0.0
 40
2.0
100
AcDbArc
 50
194.4775090000003
 51
270.0
  0
ARC
  5
815
330
2
100
AcDbEntity
  8
0
100
AcDbCircle
 10
172.283717281859
 20
124.0921295768587
 30
0.0
 40
2.0
100
AcDbArc
 50
188.6269229999999
 51
270.0
  0
LINE
  5
816
330
2
100
AcDbEntity
  8
0
100
AcDbLine
 10
165.5574442818591
 20
118.8921475768587
 30
0.0
 11
167.057444281859
 21
118.0261195768588
 31
0.0
  0
LINE
  5
817
330
2
100
AcDbEntity
  8
0
100
AcDbLine
 10
165.5574442818591
 20
118.8921475768587
 30
0.0
 11
164.0574442818589
 21
118.0261195768588
 31
0.0
  0
CIRCLE
  5
819
330
2
100
AcDbEntity
  8
0
100
AcDbCircle
 10
165.5574442818591
 20
117.0921295768587
 30
0.0
 40
3.5
  0
CIRCLE
  5
81A
330
2
100
AcDbEntity
  8
0
100
AcDbCircle
 10
165.5574442818591
 20
117.0921295768587
 30
0.0
 40
3.799999999999998
  0
ARC
  5
81B
330
2
100
AcDbEntity
  8
0
100
AcDbCircle
 10
165.5574442818591
 20
117.0921295768587
 30
0.0
 40
4.5
100
AcDbArc
 50
270.0
 51
90.0
  0
LINE
  5
81D
330
2
100
AcDbEntity
  8
0
100
AcDbLine
 10
163.0574442818589
 20
112.5921295768587
 30
0.0
 11
165.5574442818591
 21
112.5921295768587
 31
0.0
  0
ARC
  5
81E
330
2
100
AcDbEntity
  8
0
100
AcDbCircle
 10
163.0574442818589
 20
110.5921295768587
 30
0.0
 40
2.0
100
AcDbArc
 50
90.0
 51
180.0
  0
LINE
  5
81F
330
2
100
AcDbEntity
  8
0
100
AcDbLine
 10
160.557444281859
 20
114.9016695768587
 30
0.0
 11
161.057444281859
 21
114.9016695768587
 31
0.0
  0
LINE
  5
820
330
2
100
AcDbEntity
  8
0
100
AcDbLine
 10
165.5574442818591
 20
115.2921415768587
 30
0.0
 11
167.057444281859
 21
116.1581695768587
 31
0.0
  0
LINE
  5
821
330
2
100
AcDbEntity
  8
0
100
AcDbLine
 10
167.057444281859
 20
118.0261195768588
 30
0.0
 11
167.057444281859
 21
116.1581695768587
 31
0.0
  0
LINE
  5
822
330
2
100
AcDbEntity
  8
0
100
AcDbLine
 10
164.0574442818589
 20
118.0261195768588
 30
0.0
 11
164.0574442818589
 21
116.1581695768587
 31
0.0
  0
LINE
  5
823
330
2
100
AcDbEntity
  8
0
100
AcDbLine
 10
165.5574442818591
 20
115.2921415768587
 30
0.0
 11
164.0574442818589
 21
116.1581695768587
 31
0.0
  0
LINE
  5
824
330
2
100
AcDbEntity
  8
0
100
AcDbLine
 10
163.0574442818589
 20
121.5921295768587
 30
0.0
 11
165.5574442818591
 21
121.5921295768587
 31
0.0
  0
LINE
  5
825
330
2
100
AcDbEntity
  8
0
100
AcDbLine
 10
164.4716592818589
 20
128.5063445768587
 30
0.0
 11
161.6432292818591
 21
125.6779145768587
 31
0.0
  0
ARC
  5
826
330
2
100
AcDbEntity
  8
0
100
AcDbCircle
 10
163.0574442818589
 20
123.5921295768587
 30
0.0
 40
2.0
100
AcDbArc
 50
180.0
 51
270.0
  0
ARC
  5
827
330
2
100
AcDbEntity
  8
0
100
AcDbCircle
 10
163.0574442818589
 20
124.2636995768587
 30
0.0
 40
2.0
100
AcDbArc
 50
134.9999999999996
 51
180.0
  0
ARC
  5
828
330
2
100
AcDbEntity
  8
0
100
AcDbCircle
 10
192.057444281859
 20
127.0921295768587
 30
0.0
 40
22.0
100
AcDbArc
 50
180.0
 51
194.4775090000003
  0
LINE
  5
829
330
2
100
AcDbEntity
  8
0
100
AcDbLine
 10
175.575953281859
 20
121.3937045768587
 30
0.0
 11
184.575953281859
 21
110.8937045768587
 31
0.0
  0
LINE
  5
82A
330
2
100
AcDbEntity
  8
0
100
AcDbLine
 10
174.656092281859
 20
119.3937045768587
 30
0.0
 11
182.575953281859
 21
110.1538665768587
 31
0.0
  0
LINE
  5
82B
330
2
100
AcDbEntity
  8
0
100
AcDbLine
 10
184.933207281859
 20
110.2860075768588
 30
0.0
 11
182.933207281859
 21
109.5461705768587
 31
0.0
  0
ARC
  5
82C
330
2
100
AcDbEntity
  8
0
100
AcDbCircle
 10
181.0574442818591
 20
108.8522915768587
 30
0.0
 40
2.0
100
AcDbArc
 50
0.0
 51
40.60129499999971
  0
ARC
  5
82D
330
2
100
AcDbEntity
  8
0
100
AcDbCircle
 10
183.0574442818591
 20
109.5921295768587
 30
0.0
 40
2.0
100
AcDbArc
 50
0.0
 51
40.60129499999971
  0
LINE
  5
82E
330
2
100
AcDbEntity
  8
0
100
AcDbLine
 10
173.1375682818591
 20
120.0921295768587
 30
0.0
 11
172.692530281859
 21
120.0921295768587
 31
0.0
  0
LINE
  5
82F
330
2
100
AcDbEntity
  8
0
100
AcDbLine
 10
174.0574442818591
 20
122.0921295768587
 30
0.0
 11
172.283717281859
 21
122.0921295768587
 31
0.0
  0
LINE
  5
830
330
2
100
AcDbEntity
  8
0
100
AcDbLine
 10
174.893153281859
 20
121.9091465768587
 30
0.0
 11
173.9732922818591
 21
119.9091465768587
 31
0.0
  0
ARC
  5
831
330
2
100
AcDbEntity
  8
0
100
AcDbCircle
 10
174.0574442818591
 20
120.0921295768587
 30
0.0
 40
2.0
100
AcDbArc
 50
40.60129499999971
 51
90.0
  0
ARC
  5
832
330
2
100
AcDbEntity
  8
0
100
AcDbCircle
 10
173.1375682818591
 20
118.0921295768587
 30
0.0
 40
2.0
100
AcDbArc
 50
40.60129499999971
 51
90.0
  0
ARC
  5
833
330
2
100
AcDbEntity
  8
0
100
AcDbCircle
 10
163.0574442818589
 20
170.5921295768588
 30
0.0
 40
2.0
100
AcDbArc
 50
180.0
 51
270.0
  0
LINE
  5
835
330
2
100
AcDbEntity
  8
0
100
AcDbLine
 10
175.575953281859
 20
159.7905545768588
 30
0.0
 11
184.575953281859
 21
170.2905545768587
 31
0.0
  0
LINE
  5
836
330
2
100
AcDbEntity
  8
0
100
AcDbLine
 10
174.656092281859
 20
161.7905545768588
 30
0.0
 11
182.575953281859
 21
171.0303925768588
 31
0.0
  0
LINE
  5
838
330
2
100
AcDbEntity
  8
0
100
AcDbLine
 10
161.057444281859
 20
174.0921295768588
 30
0.0
 11
161.057444281859
 21
156.9205595768588
 31
0.0
  0
ARC
  5
839
330
2
100
AcDbEntity
  8
0
100
AcDbCircle
 10
172.692530281859
 20
159.0921295768588
 30
0.0
 40
2.0
100
AcDbArc
 50
90.0
 51
165.5224909999996
  0
ARC
  5
83A
330
2
100
AcDbEntity
  8
0
100
AcDbCircle
 10
172.283717281859
 20
157.0921295768588
 30
0.0
 40
2.0
100
AcDbArc
 50
90.0
 51
171.3730769999999
  0
ARC
  5
83B
330
2
100
AcDbEntity
  8
0
100
AcDbCircle
 10
163.0574442818589
 20
157.5921295768588
 30
0.0
 40
2.0
100
AcDbArc
 50
90.0
 51
180.0
  0
ARC
  5
83C
330
2
100
AcDbEntity
  8
0
100
AcDbCircle
 10
192.057444281859
 20
154.0921295768588
 30
0.0
 40
22.0
100
AcDbArc
 50
165.5224909999996
 51
180.0
  0
LINE
  5
83D
330
2
100
AcDbEntity
  8
0
100
AcDbLine
 10
164.4716592818589
 20
152.6779145768587
 30
0.0
 11
161.6432292818591
 21
155.5063445768587
 31
0.0
  0
ARC
  5
83E
330
2
100
AcDbEntity
  8
0
100
AcDbCircle
 10
163.0574442818589
 20
156.9205595768588
 30
0.0
 40
2.0
100
AcDbArc
 50
180.0
 51
225.0000000000003
  0
ARC
  5
83F
330
2
100
AcDbEntity
  8
0
100
AcDbCircle
 10
163.0574442818589
 20
151.2636995768588
 30
0.0
 40
2.0
100
AcDbArc
 50
0.0
 51
45.00000000000028
  0
LINE
  5
841
330
2
100
AcDbEntity
  8
0
100
AcDbLine
 10
163.0574442818589
 20
159.5921295768588
 30
0.0
 11
165.5574442818591
 21
159.5921295768588
 31
0.0
  0
LINE
  5
842
330
2
100
AcDbEntity
  8
0
100
AcDbLine
 10
163.0574442818589
 20
168.5921295768588
 30
0.0
 11
165.5574442818591
 21
168.5921295768588
 31
0.0
  0
CIRCLE
  5
843
330
2
100
AcDbEntity
  8
0
100
AcDbCircle
 10
165.5574442818591
 20
164.0921295768588
 30
0.0
 40
3.5
  0
CIRCLE
  5
844
330
2
100
AcDbEntity
  8
0
100
AcDbCircle
 10
165.5574442818591
 20
164.0921295768588
 30
0.0
 40
3.799999999999998
  0
LINE
  5
845
330
2
100
AcDbEntity
  8
0
100
AcDbLine
 10
160.557444281859
 20
166.2825895768588
 30
0.0
 11
161.057444281859
 21
166.2825895768588
 31
0.0
  0
ARC
  5
846
330
2
100
AcDbEntity
  8
0
100
AcDbCircle
 10
165.5574442818591
 20
164.0921295768588
 30
0.0
 40
4.5
100
AcDbArc
 50
270.0
 51
90.0
  0
LINE
  5
847
330
2
100
AcDbEntity
  8
0
100
AcDbLine
 10
165.5574442818591
 20
162.2921115768588
 30
0.0
 11
167.057444281859
 21
163.1581395768588
 31
0.0
  0
LINE
  5
848
330
2
100
AcDbEntity
  8
0
100
AcDbLine
 10
165.5574442818591
 20
162.2921115768588
 30
0.0
 11
164.0574442818589
 21
163.1581395768588
 31
0.0
  0
LINE
  5
849
330
2
100
AcDbEntity
  8
0
100
AcDbLine
 10
165.5574442818591
 20
165.8921175768587
 30
0.0
 11
164.0574442818589
 21
165.0260895768588
 31
0.0
  0
LINE
  5
84A
330
2
100
AcDbEntity
  8
0
100
AcDbLine
 10
165.5574442818591
 20
165.8921175768587
 30
0.0
 11
167.057444281859
 21
165.0260895768588
 31
0.0
  0
LINE
  5
84B
330
2
100
AcDbEntity
  8
0
100
AcDbLine
 10
164.0574442818589
 20
163.1581395768588
 30
0.0
 11
164.0574442818589
 21
165.0260895768588
 31
0.0
  0
LINE
  5
84C
330
2
100
AcDbEntity
  8
0
100
AcDbLine
 10
167.057444281859
 20
163.1581395768588
 30
0.0
 11
167.057444281859
 21
165.0260895768588
 31
0.0
  0
ARC
  5
84D
330
2
100
AcDbEntity
  8
0
100
AcDbCircle
 10
174.0574442818591
 20
161.0921295768588
 30
0.0
 40
2.0
100
AcDbArc
 50
270.0
 51
319.3987050000003
  0
LINE
  5
84E
330
2
100
AcDbEntity
  8
0
100
AcDbLine
 10
173.1375682818591
 20
161.0921295768588
 30
0.0
 11
172.692530281859
 21
161.0921295768588
 31
0.0
  0
LINE
  5
84F
330
2
100
AcDbEntity
  8
0
100
AcDbLine
 10
174.0574442818591
 20
159.0921295768588
 30
0.0
 11
172.283717281859
 21
159.0921295768588
 31
0.0
  0
LINE
  5
850
330
2
100
AcDbEntity
  8
0
100
AcDbLine
 10
174.893153281859
 20
159.2751125768588
 30
0.0
 11
173.9732922818591
 21
161.2751125768588
 31
0.0
  0
ARC
  5
851
330
2
100
AcDbEntity
  8
0
100
AcDbCircle
 10
173.1375682818591
 20
163.0921295768588
 30
0.0
 40
2.0
100
AcDbArc
 50
270.0
 51
319.3987050000003
  0
CIRCLE
  5
852
330
2
100
AcDbEntity
  8
HOJO
100
AcDbCircle
 10
168.0574442818589
 20
174.0921295768588
 30
0.0
 40
4.0
  0
CIRCLE
  5
853
330
2
100
AcDbEntity
  8
0
100
AcDbCircle
 10
168.0574442818589
 20
174.0921295768588
 30
0.0
 40
4.25
  0
CIRCLE
  5
854
330
2
100
AcDbEntity
  8
0
100
AcDbCircle
 10
168.0574442818589
 20
174.0921295768588
 30
0.0
 40
3.399999999999999
  0
ARC
  5
855
330
2
100
AcDbEntity
  8
0
100
AcDbCircle
 10
168.0574442818589
 20
174.0921295768588
 30
0.0
 40
7.0
100
AcDbArc
 50
47.3640670000003
 51
180.0
  0
LINE
  5
857
330
2
100
AcDbEntity
  8
0
100
AcDbLine
 10
160.3938242818589
 20
178.7168245768588
 30
0.0
 11
165.6244612818589
 21
180.6556975768588
 31
0.0
  0
ARC
  5
858
330
2
100
AcDbEntity
  8
0
100
AcDbCircle
 10
159.6986952818591
 20
180.5921295768588
 30
0.0
 40
2.0
100
AcDbArc
 50
270.0
 51
290.3387299999998
  0
ARC
  5
859
330
2
100
AcDbEntity
  8
0
100
AcDbCircle
 10
176.862833281859
 20
183.6558805768586
 30
0.0
 40
6.0
100
AcDbArc
 50
227.364075
 51
300.3583030000003
  0
ARC
  5
85A
330
2
100
AcDbEntity
  8
0
100
AcDbCircle
 10
195.057444281859
 20
152.5921295768588
 30
0.0
 40
30.0
100
AcDbArc
 50
112.3316420000002
 51
120.3582990000006
  0
ARC
  5
85B
330
2
100
AcDbEntity
  8
0
100
AcDbCircle
 10
185.057444281859
 20
172.8271145768588
 30
0.0
 40
2.0
100
AcDbArc
 50
110.4873119999995
 51
180.0
  0
LINE
  5
85C
330
2
100
AcDbEntity
  8
0
100
AcDbLine
 10
184.933207281859
 20
170.8982515768588
 30
0.0
 11
182.933207281859
 21
171.6380885768588
 31
0.0
  0
ARC
  5
85D
330
2
100
AcDbEntity
  8
0
100
AcDbCircle
 10
181.0574442818591
 20
172.3319675768586
 30
0.0
 40
2.0
100
AcDbArc
 50
319.3987050000003
 51
0.0
  0
ARC
  5
85E
330
2
100
AcDbEntity
  8
0
100
AcDbCircle
 10
183.0574442818591
 20
171.5921295768588
 30
0.0
 40
2.0
100
AcDbArc
 50
319.3987050000003
 51
0.0
  0
LINE
  5
85F
330
2
100
AcDbEntity
  8
0
100
AcDbLine
 10
185.057444281859
 20
171.5921295768588
 30
0.0
 11
185.057444281859
 21
173.4570585768588
 31
0.0
  0
LINE
  5
860
330
2
100
AcDbEntity
  8
0
100
AcDbLine
 10
183.0574442818591
 20
172.3319675768586
 30
0.0
 11
183.0574442818591
 21
172.8271145768588
 31
0.0
  0
CIRCLE
  5
861
330
2
100
AcDbEntity
  8
0
100
AcDbCircle
 10
222.0574442818591
 20
140.5921295768587
 30
0.0
 40
23.0
  0
CIRCLE
  5
862
330
2
100
AcDbEntity
  8
0
100
AcDbCircle
 10
222.0574442818591
 20
140.5921295768587
 30
0.0
 40
15.0
  0
CIRCLE
  5
863
330
2
100
AcDbEntity
  8
0
100
AcDbCircle
 10
222.0574442818591
 20
140.5921295768587
 30
0.0
 40
19.0
  0
LINE
  5
865
330
2
100
AcDbEntity
  8
0
100
AcDbLine
 10
237.1816812818591
 20
110.2860075768588
 30
0.0
 11
239.1816812818591
 21
109.5461705768587
 31
0.0
  0
ARC
  5
866
330
2
100
AcDbEntity
  8
0
100
AcDbCircle
 10
239.0574442818591
 20
109.5921295768587
 30
0.0
 40
2.0
100
AcDbArc
 50
139.3987120000005
 51
180.0
  0
ARC
  5
867
330
2
100
AcDbEntity
  8
0
100
AcDbCircle
 10
241.0574442818591
 20
108.8522915768587
 30
0.0
 40
2.0
100
AcDbArc
 50
139.3987120000005
 51
180.0
  0
LINE
  5
868
330
2
100
AcDbEntity
  8
0
100
AcDbLine
 10
230.0574442818589
 20
176.0921295768588
 30
0.0
 11
192.057444281859
 21
176.0921295768588
 31
0.0
  0
ARC
  5
869
330
2
100
AcDbEntity
  8
0
100
AcDbCircle
 10
230.0574442818589
 20
154.0921295768588
 30
0.0
 40
22.0
100
AcDbArc
 50
69.51268800000041
 51
90.0
  0
ARC
  5
86A
330
2
100
AcDbEntity
  8
0
100
AcDbCircle
 10
227.057444281859
 20
152.5921295768588
 30
0.0
 40
30.0
100
AcDbArc
 50
59.64169699999963
 51
67.66835799999966
  0
ARC
  5
86B
330
2
100
AcDbEntity
  8
0
100
AcDbCircle
 10
237.0574442818591
 20
172.8271145768588
 30
0.0
 40
2.0
100
AcDbArc
 50
0.0
 51
69.51268800000041
  0
LINE
  5
86C
330
2
100
AcDbEntity
  8
0
100
AcDbLine
 10
237.1816812818591
 20
170.8982515768588
 30
0.0
 11
239.1816812818591
 21
171.6380885768588
 31
0.0
  0
ARC
  5
86D
330
2
100
AcDbEntity
  8
0
100
AcDbCircle
 10
235.0574442818591
 20
173.4570585768588
 30
0.0
 40
2.0
100
AcDbArc
 50
0.0
 51
75.52249100000008
  0
ARC
  5
86E
330
2
100
AcDbEntity
  8
0
100
AcDbCircle
 10
239.0574442818591
 20
171.5921295768588
 30
0.0
 40
2.0
100
AcDbArc
 50
180.0
 51
220.6012879999994
  0
LINE
  5
86F
330
2
100
AcDbEntity
  8
0
100
AcDbLine
 10
237.0574442818591
 20
171.5921295768588
 30
0.0
 11
237.0574442818591
 21
173.4570585768588
 31
0.0
  0
ARC
  5
870
330
2
100
AcDbEntity
  8
0
100
AcDbCircle
 10
241.0574442818591
 20
172.3319675768586
 30
0.0
 40
2.0
100
AcDbArc
 50
180.0
 51
220.6012879999994
  0
LINE
  5
871
330
2
100
AcDbEntity
  8
0
100
AcDbLine
 10
239.0574442818591
 20
172.3319675768586
 30
0.0
 11
239.0574442818591
 21
172.8271145768588
 31
0.0
  0
ARC
  5
872
330
2
100
AcDbEntity
  8
0
100
AcDbCircle
 10
234.6567792818591
 20
171.0921295768588
 30
0.0
 40
10.0
100
AcDbArc
 50
67.66835799999966
 51
90.0
  0
LINE
  5
873
330
2
100
AcDbEntity
  8
0
100
AcDbLine
 10
252.057444281859
 20
154.0921295768588
 30
0.0
 11
252.057444281859
 21
127.0921295768587
 31
0.0
  0
LINE
  5
874
330
2
100
AcDbEntity
  8
0
100
AcDbLine
 10
257.057444281859
 20
129.9205595768587
 30
0.0
 11
257.057444281859
 21
151.2636995768588
 31
0.0
  0
ARC
  5
875
330
2
100
AcDbEntity
  8
0
100
AcDbCircle
 10
259.057444281859
 20
129.9205595768587
 30
0.0
 40
2.0
100
AcDbArc
 50
180.0
 51
225.0000000000003
  0
ARC
  5
876
330
2
100
AcDbEntity
  8
0
100
AcDbCircle
 10
259.057444281859
 20
123.5921295768587
 30
0.0
 40
2.0
100
AcDbArc
 50
270.0
 51
0.0
  0
ARC
  5
877
330
2
100
AcDbEntity
  8
0
100
AcDbCircle
 10
259.057444281859
 20
110.5921295768587
 30
0.0
 40
2.0
100
AcDbArc
 50
0.0
 51
90.0
  0
ARC
  5
879
330
2
100
AcDbEntity
  8
0
100
AcDbCircle
 10
256.557444281859
 20
117.0921295768587
 30
0.0
 40
4.5
100
AcDbArc
 50
90.0
 51
270.0
  0
LINE
  5
87B
330
2
100
AcDbEntity
  8
0
100
AcDbLine
 10
256.557444281859
 20
118.8921475768587
 30
0.0
 11
255.0574442818589
 21
118.0261195768588
 31
0.0
  0
LINE
  5
87C
330
2
100
AcDbEntity
  8
0
100
AcDbLine
 10
256.557444281859
 20
118.8921475768587
 30
0.0
 11
258.0574442818591
 21
118.0261195768588
 31
0.0
  0
CIRCLE
  5
87D
330
2
100
AcDbEntity
  8
0
100
AcDbCircle
 10
256.557444281859
 20
117.0921295768587
 30
0.0
 40
3.5
  0
CIRCLE
  5
87E
330
2
100
AcDbEntity
  8
0
100
AcDbCircle
 10
256.557444281859
 20
117.0921295768587
 30
0.0
 40
3.799999999999998
  0
LINE
  5
87F
330
2
100
AcDbEntity
  8
0
100
AcDbLine
 10
259.057444281859
 20
112.5921295768587
 30
0.0
 11
256.557444281859
 21
112.5921295768587
 31
0.0
  0
LINE
  5
880
330
2
100
AcDbEntity
  8
0
100
AcDbLine
 10
256.557444281859
 20
115.2921415768587
 30
0.0
 11
258.0574442818591
 21
116.1581695768587
 31
0.0
  0
LINE
  5
881
330
2
100
AcDbEntity
  8
0
100
AcDbLine
 10
256.557444281859
 20
115.2921415768587
 30
0.0
 11
255.0574442818589
 21
116.1581695768587
 31
0.0
  0
LINE
  5
882
330
2
100
AcDbEntity
  8
0
100
AcDbLine
 10
258.0574442818591
 20
118.0261195768588
 30
0.0
 11
258.0574442818591
 21
116.1581695768587
 31
0.0
  0
LINE
  5
883
330
2
100
AcDbEntity
  8
0
100
AcDbLine
 10
255.0574442818589
 20
118.0261195768588
 30
0.0
 11
255.0574442818589
 21
116.1581695768587
 31
0.0
  0
ARC
  5
884
330
2
100
AcDbEntity
  8
0
100
AcDbCircle
 10
230.0574442818589
 20
127.0921295768587
 30
0.0
 40
22.0
100
AcDbArc
 50
345.5224880000002
 51
0.0
  0
ARC
  5
885
330
2
100
AcDbEntity
  8
0
100
AcDbCircle
 10
249.422373281859
 20
122.0921295768587
 30
0.0
 40
2.0
100
AcDbArc
 50
270.0
 51
345.5224909999996
  0
ARC
  5
886
330
2
100
AcDbEntity
  8
0
100
AcDbCircle
 10
249.8311562818591
 20
124.0921295768587
 30
0.0
 40
2.0
100
AcDbArc
 50
270.0
 51
351.373077
  0
LINE
  5
887
330
2
100
AcDbEntity
  8
0
100
AcDbLine
 10
248.9773052818589
 20
120.0921295768587
 30
0.0
 11
249.422373281859
 21
120.0921295768587
 31
0.0
  0
LINE
  5
888
330
2
100
AcDbEntity
  8
0
100
AcDbLine
 10
248.057444281859
 20
122.0921295768587
 30
0.0
 11
249.8311562818591
 21
122.0921295768587
 31
0.0
  0
LINE
  5
889
330
2
100
AcDbEntity
  8
0
100
AcDbLine
 10
247.221720281859
 20
121.9091465768587
 30
0.0
 11
248.141611281859
 21
119.9091465768587
 31
0.0
  0
ARC
  5
88A
330
2
100
AcDbEntity
  8
0
100
AcDbCircle
 10
248.057444281859
 20
120.0921295768587
 30
0.0
 40
2.0
100
AcDbArc
 50
90.0
 51
139.3987120000005
  0
ARC
  5
88B
330
2
100
AcDbEntity
  8
0
100
AcDbCircle
 10
248.9773052818589
 20
118.0921295768587
 30
0.0
 40
2.0
100
AcDbArc
 50
90.0
 51
139.3987120000005
  0
LINE
  5
88C
330
2
100
AcDbEntity
  8
0
100
AcDbLine
 10
259.057444281859
 20
121.5921295768587
 30
0.0
 11
256.557444281859
 21
121.5921295768587
 31
0.0
  0
ARC
  5
88D
330
2
100
AcDbEntity
  8
0
100
AcDbCircle
 10
259.057444281859
 20
124.2636995768587
 30
0.0
 40
2.0
100
AcDbArc
 50
0.0
 51
45.00000000000028
  0
LINE
  5
88E
330
2
100
AcDbEntity
  8
0
100
AcDbLine
 10
257.643229281859
 20
128.5063445768587
 30
0.0
 11
260.471659281859
 21
125.6779145768587
 31
0.0
  0
ARC
  5
88F
330
2
100
AcDbEntity
  8
0
100
AcDbCircle
 10
259.057444281859
 20
170.5921295768588
 30
0.0
 40
2.0
100
AcDbArc
 50
270.0
 51
0.0
  0
ARC
  5
892
330
2
100
AcDbEntity
  8
0
100
AcDbCircle
 10
259.057444281859
 20
157.5921295768588
 30
0.0
 40
2.0
100
AcDbArc
 50
0.0
 51
90.0
  0
ARC
  5
894
330
2
100
AcDbEntity
  8
0
100
AcDbCircle
 10
230.0574442818589
 20
154.0921295768588
 30
0.0
 40
22.0
100
AcDbArc
 50
0.0
 51
14.47751199999975
  0
ARC
  5
895
330
2
100
AcDbEntity
  8
0
100
AcDbCircle
 10
249.8311562818591
 20
157.0921295768588
 30
0.0
 40
2.0
100
AcDbArc
 50
8.626927000000625
 51
90.0
  0
ARC
  5
896
330
2
100
AcDbEntity
  8
0
100
AcDbCircle
 10
248.057444281859
 20
161.0921295768588
 30
0.0
 40
2.0
100
AcDbArc
 50
220.6012879999994
 51
270.0
  0
ARC
  5
897
330
2
100
AcDbEntity
  8
0
100
AcDbCircle
 10
259.057444281859
 20
151.2636995768588
 30
0.0
 40
2.0
100
AcDbArc
 50
134.9999999999996
 51
180.0
  0
ARC
  5
898
330
2
100
AcDbEntity
  8
0
100
AcDbCircle
 10
259.057444281859
 20
156.9205595768588
 30
0.0
 40
2.0
100
AcDbArc
 50
314.9999999999997
 51
0.0
  0
LINE
  5
899
330
2
100
AcDbEntity
  8
0
100
AcDbLine
 10
257.643229281859
 20
152.6779145768587
 30
0.0
 11
260.471659281859
 21
155.5063445768587
 31
0.0
  0
ARC
  5
89A
330
2
100
AcDbEntity
  8
0
100
AcDbCircle
 10
256.557444281859
 20
164.0921295768588
 30
0.0
 40
4.5
100
AcDbArc
 50
90.0
 51
270.0
  0
CIRCLE
  5
89B
330
2
100
AcDbEntity
  8
0
100
AcDbCircle
 10
256.557444281859
 20
164.0921295768588
 30
0.0
 40
3.5
  0
CIRCLE
  5
89C
330
2
100
AcDbEntity
  8
0
100
AcDbCircle
 10
256.557444281859
 20
164.0921295768588
 30
0.0
 40
3.799999999999998
  0
ARC
  5
89D
330
2
100
AcDbEntity
  8
0
100
AcDbCircle
 10
249.422373281859
 20
159.0921295768588
 30
0.0
 40
2.0
100
AcDbArc
 50
14.47751199999975
 51
90.0
  0
LINE
  5
89E
330
2
100
AcDbEntity
  8
0
100
AcDbLine
 10
248.9773052818589
 20
161.0921295768588
 30
0.0
 11
249.422373281859
 21
161.0921295768588
 31
0.0
  0
LINE
  5
89F
330
2
100
AcDbEntity
  8
0
100
AcDbLine
 10
248.057444281859
 20
159.0921295768588
 30
0.0
 11
249.8311562818591
 21
159.0921295768588
 31
0.0
  0
LINE
  5
8A0
330
2
100
AcDbEntity
  8
0
100
AcDbLine
 10
247.221720281859
 20
159.2751125768588
 30
0.0
 11
248.141611281859
 21
161.2751125768588
 31
0.0
  0
ARC
  5
8A1
330
2
100
AcDbEntity
  8
0
100
AcDbCircle
 10
248.9773052818589
 20
163.0921295768588
 30
0.0
 40
2.0
100
AcDbArc
 50
220.6012879999994
 51
270.0
  0
LINE
  5
8A2
330
2
100
AcDbEntity
  8
0
100
AcDbLine
 10
259.057444281859
 20
159.5921295768588
 30
0.0
 11
256.557444281859
 21
159.5921295768588
 31
0.0
  0
LINE
  5
8A3
330
2
100
AcDbEntity
  8
0
100
AcDbLine
 10
259.057444281859
 20
168.5921295768588
 30
0.0
 11
256.557444281859
 21
168.5921295768588
 31
0.0
  0
LINE
  5
8A4
330
2
100
AcDbEntity
  8
0
100
AcDbLine
 10
256.557444281859
 20
162.2921115768588
 30
0.0
 11
255.0574442818589
 21
163.1581395768588
 31
0.0
  0
LINE
  5
8A5
330
2
100
AcDbEntity
  8
0
100
AcDbLine
 10
256.557444281859
 20
162.2921115768588
 30
0.0
 11
258.0574442818591
 21
163.1581395768588
 31
0.0
  0
LINE
  5
8A6
330
2
100
AcDbEntity
  8
0
100
AcDbLine
 10
256.557444281859
 20
165.8921175768587
 30
0.0
 11
258.0574442818591
 21
165.0260895768588
 31
0.0
  0
LINE
  5
8A7
330
2
100
AcDbEntity
  8
0
100
AcDbLine
 10
256.557444281859
 20
165.8921175768587
 30
0.0
 11
255.0574442818589
 21
165.0260895768588
 31
0.0
  0
LINE
  5
8A8
330
2
100
AcDbEntity
  8
0
100
AcDbLine
 10
258.0574442818591
 20
163.1581395768588
 30
0.0
 11
258.0574442818591
 21
165.0260895768588
 31
0.0
  0
LINE
  5
8A9
330
2
100
AcDbEntity
  8
0
100
AcDbLine
 10
255.0574442818589
 20
163.1581395768588
 30
0.0
 11
255.0574442818589
 21
165.0260895768588
 31
0.0
  0
ARC
  5
8AA
330
2
100
AcDbEntity
  8
0
100
AcDbCircle
 10
254.0574442818591
 20
174.0921295768588
 30
0.0
 40
7.0
100
AcDbArc
 50
0.0
 51
132.6359249999995
  0
CIRCLE
  5
8AC
330
2
100
AcDbEntity
  8
HOJO
100
AcDbCircle
 10
254.0574442818591
 20
174.0921295768588
 30
0.0
 40
4.0
  0
CIRCLE
  5
8AD
330
2
100
AcDbEntity
  8
0
100
AcDbCircle
 10
254.0574442818591
 20
174.0921295768588
 30
0.0
 40
4.25
  0
CIRCLE
  5
8AE
330
2
100
AcDbEntity
  8
0
100
AcDbCircle
 10
254.0574442818591
 20
174.0921295768588
 30
0.0
 40
3.399999999999999
  0
LINE
  5
8AF
330
2
100
AcDbEntity
  8
HIDS
100
AcDbLine
 10
330.8265968717435
 20
162.1606715768588
 30
0.0
 11
330.8265968717435
 21
117.5921295768587
 31
0.0
  0
LINE
  5
8B0
330
2
100
AcDbEntity
  8
0
100
AcDbLine
 10
363.4936808717434
 20
149.7659885768588
 30
0.0
 11
363.4936808717434
 21
131.4182705768587
 31
0.0
  0
LINE
  5
8B1
330
2
100
AcDbEntity
  8
0
100
AcDbLine
 10
365.8265968717434
 20
127.4589815768587
 30
0.0
 11
365.8265968717434
 21
153.7252775768588
 31
0.0
  0
LINE
  5
8B2
330
2
100
AcDbEntity
  8
0
100
AcDbLine
 10
375.8265968717434
 20
153.5070775768588
 30
0.0
 11
375.8265968717434
 21
127.6771815768587
 31
0.0
  0
ARC
  5
8B3
330
2
100
AcDbEntity
  8
HIDS
100
AcDbCircle
 10
370.8265968717434
 20
140.5921295768587
 30
0.0
 40
38.0
100
AcDbArc
 50
129.3567050000003
 51
230.6432949999995
  0
LINE
  5
8B5
330
2
100
AcDbEntity
  8
HOJO
100
AcDbLine
 10
342.8265968717435
 20
111.0921295768587
 30
0.0
 11
362.8265968717434
 21
111.0921295768587
 31
0.0
  0
LINE
  5
8B6
330
2
100
AcDbEntity
  8
0
100
AcDbLine
 10
361.5285928717434
 20
129.4185765768587
 30
0.0
 11
342.8265968717435
 21
129.0921295768587
 31
0.0
  0
LINE
  5
8B7
330
2
100
AcDbEntity
  8
0
100
AcDbLine
 10
363.8615088717434
 20
125.4592865768587
 30
0.0
 11
342.8265968717435
 21
125.0921295768587
 31
0.0
  0
ARC
  5
8B8
330
2
100
AcDbEntity
  8
HIDS
100
AcDbCircle
 10
344.8265968717434
 20
108.8904085768587
 30
0.0
 40
3.0
100
AcDbArc
 50
0.0
 51
50.64329900000029
  0
LINE
  5
8BA
330
2
100
AcDbEntity
  8
0
100
AcDbLine
 10
330.3265968717435
 20
111.3421295768587
 30
0.0
 11
342.8265968717435
 21
111.3421295768587
 31
0.0
  0
ARC
  5
8BB
330
2
100
AcDbEntity
  8
HIDS
100
AcDbCircle
 10
333.8265968717434
 20
117.5921295768587
 30
0.0
 40
3.0
100
AcDbArc
 50
180.0
 51
270.0
  0
LINE
  5
8BC
330
2
100
AcDbEntity
  8
0
100
AcDbLine
 10
342.8265968717435
 20
125.0921295768587
 30
0.0
 11
330.3265968717435
 21
125.0921295768587
 31
0.0
  0
LINE
  5
8BD
330
2
100
AcDbEntity
  8
0
100
AcDbLine
 10
330.3265968717435
 20
121.7623265768587
 30
0.0
 11
336.8265968717435
 21
121.5921295768587
 31
0.0
  0
LINE
  5
8BE
330
2
100
AcDbEntity
  8
0
100
AcDbLine
 10
331.8265658717435
 20
120.5921295768587
 30
0.0
 11
335.8265658717435
 21
120.5921605768587
 31
0.0
  0
LINE
  5
8BF
330
2
100
AcDbEntity
  8
CENTER
100
AcDbLine
 10
329.8868998717434
 20
117.0921295768587
 30
0.0
 11
337.8716098717434
 21
117.0921295768587
 31
0.0
  0
LINE
  5
8C2
330
2
100
AcDbEntity
  8
0
100
AcDbLine
 10
331.8265658717435
 20
115.0189793167432
 30
0.0
 11
331.8265658717435
 21
120.5921295768587
 31
0.0
  0
LINE
  5
8C3
330
2
100
AcDbEntity
  8
0
100
AcDbLine
 10
336.8265968717435
 20
115.4062748981957
 30
0.0
 11
336.8265968717435
 21
121.5921295768587
 31
0.0
  0
LINE
  5
8C4
330
2
100
AcDbEntity
  8
0
100
AcDbLine
 10
335.8265658717435
 20
115.2669903891719
 30
0.0
 11
335.8265658717435
 21
120.8921175768588
 31
0.0
  0
LINE
  5
8C7
330
2
100
AcDbEntity
  8
HIDS
100
AcDbLine
 10
333.8265968717434
 20
114.5921295768587
 30
0.0
 11
337.4296238717434
 21
114.5921295768587
 31
0.0
  0
LINE
  5
8CA
330
2
100
AcDbEntity
  8
0
100
AcDbLine
 10
335.8265658717435
 20
120.8921175768588
 30
0.0
 11
336.8265968717435
 21
120.8921175768588
 31
0.0
  0
LINE
  5
8CB
330
2
100
AcDbEntity
  8
0
100
AcDbLine
 10
342.8265968717435
 20
129.0921295768587
 30
0.0
 11
330.3265968717435
 21
129.0921295768587
 31
0.0
  0
LINE
  5
8CC
330
2
100
AcDbEntity
  8
0
100
AcDbLine
 10
365.3977328717434
 20
126.2214325768587
 30
0.0
 11
363.0648168717434
 21
130.1807225768587
 31
0.0
  0
ARC
  5
8D3
330
2
100
AcDbEntity
  8
0
100
AcDbCircle
 10
363.8265968717434
 20
127.4589815768587
 30
0.0
 40
2.0
100
AcDbArc
 50
271.0
 51
0.0
  0
ARC
  5
8D4
330
2
100
AcDbEntity
  8
0
100
AcDbCircle
 10
361.4936808717434
 20
131.4182705768587
 30
0.0
 40
2.0
100
AcDbArc
 50
271.0
 51
0.0
  0
LINE
  5
8D6
330
2
100
AcDbEntity
  8
HIDS
100
AcDbLine
 10
342.8265968717435
 20
170.0921295768588
 30
0.0
 11
362.8265968717434
 21
170.0921295768588
 31
0.0
  0
LINE
  5
8D7
330
2
100
AcDbEntity
  8
HIDS
100
AcDbLine
 10
342.8265968717435
 20
178.0921295768588
 30
0.0
 11
362.8265968717434
 21
178.0921295768588
 31
0.0
  0
ARC
  5
8D8
330
2
100
AcDbEntity
  8
HIDS
100
AcDbCircle
 10
349.2580548717434
 20
175.5921295768588
 30
0.0
 40
5.0
100
AcDbArc
 50
90.0
 51
134.9999999999996
  0
LINE
  5
8D9
330
2
100
AcDbEntity
  8
0
100
AcDbLine
 10
361.5285928717434
 20
151.7656825768588
 30
0.0
 11
342.8265968717435
 21
152.0921295768587
 31
0.0
  0
LINE
  5
8DA
330
2
100
AcDbEntity
  8
0
100
AcDbLine
 10
363.8615088717434
 20
155.7249725768588
 30
0.0
 11
342.8265968717435
 21
156.0921295768588
 31
0.0
  0
ARC
  5
8DB
330
2
100
AcDbEntity
  8
HIDS
100
AcDbCircle
 10
344.8265968717434
 20
172.2938505768588
 30
0.0
 40
3.0
100
AcDbArc
 50
309.3567009999997
 51
0.0
  0
LINE
  5
8DC
330
2
100
AcDbEntity
  8
0
100
AcDbLine
 10
370.8265968717434
 20
181.0921295768588
 30
0.0
 11
330.3265968717435
 21
180.3851895768588
 31
0.0
  0
LINE
  5
8E1
330
2
100
AcDbEntity
  8
HIDS
100
AcDbLine
 10
332.2910748717434
 20
165.6961945768587
 30
0.0
 11
345.7225318717434
 21
179.1276515768588
 31
0.0
  0
ARC
  5
8E2
330
2
100
AcDbEntity
  8
HIDS
100
AcDbCircle
 10
335.8265968717434
 20
162.1606715768588
 30
0.0
 40
5.0
100
AcDbArc
 50
134.9999999999996
 51
180.0
  0
LINE
  5
8E3
330
2
100
AcDbEntity
  8
0
100
AcDbLine
 10
342.8265968717435
 20
152.0921295768587
 30
0.0
 11
330.3265968717435
 21
152.0921295768587
 31
0.0
  0
LINE
  5
8E4
330
2
100
AcDbEntity
  8
0
100
AcDbLine
 10
342.8265968717435
 20
156.0921295768588
 30
0.0
 11
330.3265968717435
 21
156.0921295768588
 31
0.0
  0
LINE
  5
8E5
330
2
100
AcDbEntity
  8
0
100
AcDbLine
 10
330.3265968717435
 20
159.4219325768588
 30
0.0
 11
336.8265968717435
 21
159.5921295768588
 31
0.0
  0
LINE
  5
8E6
330
2
100
AcDbEntity
  8
0
100
AcDbLine
 10
331.8265658717435
 20
160.5921295768588
 30
0.0
 11
335.8265658717435
 21
160.5920985768588
 31
0.0
  0
LINE
  5
8E7
330
2
100
AcDbEntity
  8
CENTER
100
AcDbLine
 10
329.8868998717434
 20
164.0921295768588
 30
0.0
 11
337.8716098717434
 21
164.0921295768588
 31
0.0
  0
LINE
  5
8E8
330
2
100
AcDbEntity
  8
0
100
AcDbLine
 10
330.3265968717435
 20
168.7623265768588
 30
0.0
 11
336.8265968717435
 21
168.5921295768588
 31
0.0
  0
LINE
  5
8E9
330
2
100
AcDbEntity
  8
0
100
AcDbLine
 10
331.8265658717435
 20
167.5921295768588
 30
0.0
 11
335.8265658717435
 21
167.5921605768588
 31
0.0
  0
LINE
  5
8EA
330
2
100
AcDbEntity
  8
0
100
AcDbLine
 10
331.8265658717435
 20
167.5921295768588
 30
0.0
 11
331.8265658717435
 21
160.5921295768588
 31
0.0
  0
LINE
  5
8EB
330
2
100
AcDbEntity
  8
0
100
AcDbLine
 10
335.8265658717435
 20
160.2921415768587
 30
0.0
 11
336.8265968717435
 21
160.2921415768587
 31
0.0
  0
LINE
  5
8EC
330
2
100
AcDbEntity
  8
0
100
AcDbLine
 10
336.8265968717435
 20
168.5921295768588
 30
0.0
 11
336.8265968717435
 21
159.5921295768588
 31
0.0
  0
LINE
  5
8ED
330
2
100
AcDbEntity
  8
0
100
AcDbLine
 10
335.8265658717435
 20
167.8921175768588
 30
0.0
 11
336.8265968717435
 21
167.8921175768588
 31
0.0
  0
LINE
  5
8EE
330
2
100
AcDbEntity
  8
0
100
AcDbLine
 10
335.8265658717435
 20
167.8921175768588
 30
0.0
 11
335.8265658717435
 21
160.2921415768587
 31
0.0
  0
LINE
  5
8EF
330
2
100
AcDbEntity
  8
HIDS
100
AcDbLine
 10
330.3265968717435
 20
169.8421295768588
 30
0.0
 11
342.8265968717435
 21
169.8421295768588
 31
0.0
  0
LINE
  5
8F0
330
2
100
AcDbEntity
  8
HIDS
100
AcDbLine
 10
330.3265968717435
 20
178.3421295768588
 30
0.0
 11
342.8265968717435
 21
178.3421295768588
 31
0.0
  0
ARC
  5
8F3
330
2
100
AcDbEntity
  8
0
100
AcDbCircle
 10
361.4936808717434
 20
149.7659885768588
 30
0.0
 40
2.0
100
AcDbArc
 50
0.0
 51
88.99999999999987
  0
ARC
  5
8F6
330
2
100
AcDbEntity
  8
0
100
AcDbCircle
 10
363.8265968717434
 20
153.7252775768588
 30
0.0
 40
2.0
100
AcDbArc
 50
0.0
 51
88.99999999999987
  0
LINE
  5
8F7
330
2
100
AcDbEntity
  8
0
100
AcDbLine
 10
363.0648168717434
 20
151.0035365768588
 30
0.0
 11
365.3977328717434
 21
154.9628265768588
 31
0.0
  0
LINE
  5
8FA
330
2
100
AcDbEntity
  8
HIDS
100
AcDbLine
 10
349.7916848717435
 20
178.2249725768588
 30
0.0
 11
370.8265968717434
 21
178.5921295768588
 31
0.0
  0
LINE
  5
8FB
330
2
100
AcDbEntity
  8
HIDS
100
AcDbLine
 10
347.8265968717434
 20
176.2252775768588
 30
0.0
 11
347.8265968717434
 21
172.2938505768588
 31
0.0
  0
ARC
  5
8FC
330
2
100
AcDbEntity
  8
HIDS
100
AcDbCircle
 10
349.8265968717434
 20
176.2252775768588
 30
0.0
 40
2.0
100
AcDbArc
 50
91.00000000000013
 51
180.0
  0
LINE
  5
8FD
330
2
100
AcDbEntity
  8
HIDS
100
AcDbLine
 10
362.8265968717434
 20
178.0921295768588
 30
0.0
 11
362.8265968717434
 21
170.0921295768588
 31
0.0
  0
CIRCLE
  5
8FE
330
2
100
AcDbEntity
  8
HOJO
100
AcDbCircle
 10
617.9689412573455
 20
107.0921295768587
 30
0.0
 40
4.0
  0
CIRCLE
  5
8FF
330
2
100
AcDbEntity
  8
HOJO
100
AcDbCircle
 10
531.9689412573453
 20
107.0921295768587
 30
0.0
 40
4.0
  0
LINE
  5
900
330
2
100
AcDbEntity
  8
HOJO
100
AcDbLine
 10
378.8265968717434
 20
111.0921295768587
 30
0.0
 11
378.8265968717434
 21
103.0921295768587
 31
0.0
  0
CIRCLE
  5
901
330
2
100
AcDbEntity
  8
0
100
AcDbCircle
 10
531.9689412573453
 20
107.0921295768587
 30
0.0
 40
3.399999999999999
  0
CIRCLE
  5
902
330
2
100
AcDbEntity
  8
0
100
AcDbCircle
 10
617.9689412573455
 20
107.0921295768587
 30
0.0
 40
3.399999999999999
  0
LINE
  5
903
330
2
100
AcDbEntity
  8
HIDS
100
AcDbLine
 10
409.3621188717436
 20
115.4880645768587
 30
0.0
 11
395.9306618717434
 21
102.0565915768588
 31
0.0
  0
LINE
  5
904
330
2
100
AcDbEntity
  8
0
100
AcDbLine
 10
756.5244222573454
 20
175.5921295768588
 30
0.0
 11
756.5244222573454
 21
105.5921295768587
 31
0.0
  0
LINE
  5
905
330
2
100
AcDbEntity
  8
0
100
AcDbLine
 10
707.5244222573456
 20
100.5921295768587
 30
0.0
 11
707.5244222573456
 21
180.5921295768588
 31
0.0
  0
LINE
  5
906
330
2
100
AcDbEntity
  8
0
100
AcDbLine
 10
698.0244222573454
 20
178.5921295768588
 30
0.0
 11
698.0244222573454
 21
102.5921295768587
 31
0.0
  0
LINE
  5
907
330
2
100
AcDbEntity
  8
0
100
AcDbLine
 10
600.9689412573455
 20
109.5921295768587
 30
0.0
 11
600.9689412573455
 21
107.7272005768587
 31
0.0
  0
LINE
  5
908
330
2
100
AcDbEntity
  8
0
100
AcDbLine
 10
602.9689412573453
 20
108.8522915768587
 30
0.0
 11
602.9689412573453
 21
108.3571445768587
 31
0.0
  0
LINE
  5
909
330
2
100
AcDbEntity
  8
0
100
AcDbLine
 10
548.9689412573453
 20
109.5921295768587
 30
0.0
 11
548.9689412573453
 21
107.7272005768587
 31
0.0
  0
LINE
  5
90A
330
2
100
AcDbEntity
  8
0
100
AcDbLine
 10
546.9689412573455
 20
108.8522915768587
 30
0.0
 11
546.9689412573455
 21
108.3571445768587
 31
0.0
  0
LINE
  5
90B
330
2
100
AcDbEntity
  8
0
100
AcDbLine
 10
624.9689412573453
 20
124.2636995768587
 30
0.0
 11
624.9689412573453
 21
107.0921295768587
 31
0.0
  0
LINE
  5
90C
330
2
100
AcDbEntity
  8
0
100
AcDbLine
 10
524.9689412573453
 20
107.0921295768587
 30
0.0
 11
524.9689412573453
 21
174.0921295768588
 31
0.0
  0
LINE
  5
90F
330
2
100
AcDbEntity
  8
HIDS
100
AcDbLine
 10
393.8265968717434
 20
104.9589965768587
 30
0.0
 11
393.8265968717434
 21
108.8904085768587
 31
0.0
  0
LINE
  5
910
330
2
100
AcDbEntity
  8
0
100
AcDbLine
 10
411.3265968717434
 20
180.3851895768588
 30
0.0
 11
411.3265968717434
 21
100.7990535768587
 31
0.0
  0
ARC
  5
911
330
2
100
AcDbEntity
  8
0
100
AcDbCircle
 10
617.9689412573455
 20
107.0921295768587
 30
0.0
 40
7.0
100
AcDbArc
 50
227.364075
 51
0.0
  0
LINE
  5
913
330
2
100
AcDbEntity
  8
HOJO
100
AcDbLine
 10
378.8265968717434
 20
103.0921295768587
 30
0.0
 11
411.3265968717434
 21
103.0921295768587
 31
0.0
  0
ARC
  5
914
330
2
100
AcDbEntity
  8
HIDS
100
AcDbCircle
 10
391.8265968717434
 20
104.9589965768587
 30
0.0
 40
2.0
100
AcDbArc
 50
271.0
 51
0.0
  0
ARC
  5
915
330
2
100
AcDbEntity
  8
HIDS
100
AcDbCircle
 10
392.3951388717434
 20
105.5921295768587
 30
0.0
 40
5.0
100
AcDbArc
 50
270.0
 51
314.9999999999997
  0
LINE
  5
916
330
2
100
AcDbEntity
  8
0
100
AcDbLine
 10
555.9689412573455
 20
105.0921295768587
 30
0.0
 11
593.9689412573454
 21
105.0921295768587
 31
0.0
  0
LINE
  5
917
330
2
100
AcDbEntity
  8
0
100
AcDbLine
 10
617.9689412573455
 20
100.0921295768587
 30
0.0
 11
531.9689412573453
 21
100.0921295768587
 31
0.0
  0
ARC
  5
918
330
2
100
AcDbEntity
  8
0
100
AcDbCircle
 10
531.9689412573453
 20
107.0921295768587
 30
0.0
 40
7.0
100
AcDbArc
 50
180.0
 51
312.6359249999997
  0
ARC
  5
91A
330
2
100
AcDbEntity
  8
0
100
AcDbCircle
 10
540.7743002573453
 20
97.52839357685889
 30
0.0
 40
6.0
100
AcDbArc
 50
59.64169699999963
 51
132.6359249999995
  0
ARC
  5
91B
330
2
100
AcDbEntity
  8
0
100
AcDbCircle
 10
555.9689412573455
 20
127.0921295768587
 30
0.0
 40
22.0
100
AcDbArc
 50
249.5126880000004
 51
270.0
  0
ARC
  5
91C
330
2
100
AcDbEntity
  8
0
100
AcDbCircle
 10
551.3695762573453
 20
110.0921295768587
 30
0.0
 40
10.0
100
AcDbArc
 50
247.66835
 51
270.0
  0
ARC
  5
91D
330
2
100
AcDbEntity
  8
0
100
AcDbCircle
 10
548.9689412573453
 20
108.3571445768587
 30
0.0
 40
2.0
100
AcDbArc
 50
180.0
 51
249.51268
  0
ARC
  5
91E
330
2
100
AcDbEntity
  8
0
100
AcDbCircle
 10
550.9689412573455
 20
107.7272005768587
 30
0.0
 40
2.0
100
AcDbArc
 50
180.0
 51
255.5224910000001
  0
ARC
  5
91F
330
2
100
AcDbEntity
  8
0
100
AcDbCircle
 10
558.9689412573455
 20
128.5921295768587
 30
0.0
 40
30.0
100
AcDbArc
 50
239.6416929999996
 51
247.66835
  0
ARC
  5
920
330
2
100
AcDbEntity
  8
0
100
AcDbCircle
 10
590.9689412573453
 20
128.5921295768587
 30
0.0
 40
30.0
100
AcDbArc
 50
292.3316349999998
 51
300.3583070000003
  0
ARC
  5
921
330
2
100
AcDbEntity
  8
0
100
AcDbCircle
 10
593.9689412573454
 20
127.0921295768587
 30
0.0
 40
22.0
100
AcDbArc
 50
270.0
 51
290.4873049999998
  0
ARC
  5
922
330
2
100
AcDbEntity
  8
0
100
AcDbCircle
 10
600.9689412573455
 20
108.3571445768587
 30
0.0
 40
2.0
100
AcDbArc
 50
290.4873119999995
 51
0.0
  0
ARC
  5
923
330
2
100
AcDbEntity
  8
0
100
AcDbCircle
 10
598.9689412573453
 20
107.7272005768587
 30
0.0
 40
2.0
100
AcDbArc
 50
284.4775089999998
 51
0.0
  0
ARC
  5
924
330
2
100
AcDbEntity
  8
0
100
AcDbCircle
 10
598.5683062573455
 20
110.0921295768587
 30
0.0
 40
10.0
100
AcDbArc
 50
270.0
 51
292.3316349999998
  0
ARC
  5
925
330
2
100
AcDbEntity
  8
0
100
AcDbCircle
 10
609.1635822573455
 20
97.52839357685889
 30
0.0
 40
6.0
100
AcDbArc
 50
47.3640670000003
 51
120.3582990000006
  0
LINE
  5
926
330
2
100
AcDbEntity
  8
0
100
AcDbLine
 10
751.5244222573454
 20
100.5921295768587
 30
0.0
 11
707.5244222573456
 21
100.5921295768587
 31
0.0
  0
LINE
  5
927
330
2
100
AcDbEntity
  8
0
100
AcDbLine
 10
698.0244222573454
 20
102.5921295768587
 30
0.0
 11
626.3277062573457
 21
102.5921295768587
 31
0.0
  0
ARC
  5
928
330
2
100
AcDbEntity
  8
0
100
AcDbCircle
 10
626.3277062573457
 20
100.5921295768587
 30
0.0
 40
2.0
100
AcDbArc
 50
90.0
 51
110.3387299999997
  0
LINE
  5
929
330
2
100
AcDbEntity
  8
0
100
AcDbLine
 10
625.6325762573457
 20
102.4674345768587
 30
0.0
 11
620.4019242573456
 21
100.5285465768587
 31
0.0
  0
LINE
  5
92A
330
2
100
AcDbEntity
  8
0
100
AcDbLine
 10
707.5244222573456
 20
102.5921295768587
 30
0.0
 11
698.0244222573454
 21
102.5921295768587
 31
0.0
  0
ARC
  5
92B
330
2
100
AcDbEntity
  8
0
100
AcDbCircle
 10
751.5244222573454
 20
105.5921295768587
 30
0.0
 40
5.0
100
AcDbArc
 50
270.0
 51
0.0
  0
LINE
  5
92C
330
2
100
AcDbEntity
  8
HIDS
100
AcDbLine
 10
613.9689412573455
 20
336.2583364837171
 30
0.0
 11
621.9689412573455
 21
336.2583364837171
 31
0.0
  0
LINE
  5
92D
330
2
100
AcDbEntity
  8
HIDS
100
AcDbLine
 10
613.9689412573455
 20
352.2583364837172
 30
0.0
 11
621.9689412573455
 21
352.2583364837172
 31
0.0
  0
CIRCLE
  5
92E
330
2
100
AcDbEntity
  8
HOJO
100
AcDbCircle
 10
617.9689412573455
 20
174.0921295768588
 30
0.0
 40
4.0
  0
CIRCLE
  5
92F
330
2
100
AcDbEntity
  8
0
100
AcDbCircle
 10
617.9689412573455
 20
174.0921295768588
 30
0.0
 40
3.399999999999999
  0
LINE
  5
930
330
2
100
AcDbEntity
  8
0
100
AcDbLine
 10
525.6758502573453
 20
384.7583364837171
 30
0.0
 11
624.2620322573453
 21
384.7583364837171
 31
0.0
  0
LINE
  5
931
330
2
100
AcDbEntity
  8
0
100
AcDbLine
 10
625.9689412573455
 20
372.2583364837171
 30
0.0
 11
525.4577112573456
 21
372.2583364837171
 31
0.0
  0
LINE
  5
932
330
2
100
AcDbEntity
  8
0
100
AcDbLine
 10
624.2620322573453
 20
303.7583364837171
 30
0.0
 11
525.6758502573453
 21
303.7583364837171
 31
0.0
  0
ARC
  5
934
330
2
100
AcDbEntity
  8
0
100
AcDbCircle
 10
617.9689412573455
 20
174.0921295768588
 30
0.0
 40
7.0
100
AcDbArc
 50
0.0
 51
132.6359249999995
  0
LINE
  5
936
330
2
100
AcDbEntity
  8
CENTER
100
AcDbLine
 10
517.4281702573455
 20
140.5921295768587
 30
0.0
 11
765.0449522255796
 21
140.5921295768587
 31
0.0
  0
LINE
  5
937
330
2
100
AcDbEntity
  8
0
100
AcDbLine
 10
556.8978962573456
 20
275.7583364837171
 30
0.0
 11
556.8978962573456
 21
297.2583364837171
 31
0.0
  0
LINE
  5
938
330
2
100
AcDbEntity
  8
0
100
AcDbLine
 10
554.4689412573453
 20
275.7583364837171
 30
0.0
 11
554.4689412573453
 21
299.7583364837172
 31
0.0
  0
LINE
  5
939
330
2
100
AcDbEntity
  8
0
100
AcDbLine
 10
571.4689412573455
 20
302.7583364837171
 30
0.0
 11
571.4689412573455
 21
275.7583364837171
 31
0.0
  0
LINE
  5
93B
330
2
100
AcDbEntity
  8
0
100
AcDbLine
 10
439.3265968717434
 20
138.0921295768587
 30
0.0
 11
417.8265968717434
 21
138.0921295768587
 31
0.0
  0
LINE
  5
93C
330
2
100
AcDbEntity
  8
0
100
AcDbLine
 10
439.3265968717434
 20
143.0921295768588
 30
0.0
 11
417.8265968717434
 21
143.0921295768588
 31
0.0
  0
LINE
  5
93D
330
2
100
AcDbEntity
  8
0
100
AcDbLine
 10
439.3265968717434
 20
133.0921295768587
 30
0.0
 11
412.3265968717436
 21
133.0921295768587
 31
0.0
  0
LINE
  5
93E
330
2
100
AcDbEntity
  8
0
100
AcDbLine
 10
439.3265968717434
 20
148.0921295768588
 30
0.0
 11
412.3265968717436
 21
148.0921295768588
 31
0.0
  0
ARC
  5
93F
330
2
100
AcDbEntity
  8
0
100
AcDbCircle
 10
410.9246798717435
 20
147.1921355768588
 30
0.0
 40
2.0
100
AcDbArc
 50
60.00000000000041
 51
71.8051300000003
  0
LINE
  5
940
330
2
100
AcDbEntity
  8
HIDS
100
AcDbLine
 10
410.8265968717434
 20
163.5921295768588
 30
0.0
 11
410.8265968717434
 21
119.0235875768587
 31
0.0
  0
LINE
  5
941
330
2
100
AcDbEntity
  8
0
100
AcDbLine
 10
378.1595128717434
 20
149.5477875768588
 30
0.0
 11
378.1595128717434
 21
131.6364715768587
 31
0.0
  0
ARC
  5
942
330
2
100
AcDbEntity
  8
HIDS
100
AcDbCircle
 10
370.8265968717434
 20
140.5921295768587
 30
0.0
 40
38.0
100
AcDbArc
 50
309.3567009999997
 51
50.64329900000029
  0
LINE
  5
944
330
2
100
AcDbEntity
  8
HOJO
100
AcDbLine
 10
378.8265968717434
 20
111.0921295768587
 30
0.0
 11
411.3265968717434
 21
111.0921295768587
 31
0.0
  0
LINE
  5
945
330
2
100
AcDbEntity
  8
0
100
AcDbLine
 10
380.1246008717435
 20
129.6367765768587
 30
0.0
 11
411.3265968717434
 21
129.0921295768587
 31
0.0
  0
LINE
  5
946
330
2
100
AcDbEntity
  8
0
100
AcDbLine
 10
377.7916848717434
 20
125.6774875768587
 30
0.0
 11
411.3265968717434
 21
125.0921295768587
 31
0.0
  0
ARC
  5
94C
330
2
100
AcDbEntity
  8
HIDS
100
AcDbCircle
 10
396.8265968717434
 20
108.8904085768587
 30
0.0
 40
3.0
100
AcDbArc
 50
129.3567050000003
 51
180.0
  0
ARC
  5
94E
330
2
100
AcDbEntity
  8
0
100
AcDbCircle
 10
380.1595128717434
 20
131.6364715768587
 30
0.0
 40
2.0
100
AcDbArc
 50
180.0
 51
268.9999999999998
  0
ARC
  5
94F
330
2
100
AcDbEntity
  8
HIDS
100
AcDbCircle
 10
405.8265968717434
 20
119.0235875768587
 30
0.0
 40
5.0
100
AcDbArc
 50
314.9999999999997
 51
0.0
  0
LINE
  5
951
330
2
100
AcDbEntity
  8
0
100
AcDbLine
 10
412.3265968717436
 20
132.7807895768587
 30
0.0
 11
412.3265968717436
 21
148.4034695768588
 31
0.0
  0
ARC
  5
952
330
2
100
AcDbEntity
  8
0
100
AcDbCircle
 10
417.8265968717434
 20
140.5921295768587
 30
0.0
 40
2.5
100
AcDbArc
 50
90.0
 51
270.0
  0
LINE
  5
953
330
2
100
AcDbEntity
  8
0
100
AcDbLine
 10
411.5491618717435
 20
132.0921295768587
 30
0.0
 11
411.3265968717434
 21
132.0921295768587
 31
0.0
  0
ARC
  5
954
330
2
100
AcDbEntity
  8
0
100
AcDbCircle
 10
410.9246798717435
 20
133.9921235768587
 30
0.0
 40
2.0
100
AcDbArc
 50
288.1948699999997
 51
299.9999999999995
  0
ARC
  5
955
330
2
100
AcDbEntity
  8
0
100
AcDbCircle
 10
411.8265968717436
 20
132.7807895768587
 30
0.0
 40
0.5
100
AcDbArc
 50
299.9999999999995
 51
0.0
  0
LINE
  5
956
330
2
100
AcDbEntity
  8
0
100
AcDbLine
 10
412.0765968717434
 20
132.3478055768587
 30
0.0
 11
411.9246798717434
 21
132.2600675768587
 31
0.0
  0
ARC
  5
957
330
2
100
AcDbEntity
  8
0
100
AcDbCircle
 10
411.8265968717436
 20
148.4034695768588
 30
0.0
 40
0.5
100
AcDbArc
 50
0.0
 51
60.00000000000041
  0
LINE
  5
958
330
2
100
AcDbEntity
  8
0
100
AcDbLine
 10
412.0765968717434
 20
148.8364535768588
 30
0.0
 11
411.9246798717434
 21
148.9241915768588
 31
0.0
  0
LINE
  5
95A
330
2
100
AcDbEntity
  8
HIDS
100
AcDbLine
 10
378.8265968717434
 20
170.0921295768588
 30
0.0
 11
411.3265968717434
 21
170.0921295768588
 31
0.0
  0
LINE
  5
95B
330
2
100
AcDbEntity
  8
HIDS
100
AcDbLine
 10
378.8265968717434
 20
178.0921295768588
 30
0.0
 11
411.3265968717434
 21
178.0921295768588
 31
0.0
  0
LINE
  5
95C
330
2
100
AcDbEntity
  8
HIDS
100
AcDbLine
 10
407.8265968717436
 20
166.5921295768588
 30
0.0
 11
404.2235698717434
 21
166.5921295768588
 31
0.0
  0
LINE
  5
95D
330
2
100
AcDbEntity
  8
0
100
AcDbLine
 10
380.1246008717435
 20
151.5474825768588
 30
0.0
 11
411.3265968717434
 21
152.0921295768587
 31
0.0
  0
LINE
  5
95E
330
2
100
AcDbEntity
  8
0
100
AcDbLine
 10
377.7916848717434
 20
155.5067715768587
 30
0.0
 11
411.3265968717434
 21
156.0921295768588
 31
0.0
  0
LINE
  5
963
330
2
100
AcDbEntity
  8
HIDS
100
AcDbLine
 10
396.8265968717434
 20
173.9891025768588
 30
0.0
 11
404.2235698717434
 21
166.5921295768588
 31
0.0
  0
ARC
  5
964
330
2
100
AcDbEntity
  8
0
100
AcDbCircle
 10
380.1595128717434
 20
149.5477875768588
 30
0.0
 40
2.0
100
AcDbArc
 50
91.00000000000013
 51
180.0
  0
ARC
  5
967
330
2
100
AcDbEntity
  8
HIDS
100
AcDbCircle
 10
391.8265968717434
 20
176.2252775768588
 30
0.0
 40
2.0
100
AcDbArc
 50
0.0
 51
88.99999999999987
  0
LINE
  5
968
330
2
100
AcDbEntity
  8
HIDS
100
AcDbLine
 10
378.8265968717434
 20
178.0921295768588
 30
0.0
 11
378.8265968717434
 21
170.0921295768588
 31
0.0
  0
ARC
  5
969
330
2
100
AcDbEntity
  8
HIDS
100
AcDbCircle
 10
393.8265968717434
 20
177.5921295768588
 30
0.0
 40
3.0
100
AcDbArc
 50
0.0
 51
90.0
  0
LINE
  5
96A
330
2
100
AcDbEntity
  8
HIDS
100
AcDbLine
 10
396.8265968717434
 20
177.5921295768588
 30
0.0
 11
396.8265968717434
 21
173.9891025768588
 31
0.0
  0
LINE
  5
96B
330
2
100
AcDbEntity
  8
HIDS
100
AcDbLine
 10
393.8265968717434
 20
176.2252775768588
 30
0.0
 11
393.8265968717434
 21
172.2938505768588
 31
0.0
  0
ARC
  5
96C
330
2
100
AcDbEntity
  8
HIDS
100
AcDbCircle
 10
396.8265968717434
 20
172.2938505768588
 30
0.0
 40
3.0
100
AcDbArc
 50
180.0
 51
230.6432949999995
  0
LINE
  5
96D
330
2
100
AcDbEntity
  8
0
100
AcDbLine
 10
411.5491618717435
 20
149.0921295768588
 30
0.0
 11
411.3265968717434
 21
149.0921295768588
 31
0.0
  0
ARC
  5
96F
330
2
100
AcDbEntity
  8
HIDS
100
AcDbCircle
 10
407.8265968717436
 20
163.5921295768588
 30
0.0
 40
3.0
100
AcDbArc
 50
0.0
 51
90.0
  0
LINE
  5
970
330
2
100
AcDbEntity
  8
0
100
AcDbLine
 10
439.3265968717434
 20
148.0921295768588
 30
0.0
 11
439.3265968717434
 21
133.0921295768587
 31
0.0
  0
ARC
  5
971
330
2
100
AcDbEntity
  8
0
100
AcDbCircle
 10
563.9689412573455
 20
140.5921295768587
 30
0.0
 40
7.5
100
AcDbArc
 50
199.4712219999996
 51
160.5287780000001
  0
LINE
  5
972
330
2
100
AcDbEntity
  8
0
100
AcDbLine
 10
559.4689412573455
 20
138.0921295768587
 30
0.0
 11
554.4689412573453
 21
138.0921295768587
 31
0.0
  0
LINE
  5
973
330
2
100
AcDbEntity
  8
0
100
AcDbLine
 10
559.4689412573455
 20
143.0921295768588
 30
0.0
 11
554.4689412573453
 21
143.0921295768588
 31
0.0
  0
ARC
  5
974
330
2
100
AcDbEntity
  8
0
100
AcDbCircle
 10
563.9689412573455
 20
140.5921295768587
 30
0.0
 40
8.5
100
AcDbArc
 50
197.1046299999992
 51
162.8953700000008
  0
CIRCLE
  5
975
330
2
100
AcDbEntity
  8
0
100
AcDbCircle
 10
563.9689412573455
 20
140.5921295768587
 30
0.0
 40
25.002001
  0
CIRCLE
  5
976
330
2
100
AcDbEntity
  8
0
100
AcDbCircle
 10
563.9689412573455
 20
140.5921295768587
 30
0.0
 40
23.0
  0
CIRCLE
  5
977
330
2
100
AcDbEntity
  8
0
100
AcDbCircle
 10
563.9689412573455
 20
140.5921295768587
 30
0.0
 40
15.0
  0
CIRCLE
  5
978
330
2
100
AcDbEntity
  8
0
100
AcDbCircle
 10
563.9689412573455
 20
140.5921295768587
 30
0.0
 40
19.0
  0
LINE
  5
979
330
2
100
AcDbEntity
  8
0
100
AcDbLine
 10
555.9689412573455
 20
176.0921295768588
 30
0.0
 11
593.9689412573454
 21
176.0921295768588
 31
0.0
  0
LINE
  5
97A
330
2
100
AcDbEntity
  8
0
100
AcDbLine
 10
617.9689412573455
 20
181.0921295768588
 30
0.0
 11
531.9689412573453
 21
181.0921295768588
 31
0.0
  0
LINE
  5
97B
330
2
100
AcDbEntity
  8
0
100
AcDbLine
 10
533.9689412573455
 20
154.0921295768588
 30
0.0
 11
533.9689412573455
 21
127.0921295768587
 31
0.0
  0
LINE
  5
97C
330
2
100
AcDbEntity
  8
0
100
AcDbLine
 10
528.9689412573453
 20
129.9205595768587
 30
0.0
 11
528.9689412573453
 21
151.2636995768588
 31
0.0
  0
ARC
  5
97D
330
2
100
AcDbEntity
  8
0
100
AcDbCircle
 10
526.9689412573455
 20
129.9205595768587
 30
0.0
 40
2.0
100
AcDbArc
 50
314.9999999999997
 51
0.0
  0
ARC
  5
97E
330
2
100
AcDbEntity
  8
0
100
AcDbCircle
 10
526.9689412573455
 20
124.2636995768587
 30
0.0
 40
2.0
100
AcDbArc
 50
134.9999999999996
 51
180.0
  0
LINE
  5
97F
330
2
100
AcDbEntity
  8
0
100
AcDbLine
 10
528.3831262573454
 20
128.5063445768587
 30
0.0
 11
525.5547562573456
 21
125.6779145768587
 31
0.0
  0
LINE
  5
980
330
2
100
AcDbEntity
  8
0
100
AcDbLine
 10
539.4874352573456
 20
121.3937045768587
 30
0.0
 11
548.4874352573456
 21
110.8937045768587
 31
0.0
  0
LINE
  5
981
330
2
100
AcDbEntity
  8
0
100
AcDbLine
 10
538.5675742573455
 20
119.3937045768587
 30
0.0
 11
546.4874352573456
 21
110.1538665768587
 31
0.0
  0
ARC
  5
982
330
2
100
AcDbEntity
  8
0
100
AcDbCircle
 10
536.6040122573456
 20
122.0921295768587
 30
0.0
 40
2.0
100
AcDbArc
 50
194.4775090000003
 51
270.0
  0
ARC
  5
983
330
2
100
AcDbEntity
  8
0
100
AcDbCircle
 10
536.1951982573454
 20
124.0921295768587
 30
0.0
 40
2.0
100
AcDbArc
 50
188.6269229999999
 51
270.0
  0
ARC
  5
984
330
2
100
AcDbEntity
  8
0
100
AcDbCircle
 10
555.9689412573455
 20
127.0921295768587
 30
0.0
 40
22.0
100
AcDbArc
 50
180.0
 51
194.4775090000003
  0
LINE
  5
985
330
2
100
AcDbEntity
  8
0
100
AcDbLine
 10
537.0490802573454
 20
120.0921295768587
 30
0.0
 11
536.6040122573456
 21
120.0921295768587
 31
0.0
  0
LINE
  5
986
330
2
100
AcDbEntity
  8
0
100
AcDbLine
 10
537.9689412573453
 20
122.0921295768587
 30
0.0
 11
536.1951982573454
 21
122.0921295768587
 31
0.0
  0
LINE
  5
987
330
2
100
AcDbEntity
  8
0
100
AcDbLine
 10
538.8046342573455
 20
121.9091465768587
 30
0.0
 11
537.8847742573453
 21
119.9091465768587
 31
0.0
  0
ARC
  5
988
330
2
100
AcDbEntity
  8
0
100
AcDbCircle
 10
537.9689412573453
 20
120.0921295768587
 30
0.0
 40
2.0
100
AcDbArc
 50
40.60129499999971
 51
90.0
  0
ARC
  5
989
330
2
100
AcDbEntity
  8
0
100
AcDbCircle
 10
537.0490802573454
 20
118.0921295768587
 30
0.0
 40
2.0
100
AcDbArc
 50
40.60129499999971
 51
90.0
  0
LINE
  5
98A
330
2
100
AcDbEntity
  8
0
100
AcDbLine
 10
548.8447342573453
 20
110.2860075768588
 30
0.0
 11
546.8447342573454
 21
109.5461705768587
 31
0.0
  0
ARC
  5
98B
330
2
100
AcDbEntity
  8
0
100
AcDbCircle
 10
544.9689412573453
 20
108.8522915768587
 30
0.0
 40
2.0
100
AcDbArc
 50
0.0
 51
40.60129499999971
  0
ARC
  5
98C
330
2
100
AcDbEntity
  8
0
100
AcDbCircle
 10
546.9689412573455
 20
109.5921295768587
 30
0.0
 40
2.0
100
AcDbArc
 50
0.0
 51
40.60129499999971
  0
LINE
  5
98D
330
2
100
AcDbEntity
  8
0
100
AcDbLine
 10
554.4689412573453
 20
143.0921295768588
 30
0.0
 11
554.4689412573453
 21
138.0921295768587
 31
0.0
  0
CIRCLE
  5
98E
330
2
100
AcDbEntity
  8
HOJO
100
AcDbCircle
 10
531.9689412573453
 20
174.0921295768588
 30
0.0
 40
4.0
  0
ARC
  5
98F
330
2
100
AcDbEntity
  8
0
100
AcDbCircle
 10
526.9689412573455
 20
151.2636995768588
 30
0.0
 40
2.0
100
AcDbArc
 50
0.0
 51
45.00000000000028
  0
ARC
  5
990
330
2
100
AcDbEntity
  8
0
100
AcDbCircle
 10
531.9689412573453
 20
174.0921295768588
 30
0.0
 40
7.0
100
AcDbArc
 50
47.3640670000003
 51
180.0
  0
ARC
  5
992
330
2
100
AcDbEntity
  8
0
100
AcDbCircle
 10
526.9689412573455
 20
156.9205595768588
 30
0.0
 40
2.0
100
AcDbArc
 50
180.0
 51
225.0000000000003
  0
LINE
  5
993
330
2
100
AcDbEntity
  8
0
100
AcDbLine
 10
528.3831262573454
 20
152.6779145768587
 30
0.0
 11
525.5547562573456
 21
155.5063445768587
 31
0.0
  0
LINE
  5
994
330
2
100
AcDbEntity
  8
0
100
AcDbLine
 10
539.4874352573456
 20
159.7905545768588
 30
0.0
 11
548.4874352573456
 21
170.2905545768587
 31
0.0
  0
LINE
  5
995
330
2
100
AcDbEntity
  8
0
100
AcDbLine
 10
538.5675742573455
 20
161.7905545768588
 30
0.0
 11
546.4874352573456
 21
171.0303925768588
 31
0.0
  0
ARC
  5
997
330
2
100
AcDbEntity
  8
0
100
AcDbCircle
 10
555.9689412573455
 20
154.0921295768588
 30
0.0
 40
22.0
100
AcDbArc
 50
165.5224909999996
 51
180.0
  0
ARC
  5
998
330
2
100
AcDbEntity
  8
0
100
AcDbCircle
 10
536.1951982573454
 20
157.0921295768588
 30
0.0
 40
2.0
100
AcDbArc
 50
90.0
 51
171.3730769999999
  0
ARC
  5
999
330
2
100
AcDbEntity
  8
0
100
AcDbCircle
 10
537.9689412573453
 20
161.0921295768588
 30
0.0
 40
2.0
100
AcDbArc
 50
270.0
 51
319.3987050000003
  0
ARC
  5
99A
330
2
100
AcDbEntity
  8
0
100
AcDbCircle
 10
536.6040122573456
 20
159.0921295768588
 30
0.0
 40
2.0
100
AcDbArc
 50
90.0
 51
165.5224909999996
  0
LINE
  5
99B
330
2
100
AcDbEntity
  8
0
100
AcDbLine
 10
537.0490802573454
 20
161.0921295768588
 30
0.0
 11
536.6040122573456
 21
161.0921295768588
 31
0.0
  0
LINE
  5
99C
330
2
100
AcDbEntity
  8
0
100
AcDbLine
 10
537.9689412573453
 20
159.0921295768588
 30
0.0
 11
536.1951982573454
 21
159.0921295768588
 31
0.0
  0
LINE
  5
99D
330
2
100
AcDbEntity
  8
0
100
AcDbLine
 10
538.8046342573455
 20
159.2751125768588
 30
0.0
 11
537.8847742573453
 21
161.2751125768588
 31
0.0
  0
ARC
  5
99E
330
2
100
AcDbEntity
  8
0
100
AcDbCircle
 10
537.0490802573454
 20
163.0921295768588
 30
0.0
 40
2.0
100
AcDbArc
 50
270.0
 51
319.3987050000003
  0
ARC
  5
99F
330
2
100
AcDbEntity
  8
0
100
AcDbCircle
 10
540.7743002573453
 20
183.6558805768586
 30
0.0
 40
6.0
100
AcDbArc
 50
227.364075
 51
300.3583070000003
  0
CIRCLE
  5
9A0
330
2
100
AcDbEntity
  8
0
100
AcDbCircle
 10
531.9689412573453
 20
174.0921295768588
 30
0.0
 40
3.399999999999999
  0
ARC
  5
9A1
330
2
100
AcDbEntity
  8
0
100
AcDbCircle
 10
558.9689412573455
 20
152.5921295768588
 30
0.0
 40
30.0
100
AcDbArc
 50
112.3316420000002
 51
120.3582990000006
  0
ARC
  5
9A2
330
2
100
AcDbEntity
  8
0
100
AcDbCircle
 10
555.9689412573455
 20
154.0921295768588
 30
0.0
 40
22.0
100
AcDbArc
 50
90.0
 51
110.4873119999995
  0
ARC
  5
9A3
330
2
100
AcDbEntity
  8
0
100
AcDbCircle
 10
548.9689412573453
 20
172.8271145768588
 30
0.0
 40
2.0
100
AcDbArc
 50
110.4873119999995
 51
180.0
  0
ARC
  5
9A4
330
2
100
AcDbEntity
  8
0
100
AcDbCircle
 10
550.9689412573455
 20
173.4570585768588
 30
0.0
 40
2.0
100
AcDbArc
 50
104.4775089999999
 51
180.0
  0
LINE
  5
9A5
330
2
100
AcDbEntity
  8
0
100
AcDbLine
 10
548.8447342573453
 20
170.8982515768588
 30
0.0
 11
546.8447342573454
 21
171.6380885768588
 31
0.0
  0
ARC
  5
9A6
330
2
100
AcDbEntity
  8
0
100
AcDbCircle
 10
544.9689412573453
 20
172.3319675768586
 30
0.0
 40
2.0
100
AcDbArc
 50
319.3987050000003
 51
0.0
  0
ARC
  5
9A7
330
2
100
AcDbEntity
  8
0
100
AcDbCircle
 10
546.9689412573455
 20
171.5921295768588
 30
0.0
 40
2.0
100
AcDbArc
 50
319.3987050000003
 51
0.0
  0
LINE
  5
9A8
330
2
100
AcDbEntity
  8
0
100
AcDbLine
 10
548.9689412573453
 20
171.5921295768588
 30
0.0
 11
548.9689412573453
 21
173.4570585768588
 31
0.0
  0
LINE
  5
9A9
330
2
100
AcDbEntity
  8
0
100
AcDbLine
 10
546.9689412573455
 20
172.3319675768586
 30
0.0
 11
546.9689412573455
 21
172.8271145768588
 31
0.0
  0
ARC
  5
9AA
330
2
100
AcDbEntity
  8
0
100
AcDbCircle
 10
551.3695762573453
 20
171.0921295768588
 30
0.0
 40
10.0
100
AcDbArc
 50
90.0
 51
112.3316420000002
  0
LINE
  5
9AB
330
2
100
AcDbEntity
  8
0
100
AcDbLine
 10
615.9689412573453
 20
154.0921295768588
 30
0.0
 11
615.9689412573453
 21
127.0921295768587
 31
0.0
  0
LINE
  5
9AD
330
2
100
AcDbEntity
  8
0
100
AcDbLine
 10
559.4689412573455
 20
143.0921295768588
 30
0.0
 11
559.4689412573455
 21
138.0921295768587
 31
0.0
  0
LINE
  5
9AE
330
2
100
AcDbEntity
  8
0
100
AcDbLine
 10
610.4504472573455
 20
121.3937045768587
 30
0.0
 11
601.4504472573455
 21
110.8937045768587
 31
0.0
  0
LINE
  5
9AF
330
2
100
AcDbEntity
  8
0
100
AcDbLine
 10
611.3703082573453
 20
119.3937045768587
 30
0.0
 11
603.4504472573456
 21
110.1538665768587
 31
0.0
  0
LINE
  5
9B0
330
2
100
AcDbEntity
  8
0
100
AcDbLine
 10
601.0931482573455
 20
110.2860075768588
 30
0.0
 11
603.0931482573455
 21
109.5461705768587
 31
0.0
  0
ARC
  5
9B1
330
2
100
AcDbEntity
  8
0
100
AcDbCircle
 10
604.9689412573455
 20
108.8522915768587
 30
0.0
 40
2.0
100
AcDbArc
 50
139.3987120000005
 51
180.0
  0
ARC
  5
9B2
330
2
100
AcDbEntity
  8
0
100
AcDbCircle
 10
602.9689412573453
 20
109.5921295768587
 30
0.0
 40
2.0
100
AcDbArc
 50
139.3987120000005
 51
180.0
  0
ARC
  5
9B3
330
2
100
AcDbEntity
  8
0
100
AcDbCircle
 10
611.9689412573453
 20
120.0921295768587
 30
0.0
 40
2.0
100
AcDbArc
 50
90.0
 51
139.3987120000005
  0
ARC
  5
9B4
330
2
100
AcDbEntity
  8
0
100
AcDbCircle
 10
593.9689412573454
 20
127.0921295768587
 30
0.0
 40
22.0
100
AcDbArc
 50
345.5224880000002
 51
0.0
  0
ARC
  5
9B5
330
2
100
AcDbEntity
  8
0
100
AcDbCircle
 10
613.3338702573455
 20
122.0921295768587
 30
0.0
 40
2.0
100
AcDbArc
 50
270.0
 51
345.5224909999996
  0
ARC
  5
9B6
330
2
100
AcDbEntity
  8
0
100
AcDbCircle
 10
613.7426842573453
 20
124.0921295768587
 30
0.0
 40
2.0
100
AcDbArc
 50
270.0
 51
351.373077
  0
LINE
  5
9B7
330
2
100
AcDbEntity
  8
0
100
AcDbLine
 10
612.8888022573455
 20
120.0921295768587
 30
0.0
 11
613.3338702573455
 21
120.0921295768587
 31
0.0
  0
LINE
  5
9B8
330
2
100
AcDbEntity
  8
0
100
AcDbLine
 10
611.9689412573453
 20
122.0921295768587
 30
0.0
 11
613.7426842573453
 21
122.0921295768587
 31
0.0
  0
LINE
  5
9B9
330
2
100
AcDbEntity
  8
0
100
AcDbLine
 10
611.1332482573454
 20
121.9091465768587
 30
0.0
 11
612.0531082573453
 21
119.9091465768587
 31
0.0
  0
ARC
  5
9BA
330
2
100
AcDbEntity
  8
0
100
AcDbCircle
 10
612.8888022573455
 20
118.0921295768587
 30
0.0
 40
2.0
100
AcDbArc
 50
90.0
 51
139.3987120000005
  0
LINE
  5
9BB
330
2
100
AcDbEntity
  8
0
100
AcDbLine
 10
610.4504472573455
 20
159.7905545768588
 30
0.0
 11
601.4504472573455
 21
170.2905545768587
 31
0.0
  0
LINE
  5
9BC
330
2
100
AcDbEntity
  8
0
100
AcDbLine
 10
611.3703082573453
 20
161.7905545768588
 30
0.0
 11
603.4504472573456
 21
171.0303925768588
 31
0.0
  0
ARC
  5
9BE
330
2
100
AcDbEntity
  8
0
100
AcDbCircle
 10
593.9689412573454
 20
154.0921295768588
 30
0.0
 40
22.0
100
AcDbArc
 50
0.0
 51
14.47751199999975
  0
ARC
  5
9BF
330
2
100
AcDbEntity
  8
0
100
AcDbCircle
 10
613.7426842573453
 20
157.0921295768588
 30
0.0
 40
2.0
100
AcDbArc
 50
8.626927000000625
 51
90.0
  0
ARC
  5
9C0
330
2
100
AcDbEntity
  8
0
100
AcDbCircle
 10
611.9689412573453
 20
161.0921295768588
 30
0.0
 40
2.0
100
AcDbArc
 50
220.6012879999994
 51
270.0
  0
ARC
  5
9C1
330
2
100
AcDbEntity
  8
0
100
AcDbCircle
 10
613.3338702573455
 20
159.0921295768588
 30
0.0
 40
2.0
100
AcDbArc
 50
14.47751199999975
 51
90.0
  0
LINE
  5
9C2
330
2
100
AcDbEntity
  8
0
100
AcDbLine
 10
612.8888022573455
 20
161.0921295768588
 30
0.0
 11
613.3338702573455
 21
161.0921295768588
 31
0.0
  0
LINE
  5
9C3
330
2
100
AcDbEntity
  8
0
100
AcDbLine
 10
611.9689412573453
 20
159.0921295768588
 30
0.0
 11
613.7426842573453
 21
159.0921295768588
 31
0.0
  0
LINE
  5
9C4
330
2
100
AcDbEntity
  8
0
100
AcDbLine
 10
611.1332482573454
 20
159.2751125768588
 30
0.0
 11
612.0531082573453
 21
161.2751125768588
 31
0.0
  0
ARC
  5
9C5
330
2
100
AcDbEntity
  8
0
100
AcDbCircle
 10
612.8888022573455
 20
163.0921295768588
 30
0.0
 40
2.0
100
AcDbArc
 50
220.6012879999994
 51
270.0
  0
ARC
  5
9C6
330
2
100
AcDbEntity
  8
0
100
AcDbCircle
 10
590.9689412573453
 20
152.5921295768588
 30
0.0
 40
30.0
100
AcDbArc
 50
59.64169699999963
 51
67.66835799999966
  0
ARC
  5
9C7
330
2
100
AcDbEntity
  8
0
100
AcDbCircle
 10
593.9689412573454
 20
154.0921295768588
 30
0.0
 40
22.0
100
AcDbArc
 50
69.51268800000041
 51
90.0
  0
ARC
  5
9C8
330
2
100
AcDbEntity
  8
0
100
AcDbCircle
 10
600.9689412573455
 20
172.8271145768588
 30
0.0
 40
2.0
100
AcDbArc
 50
0.0
 51
69.51268800000041
  0
ARC
  5
9C9
330
2
100
AcDbEntity
  8
0
100
AcDbCircle
 10
598.9689412573453
 20
173.4570585768588
 30
0.0
 40
2.0
100
AcDbArc
 50
0.0
 51
75.52249100000008
  0
LINE
  5
9CA
330
2
100
AcDbEntity
  8
0
100
AcDbLine
 10
601.0931482573455
 20
170.8982515768588
 30
0.0
 11
603.0931482573455
 21
171.6380885768588
 31
0.0
  0
ARC
  5
9CB
330
2
100
AcDbEntity
  8
0
100
AcDbCircle
 10
604.9689412573455
 20
172.3319675768586
 30
0.0
 40
2.0
100
AcDbArc
 50
180.0
 51
220.6012879999994
  0
ARC
  5
9CC
330
2
100
AcDbEntity
  8
0
100
AcDbCircle
 10
602.9689412573453
 20
171.5921295768588
 30
0.0
 40
2.0
100
AcDbArc
 50
180.0
 51
220.6012879999994
  0
LINE
  5
9CD
330
2
100
AcDbEntity
  8
0
100
AcDbLine
 10
600.9689412573455
 20
171.5921295768588
 30
0.0
 11
600.9689412573455
 21
173.4570585768588
 31
0.0
  0
LINE
  5
9CE
330
2
100
AcDbEntity
  8
0
100
AcDbLine
 10
602.9689412573453
 20
172.3319675768586
 30
0.0
 11
602.9689412573453
 21
172.8271145768588
 31
0.0
  0
ARC
  5
9CF
330
2
100
AcDbEntity
  8
0
100
AcDbCircle
 10
598.5683062573455
 20
171.0921295768588
 30
0.0
 40
10.0
100
AcDbArc
 50
67.66835799999966
 51
90.0
  0
ARC
  5
9D0
330
2
100
AcDbEntity
  8
0
100
AcDbCircle
 10
609.1635822573455
 20
183.6558805768586
 30
0.0
 40
6.0
100
AcDbArc
 50
239.6416929999996
 51
312.6359249999997
  0
LINE
  5
9D1
330
2
100
AcDbEntity
  8
0
100
AcDbLine
 10
554.4689412573453
 20
275.7583364837171
 30
0.0
 11
571.4689412573455
 21
275.7583364837171
 31
0.0
  0
LINE
  5
9D2
330
2
100
AcDbEntity
  8
HIDS
100
AcDbLine
 10
613.7189412573453
 20
372.2583364837171
 30
0.0
 11
613.7189412573453
 21
384.7583364837171
 31
0.0
  0
LINE
  5
9D3
330
2
100
AcDbEntity
  8
HIDS
100
AcDbLine
 10
536.2189412573455
 20
372.2583364837171
 30
0.0
 11
536.2189412573455
 21
384.7583364837171
 31
0.0
  0
LINE
  5
9D4
330
2
100
AcDbEntity
  8
HIDS
100
AcDbLine
 10
527.7189412573455
 20
372.2583364837171
 30
0.0
 11
527.7189412573455
 21
384.7583364837171
 31
0.0
  0
LINE
  5
9D5
330
2
100
AcDbEntity
  8
0
100
AcDbLine
 10
609.3109212573456
 20
384.7583364837171
 30
0.0
 11
609.3109212573456
 21
351.4623464837173
 31
0.0
  0
LINE
  5
9D6
330
2
100
AcDbEntity
  8
0
100
AcDbLine
 10
600.3364342573453
 20
384.7583364837171
 30
0.0
 11
600.3364342573453
 21
349.2583364837171
 31
0.0
  0
LINE
  5
9D7
330
2
100
AcDbEntity
  8
0
100
AcDbLine
 10
540.6269612573455
 20
384.7583364837171
 30
0.0
 11
540.6269612573455
 21
351.4623464837173
 31
0.0
  0
LINE
  5
9D8
330
2
100
AcDbEntity
  8
0
100
AcDbLine
 10
549.6014482573455
 20
384.7583364837171
 30
0.0
 11
549.6014482573455
 21
349.2583364837171
 31
0.0
  0
LINE
  5
9D9
330
2
100
AcDbEntity
  8
0
100
AcDbLine
 10
524.9689412573453
 20
344.2583364837171
 30
0.0
 11
525.6758502573453
 21
384.7583364837171
 31
0.0
  0
LINE
  5
9DA
330
2
100
AcDbEntity
  8
CENTER
100
AcDbLine
 10
531.9689412573453
 20
300.3994194837171
 30
0.0
 11
531.9689412573453
 21
388.0744374837171
 31
0.0
  0
LINE
  5
9DB
330
2
100
AcDbEntity
  8
CENTER
100
AcDbLine
 10
617.9689412573455
 20
300.3994194837171
 30
0.0
 11
617.9689412573455
 21
388.0744374837171
 31
0.0
  0
LINE
  5
9DC
330
2
100
AcDbEntity
  8
0
100
AcDbLine
 10
556.1576012573453
 20
302.7583364837171
 30
0.0
 11
571.7802812573457
 21
302.7583364837171
 31
0.0
  0
LINE
  5
9DD
330
2
100
AcDbEntity
  8
HIDS
100
AcDbLine
 10
535.9689412573453
 20
303.7583364837171
 30
0.0
 11
535.9689412573453
 21
336.2583364837171
 31
0.0
  0
LINE
  5
9DE
330
2
100
AcDbEntity
  8
HIDS
100
AcDbLine
 10
527.9689412573453
 20
303.7583364837171
 30
0.0
 11
527.9689412573453
 21
336.2583364837171
 31
0.0
  0
LINE
  5
9DF
330
2
100
AcDbEntity
  8
HIDS
100
AcDbLine
 10
535.3689652573454
 20
372.2583364837171
 30
0.0
 11
535.3689652573454
 21
303.7583364837171
 31
0.0
  0
LINE
  5
9E0
330
2
100
AcDbEntity
  8
HIDS
100
AcDbLine
 10
528.5689172573453
 20
372.2583364837171
 30
0.0
 11
528.5689172573453
 21
303.7583364837171
 31
0.0
  0
LINE
  5
9E1
330
2
100
AcDbEntity
  8
0
100
AcDbLine
 10
549.6014482573455
 20
339.2583364837172
 30
0.0
 11
549.6014482573455
 21
303.7583364837171
 31
0.0
  0
LINE
  5
9E2
330
2
100
AcDbEntity
  8
0
100
AcDbLine
 10
540.6269612573455
 20
337.0543264837172
 30
0.0
 11
540.6269612573455
 21
303.7583364837171
 31
0.0
  0
LINE
  5
9E3
330
2
100
AcDbEntity
  8
0
100
AcDbLine
 10
524.9689412573453
 20
344.2583364837171
 30
0.0
 11
525.6758502573453
 21
303.7583364837171
 31
0.0
  0
LINE
  5
9E4
330
2
100
AcDbEntity
  8
0
100
AcDbLine
 10
555.4689412573455
 20
303.5357714837171
 30
0.0
 11
555.4689412573455
 21
303.7583364837171
 31
0.0
  0
ARC
  5
9E5
330
2
100
AcDbEntity
  8
0
100
AcDbCircle
 10
557.3689652573455
 20
304.1602534837172
 30
0.0
 40
2.0
100
AcDbArc
 50
198.1948700000004
 51
209.9999999999999
  0
ARC
  5
9E6
330
2
100
AcDbEntity
  8
0
100
AcDbCircle
 10
556.1576012573453
 20
303.2583364837171
 30
0.0
 40
0.5
100
AcDbArc
 50
209.9999999999999
 51
270.0
  0
LINE
  5
9E7
330
2
100
AcDbEntity
  8
0
100
AcDbLine
 10
555.7246172573455
 20
303.0083364837171
 30
0.0
 11
555.6369102573454
 21
303.1602534837172
 31
0.0
  0
ARC
  5
9E8
330
2
100
AcDbEntity
  8
0
100
AcDbCircle
 10
549.3978962573454
 20
297.2583364837171
 30
0.0
 40
7.500003999999998
100
AcDbArc
 50
0.0
 51
19.47121200000039
  0
LINE
  5
9E9
330
2
100
AcDbEntity
  8
0
100
AcDbLine
 10
556.4689412573454
 20
299.7583364837172
 30
0.0
 11
556.4689412573454
 21
302.7583364837171
 31
0.0
  0
LINE
  5
9EA
330
2
100
AcDbEntity
  8
0
100
AcDbLine
 10
554.4689412573453
 20
299.7583364837172
 30
0.0
 11
556.4689412573454
 21
299.7583364837172
 31
0.0
  0
LINE
  5
9EB
330
2
100
AcDbEntity
  8
HIDS
100
AcDbLine
 10
527.9689412573453
 20
336.2583364837171
 30
0.0
 11
535.9689412573453
 21
336.2583364837171
 31
0.0
  0
LINE
  5
9EC
330
2
100
AcDbEntity
  8
HIDS
100
AcDbLine
 10
527.9689412573453
 20
352.2583364837172
 30
0.0
 11
535.9689412573453
 21
352.2583364837172
 31
0.0
  0
LINE
  5
9ED
330
2
100
AcDbEntity
  8
HIDS
100
AcDbLine
 10
527.9689412573453
 20
372.2583364837171
 30
0.0
 11
527.9689412573453
 21
352.2583364837172
 31
0.0
  0
LINE
  5
9EE
330
2
100
AcDbEntity
  8
HIDS
100
AcDbLine
 10
535.9689412573453
 20
372.2583364837171
 30
0.0
 11
535.9689412573453
 21
352.2583364837172
 31
0.0
  0
ARC
  5
9EF
330
2
100
AcDbEntity
  8
0
100
AcDbCircle
 10
540.6269612573455
 20
348.0543264837172
 30
0.0
 40
11.0
100
AcDbArc
 50
244.282272
 51
291.0753169999998
  0
LINE
  5
9F0
330
2
100
AcDbEntity
  8
0
100
AcDbLine
 10
549.6014482573455
 20
339.2583364837172
 30
0.0
 11
532.0562212573453
 21
339.2583364837172
 31
0.0
  0
ARC
  5
9F1
330
2
100
AcDbEntity
  8
0
100
AcDbCircle
 10
540.6269612573455
 20
340.4623464837171
 30
0.0
 40
11.0
100
AcDbArc
 50
68.92466699999977
 51
115.7177279999997
  0
LINE
  5
9F2
330
2
100
AcDbEntity
  8
0
100
AcDbLine
 10
549.6014482573455
 20
349.2583364837171
 30
0.0
 11
532.0562212573453
 21
349.2583364837171
 31
0.0
  0
LINE
  5
9F3
330
2
100
AcDbEntity
  8
0
100
AcDbLine
 10
535.8536462573453
 20
338.1439564837172
 30
0.0
 11
534.8768392573456
 21
338.6144764837171
 31
0.0
  0
ARC
  5
9F4
330
2
100
AcDbEntity
  8
0
100
AcDbCircle
 10
532.0562212573453
 20
332.7583364837171
 30
0.0
 40
6.5
100
AcDbArc
 50
64.28227200000015
 51
90.0
  0
LINE
  5
9F5
330
2
100
AcDbEntity
  8
0
100
AcDbLine
 10
535.8536462573453
 20
350.3727164837171
 30
0.0
 11
534.8768392573456
 21
349.9021964837172
 31
0.0
  0
ARC
  5
9F6
330
2
100
AcDbEntity
  8
0
100
AcDbCircle
 10
532.0562212573453
 20
355.7583364837171
 30
0.0
 40
6.5
100
AcDbArc
 50
270.0
 51
295.7177279999998
  0
ARC
  5
9F7
330
2
100
AcDbEntity
  8
0
100
AcDbCircle
 10
549.6014482573455
 20
332.7583364837171
 30
0.0
 40
6.5
100
AcDbArc
 50
90.0
 51
111.0753330000002
  0
LINE
  5
9F8
330
2
100
AcDbEntity
  8
0
100
AcDbLine
 10
547.2640462573456
 20
338.8235524837172
 30
0.0
 11
544.5825272573456
 21
337.7901354837173
 31
0.0
  0
ARC
  5
9F9
330
2
100
AcDbEntity
  8
0
100
AcDbCircle
 10
549.6014482573455
 20
355.7583364837171
 30
0.0
 40
6.5
100
AcDbArc
 50
248.9246669999996
 51
270.0
  0
LINE
  5
9FA
330
2
100
AcDbEntity
  8
0
100
AcDbLine
 10
547.2640462573456
 20
349.6931204837171
 30
0.0
 11
544.5825272573456
 21
350.7265374837172
 31
0.0
  0
LINE
  5
9FB
330
2
100
AcDbEntity
  8
HIDS
100
AcDbLine
 10
613.9689412573455
 20
303.7583364837171
 30
0.0
 11
613.9689412573455
 21
336.2583364837171
 31
0.0
  0
LINE
  5
9FC
330
2
100
AcDbEntity
  8
HIDS
100
AcDbLine
 10
614.5689172573455
 20
372.2583364837171
 30
0.0
 11
614.5689172573455
 21
303.7583364837171
 31
0.0
  0
LINE
  5
9FD
330
2
100
AcDbEntity
  8
0
100
AcDbLine
 10
609.3109212573456
 20
337.0543264837172
 30
0.0
 11
609.3109212573456
 21
303.7583364837171
 31
0.0
  0
LINE
  5
9FE
330
2
100
AcDbEntity
  8
0
100
AcDbLine
 10
600.3364342573453
 20
339.2583364837172
 30
0.0
 11
600.3364342573453
 21
303.7583364837171
 31
0.0
  0
LINE
  5
9FF
330
2
100
AcDbEntity
  8
0
100
AcDbLine
 10
572.4689412573455
 20
303.5357714837171
 30
0.0
 11
572.4689412573455
 21
303.7583364837171
 31
0.0
  0
ARC
  5
A00
330
2
100
AcDbEntity
  8
0
100
AcDbCircle
 10
570.5689172573453
 20
304.1602534837172
 30
0.0
 40
2.0
100
AcDbArc
 50
330.0
 51
341.8051279999994
  0
ARC
  5
A01
330
2
100
AcDbEntity
  8
0
100
AcDbCircle
 10
571.7802812573457
 20
303.2583364837171
 30
0.0
 40
0.5
100
AcDbArc
 50
270.0
 51
330.0
  0
LINE
  5
A02
330
2
100
AcDbEntity
  8
0
100
AcDbLine
 10
572.2132652573455
 20
303.0083364837171
 30
0.0
 11
572.3009722573452
 21
303.1602534837172
 31
0.0
  0
LINE
  5
A03
330
2
100
AcDbEntity
  8
HIDS
100
AcDbLine
 10
613.9689412573455
 20
372.2583364837171
 30
0.0
 11
613.9689412573455
 21
352.2583364837172
 31
0.0
  0
LINE
  5
A04
330
2
100
AcDbEntity
  8
0
100
AcDbLine
 10
602.6737752573454
 20
338.8235524837172
 30
0.0
 11
605.3553552573455
 21
337.7901354837173
 31
0.0
  0
LINE
  5
A05
330
2
100
AcDbEntity
  8
0
100
AcDbLine
 10
600.3364342573453
 20
339.2583364837172
 30
0.0
 11
617.8816612573455
 21
339.2583364837172
 31
0.0
  0
LINE
  5
A06
330
2
100
AcDbEntity
  8
0
100
AcDbLine
 10
602.6737752573454
 20
349.6931204837171
 30
0.0
 11
605.3553552573455
 21
350.7265374837172
 31
0.0
  0
LINE
  5
A07
330
2
100
AcDbEntity
  8
0
100
AcDbLine
 10
600.3364342573453
 20
349.2583364837171
 30
0.0
 11
617.8816612573455
 21
349.2583364837171
 31
0.0
  0
ARC
  5
A08
330
2
100
AcDbEntity
  8
0
100
AcDbCircle
 10
600.3364342573453
 20
332.7583364837171
 30
0.0
 40
6.5
100
AcDbArc
 50
68.92466699999977
 51
90.0
  0
ARC
  5
A09
330
2
100
AcDbEntity
  8
0
100
AcDbCircle
 10
600.3364342573453
 20
355.7583364837171
 30
0.0
 40
6.5
100
AcDbArc
 50
270.0
 51
291.0753169999998
  0
ARC
  5
A0A
330
2
100
AcDbEntity
  8
0
100
AcDbCircle
 10
609.3109212573456
 20
348.0543264837172
 30
0.0
 40
11.0
100
AcDbArc
 50
248.9246669999996
 51
295.7177279999998
  0
LINE
  5
A0B
330
2
100
AcDbEntity
  8
0
100
AcDbLine
 10
614.0842362573455
 20
338.1439564837172
 30
0.0
 11
615.0610432573455
 21
338.6144764837171
 31
0.0
  0
ARC
  5
A0C
330
2
100
AcDbEntity
  8
0
100
AcDbCircle
 10
617.8816612573455
 20
332.7583364837171
 30
0.0
 40
6.5
100
AcDbArc
 50
90.0
 51
115.7177279999997
  0
ARC
  5
A0D
330
2
100
AcDbEntity
  8
0
100
AcDbCircle
 10
609.3109212573456
 20
340.4623464837171
 30
0.0
 40
11.0
100
AcDbArc
 50
64.28227200000015
 51
111.0753330000002
  0
LINE
  5
A0E
330
2
100
AcDbEntity
  8
0
100
AcDbLine
 10
614.0842362573455
 20
350.3727164837171
 30
0.0
 11
615.0610432573455
 21
349.9021964837172
 31
0.0
  0
ARC
  5
A0F
330
2
100
AcDbEntity
  8
0
100
AcDbCircle
 10
617.8816612573455
 20
355.7583364837171
 30
0.0
 40
6.5
100
AcDbArc
 50
244.282272
 51
270.0
  0
LINE
  5
A10
330
2
100
AcDbEntity
  8
0
100
AcDbLine
 10
753.7744222573454
 20
164.5921295768587
 30
0.0
 11
707.5244222573456
 21
164.5921295768587
 31
0.0
  0
LINE
  5
A11
330
2
100
AcDbEntity
  8
0
100
AcDbLine
 10
753.7744222573454
 20
114.5921295768587
 30
0.0
 11
707.5244222573456
 21
114.5921295768587
 31
0.0
  0
LINE
  5
A12
330
2
100
AcDbEntity
  8
0
100
AcDbLine
 10
751.5244222573454
 20
180.5921295768588
 30
0.0
 11
707.5244222573456
 21
180.5921295768588
 31
0.0
  0
LINE
  5
A17
330
2
100
AcDbEntity
  8
0
100
AcDbLine
 10
698.0244222573454
 20
170.8410915768588
 30
0.0
 11
624.9689412573453
 21
170.8410915768588
 31
0.0
  0
LINE
  5
A18
330
2
100
AcDbEntity
  8
0
100
AcDbLine
 10
698.0244222573454
 20
110.3431675768588
 30
0.0
 11
624.9689412573453
 21
110.3431675768588
 31
0.0
  0
LINE
  5
A19
330
2
100
AcDbEntity
  8
0
100
AcDbLine
 10
698.0244222573454
 20
178.5921295768588
 30
0.0
 11
626.3277062573457
 21
178.5921295768588
 31
0.0
  0
LINE
  5
A1A
330
2
100
AcDbEntity
  8
0
100
AcDbLine
 10
620.9689412573453
 20
129.9205595768587
 30
0.0
 11
620.9689412573453
 21
151.2636995768588
 31
0.0
  0
ARC
  5
A1B
330
2
100
AcDbEntity
  8
0
100
AcDbCircle
 10
622.9689412573454
 20
129.9205595768587
 30
0.0
 40
2.0
100
AcDbArc
 50
180.0
 51
225.0000000000003
  0
ARC
  5
A1C
330
2
100
AcDbEntity
  8
0
100
AcDbCircle
 10
622.9689412573454
 20
124.2636995768587
 30
0.0
 40
2.0
100
AcDbArc
 50
0.0
 51
45.00000000000028
  0
LINE
  5
A1D
330
2
100
AcDbEntity
  8
0
100
AcDbLine
 10
621.5547562573456
 20
128.5063445768587
 30
0.0
 11
624.3831262573454
 21
125.6779145768587
 31
0.0
  0
LINE
  5
A1E
330
2
100
AcDbEntity
  8
0
100
AcDbLine
 10
624.9689412573453
 20
174.0921295768588
 30
0.0
 11
624.9689412573453
 21
156.9205595768588
 31
0.0
  0
ARC
  5
A1F
330
2
100
AcDbEntity
  8
0
100
AcDbCircle
 10
622.9689412573454
 20
151.2636995768588
 30
0.0
 40
2.0
100
AcDbArc
 50
134.9999999999996
 51
180.0
  0
ARC
  5
A20
330
2
100
AcDbEntity
  8
0
100
AcDbCircle
 10
622.9689412573454
 20
156.9205595768588
 30
0.0
 40
2.0
100
AcDbArc
 50
314.9999999999997
 51
0.0
  0
LINE
  5
A21
330
2
100
AcDbEntity
  8
0
100
AcDbLine
 10
621.5547562573456
 20
152.6779145768587
 30
0.0
 11
624.3831262573454
 21
155.5063445768587
 31
0.0
  0
LINE
  5
A22
330
2
100
AcDbEntity
  8
0
100
AcDbLine
 10
625.6325762573457
 20
178.7168245768588
 30
0.0
 11
620.4019242573456
 21
180.6556975768588
 31
0.0
  0
ARC
  5
A23
330
2
100
AcDbEntity
  8
0
100
AcDbCircle
 10
626.3277062573457
 20
180.5921295768588
 30
0.0
 40
2.0
100
AcDbArc
 50
249.66127
 51
270.0
  0
LINE
  5
A24
330
2
100
AcDbEntity
  8
0
100
AcDbLine
 10
707.5244222573456
 20
110.3431365768587
 30
0.0
 11
698.0244222573454
 21
110.3431365768587
 31
0.0
  0
ARC
  5
A25
330
2
100
AcDbEntity
  8
HIDS
  6
SEKKEI_H
100
AcDbCircle
 10
707.5244222573456
 20
164.1215175768587
 30
0.0
 40
4.5
100
AcDbArc
 50
90.0
 51
180.0
  0
LINE
  5
A26
330
2
100
AcDbEntity
  8
HIDS
  6
SEKKEI_H
100
AcDbLine
 10
704.5244222573455
 20
160.1215175768587
 30
0.0
 11
703.0244222573456
 21
159.6215175768588
 31
0.0
  0
LINE
  5
A27
330
2
100
AcDbEntity
  8
HIDS
  6
SEKKEI_H
100
AcDbLine
 10
706.0244222573454
 20
159.1215175768587
 30
0.0
 11
704.5244222573455
 21
159.6215175768588
 31
0.0
  0
LINE
  5
A28
330
2
100
AcDbEntity
  8
HIDS
  6
SEKKEI_H
100
AcDbLine
 10
703.0244222573456
 20
164.1215175768587
 30
0.0
 11
703.0244222573456
 21
159.6215175768588
 31
0.0
  0
LINE
  5
A29
330
2
100
AcDbEntity
  8
HIDS
  6
SEKKEI_H
100
AcDbLine
 10
704.5244222573455
 20
164.1215175768587
 30
0.0
 11
704.5244222573455
 21
159.6215175768588
 31
0.0
  0
LINE
  5
A2A
330
2
100
AcDbEntity
  8
HIDS
  6
SEKKEI_H
100
AcDbLine
 10
706.0244222573454
 20
164.1215175768587
 30
0.0
 11
706.0244222573454
 21
159.1059235768588
 31
0.0
  0
ARC
  5
A2B
330
2
100
AcDbEntity
  8
HIDS
  6
SEKKEI_H
100
AcDbCircle
 10
707.5244222573456
 20
164.1215175768587
 30
0.0
 40
1.5
100
AcDbArc
 50
90.0
 51
180.0
  0
ARC
  5
A2C
330
2
100
AcDbEntity
  8
HIDS
  6
SEKKEI_H
100
AcDbCircle
 10
707.5244222573456
 20
164.1215175768587
 30
0.0
 40
3.0
100
AcDbArc
 50
90.0
 51
180.0
  0
LINE
  5
A2F
330
2
100
AcDbEntity
  8
0
100
AcDbLine
 10
707.5244222573456
 20
170.8411225768587
 30
0.0
 11
698.0244222573454
 21
170.8411225768587
 31
0.0
  0
LINE
  5
A30
330
2
100
AcDbEntity
  8
0
100
AcDbLine
 10
707.5244222573456
 20
178.5921295768588
 30
0.0
 11
698.0244222573454
 21
178.5921295768588
 31
0.0
  0
ARC
  5
A36
330
2
100
AcDbEntity
  8
0
100
AcDbCircle
 10
751.5244222573454
 20
175.5921295768588
 30
0.0
 40
5.0
100
AcDbArc
 50
0.0
 51
90.0
  0
LINE
  5
A37
330
2
100
AcDbEntity
  8
0
100
AcDbLine
 10
754.2744222573454
 20
320.2583364837171
 30
0.0
 11
707.5244222573456
 21
320.2583364837171
 31
0.0
  0
LINE
  5
A38
330
2
100
AcDbEntity
  8
0
100
AcDbLine
 10
754.2744222573454
 20
368.2583364837171
 30
0.0
 11
707.5244222573456
 21
368.2583364837171
 31
0.0
  0
LINE
  5
A39
330
2
100
AcDbEntity
  8
0
100
AcDbLine
 10
751.5244222573454
 20
304.2583364837172
 30
0.0
 11
707.5244222573456
 21
304.2583364837172
 31
0.0
  0
LINE
  5
A3A
330
2
100
AcDbEntity
  8
0
100
AcDbLine
 10
751.5244222573454
 20
384.2583364837171
 30
0.0
 11
707.5244222573456
 21
384.2583364837171
 31
0.0
  0
LINE
  5
A3B
330
2
100
AcDbEntity
  8
HIDS
100
AcDbLine
 10
622.2189412573453
 20
372.2583364837171
 30
0.0
 11
622.2189412573453
 21
384.7583364837171
 31
0.0
  0
ARC
  5
A3C
330
2
100
AcDbEntity
  8
0
100
AcDbCircle
 10
707.5244222573456
 20
376.4014944837172
 30
0.0
 40
3.0
100
AcDbArc
 50
180.0
 51
270.0
  0
ARC
  5
A3D
330
2
100
AcDbEntity
  8
0
100
AcDbCircle
 10
707.5244222573456
 20
376.4014944837172
 30
0.0
 40
4.5
100
AcDbArc
 50
180.0
 51
270.0
  0
LINE
  5
A3E
330
2
100
AcDbEntity
  8
0
100
AcDbLine
 10
707.5244222573456
 20
384.2583364837171
 30
0.0
 11
707.5244222573456
 21
351.7583364837172
 31
0.0
  0
LINE
  5
A3F
330
2
100
AcDbEntity
  8
0
100
AcDbLine
 10
698.0244222573454
 20
369.2583364837171
 30
0.0
 11
698.0244222573454
 21
382.2583364837171
 31
0.0
  0
LINE
  5
A40
330
2
100
AcDbEntity
  8
0
100
AcDbLine
 10
624.2620322573453
 20
384.7583364837171
 30
0.0
 11
624.5674522573456
 21
367.2583364837171
 31
0.0
  0
LINE
  5
A41
330
2
100
AcDbEntity
  8
0
100
AcDbLine
 10
625.9689412573455
 20
381.6376084837171
 30
0.0
 11
625.9689412573455
 21
372.2583364837171
 31
0.0
  0
LINE
  5
A42
330
2
100
AcDbEntity
  8
0
100
AcDbLine
 10
657.0245222573455
 20
321.2583364837171
 30
0.0
 11
621.9658282573455
 21
321.2583364837171
 31
0.0
  0
LINE
  5
A43
330
2
100
AcDbEntity
  8
0
100
AcDbLine
 10
657.0245222573455
 20
367.2583364837171
 30
0.0
 11
621.9658282573455
 21
367.2583364837171
 31
0.0
  0
LINE
  5
A44
330
2
100
AcDbEntity
  8
0
100
AcDbLine
 10
626.2710652573455
 20
306.2583364837172
 30
0.0
 11
698.0244222573454
 21
306.2583364837172
 31
0.0
  0
LINE
  5
A45
330
2
100
AcDbEntity
  8
HIDS
100
AcDbLine
 10
621.9689412573455
 20
303.7583364837171
 30
0.0
 11
621.9689412573455
 21
336.2583364837171
 31
0.0
  0
LINE
  5
A46
330
2
100
AcDbEntity
  8
HIDS
100
AcDbLine
 10
621.3689652573455
 20
372.2583364837171
 30
0.0
 11
621.3689652573455
 21
303.7583364837171
 31
0.0
  0
LINE
  5
A47
330
2
100
AcDbEntity
  8
0
100
AcDbLine
 10
620.4019242573456
 20
344.2583364837171
 30
0.0
 11
619.9661332573455
 21
319.2932484837172
 31
0.0
  0
LINE
  5
A48
330
2
100
AcDbEntity
  8
0
100
AcDbLine
 10
625.9689412573455
 20
367.2583364837171
 30
0.0
 11
625.9689412573455
 21
321.2583364837171
 31
0.0
  0
LINE
  5
A49
330
2
100
AcDbEntity
  8
0
100
AcDbLine
 10
624.2620322573453
 20
303.7583364837171
 30
0.0
 11
624.5674522573456
 21
321.2583364837171
 31
0.0
  0
ARC
  5
A4A
330
2
100
AcDbEntity
  8
0
100
AcDbCircle
 10
626.2710652573455
 20
304.2583364837172
 30
0.0
 40
2.0
100
AcDbArc
 50
90.0
 51
178.9999999999998
  0
ARC
  5
A4B
330
2
100
AcDbEntity
  8
0
100
AcDbCircle
 10
621.9658282573455
 20
319.2583364837171
 30
0.0
 40
2.0
100
AcDbArc
 50
90.0
 51
178.9999999999998
  0
LINE
  5
A4C
330
2
100
AcDbEntity
  8
HIDS
100
AcDbLine
 10
621.9689412573455
 20
372.2583364837171
 30
0.0
 11
621.9689412573455
 21
352.2583364837172
 31
0.0
  0
LINE
  5
A4D
330
2
100
AcDbEntity
  8
0
100
AcDbLine
 10
620.4019242573456
 20
344.2583364837171
 30
0.0
 11
619.9661332573455
 21
369.2234244837171
 31
0.0
  0
ARC
  5
A4E
330
2
100
AcDbEntity
  8
0
100
AcDbCircle
 10
621.9658282573455
 20
369.2583364837171
 30
0.0
 40
2.0
100
AcDbArc
 50
181.0
 51
270.0
  0
LINE
  5
A4F
330
2
100
AcDbEntity
  8
0
100
AcDbLine
 10
698.0244222573454
 20
306.2583364837172
 30
0.0
 11
698.0244222573454
 21
319.2583364837171
 31
0.0
  0
LINE
  5
A50
330
2
100
AcDbEntity
  8
0
100
AcDbLine
 10
707.5244222573456
 20
306.2583364837172
 30
0.0
 11
698.0244222573454
 21
306.2583364837172
 31
0.0
  0
LINE
  5
A51
330
2
100
AcDbEntity
  8
0
100
AcDbLine
 10
707.5244222573456
 20
321.2583364837171
 30
0.0
 11
707.0244222573454
 21
321.2583364837171
 31
0.0
  0
LINE
  5
A5E
330
2
100
AcDbEntity
  8
0
100
AcDbLine
 10
707.5244222573456
 20
367.2583364837171
 30
0.0
 11
707.0244222573454
 21
367.2583364837173
 31
0.0
  0
LINE
  5
A5F
330
2
100
AcDbEntity
  8
0
100
AcDbLine
 10
627.4172442573456
 20
382.2583364837171
 30
0.0
 11
698.0244222573454
 21
382.2583364837171
 31
0.0
  0
ARC
  5
A60
330
2
100
AcDbEntity
  8
0
100
AcDbCircle
 10
627.4172442573456
 20
380.2583364837171
 30
0.0
 40
2.0
100
AcDbArc
 50
90.0
 51
136.3987580000002
  0
LINE
  5
A61
330
2
100
AcDbEntity
  8
0
100
AcDbLine
 10
707.5244222573456
 20
382.2583364837171
 30
0.0
 11
698.0244222573454
 21
382.2583364837171
 31
0.0
  0
LINE
  5
A62
330
2
100
AcDbEntity
  8
HOJO
100
AcDbLine
 10
704.5244222573455
 20
380.4014944837172
 30
0.0
 11
703.0244222573456
 21
380.9014944837172
 31
0.0
  0
LINE
  5
A63
330
2
100
AcDbEntity
  8
HOJO
100
AcDbLine
 10
706.0244222573454
 20
381.4014944837172
 30
0.0
 11
704.5244222573455
 21
380.9014944837172
 31
0.0
  0
LINE
  5
A64
330
2
100
AcDbEntity
  8
0
100
AcDbLine
 10
703.0244222573456
 20
376.4014944837172
 30
0.0
 11
703.0244222573456
 21
380.9014944837172
 31
0.0
  0
LINE
  5
A65
330
2
100
AcDbEntity
  8
0
100
AcDbLine
 10
704.5244222573455
 20
376.4014944837172
 30
0.0
 11
704.5244222573455
 21
380.9014944837172
 31
0.0
  0
LINE
  5
A66
330
2
100
AcDbEntity
  8
0
100
AcDbLine
 10
706.0244222573454
 20
376.4014944837172
 30
0.0
 11
706.0244222573454
 21
381.4171194837172
 31
0.0
  0
ARC
  5
A67
330
2
100
AcDbEntity
  8
0
100
AcDbCircle
 10
707.5244222573456
 20
376.4014944837172
 30
0.0
 40
1.5
100
AcDbArc
 50
180.0
 51
270.0
  0
LINE
  5
A68
330
2
100
AcDbEntity
  8
0
100
AcDbLine
 10
756.5244222573454
 20
379.2583364837172
 30
0.0
 11
756.5244222573454
 21
309.2583364837171
 31
0.0
  0
ARC
  5
A69
330
2
100
AcDbEntity
  8
0
100
AcDbCircle
 10
751.5244222573454
 20
309.2583364837171
 30
0.0
 40
5.0
100
AcDbArc
 50
270.0
 51
0.0
  0
ARC
  5
A6A
330
2
100
AcDbEntity
  8
0
100
AcDbCircle
 10
751.5244222573454
 20
379.2583674837171
 30
0.0
 40
5.0
100
AcDbArc
 50
0.0
 51
90.0
  0
TEXT
  5
157B
330
2
100
AcDbEntity
  8
TITLE
100
AcDbText
 10
148.2387337579276
 20
41.6986878965224
 30
0.0
 40
5.0
  1
F2FB-15L-10～240-S25WT
100
AcDbText
  0
TEXT
  5
157C
330
2
100
AcDbEntity
  8
TITLE
100
AcDbText
 10
148.2387337579276
 20
59.69868789652243
 30
0.0
 40
5.0
  1
F2FB-15L-10～240-S15WT
100
AcDbText
  0
TEXT
  5
157D
330
2
100
AcDbEntity
  8
TITLE
100
AcDbText
 10
148.2387337579276
 20
68.6986878965224
 30
0.0
 40
5.0
  1
F2FB-15L-10～240-S15T
100
AcDbText
  0
TEXT
  5
157E
330
2
100
AcDbEntity
  8
TITLE
100
AcDbText
 10
148.2387337579276
 20
50.6986878965224
 30
0.0
 40
5.0
  1
F2FB-15L-10～240-S25T
100
AcDbText
  0
TEXT
  5
157F
330
2
100
AcDbEntity
  8
TITLE
100
AcDbText
 10
32.66469022559886
 20
41.72647840617663
 30
0.0
 40
5.0
  1
F2FB-15L-10～240-T25WT
100
AcDbText
  0
TEXT
  5
1580
330
2
100
AcDbEntity
  8
TITLE
100
AcDbText
 10
32.66469022559886
 20
32.72647840617661
 30
0.0
 40
5.0
  1
F2FB-15L-10～120-T40T
100
AcDbText
  0
TEXT
  5
1581
330
2
100
AcDbEntity
  8
TITLE
100
AcDbText
 10
32.66469022559886
 20
68.72647840617664
 30
0.0
 40
5.0
  1
F2FB-15L-10～240-T15T
100
AcDbText
  0
TEXT
  5
1582
330
2
100
AcDbEntity
  8
TITLE
100
AcDbText
 10
32.66469022559886
 20
59.72647840617661
 30
0.0
 40
5.0
  1
F2FB-15L-10～240-T15WT
100
AcDbText
  0
TEXT
  5
1583
330
2
100
AcDbEntity
  8
TITLE
100
AcDbText
 10
32.66469022559886
 20
50.72647840617662
 30
0.0
 40
5.0
  1
F2FB-15L-10～240-T25T
100
AcDbText
  0
TEXT
  5
1586
330
2
100
AcDbEntity
  8
TITLE
100
AcDbText
 10
32.66469022559886
 20
14.72647840617661
 30
0.0
 40
5.0
  1
F2FB-15L-10～60-T60T
100
AcDbText
  0
TEXT
  5
1587
330
2
100
AcDbEntity
  8
TITLE
100
AcDbText
 10
32.66469022559886
 20
23.72647840617661
 30
0.0
 40
5.0
  1
F2FB-15L-10～120-T40WT
100
AcDbText
  0
TEXT
  5
1588
330
2
100
AcDbEntity
  8
TITLE
100
AcDbText
 10
148.2387337579276
 20
23.69868789652241
 30
0.0
 40
5.0
  1
F2FB-15L-10～120-S40WT
100
AcDbText
  0
TEXT
  5
1589
330
2
100
AcDbEntity
  8
TITLE
100
AcDbText
 10
148.2387337579276
 20
32.69868789652241
 30
0.0
 40
5.0
  1
F2FB-15L-10～120-S40T
100
AcDbText
  0
SPLINE
  5
158C
330
2
100
AcDbEntity
  8
HOJO
100
AcDbSpline
210
0.0
220
0.0
230
1.0
 70
     8
 71
     3
 72
    27
 73
    23
 74
    21
 42
0.0000000001
 43
0.0000000001
 44
0.0000000001
 40
0.0
 40
0.0
 40
0.0
 40
0.0
 40
3.539268772771698
 40
7.2875135629958
 40
11.09046033223697
 40
14.62599423816971
 40
18.69227008921782
 40
22.26802890950269
 40
26.82672101949667
 40
31.55579532198585
 40
36.28066624743826
 40
40.14414690074345
 40
45.48003284016014
 40
49.44095400921192
 40
54.14226030623289
 40
58.62868909724443
 40
62.78426171223561
 40
66.26314687902695
 40
70.60953379849481
 40
74.30511416613952
 40
78.24621988074817
 40
82.00437648752254
 40
82.00437648752254
 40
82.00437648752254
 40
82.00437648752254
 10
330.3265968717435
 20
115.210142378906
 30
0.0
 10
331.5056632374928
 20
115.0444433573275
 30
0.0
 10
333.9334139068326
 20
114.703261620462
 30
0.0
 10
337.5892943927434
 20
115.8492168650967
 30
0.0
 10
341.2757314873147
 20
114.5896415224663
 30
0.0
 10
345.02820179531
 20
116.0396225480128
 30
0.0
 10
348.7345552370463
 20
114.4804933025794
 30
0.0
 10
352.7349730531192
 20
116.1070297901199
 30
0.0
 10
357.0159104517742
 20
114.4579932069511
 30
0.0
 10
361.6316044499095
 20
116.3258851976703
 30
0.0
 10
366.0532021664177
 20
114.5178008687327
 30
0.0
 10
370.6087727712487
 20
116.3517555279905
 30
0.0
 10
375.0128735501539
 20
114.5431084208943
 30
0.0
 10
379.5994941800998
 20
116.5821113313042
 30
0.0
 10
383.9142154346982
 20
114.1637217139278
 30
0.0
 10
388.2820427728034
 20
116.7543694755849
 30
0.0
 10
392.2436985372046
 20
114.2091011376189
 30
0.0
 10
396.0892750043841
 20
116.6473010352696
 30
0.0
 10
399.9046771374381
 20
114.3389644570829
 30
0.0
 10
403.8097912245371
 20
116.4656550666384
 30
0.0
 10
407.5423743965074
 20
114.6194937406663
 30
0.0
 10
410.0853312092074
 20
115.3042666682946
 30
0.0
 10
411.3265968717434
 20
115.6385173789061
 30
0.0
 11
330.3265968717435
 21
115.210142378906
 31
0.0
 11
333.8577858717434
 21
114.9711283789059
 31
0.0
 11
337.5765968717435
 21
115.4399393789059
 31
0.0
 11
341.3577858717435
 21
115.033720378906
 31
0.0
 11
344.8577858717435
 21
115.5337203789059
 31
0.0
 11
348.8891888717434
 21
115.002317378906
 31
0.0
 11
352.4204078717434
 21
115.564939378906
 31
0.0
 11
356.9515968717434
 21
115.064939378906
 31
0.0
 11
361.6391888717434
 21
115.689939378906
 31
0.0
 11
366.3265968717434
 21
115.096128378906
 31
0.0
 11
370.1391888717433
 21
115.721128378906
 31
0.0
 11
375.4515968717434
 21
115.221128378906
 31
0.0
 11
379.3577858717434
 21
115.877317378906
 31
0.0
 11
383.9827858717434
 21
115.033720378906
 31
0.0
 11
388.3891888717434
 21
115.877317378906
 31
0.0
 11
392.4515968717434
 21
115.002317378906
 31
0.0
 11
395.8265968717434
 21
115.8461283789059
 31
0.0
 11
400.1077858717435
 21
115.096128378906
 31
0.0
 11
403.7327858717435
 21
115.814939378906
 31
0.0
 11
407.6077858717434
 21
115.096128378906
 31
0.0
 11
411.3265968717434
 21
115.6385173789061
 31
0.0
  0
LINE
  5
1612
330
2
100
AcDbEntity
  8
CENTER
100
AcDbLine
 10
321.3314498717436
 20
140.5921295768587
 30
0.0
 11
447.0123636742082
 21
140.5921295768587
 31
0.0
  0
LINE
  5
1613
330
2
100
AcDbEntity
  8
CENTER
100
AcDbLine
 10
370.8265968717434
 20
216.4796275768586
 30
0.0
 11
370.8265968717434
 21
94.05135857685889
 31
0.0
  0
LINE
  5
1615
330
2
100
AcDbEntity
  8
CENTER
100
AcDbLine
 10
563.9689412573455
 20
393.7534834837172
 30
0.0
 11
563.9689412573455
 21
271.3867234837172
 31
0.0
  0
LINE
  5
1616
330
2
100
AcDbEntity
  8
CENTER
100
AcDbLine
 10
517.4281702573455
 20
344.2583364837171
 30
0.0
 11
765.0449522255796
 21
344.2583364837171
 31
0.0
  0
LINE
  5
1619
330
2
100
AcDbEntity
  8
CENTER
100
AcDbLine
 10
617.9689412573455
 20
115.0707675768587
 30
0.0
 11
617.9689412573455
 21
99.11349157685885
 31
0.0
  0
LINE
  5
161A
330
2
100
AcDbEntity
  8
CENTER
100
AcDbLine
 10
531.9689412573453
 20
115.0707675768587
 30
0.0
 11
531.9689412573453
 21
99.11349157685885
 31
0.0
  0
LINE
  5
161B
330
2
100
AcDbEntity
  8
CENTER
100
AcDbLine
 10
563.9689412573455
 20
110.3856170768587
 30
0.0
 11
563.9689412573455
 21
170.7986420768588
 31
0.0
  0
LINE
  5
161C
330
2
100
AcDbEntity
  8
CENTER
100
AcDbLine
 10
539.9475792573455
 20
107.0921295768587
 30
0.0
 11
523.9903032573453
 21
107.0921295768587
 31
0.0
  0
LINE
  5
161D
330
2
100
AcDbEntity
  8
CENTER
100
AcDbLine
 10
625.9475792573453
 20
107.0921295768587
 30
0.0
 11
609.9903032573453
 21
107.0921295768587
 31
0.0
  0
LINE
  5
161E
330
2
100
AcDbEntity
  8
CENTER
100
AcDbLine
 10
531.9689412573453
 20
182.0707675768588
 30
0.0
 11
531.9689412573453
 21
166.1134915768588
 31
0.0
  0
LINE
  5
161F
330
2
100
AcDbEntity
  8
CENTER
100
AcDbLine
 10
539.9475792573455
 20
174.0921295768588
 30
0.0
 11
523.9903032573453
 21
174.0921295768588
 31
0.0
  0
LINE
  5
1620
330
2
100
AcDbEntity
  8
CENTER
100
AcDbLine
 10
617.9689412573455
 20
182.0707675768588
 30
0.0
 11
617.9689412573455
 21
166.1134915768588
 31
0.0
  0
LINE
  5
1621
330
2
100
AcDbEntity
  8
CENTER
100
AcDbLine
 10
625.9475792573453
 20
174.0921295768588
 30
0.0
 11
609.9903032573453
 21
174.0921295768588
 31
0.0
  0
LINE
  5
1622
330
2
100
AcDbEntity
  8
CENTER
100
AcDbLine
 10
168.0574442818589
 20
115.0707675768587
 30
0.0
 11
168.0574442818589
 21
99.11349157685885
 31
0.0
  0
LINE
  5
1623
330
2
100
AcDbEntity
  8
CENTER
100
AcDbLine
 10
254.057444281859
 20
115.0707675768587
 30
0.0
 11
254.057444281859
 21
99.11349157685885
 31
0.0
  0
LINE
  5
1624
330
2
100
AcDbEntity
  8
CENTER
100
AcDbLine
 10
159.9851022818589
 20
164.0921295768588
 30
0.0
 11
171.1297862818589
 21
164.0921295768588
 31
0.0
  0
LINE
  5
1625
330
2
100
AcDbEntity
  8
CENTER
100
AcDbLine
 10
176.036082281859
 20
174.0921295768588
 30
0.0
 11
160.0788062818589
 21
174.0921295768588
 31
0.0
  0
LINE
  5
1626
330
2
100
AcDbEntity
  8
CENTER
100
AcDbLine
 10
176.036082281859
 20
107.0921295768587
 30
0.0
 11
160.0788062818589
 21
107.0921295768587
 31
0.0
  0
LINE
  5
1627
330
2
100
AcDbEntity
  8
CENTER
100
AcDbLine
 10
159.9851022818589
 20
117.0921295768587
 30
0.0
 11
171.1297862818589
 21
117.0921295768587
 31
0.0
  0
LINE
  5
1628
330
2
100
AcDbEntity
  8
CENTER
100
AcDbLine
 10
165.557444281859
 20
158.5197875768588
 30
0.0
 11
165.557444281859
 21
169.6644715768587
 31
0.0
  0
LINE
  5
1629
330
2
100
AcDbEntity
  8
CENTER
100
AcDbLine
 10
165.557444281859
 20
111.5197875768587
 30
0.0
 11
165.557444281859
 21
122.6644715768587
 31
0.0
  0
LINE
  5
162A
330
2
100
AcDbEntity
  8
CENTER
100
AcDbLine
 10
168.0574442818589
 20
182.0707675768588
 30
0.0
 11
168.0574442818589
 21
166.1134915768588
 31
0.0
  0
LINE
  5
162B
330
2
100
AcDbEntity
  8
CENTER
100
AcDbLine
 10
256.557444281859
 20
158.5197875768588
 30
0.0
 11
256.557444281859
 21
169.6644715768587
 31
0.0
  0
LINE
  5
162C
330
2
100
AcDbEntity
  8
CENTER
100
AcDbLine
 10
222.057444281859
 20
110.4852565768587
 30
0.0
 11
222.057444281859
 21
170.6990025768588
 31
0.0
  0
LINE
  5
162D
330
2
100
AcDbEntity
  8
CENTER
100
AcDbLine
 10
256.557444281859
 20
111.5197875768587
 30
0.0
 11
256.557444281859
 21
122.6644715768587
 31
0.0
  0
LINE
  5
162E
330
2
100
AcDbEntity
  8
CENTER
100
AcDbLine
 10
262.036082281859
 20
107.0921295768587
 30
0.0
 11
246.0788062818588
 21
107.0921295768587
 31
0.0
  0
LINE
  5
162F
330
2
100
AcDbEntity
  8
CENTER
100
AcDbLine
 10
250.985102281859
 20
117.0921295768587
 30
0.0
 11
262.1297862818589
 21
117.0921295768587
 31
0.0
  0
LINE
  5
1630
330
2
100
AcDbEntity
  8
CENTER
100
AcDbLine
 10
254.057444281859
 20
182.0707675768588
 30
0.0
 11
254.057444281859
 21
166.1134915768588
 31
0.0
  0
LINE
  5
1631
330
2
100
AcDbEntity
  8
CENTER
100
AcDbLine
 10
250.985102281859
 20
164.0921295768588
 30
0.0
 11
262.1297862818589
 21
164.0921295768588
 31
0.0
  0
LINE
  5
1632
330
2
100
AcDbEntity
  8
CENTER
100
AcDbLine
 10
262.036082281859
 20
174.0921295768588
 30
0.0
 11
246.0788062818588
 21
174.0921295768588
 31
0.0
  0
LINE
  5
21DE
330
2
100
AcDbEntity
  8
0
100
AcDbLine
 10
345.8265968717434
 20
192.0921295768586
 30
0.0
 11
395.8265818717435
 21
192.0921295768586
 31
0.0
  0
LINE
  5
21DF
330
2
100
AcDbEntity
  8
0
100
AcDbLine
 10
345.8265968717434
 20
182.0921295768588
 30
0.0
 11
395.8265818717435
 21
182.0921295768588
 31
0.0
  0
LINE
  5
21E0
330
2
100
AcDbEntity
  8
0
100
AcDbLine
 10
346.8265968717434
 20
211.0921275768586
 30
0.0
 11
390.9886880557174
 21
211.0921275768586
 31
0.0
  0
LINE
  5
21E1
330
2
100
AcDbEntity
  8
0
100
AcDbLine
 10
345.8265968717434
 20
210.0921275768586
 30
0.0
 11
388.3265818717434
 21
210.0921275768586
 31
0.0
  0
LINE
  5
21E3
330
2
100
AcDbEntity
  8
CENTER
100
AcDbLine
 10
340.782989890535
 20
201.5921275768586
 30
0.0
 11
400.8702038529519
 21
201.5921275768586
 31
0.0
  0
LINE
  5
2209
330
2
100
AcDbEntity
  8
0
100
AcDbLine
 10
83.83985609788465
 20
211.0921275768586
 30
0.0
 11
128.001947281859
 21
211.0921275768586
 31
0.0
  0
LINE
  5
220A
330
2
100
AcDbEntity
  8
0
100
AcDbLine
 10
80.50194028185911
 20
180.0921295768588
 30
0.0
 11
127.001947281859
 21
180.0921295768588
 31
0.0
  0
LINE
  5
220B
330
2
100
AcDbEntity
  8
0
100
AcDbLine
 10
77.00194028185911
 20
192.0921295768586
 30
0.0
 11
129.001947281859
 21
192.0921295768586
 31
0.0
  0
LINE
  5
220C
330
2
100
AcDbEntity
  8
0
100
AcDbLine
 10
79.00194028185911
 20
182.0921295768588
 30
0.0
 11
129.001947281859
 21
182.0921295768588
 31
0.0
  0
LINE
  5
220D
330
2
100
AcDbEntity
  8
0
100
AcDbLine
 10
86.50194071043006
 20
210.0921275768586
 30
0.0
 11
129.001954281859
 21
210.0921275768586
 31
0.0
  0
LINE
  5
220E
330
2
100
AcDbEntity
  8
CENTER
100
AcDbLine
 10
71.05819128185911
 20
201.5921275768586
 30
0.0
 11
132.9542502455972
 21
201.5921275768586
 31
0.0
  0
ARC
  5
2210
330
2
100
AcDbEntity
  8
0
100
AcDbCircle
 10
78.00195528185913
 20
208.0921275768586
 30
0.0
 40
1.0
100
AcDbArc
 50
90.0
 51
180.0
  0
LINE
  5
2211
330
2
100
AcDbEntity
  8
0
100
AcDbLine
 10
77.00195528185912
 20
208.0921275768586
 30
0.0
 11
77.00194028185911
 21
192.0921295768586
 31
0.0
  0
LINE
  5
2212
330
2
100
AcDbEntity
  8
0
100
AcDbLine
 10
73.50195528185913
 20
205.5921275768586
 30
0.0
 11
73.50195528185913
 21
197.5921275768586
 31
0.0
  0
LINE
  5
2213
330
2
100
AcDbEntity
  8
0
100
AcDbLine
 10
73.50194028185909
 20
197.5921275768586
 30
0.0
 11
77.00194028185911
 21
196.0921275768586
 31
0.0
  0
LINE
  5
2214
330
2
100
AcDbEntity
  8
0
100
AcDbLine
 10
73.50195528185913
 20
205.5921275768586
 30
0.0
 11
77.00195528185912
 21
207.0921275768586
 31
0.0
  0
LINE
  5
2215
330
2
100
AcDbEntity
  8
CENTER
100
AcDbLine
 10
104.001947281859
 20
175.3984285768588
 30
0.0
 11
104.001947281859
 21
216.4796275768586
 31
0.0
  0
LINE
  5
2216
330
2
100
AcDbEntity
  8
0
100
AcDbLine
 10
79.00194028185911
 20
210.0921275768588
 30
0.0
 11
79.00194028185911
 21
182.0921295768588
 31
0.0
  0
LINE
  5
2217
330
2
100
AcDbEntity
  8
0
100
AcDbLine
 10
80.50194028185911
 20
180.0921295768588
 30
0.0
 11
80.50194028185911
 21
178.5921295768588
 31
0.0
  0
LINE
  5
2219
330
2
100
AcDbEntity
  8
0
100
AcDbLine
 10
79.00194028185911
 20
182.0921295768588
 30
0.0
 11
81.00194028185908
 21
180.0921295768588
 31
0.0
  0
ARC
  5
221A
330
2
100
AcDbEntity
  8
0
100
AcDbCircle
 10
82.5019472818592
 20
202.1921275768586
 30
0.0
 40
9.0
100
AcDbArc
 50
74.11914999171883
 51
105.8808500082811
  0
LINE
  5
221B
330
2
100
AcDbEntity
  8
0
100
AcDbLine
 10
82.78944728231426
 20
209.6751275768585
 30
0.0
 11
82.21444728140415
 21
209.6751275768585
 31
0.0
  0
LINE
  5
221C
330
2
100
AcDbEntity
  8
0
100
AcDbLine
 10
86.50194071043006
 20
208.5921275768586
 30
0.0
 11
79.00194071043006
 21
208.5921275768586
 31
0.0
  0
LINE
  5
221D
330
2
100
AcDbEntity
  8
0
100
AcDbLine
 10
80.47220745869509
 20
210.7445691142363
 30
0.0
 11
80.45194728185919
 21
210.9555458596978
 31
0.0
  0
SPLINE
  5
221E
330
2
100
AcDbEntity
  8
0
100
AcDbSpline
210
0.0
220
0.0
230
1.0
 70
     8
 71
     3
 72
    11
 73
     7
 74
     0
 42
0.0000000001
 43
0.0000000001
 40
0.0
 40
0.0
 40
0.0
 40
0.0
 40
0.4601364636755307
 40
1.04988694485363
 40
1.713742833862792
 40
2.320347933405154
 40
2.320347933405154
 40
2.320347933405154
 40
2.320347933405178
 10
82.21444728140415
 20
209.6751275768585
 30
0.0
 10
82.19202962429632
 20
209.8301510165386
 30
0.0
 10
82.14087956906302
 20
210.183865834456
 30
0.0
 10
81.70499440752946
 20
210.6085935060578
 30
0.0
 10
81.099943692522
 20
210.8277806860236
 30
0.0
 10
80.67475906834619
 20
210.758789386413
 30
0.0
 10
80.47220745869509
 20
210.7445691142363
 30
0.0
  0
LINE
  5
221F
330
2
100
AcDbEntity
  8
0
100
AcDbLine
 10
79.0019472818592
 20
208.5921275768586
 30
0.0
 11
79.09988342074702
 21
209.711542766677
 31
0.0
  0
ARC
  5
2220
330
2
100
AcDbEntity
  8
0
100
AcDbCircle
 10
80.39493652826616
 20
209.598240301105
 30
0.0
 40
1.3
100
AcDbArc
 50
105.8808500082811
 51
175.0
  0
LINE
  5
2221
330
2
100
AcDbEntity
  8
0
100
AcDbLine
 10
80.00194071043006
 20
211.0921275768586
 30
0.0
 11
79.00194028185906
 21
210.0921275768586
 31
0.0
  0
LINE
  5
2222
330
2
100
AcDbEntity
  8
0
100
AcDbLine
 10
79.00194028185911
 20
210.0921275768588
 30
0.0
 11
80.00194028185909
 21
211.0921275768588
 31
0.0
  0
LINE
  5
2223
330
2
100
AcDbEntity
  8
0
100
AcDbLine
 10
78.00194028185909
 20
209.0921275768586
 30
0.0
 11
79.00194028185911
 21
209.0921275768586
 31
0.0
  0
LINE
  5
2224
330
2
100
AcDbEntity
  8
0
100
AcDbLine
 10
80.00194028185909
 20
211.0921275768588
 30
0.0
 11
81.16403846583379
 21
211.0921275768586
 31
0.0
  0
LINE
  5
2225
330
2
100
AcDbEntity
  8
0
100
AcDbLine
 10
86.00194728185909
 20
208.5921275768586
 30
0.0
 11
85.90401114297128
 21
209.711542766677
 31
0.0
  0
ARC
  5
2226
330
2
100
AcDbEntity
  8
0
100
AcDbCircle
 10
84.60895803545202
 20
209.598240301105
 30
0.0
 40
1.3
100
AcDbArc
 50
4.999999999999743
 51
74.11914999171883
  0
LINE
  5
2227
330
2
100
AcDbEntity
  8
0
100
AcDbLine
 10
84.5316871050233
 20
210.7445691142363
 30
0.0
 11
84.5519472818592
 21
210.9555458596978
 31
0.0
  0
SPLINE
  5
2228
330
2
100
AcDbEntity
  8
0
100
AcDbSpline
210
0.0
220
0.0
230
1.0
 70
     8
 71
     3
 72
    11
 73
     7
 74
     0
 42
0.0000000001
 43
0.0000000001
 40
0.0
 40
0.0
 40
0.0
 40
0.0
 40
0.4601364636755307
 40
1.04988694485363
 40
1.713742833862792
 40
2.320347933405154
 40
2.320347933405154
 40
2.320347933405154
 40
2.320347933405178
 10
82.78944728231426
 20
209.6751275768585
 30
0.0
 10
82.81186493942209
 20
209.8301510165386
 30
0.0
 10
82.86301499465537
 20
210.183865834456
 30
0.0
 10
83.29890015618895
 20
210.6085935060578
 30
0.0
 10
83.90395087119641
 20
210.8277806860236
 30
0.0
 10
84.32913549537222
 20
210.758789386413
 30
0.0
 10
84.5316871050233
 20
210.7445691142363
 30
0.0
  0
LINE
  5
2229
330
2
100
AcDbEntity
  8
0
100
AcDbLine
 10
87.00194071043005
 20
211.0921275768586
 30
0.0
 11
86.50194071043006
 21
210.5921275768586
 31
0.0
  0
LINE
  5
222A
330
2
100
AcDbEntity
  8
0
100
AcDbLine
 10
86.50194071043006
 20
208.5921275768586
 30
0.0
 11
86.50194071043006
 21
210.5921275768586
 31
0.0
  0
LINE
  5
222B
330
2
100
AcDbEntity
  8
0
100
AcDbLine
 10
86.50194071043006
 20
210.5921275768586
 30
0.0
 11
85.44692467147937
 21
210.5921275768586
 31
0.0
  0
LINE
  5
222C
330
2
100
AcDbEntity
  8
0
100
AcDbLine
 10
129.001947281859
 20
210.0921275768586
 30
0.0
 11
129.001947281859
 21
182.0921295768588
 31
0.0
  0
LINE
  5
222D
330
2
100
AcDbEntity
  8
0
100
AcDbLine
 10
126.5019472818589
 20
180.0921295768588
 30
0.0
 11
126.5019472818589
 21
178.5921295768588
 31
0.0
  0
LINE
  5
222E
330
2
100
AcDbEntity
  8
0
100
AcDbLine
 10
127.001947281859
 20
180.0921295768588
 30
0.0
 11
129.001947281859
 21
182.0921295768588
 31
0.0
  0
LINE
  5
222F
330
2
100
AcDbEntity
  8
0
100
AcDbLine
 10
128.001954281859
 20
211.0921275768586
 30
0.0
 11
129.001954281859
 21
210.0921275768586
 31
0.0
  0
LINE
  5
2230
330
2
100
AcDbEntity
  8
0
100
AcDbLine
 10
345.8265968717434
 20
210.0921275768586
 30
0.0
 11
345.8265968717434
 21
182.0921295768588
 31
0.0
  0
LINE
  5
2232
330
2
100
AcDbEntity
  8
0
100
AcDbLine
 10
345.8265968717434
 20
182.0921295768588
 30
0.0
 11
347.238337224218
 21
180.6803892243841
 31
0.0
  0
LINE
  5
2233
330
2
100
AcDbEntity
  8
0
100
AcDbLine
 10
346.8265968717434
 20
211.0921275768586
 30
0.0
 11
345.8265968717434
 21
210.0921275768586
 31
0.0
  0
LINE
  5
2235
330
2
100
AcDbEntity
  8
0
100
AcDbLine
 10
395.8265818717435
 20
210.0921275768586
 30
0.0
 11
395.8265818717435
 21
182.0921295768588
 31
0.0
  0
LINE
  5
2238
330
2
100
AcDbEntity
  8
0
100
AcDbLine
 10
394.4148417766065
 20
180.6803894817219
 30
0.0
 11
395.8265818717435
 21
182.0921295768588
 31
0.0
  0
ARC
  5
2239
330
2
100
AcDbEntity
  8
0
100
AcDbCircle
 10
392.3265968717434
 20
202.1921275768586
 30
0.0
 40
9.0
100
AcDbArc
 50
74.11914999171883
 51
105.8808500082811
  0
SPLINE
  5
223A
330
2
100
AcDbEntity
  8
0
100
AcDbSpline
210
0.0
220
0.0
230
1.0
 70
     8
 71
     3
 72
    11
 73
     7
 74
     0
 42
0.0000000001
 43
0.0000000001
 40
0.0
 40
0.0
 40
0.0
 40
0.0
 40
0.4601364636755307
 40
1.04988694485363
 40
1.713742833862792
 40
2.320347933405154
 40
2.320347933405154
 40
2.320347933405154
 40
2.320347933405178
 10
392.0390968712885
 20
209.6751275768588
 30
0.0
 10
392.0166792141806
 20
209.8301510165386
 30
0.0
 10
391.9655291589474
 20
210.183865834456
 30
0.0
 10
391.5296439974138
 20
210.6085935060578
 30
0.0
 10
390.9245932824063
 20
210.8277806860237
 30
0.0
 10
390.4994086582305
 20
210.758789386413
 30
0.0
 10
390.2968570485794
 20
210.7445691142363
 30
0.0
  0
LINE
  5
223B
330
2
100
AcDbEntity
  8
0
100
AcDbLine
 10
388.3265818717434
 20
208.5921275768586
 30
0.0
 11
395.8265818717435
 21
208.5921275768588
 31
0.0
  0
LINE
  5
223C
330
2
100
AcDbEntity
  8
0
100
AcDbLine
 10
390.2968570485794
 20
210.7445691142363
 30
0.0
 11
390.2765968717435
 21
210.9555458596978
 31
0.0
  0
LINE
  5
223D
330
2
100
AcDbEntity
  8
0
100
AcDbLine
 10
388.8265968717434
 20
208.5921275768588
 30
0.0
 11
388.9245330106313
 21
209.711542766677
 31
0.0
  0
ARC
  5
223E
330
2
100
AcDbEntity
  8
0
100
AcDbCircle
 10
390.2195861181504
 20
209.598240301105
 30
0.0
 40
1.3
100
AcDbArc
 50
105.8808500082811
 51
175.0
  0
LINE
  5
223F
330
2
100
AcDbEntity
  8
0
100
AcDbLine
 10
387.8265818717435
 20
211.0921275768586
 30
0.0
 11
388.3265818717434
 21
210.5921275768586
 31
0.0
  0
LINE
  5
2240
330
2
100
AcDbEntity
  8
0
100
AcDbLine
 10
388.3265818717434
 20
208.5921275768586
 30
0.0
 11
388.3265818717434
 21
210.5921275768588
 31
0.0
  0
LINE
  5
2241
330
2
100
AcDbEntity
  8
0
100
AcDbLine
 10
388.3265818717434
 20
210.5921275768586
 30
0.0
 11
389.381619482123
 21
210.5921275768586
 31
0.0
  0
LINE
  5
2242
330
2
100
AcDbEntity
  8
0
100
AcDbLine
 10
393.6645056877697
 20
211.0921275768586
 30
0.0
 11
394.8265818717434
 21
211.0921275768586
 31
0.0
  0
LINE
  5
2243
330
2
100
AcDbEntity
  8
0
100
AcDbLine
 10
395.8265968717434
 20
208.5921275768588
 30
0.0
 11
395.7286607328555
 21
209.711542766677
 31
0.0
  0
ARC
  5
2244
330
2
100
AcDbEntity
  8
0
100
AcDbCircle
 10
394.4336076253363
 20
209.598240301105
 30
0.0
 40
1.3
100
AcDbArc
 50
4.999999999999743
 51
74.11914999171883
  0
LINE
  5
2245
330
2
100
AcDbEntity
  8
0
100
AcDbLine
 10
394.3563366949076
 20
210.7445691142363
 30
0.0
 11
394.3765968717436
 21
210.9555458596978
 31
0.0
  0
LINE
  5
2246
330
2
100
AcDbEntity
  8
0
100
AcDbLine
 10
392.6140968721986
 20
209.6751275768588
 30
0.0
 11
392.0390968712885
 21
209.6751275768588
 31
0.0
  0
SPLINE
  5
2247
330
2
100
AcDbEntity
  8
0
100
AcDbSpline
210
0.0
220
0.0
230
1.0
 70
     8
 71
     3
 72
    11
 73
     7
 74
     0
 42
0.0000000001
 43
0.0000000001
 40
0.0
 40
0.0
 40
0.0
 40
0.0
 40
0.4601364636755307
 40
1.04988694485363
 40
1.713742833862792
 40
2.320347933405154
 40
2.320347933405154
 40
2.320347933405154
 40
2.320347933405178
 10
392.6140968721986
 20
209.6751275768588
 30
0.0
 10
392.6365145293063
 20
209.8301510165386
 30
0.0
 10
392.6876645845397
 20
210.183865834456
 30
0.0
 10
393.1235497460733
 20
210.6085935060578
 30
0.0
 10
393.7286004610807
 20
210.8277806860237
 30
0.0
 10
394.1537850852565
 20
210.758789386413
 30
0.0
 10
394.3563366949076
 20
210.7445691142363
 30
0.0
  0
LINE
  5
2248
330
2
100
AcDbEntity
  8
0
100
AcDbLine
 10
394.8265818717434
 20
211.0921275768586
 30
0.0
 11
395.8265818717435
 21
210.0921275768586
 31
0.0
  0
LINE
  5
224A
330
2
100
AcDbEntity
  8
0
100
AcDbLine
 10
661.8623240733709
 20
211.0921275768586
 30
0.0
 11
706.0244152573455
 21
211.0921275768586
 31
0.0
  0
LINE
  5
224B
330
2
100
AcDbEntity
  8
0
100
AcDbLine
 10
664.5244156859165
 20
210.0921275768586
 30
0.0
 11
707.0244222573456
 21
210.0921275768586
 31
0.0
  0
LINE
  5
224D
330
2
100
AcDbEntity
  8
0
100
AcDbLine
 10
707.0244222573456
 20
182.0921295768588
 30
0.0
 11
657.0244152573454
 21
182.0921295768588
 31
0.0
  0
LINE
  5
224E
330
2
100
AcDbEntity
  8
0
100
AcDbLine
 10
705.5244222573454
 20
180.0921295768588
 30
0.0
 11
659.0244152573453
 21
180.0921295768588
 31
0.0
  0
LINE
  5
224F
330
2
100
AcDbEntity
  8
CENTER
100
AcDbLine
 10
714.9681712573456
 20
201.5921275768586
 30
0.0
 11
653.0721122936074
 21
201.5921275768586
 31
0.0
  0
LINE
  5
2250
330
2
100
AcDbEntity
  8
0
100
AcDbLine
 10
709.0244222573454
 20
192.0921295768586
 30
0.0
 11
657.0244152573454
 21
192.0921295768586
 31
0.0
  0
LINE
  5
2251
330
2
100
AcDbEntity
  8
0
100
AcDbLine
 10
657.0244152573454
 20
210.0921275768586
 30
0.0
 11
657.0244152573454
 21
182.0921295768588
 31
0.0
  0
LINE
  5
2252
330
2
100
AcDbEntity
  8
CENTER
100
AcDbLine
 10
682.0244152573454
 20
175.3984285768588
 30
0.0
 11
682.0244152573454
 21
216.4796275768586
 31
0.0
  0
LINE
  5
2253
330
2
100
AcDbEntity
  8
0
100
AcDbLine
 10
659.5244152573455
 20
180.0921295768588
 30
0.0
 11
659.5244152573455
 21
178.5921295768588
 31
0.0
  0
LINE
  5
2254
330
2
100
AcDbEntity
  8
0
100
AcDbLine
 10
659.0244152573453
 20
180.0921295768588
 30
0.0
 11
657.0244152573454
 21
182.0921295768588
 31
0.0
  0
LINE
  5
2255
330
2
100
AcDbEntity
  8
0
100
AcDbLine
 10
664.5244156859165
 20
210.5921275768586
 30
0.0
 11
663.4693926469657
 21
210.5921275768586
 31
0.0
  0
LINE
  5
2256
330
2
100
AcDbEntity
  8
0
100
AcDbLine
 10
664.5244156859165
 20
208.5921275768586
 30
0.0
 11
657.0244156859165
 21
208.5921275768586
 31
0.0
  0
ARC
  5
2257
330
2
100
AcDbEntity
  8
0
100
AcDbCircle
 10
660.5244152573455
 20
202.1921275768586
 30
0.0
 40
9.0
100
AcDbArc
 50
74.11914999171883
 51
105.8808500082811
  0
SPLINE
  5
2258
330
2
100
AcDbEntity
  8
0
100
AcDbSpline
210
0.0
220
0.0
230
1.0
 70
     8
 71
     3
 72
    11
 73
     7
 74
     0
 42
0.0000000001
 43
0.0000000001
 40
0.0
 40
0.0
 40
0.0
 40
0.0
 40
0.4601364636755307
 40
1.04988694485363
 40
1.713742833862792
 40
2.320347933405154
 40
2.320347933405154
 40
2.320347933405154
 40
2.320347933405178
 10
660.2369152568906
 20
209.6751275768585
 30
0.0
 10
660.2144975997827
 20
209.8301510165386
 30
0.0
 10
660.1633475445494
 20
210.183865834456
 30
0.0
 10
659.7274623830157
 20
210.6085935060578
 30
0.0
 10
659.1224116680083
 20
210.8277806860236
 30
0.0
 10
658.6972270438325
 20
210.7587893864129
 30
0.0
 10
658.4946754341815
 20
210.7445691142363
 30
0.0
  0
LINE
  5
2259
330
2
100
AcDbEntity
  8
0
100
AcDbLine
 10
658.4946754341815
 20
210.7445691142363
 30
0.0
 11
658.4744152573455
 21
210.9555458596978
 31
0.0
  0
LINE
  5
225A
330
2
100
AcDbEntity
  8
0
100
AcDbLine
 10
657.0244152573454
 20
208.5921275768586
 30
0.0
 11
657.1223513962332
 21
209.711542766677
 31
0.0
  0
ARC
  5
225B
330
2
100
AcDbEntity
  8
0
100
AcDbCircle
 10
658.4174045037525
 20
209.598240301105
 30
0.0
 40
1.3
100
AcDbArc
 50
105.8808500082811
 51
175.0
  0
LINE
  5
225C
330
2
100
AcDbEntity
  8
0
100
AcDbLine
 10
657.0244152573454
 20
210.0921275768586
 30
0.0
 11
658.0244152573457
 21
211.0921275768586
 31
0.0
  0
LINE
  5
225D
330
2
100
AcDbEntity
  8
0
100
AcDbLine
 10
658.0244152573457
 20
211.0921275768586
 30
0.0
 11
659.1865064413203
 21
211.0921275768586
 31
0.0
  0
LINE
  5
225E
330
2
100
AcDbEntity
  8
0
100
AcDbLine
 10
664.0244152573455
 20
208.5921275768586
 30
0.0
 11
663.9264791184577
 21
209.711542766677
 31
0.0
  0
ARC
  5
225F
330
2
100
AcDbEntity
  8
0
100
AcDbCircle
 10
662.6314260109382
 20
209.598240301105
 30
0.0
 40
1.3
100
AcDbArc
 50
4.999999999999743
 51
74.11914999171883
  0
LINE
  5
2260
330
2
100
AcDbEntity
  8
0
100
AcDbLine
 10
662.5541550805096
 20
210.7445691142363
 30
0.0
 11
662.5744152573457
 21
210.9555458596978
 31
0.0
  0
LINE
  5
2261
330
2
100
AcDbEntity
  8
0
100
AcDbLine
 10
660.8119152578004
 20
209.6751275768585
 30
0.0
 11
660.2369152568906
 21
209.6751275768585
 31
0.0
  0
SPLINE
  5
2262
330
2
100
AcDbEntity
  8
0
100
AcDbSpline
210
0.0
220
0.0
230
1.0
 70
     8
 71
     3
 72
    11
 73
     7
 74
     0
 42
0.0000000001
 43
0.0000000001
 40
0.0
 40
0.0
 40
0.0
 40
0.0
 40
0.4601364636755307
 40
1.04988694485363
 40
1.713742833862792
 40
2.320347933405154
 40
2.320347933405154
 40
2.320347933405154
 40
2.320347933405178
 10
660.8119152578004
 20
209.6751275768585
 30
0.0
 10
660.8343329149085
 20
209.8301510165386
 30
0.0
 10
660.8854829701417
 20
210.183865834456
 30
0.0
 10
661.3213681316753
 20
210.6085935060578
 30
0.0
 10
661.9264188466827
 20
210.8277806860236
 30
0.0
 10
662.3516034708586
 20
210.7587893864129
 30
0.0
 10
662.5541550805096
 20
210.7445691142363
 30
0.0
  0
LINE
  5
2263
330
2
100
AcDbEntity
  8
0
100
AcDbLine
 10
665.0244156859165
 20
211.0921275768586
 30
0.0
 11
664.5244156859165
 21
210.5921275768586
 31
0.0
  0
LINE
  5
2264
330
2
100
AcDbEntity
  8
0
100
AcDbLine
 10
664.5244156859165
 20
208.5921275768586
 30
0.0
 11
664.5244156859165
 21
210.5921275768586
 31
0.0
  0
LINE
  5
2266
330
2
100
AcDbEntity
  8
0
100
AcDbLine
 10
707.0244222573456
 20
210.0921275768586
 30
0.0
 11
707.0244222573456
 21
182.0921295768588
 31
0.0
  0
LINE
  5
2267
330
2
100
AcDbEntity
  8
0
100
AcDbLine
 10
712.5244072573454
 20
205.5921275768586
 30
0.0
 11
712.5244072573454
 21
197.5921275768586
 31
0.0
  0
LINE
  5
2268
330
2
100
AcDbEntity
  8
0
100
AcDbLine
 10
709.0244072573454
 20
208.0921275768586
 30
0.0
 11
709.0244222573454
 21
192.0921295768586
 31
0.0
  0
LINE
  5
226A
330
2
100
AcDbEntity
  8
0
100
AcDbLine
 10
705.5244222573454
 20
180.0921295768588
 30
0.0
 11
705.5244222573454
 21
178.5921295768588
 31
0.0
  0
LINE
  5
226B
330
2
100
AcDbEntity
  8
0
100
AcDbLine
 10
712.5244222573456
 20
197.5921275768586
 30
0.0
 11
709.0244222573454
 21
196.0921275768586
 31
0.0
  0
LINE
  5
226C
330
2
100
AcDbEntity
  8
0
100
AcDbLine
 10
707.0244222573456
 20
182.0921295768588
 30
0.0
 11
705.0244222573454
 21
180.0921295768588
 31
0.0
  0
LINE
  5
226D
330
2
100
AcDbEntity
  8
0
100
AcDbLine
 10
712.5244072573454
 20
205.5921275768586
 30
0.0
 11
709.0244072573454
 21
207.0921275768586
 31
0.0
  0
LINE
  5
226E
330
2
100
AcDbEntity
  8
0
100
AcDbLine
 10
706.0244222573454
 20
211.0921275768586
 30
0.0
 11
707.0244222573456
 21
210.0921275768586
 31
0.0
  0
ARC
  5
226F
330
2
100
AcDbEntity
  8
0
100
AcDbCircle
 10
708.0244072573454
 20
208.0921275768586
 30
0.0
 40
1.0
100
AcDbArc
 50
0.0
 51
90.0
  0
LINE
  5
2270
330
2
100
AcDbEntity
  8
0
100
AcDbLine
 10
708.0244222573456
 20
209.0921275768586
 30
0.0
 11
707.0244222573456
 21
209.0921275768586
 31
0.0
  0
LINE
  5
2271
330
2
100
AcDbEntity
  8
0
100
AcDbLine
 10
659.4243172573453
 20
367.8583424837171
 30
0.0
 11
699.5244222573454
 21
367.8583424837171
 31
0.0
  0
LINE
  5
2272
330
2
100
AcDbEntity
  8
0
100
AcDbLine
 10
705.0244222573454
 20
369.2583364837171
 30
0.0
 11
659.0245222573456
 21
369.2583364837171
 31
0.0
  0
LINE
  5
2273
330
2
100
AcDbEntity
  8
0
100
AcDbLine
 10
705.0244222573454
 20
319.2583364837171
 30
0.0
 11
659.0245222573456
 21
319.2583364837171
 31
0.0
  0
LINE
  5
2274
330
2
100
AcDbEntity
  8
0
100
AcDbLine
 10
704.6244212573453
 20
320.6583454837172
 30
0.0
 11
664.5245222573455
 21
320.6583454837172
 31
0.0
  0
LINE
  5
2275
330
2
100
AcDbEntity
  8
0
100
AcDbLine
 10
657.0245222573455
 20
321.2583364837171
 30
0.0
 11
657.0245222573455
 21
367.2583364837171
 31
0.0
  0
LINE
  5
2276
330
2
100
AcDbEntity
  8
CENTER
100
AcDbLine
 10
682.0244152573454
 20
313.8691105396093
 30
0.0
 11
682.0244152573454
 21
375.0083364837172
 31
0.0
  0
LINE
  5
2277
330
2
100
AcDbEntity
  8
0
100
AcDbLine
 10
658.4243172573454
 20
366.8583424837171
 30
0.0
 11
658.4243172573454
 21
326.7583364837172
 31
0.0
  0
ARC
  5
2278
330
2
100
AcDbEntity
  8
0
100
AcDbCircle
 10
660.5243232573455
 20
322.7583364837172
 30
0.0
 40
4.0
100
AcDbArc
 50
0.0
 51
90.0
  0
ARC
  5
2279
330
2
100
AcDbEntity
  8
0
100
AcDbCircle
 10
658.4946232573453
 20
320.7286364837171
 30
0.0
 40
1.742199999999999
100
AcDbArc
 50
359.9986903345002
 51
90.00130966549649
  0
ARC
  5
227A
330
2
100
AcDbEntity
  8
0
100
AcDbCircle
 10
658.4946232573453
 20
324.7880364837171
 30
0.0
 40
1.742199999999999
100
AcDbArc
 50
269.9986903345035
 51
0.0013096654997424
  0
CIRCLE
  5
227B
330
2
100
AcDbEntity
  8
0
100
AcDbCircle
 10
660.5243232573455
 20
322.7583364837172
 30
0.0
 40
3.500000000000028
  0
LINE
  5
227C
330
2
100
AcDbEntity
  8
0
100
AcDbLine
 10
660.5245222573455
 20
326.7583364837172
 30
0.0
 11
657.0245222573455
 21
326.7583364837172
 31
0.0
  0
ARC
  5
227D
330
2
100
AcDbEntity
  8
0
100
AcDbCircle
 10
660.5243232573455
 20
322.7583364837172
 30
0.0
 40
2.049999999999998
100
AcDbArc
 50
171.9380399160181
 51
180.0
  0
ARC
  5
227E
330
2
100
AcDbEntity
  8
0
100
AcDbCircle
 10
660.5243232573455
 20
322.7583364837172
 30
0.0
 40
2.049999999999998
100
AcDbArc
 50
180.0
 51
188.0619600839818
  0
LINE
  5
227F
330
2
100
AcDbEntity
  8
0
100
AcDbLine
 10
659.0245222573456
 20
319.2583364837171
 30
0.0
 11
657.0245222573455
 21
321.2583364837171
 31
0.0
  0
LINE
  5
2280
330
2
100
AcDbEntity
  8
0
100
AcDbLine
 10
657.0245222573455
 20
321.2583364837171
 30
0.0
 11
659.0245222573456
 21
319.2583364837171
 31
0.0
  0
ARC
  5
2281
330
2
100
AcDbEntity
  8
0
100
AcDbCircle
 10
662.5540232573452
 20
320.7286364837171
 30
0.0
 40
1.742199999999999
100
AcDbArc
 50
89.99869033450025
 51
180.0013096654996
  0
ARC
  5
2282
330
2
100
AcDbEntity
  8
0
100
AcDbCircle
 10
662.5540232573452
 20
324.7880364837171
 30
0.0
 40
1.742199999999999
100
AcDbArc
 50
179.9986903345001
 51
270.0013096654964
  0
ARC
  5
2283
330
2
100
AcDbEntity
  8
0
100
AcDbCircle
 10
660.5243232573455
 20
322.7583364837172
 30
0.0
 40
2.049999999999998
100
AcDbArc
 50
0.0
 51
8.061960083981876
  0
ARC
  5
2284
330
2
100
AcDbEntity
  8
0
100
AcDbCircle
 10
660.5243232573455
 20
322.7583364837172
 30
0.0
 40
2.049999999999998
100
AcDbArc
 50
261.9380399160177
 51
270.0
  0
ARC
  5
2285
330
2
100
AcDbEntity
  8
0
100
AcDbCircle
 10
660.5243232573455
 20
322.7583364837172
 30
0.0
 40
2.049999999999998
100
AcDbArc
 50
270.0
 51
278.0619600839819
  0
ARC
  5
2286
330
2
100
AcDbEntity
  8
0
100
AcDbCircle
 10
660.5243232573455
 20
322.7583364837172
 30
0.0
 40
2.049999999999998
100
AcDbArc
 50
351.9380399160181
 51
0.0
  0
ARC
  5
2287
330
2
100
AcDbEntity
  8
0
100
AcDbCircle
 10
660.5243232573455
 20
322.7583364837172
 30
0.0
 40
2.049999999999998
100
AcDbArc
 50
90.0
 51
98.06196008398213
  0
ARC
  5
2288
330
2
100
AcDbEntity
  8
0
100
AcDbCircle
 10
660.5243232573455
 20
322.7583364837172
 30
0.0
 40
2.049999999999998
100
AcDbArc
 50
81.93803991601789
 51
90.0
  0
LINE
  5
2289
330
2
100
AcDbEntity
  8
0
100
AcDbLine
 10
664.5245222573455
 20
322.7583364837172
 30
0.0
 11
664.5245222573455
 21
319.2583364837171
 31
0.0
  0
LINE
  5
228A
330
2
100
AcDbEntity
  8
0
100
AcDbLine
 10
657.0243232573455
 20
367.2583364837171
 30
0.0
 11
659.0245222573456
 21
369.2583364837171
 31
0.0
  0
LINE
  5
228B
330
2
100
AcDbEntity
  8
0
100
AcDbLine
 10
657.0245222573455
 20
367.2583364837171
 30
0.0
 11
659.0245222573456
 21
369.2583364837171
 31
0.0
  0
LINE
  5
228C
330
2
100
AcDbEntity
  8
0
100
AcDbLine
 10
657.0245222573455
 20
367.2583364837171
 30
0.0
 11
659.0245222573456
 21
369.2583364837171
 31
0.0
  0
LINE
  5
228D
330
2
100
AcDbEntity
  8
0
100
AcDbLine
 10
659.4243172573453
 20
367.8583424837171
 30
0.0
 11
658.4243172573454
 21
366.8583424837171
 31
0.0
  0
LINE
  5
228E
330
2
100
AcDbEntity
  8
0
100
AcDbLine
 10
707.0244222573454
 20
321.2583364837171
 30
0.0
 11
707.0244222573454
 21
367.2583364837171
 31
0.0
  0
LINE
  5
228F
330
2
100
AcDbEntity
  8
0
100
AcDbLine
 10
705.6244282573454
 20
321.6583454837171
 30
0.0
 11
705.6244212573453
 21
361.7583364837171
 31
0.0
  0
LINE
  5
2290
330
2
100
AcDbEntity
  8
0
100
AcDbLine
 10
707.0244222573454
 20
321.2583364837171
 30
0.0
 11
705.0244222573454
 21
319.2583364837171
 31
0.0
  0
LINE
  5
2291
330
2
100
AcDbEntity
  8
0
100
AcDbLine
 10
705.6244282573454
 20
321.6583454837171
 30
0.0
 11
704.6244212573453
 21
320.6583454837172
 31
0.0
  0
LINE
  5
2292
330
2
100
AcDbEntity
  8
0
100
AcDbLine
 10
709.0244222573454
 20
349.7583364837172
 30
0.0
 11
712.5244222573455
 21
346.2583364837171
 31
0.0
  0
LINE
  5
2293
330
2
100
AcDbEntity
  8
0
100
AcDbLine
 10
712.5244222573455
 20
342.2583364837171
 30
0.0
 11
709.0244222573454
 21
338.7583364837171
 31
0.0
  0
LINE
  5
2294
330
2
100
AcDbEntity
  8
0
100
AcDbLine
 10
709.0244222573454
 20
350.7583364837171
 30
0.0
 11
709.0244222573454
 21
337.7583364837172
 31
0.0
  0
ARC
  5
2295
330
2
100
AcDbEntity
  8
0
100
AcDbCircle
 10
708.0244072573454
 20
337.7583364837172
 30
0.0
 40
1.0
100
AcDbArc
 50
270.0
 51
0.0
  0
LINE
  5
2296
330
2
100
AcDbEntity
  8
0
100
AcDbLine
 10
708.0244222573455
 20
336.7583364837171
 30
0.0
 11
707.0244222573454
 21
336.7583364837171
 31
0.0
  0
ARC
  5
2297
330
2
100
AcDbEntity
  8
0
100
AcDbCircle
 10
708.0244222573456
 20
350.7583364837171
 30
0.0
 40
1.0
100
AcDbArc
 50
0.0
 51
90.0
  0
LINE
  5
2298
330
2
100
AcDbEntity
  8
0
100
AcDbLine
 10
708.0244222573455
 20
351.7583364837172
 30
0.0
 11
707.0244222573454
 21
351.7583364837172
 31
0.0
  0
LINE
  5
2299
330
2
100
AcDbEntity
  8
0
100
AcDbLine
 10
712.5244222573455
 20
342.2583364837171
 30
0.0
 11
712.5244222573455
 21
346.2583364837171
 31
0.0
  0
ARC
  5
229A
330
2
100
AcDbEntity
  8
0
100
AcDbCircle
 10
701.4946922573454
 20
363.7286364837172
 30
0.0
 40
1.742199999999999
100
AcDbArc
 50
359.9986903345002
 51
90.00130966549649
  0
ARC
  5
229B
330
2
100
AcDbEntity
  8
0
100
AcDbCircle
 10
701.4946922573454
 20
367.7880364837172
 30
0.0
 40
1.742199999999999
100
AcDbArc
 50
269.9986903345035
 51
0.0013096654997424
  0
CIRCLE
  5
229C
330
2
100
AcDbEntity
  8
0
100
AcDbCircle
 10
703.5243922573454
 20
365.7583364837171
 30
0.0
 40
3.500000000000028
  0
ARC
  5
229D
330
2
100
AcDbEntity
  8
0
100
AcDbCircle
 10
703.5243922573454
 20
365.7583364837171
 30
0.0
 40
4.0
100
AcDbArc
 50
180.0
 51
270.0
  0
ARC
  5
229E
330
2
100
AcDbEntity
  8
0
100
AcDbCircle
 10
703.5243922573454
 20
365.7583364837171
 30
0.0
 40
2.049999999999998
100
AcDbArc
 50
171.9380399160181
 51
180.0
  0
ARC
  5
229F
330
2
100
AcDbEntity
  8
0
100
AcDbCircle
 10
703.5243922573454
 20
365.7583364837171
 30
0.0
 40
2.049999999999998
100
AcDbArc
 50
180.0
 51
188.0619600839818
  0
LINE
  5
22A0
330
2
100
AcDbEntity
  8
0
100
AcDbLine
 10
699.5244222573454
 20
365.7583364837171
 30
0.0
 11
699.5244222573454
 21
369.2581374837171
 31
0.0
  0
ARC
  5
22A1
330
2
100
AcDbEntity
  8
0
100
AcDbCircle
 10
705.5540922573454
 20
363.7286364837172
 30
0.0
 40
1.742199999999999
100
AcDbArc
 50
89.99869033450025
 51
180.0013096654996
  0
LINE
  5
22A2
330
2
100
AcDbEntity
  8
0
100
AcDbLine
 10
703.5243922573454
 20
361.7583364837171
 30
0.0
 11
707.0243922573454
 21
361.7583364837171
 31
0.0
  0
ARC
  5
22A3
330
2
100
AcDbEntity
  8
0
100
AcDbCircle
 10
703.5243922573454
 20
365.7583364837171
 30
0.0
 40
2.049999999999998
100
AcDbArc
 50
261.9380399160177
 51
270.0
  0
ARC
  5
22A4
330
2
100
AcDbEntity
  8
0
100
AcDbCircle
 10
703.5243922573454
 20
365.7583364837171
 30
0.0
 40
2.049999999999998
100
AcDbArc
 50
270.0
 51
278.0619600839819
  0
LINE
  5
22A5
330
2
100
AcDbEntity
  8
0
100
AcDbLine
 10
707.0244222573454
 20
367.2583364837171
 30
0.0
 11
705.0244222573454
 21
369.2583364837171
 31
0.0
  0
LINE
  5
22A6
330
2
100
AcDbEntity
  8
0
100
AcDbLine
 10
707.0244222573454
 20
367.2583364837171
 30
0.0
 11
705.0244222573454
 21
369.2583364837171
 31
0.0
  0
ARC
  5
22A7
330
2
100
AcDbEntity
  8
0
100
AcDbCircle
 10
705.5540922573454
 20
367.7880364837172
 30
0.0
 40
1.742199999999999
100
AcDbArc
 50
179.9986903345001
 51
270.0013096654964
  0
ARC
  5
22A8
330
2
100
AcDbEntity
  8
0
100
AcDbCircle
 10
703.5243922573454
 20
365.7583364837171
 30
0.0
 40
2.049999999999998
100
AcDbArc
 50
0.0
 51
8.061960083981876
  0
ARC
  5
22A9
330
2
100
AcDbEntity
  8
0
100
AcDbCircle
 10
703.5243922573454
 20
365.7583364837171
 30
0.0
 40
2.049999999999998
100
AcDbArc
 50
351.9380399160181
 51
0.0
  0
ARC
  5
22AA
330
2
100
AcDbEntity
  8
0
100
AcDbCircle
 10
703.5243922573454
 20
365.7583364837171
 30
0.0
 40
2.049999999999998
100
AcDbArc
 50
90.0
 51
98.06196008398213
  0
ARC
  5
22AB
330
2
100
AcDbEntity
  8
0
100
AcDbCircle
 10
703.5243922573454
 20
365.7583364837171
 30
0.0
 40
2.049999999999998
100
AcDbArc
 50
81.93803991601789
 51
90.0
  0
LINE
  5
232C
330
2
100
AcDbEntity
  8
0
100
AcDbLine
 10
707.5244222573456
 20
336.7583364837171
 30
0.0
 11
707.5244222573456
 21
304.2583364837172
 31
0.0
  0
ENDSEC
  0
SECTION
  2
OBJECTS
  0
DICTIONARY
  5
7
330
0
100
AcDbDictionary
  3
ACAD_GROUP
350
75
  3
ACAD_LAYOUT
350
61
  3
ACAD_MLINESTYLE
350
76
  3
ACAD_PLOTSETTINGS
350
77
  3
ACAD_PLOTSTYLENAME
350
6
  3
ACADDIM
350
480
  3
ACDBHEADERROUNDTRIPXREC
350
23BD
  3
ACDBVARIABLEDICTIONARY
350
102
  3
DWGPROPS
350
3D2
  0
DICTIONARY
  5
2399
330
2
100
AcDbDictionary
280
     1
  3
ACAD_LAYOUTSELFREF
360
23DE
  0
DICTIONARY
  5
23DF
330
23B7
100
AcDbDictionary
280
     1
  3
ACAD_LAYOUTSELFREF
360
23E0
  0
DICTIONARY
  5
75
102
{ACAD_REACTORS
330
7
102
}
330
7
100
AcDbDictionary
  0
DICTIONARY
  5
61
102
{ACAD_REACTORS
330
7
102
}
330
7
100
AcDbDictionary
  0
DICTIONARY
  5
76
102
{ACAD_REACTORS
330
7
102
}
330
7
100
AcDbDictionary
  3
STANDARD
350
78
  0
DICTIONARY
  5
77
102
{ACAD_REACTORS
330
7
102
}
330
7
100
AcDbDictionary
  0
ACDBDICTIONARYWDFLT
  5
6
102
{ACAD_REACTORS
330
7
102
}
330
7
100
AcDbDictionary
281
     1
  3
Normal
350
5
100
AcDbDictionaryWithDefault
340
5
  0
XRECORD
  5
480
102
{ACAD_REACTORS
330
7
102
}
330
7
100
AcDbXrecord
 90
   990106
  3

 60
     0
 61
     0
 62
     1
 63
     3
 64
     1
 65
     0
 66
     0
 67
     3
 68
     1
 69
     0
 70
     0
 71
     0
 72
     0
 40
0.0
170
     2
340
0
  0
DICTIONARY
  5
23BD
102
{ACAD_REACTORS
330
7
102
}
330
7
100
AcDbDictionary
  3
CEPSNTYPE
350
23C7
  3
DIMSTYLEDATA
350
23CB
  3
FINGERPRINTGUID
350
23C8
  3
HYPERLINKBASE
350
23C0
  3
INSUNITS
350
23C6
  3
LAYOUTDICT
350
23C2
  3
LWETCUNION
350
23C5
  3
PLOTSETDICT
350
23C3
  3
PLOTSTYLNAMDICT
350
23C4
  3
PSVPSCALE
350
23CA
  3
PUCSBASE
350
23CE
  3
PUCSORGBACK
350
23D4
  3
PUCSORGBOTTOM
350
23D0
  3
PUCSORGFRONT
350
23D3
  3
PUCSORGLEFT
350
23D1
  3
PUCSORGRIGHT
350
23D2
  3
PUCSORGTOP
350
23CF
  3
PUCSORTHOREF
350
23CC
  3
PUCSORTHOVIEW
350
23CD
  3
STYLESHEET
350
23C1
  3
TSTACKALIGN
350
23BE
  3
TSTACKSIZE
350
23BF
  3
UCSBASE
350
23D7
  3
UCSORGBACK
350
23DD
  3
UCSORGBOTTOM
350
23D9
  3
UCSORGFRONT
350
23DC
  3
UCSORGLEFT
350
23DA
  3
UCSORGRIGHT
350
23DB
  3
UCSORGTOP
350
23D8
  3
UCSORTHOREF
350
23D5
  3
UCSORTHOVIEW
350
23D6
  3
VERSIONGUID
350
23C9
  0
DICTIONARY
  5
102
102
{ACAD_REACTORS
330
7
102
}
330
7
100
AcDbDictionary
  3
DIMASSOC
350
103
  0
XRECORD
  5
3D2
102
{ACAD_REACTORS
330
7
102
}
330
7
100
AcDbXrecord
  1
DWGPROPS COOKIE
  2

  3

  4

  6

  7

  8

  9

300
=
301
=
302
=
303
=
304
=
305
=
306
=
307
=
308
=
309
=
 40
0.5353330671296296
 41
2452052.431989363
 42
2453406.550756376
  1

 90
        0
  0
XRECORD
  5
23DE
102
{ACAD_REACTORS
330
2399
102
}
330
2399
100
AcDbXrecord
340
2
  0
XRECORD
  5
23E0
102
{ACAD_REACTORS
330
23DF
102
}
330
23DF
100
AcDbXrecord
340
23B7
  0
MLINESTYLE
  5
78
102
{ACAD_REACTORS
330
76
102
}
330
76
100
AcDbMlineStyle
  2
STANDARD
 70
     0
  3

 62
     0
 51
90.0
 52
90.0
 71
     2
 49
0.5
 62
   256
  6
BYLAYER
 49
-0.5
 62
   256
  6
BYLAYER
  0
ACDBPLACEHOLDER
  5
5
102
{ACAD_REACTORS
330
6
102
}
330
6
100
AcDbPlaceHolder
280
     0
  0
XRECORD
  5
23C7
102
{ACAD_REACTORS
330
23BD
102
}
330
23BD
100
AcDbXrecord
 90
        0
  0
XRECORD
  5
23CB
102
{ACAD_REACTORS
330
23BD
102
}
330
23BD
100
AcDbXrecord
1000
DSTYLE
1002
{
1070
   179
 70
     2
1002
}
  0
XRECORD
  5
23C8
102
{ACAD_REACTORS
330
23BD
102
}
330
23BD
100
AcDbXrecord
  1
{6385560B-F4B1-4644-A7C2-A3E32AC3D232}
  0
XRECORD
  5
23C0
102
{ACAD_REACTORS
330
23BD
102
}
330
23BD
100
AcDbXrecord
  1

  0
XRECORD
  5
23C6
102
{ACAD_REACTORS
330
23BD
102
}
330
23BD
100
AcDbXrecord
 90
        0
  0
XRECORD
  5
23C2
102
{ACAD_REACTORS
330
23BD
102
}
330
23BD
100
AcDbXrecord
340
61
  0
XRECORD
  5
23C5
102
{ACAD_REACTORS
330
23BD
102
}
330
23BD
100
AcDbXrecord
 90
    10781
  0
XRECORD
  5
23C3
102
{ACAD_REACTORS
330
23BD
102
}
330
23BD
100
AcDbXrecord
340
77
  0
XRECORD
  5
23C4
102
{ACAD_REACTORS
330
23BD
102
}
330
23BD
100
AcDbXrecord
340
6
  0
XRECORD
  5
23CA
102
{ACAD_REACTORS
330
23BD
102
}
330
23BD
100
AcDbXrecord
 40
0.0
  0
XRECORD
  5
23CE
102
{ACAD_REACTORS
330
23BD
102
}
330
23BD
100
AcDbXrecord
340
0
  0
XRECORD
  5
23D4
102
{ACAD_REACTORS
330
23BD
102
}
330
23BD
100
AcDbXrecord
 10
0.0
 20
0.0
 30
0.0
  0
XRECORD
  5
23D0
102
{ACAD_REACTORS
330
23BD
102
}
330
23BD
100
AcDbXrecord
 10
0.0
 20
0.0
 30
0.0
  0
XRECORD
  5
23D3
102
{ACAD_REACTORS
330
23BD
102
}
330
23BD
100
AcDbXrecord
 10
0.0
 20
0.0
 30
0.0
  0
XRECORD
  5
23D1
102
{ACAD_REACTORS
330
23BD
102
}
330
23BD
100
AcDbXrecord
 10
0.0
 20
0.0
 30
0.0
  0
XRECORD
  5
23D2
102
{ACAD_REACTORS
330
23BD
102
}
330
23BD
100
AcDbXrecord
 10
0.0
 20
0.0
 30
0.0
  0
XRECORD
  5
23CF
102
{ACAD_REACTORS
330
23BD
102
}
330
23BD
100
AcDbXrecord
 10
0.0
 20
0.0
 30
0.0
  0
XRECORD
  5
23CC
102
{ACAD_REACTORS
330
23BD
102
}
330
23BD
100
AcDbXrecord
340
0
  0
XRECORD
  5
23CD
102
{ACAD_REACTORS
330
23BD
102
}
330
23BD
100
AcDbXrecord
 70
     0
  0
XRECORD
  5
23C1
102
{ACAD_REACTORS
330
23BD
102
}
330
23BD
100
AcDbXrecord
  1
Sekkei.ctb
  0
XRECORD
  5
23BE
102
{ACAD_REACTORS
330
23BD
102
}
330
23BD
100
AcDbXrecord
 90
        1
  0
XRECORD
  5
23BF
102
{ACAD_REACTORS
330
23BD
102
}
330
23BD
100
AcDbXrecord
 90
       70
  0
XRECORD
  5
23D7
102
{ACAD_REACTORS
330
23BD
102
}
330
23BD
100
AcDbXrecord
340
0
  0
XRECORD
  5
23DD
102
{ACAD_REACTORS
330
23BD
102
}
330
23BD
100
AcDbXrecord
 10
0.0
 20
0.0
 30
0.0
  0
XRECORD
  5
23D9
102
{ACAD_REACTORS
330
23BD
102
}
330
23BD
100
AcDbXrecord
 10
0.0
 20
0.0
 30
0.0
  0
XRECORD
  5
23DC
102
{ACAD_REACTORS
330
23BD
102
}
330
23BD
100
AcDbXrecord
 10
0.0
 20
0.0
 30
0.0
  0
XRECORD
  5
23DA
102
{ACAD_REACTORS
330
23BD
102
}
330
23BD
100
AcDbXrecord
 10
0.0
 20
0.0
 30
0.0
  0
XRECORD
  5
23DB
102
{ACAD_REACTORS
330
23BD
102
}
330
23BD
100
AcDbXrecord
 10
0.0
 20
0.0
 30
0.0
  0
XRECORD
  5
23D8
102
{ACAD_REACTORS
330
23BD
102
}
330
23BD
100
AcDbXrecord
 10
0.0
 20
0.0
 30
0.0
  0
XRECORD
  5
23D5
102
{ACAD_REACTORS
330
23BD
102
}
330
23BD
100
AcDbXrecord
340
0
  0
XRECORD
  5
23D6
102
{ACAD_REACTORS
330
23BD
102
}
330
23BD
100
AcDbXrecord
 70
     0
  0
XRECORD
  5
23C9
102
{ACAD_REACTORS
330
23BD
102
}
330
23BD
100
AcDbXrecord
  1
{EE300751-6360-4F62-9241-EDAC0CCF4E49}
  0
DICTIONARYVAR
  5
103
102
{ACAD_REACTORS
330
102
102
}
330
102
100
DictionaryVariables
280
     0
  1
1
  0
ENDSEC
  0
EOF
