  0
SECTION
  2
HEADER
  9
$ACADVER
  1
AC1014
  9
$ACADMAINTVER
 70
     9
  9
$DWGCODEPAGE
  3
ANSI_932
  9
$INSBASE
 10
0.0
 20
0.0
 30
0.0
  9
$EXTMIN
 10
22.24661245088269
 20
26.88247792693271
 30
0.0
  9
$EXTMAX
 10
798.0471879128482
 20
432.9967993789534
 30
0.0
  9
$LIMMIN
 10
0.0
 20
0.0
  9
$LIMMAX
 10
297.0
 20
210.0
  9
$ORTHOMODE
 70
     1
  9
$REGENMODE
 70
     1
  9
$FILLMODE
 70
     1
  9
$QTEXTMODE
 70
     0
  9
$MIRRTEXT
 70
     0
  9
$DRAGMODE
 70
     2
  9
$LTSCALE
 40
2.0
  9
$OSMODE
 70
    37
  9
$ATTMODE
 70
     1
  9
$TEXTSIZE
 40
2.0
  9
$TRACEWID
 40
1.0
  9
$TEXTSTYLE
  7
STANDARD
  9
$CLAYER
  8
0
  9
$CELTYPE
  6
BYLAYER
  9
$CECOLOR
 62
   256
  9
$CELTSCALE
 40
1.0
  9
$DELOBJ
 70
     1
  9
$DISPSILH
 70
     0
  9
$DIMSCALE
 40
2.0
  9
$DIMASZ
 40
1.8
  9
$DIMEXO
 40
0.625
  9
$DIMDLI
 40
3.75
  9
$DIMRND
 40
0.0
  9
$DIMDLE
 40
0.0
  9
$DIMEXE
 40
0.8
  9
$DIMTP
 40
0.0
  9
$DIMTM
 40
0.0
  9
$DIMTXT
 40
1.8
  9
$DIMCEN
 40
2.5
  9
$DIMTSZ
 40
0.0
  9
$DIMTOL
 70
     0
  9
$DIMLIM
 70
     0
  9
$DIMTIH
 70
     0
  9
$DIMTOH
 70
     0
  9
$DIMSE1
 70
     0
  9
$DIMSE2
 70
     0
  9
$DIMTAD
 70
     1
  9
$DIMZIN
 70
     8
  9
$DIMBLK
  1

  9
$DIMASO
 70
     1
  9
$DIMSHO
 70
     1
  9
$DIMPOST
  1

  9
$DIMAPOST
  1

  9
$DIMALT
 70
     0
  9
$DIMALTD
 70
     4
  9
$DIMALTF
 40
0.0394
  9
$DIMLFAC
 40
1.0
  9
$DIMTOFL
 70
     1
  9
$DIMTVP
 40
0.0
  9
$DIMTIX
 70
     0
  9
$DIMSOXD
 70
     0
  9
$DIMSAH
 70
     0
  9
$DIMBLK1
  1

  9
$DIMBLK2
  1

  9
$DIMSTYLE
  2
STANDARD
  9
$DIMCLRD
 70
     0
  9
$DIMCLRE
 70
     0
  9
$DIMCLRT
 70
     0
  9
$DIMTFAC
 40
1.0
  9
$DIMGAP
 40
0.75
  9
$DIMJUST
 70
     0
  9
$DIMSD1
 70
     0
  9
$DIMSD2
 70
     0
  9
$DIMTOLJ
 70
     1
  9
$DIMTZIN
 70
     0
  9
$DIMALTZ
 70
     0
  9
$DIMALTTZ
 70
     0
  9
$DIMFIT
 70
     3
  9
$DIMUPT
 70
     0
  9
$DIMUNIT
 70
     2
  9
$DIMDEC
 70
     2
  9
$DIMTDEC
 70
     2
  9
$DIMALTU
 70
     8
  9
$DIMALTTD
 70
     4
  9
$DIMTXSTY
  7
STANDARD
  9
$DIMAUNIT
 70
     0
  9
$LUNITS
 70
     2
  9
$LUPREC
 70
     3
  9
$SKETCHINC
 40
1.0
  9
$FILLETRAD
 40
10.0
  9
$AUNITS
 70
     0
  9
$AUPREC
 70
     2
  9
$MENU
  1
.
  9
$ELEVATION
 40
0.0
  9
$PELEVATION
 40
0.0
  9
$THICKNESS
 40
0.0
  9
$LIMCHECK
 70
     0
  9
$BLIPMODE
 70
     0
  9
$CHAMFERA
 40
0.0
  9
$CHAMFERB
 40
0.0
  9
$CHAMFERC
 40
20.0
  9
$CHAMFERD
 40
0.0
  9
$SKPOLY
 70
     0
  9
$TDCREATE
 40
2453557.751274768
  9
$TDUPDATE
 40
2453664.558064236
  9
$TDINDWG
 40
0.1694395833
  9
$TDUSRTIMER
 40
0.1694393981
  9
$USRTIMER
 70
     1
  9
$ANGBASE
 50
0.0
  9
$ANGDIR
 70
     0
  9
$PDMODE
 70
     0
  9
$PDSIZE
 40
-10.0
  9
$PLINEWID
 40
0.0
  9
$COORDS
 70
     2
  9
$SPLFRAME
 70
     0
  9
$SPLINETYPE
 70
     6
  9
$SPLINESEGS
 70
     8
  9
$ATTDIA
 70
     0
  9
$ATTREQ
 70
     1
  9
$HANDLING
 70
-16383
  9
$HANDSEED
  5
2289
  9
$SURFTAB1
 70
     6
  9
$SURFTAB2
 70
     6
  9
$SURFTYPE
 70
     6
  9
$SURFU
 70
     6
  9
$SURFV
 70
     6
  9
$UCSNAME
  2

  9
$UCSORG
 10
0.0
 20
0.0
 30
0.0
  9
$UCSXDIR
 10
1.0
 20
0.0
 30
0.0
  9
$UCSYDIR
 10
0.0
 20
1.0
 30
0.0
  9
$PUCSNAME
  2

  9
$PUCSORG
 10
0.0
 20
0.0
 30
0.0
  9
$PUCSXDIR
 10
1.0
 20
0.0
 30
0.0
  9
$PUCSYDIR
 10
0.0
 20
1.0
 30
0.0
  9
$USERI1
 70
     0
  9
$USERI2
 70
     0
  9
$USERI3
 70
     0
  9
$USERI4
 70
     0
  9
$USERI5
 70
     0
  9
$USERR1
 40
0.0
  9
$USERR2
 40
0.0
  9
$USERR3
 40
0.0
  9
$USERR4
 40
0.0
  9
$USERR5
 40
0.0
  9
$WORLDVIEW
 70
     1
  9
$SHADEDGE
 70
     3
  9
$SHADEDIF
 70
    70
  9
$TILEMODE
 70
     1
  9
$MAXACTVP
 70
    48
  9
$PINSBASE
 10
0.0
 20
0.0
 30
0.0
  9
$PLIMCHECK
 70
     0
  9
$PEXTMIN
 10
0.0
 20
0.0
 30
0.0
  9
$PEXTMAX
 10
0.0
 20
0.0
 30
0.0
  9
$PLIMMIN
 10
0.0
 20
0.0
  9
$PLIMMAX
 10
12.0
 20
9.0
  9
$UNITMODE
 70
     0
  9
$VISRETAIN
 70
     1
  9
$PLINEGEN
 70
     0
  9
$PSLTSCALE
 70
     1
  9
$TREEDEPTH
 70
  3020
  9
$PICKSTYLE
 70
     1
  9
$CMLSTYLE
  2
STANDARD
  9
$CMLJUST
 70
     0
  9
$CMLSCALE
 40
1.0
  9
$PROXYGRAPHICS
 70
     1
  9
$MEASUREMENT
 70
     0
  0
ENDSEC
  0
SECTION
  2
CLASSES
  0
CLASS
  1
DICTIONARYVAR
  2
AcDbDictionaryVar
  3
AutoCAD 2000
 90
        0
280
     0
281
     0
  0
CLASS
  1
ACDBDICTIONARYWDFLT
  2
AcDbDictionaryWithDefault
  3
AutoCAD 2000
 90
        0
280
     0
281
     0
  0
CLASS
  1
ACDBPLACEHOLDER
  2
AcDbPlaceHolder
  3
AutoCAD 2000
 90
        0
280
     0
281
     0
  0
CLASS
  1
LAYOUT
  2
AcDbLayout
  3
AutoCAD 2000
 90
        0
280
     0
281
     0
  0
CLASS
  1
LONG_TRANSACTION
  2
AcDbLongTransaction
  3
AutoCAD 2000
 90
        0
280
     0
281
     0
  0
CLASS
  1
LWPOLYLINE
  2
AcDbPolyline
  3
AutoCAD 2000
 90
        0
280
     0
281
     1
  0
CLASS
  1
HATCH
  2
AcDbHatch
  3
AutoCAD 2000
 90
        0
280
     0
281
     1
  0
CLASS
  1
XRECORD
  2
AcDbXrecord
  3
AutoCAD 2000
 90
        0
280
     0
281
     0
  0
CLASS
  1
LONG_TRANSACTION
  2
AcDbLongTransaction
  3
AutoCAD 2000
 90
        0
280
     0
281
     0
  0
CLASS
  1
LWPOLYLINE
  2
AcDbPolyline
  3
AutoCAD 2000
 90
        0
280
     0
281
     1
  0
CLASS
  1
HATCH
  2
AcDbHatch
  3
AutoCAD 2000
 90
        0
280
     0
281
     1
  0
CLASS
  1
XRECORD
  2
AcDbXrecord
  3
AutoCAD 2000
 90
        0
280
     0
281
     0
  0
ENDSEC
  0
SECTION
  2
TABLES
  0
TABLE
  2
VPORT
  5
6E
330
0
100
AcDbSymbolTable
 70
     2
  0
VPORT
  5
2264
330
6E
100
AcDbSymbolTableRecord
100
AcDbViewportTableRecord
  2
*ACTIVE
 70
     0
 10
0.0
 20
0.0
 11
1.0
 21
1.0
 12
414.857433890626
 22
229.9436596051266
 13
0.0
 23
0.0
 14
10.0
 24
10.0
 15
10.0
 25
10.0
 16
0.0
 26
0.0
 36
1.0
 17
0.0
 27
0.0
 37
0.0
 40
503.6783096067657
 41
1.566970091027308
 42
50.0
 43
0.0
 44
0.0
 50
0.0
 51
0.0
 71
     0
 72
   100
 73
     1
 74
     3
 75
     0
 76
     0
 77
     0
 78
     0
  0
ENDTAB
  0
TABLE
  2
LTYPE
  5
69
330
0
100
AcDbSymbolTable
 70
     4
  0
LTYPE
  5
6A
330
69
100
AcDbSymbolTableRecord
100
AcDbLinetypeTableRecord
  2
BYBLOCK
 70
     0
  3

 72
    65
 73
     0
 40
0.0
  0
LTYPE
  5
6B
330
69
100
AcDbSymbolTableRecord
100
AcDbLinetypeTableRecord
  2
BYLAYER
 70
     0
  3

 72
    65
 73
     0
 40
0.0
  0
LTYPE
  5
8
330
69
100
AcDbSymbolTableRecord
100
AcDbLinetypeTableRecord
  2
CONTINUOUS
 70
     0
  3
Solid line
 72
    65
 73
     0
 40
0.0
  0
LTYPE
  5
27C
330
69
100
AcDbSymbolTableRecord
100
AcDbLinetypeTableRecord
  2
SEKKEI_A2_
 70
     0
  3
center(A2)  ____ _ ____ _ ____ _ ____ _ ____ _ 
 72
    65
 73
     4
 40
14.28749999999999
 49
9.525
 74
     0
 49
-1.587499999999999
 74
     0
 49
1.587499999999999
 74
     0
 49
-1.587499999999999
 74
     0
  0
LTYPE
  5
2B4
330
69
100
AcDbSymbolTableRecord
100
AcDbLinetypeTableRecord
  2
HIDDEN2
 70
     0
  3
Hidden (.5x) _ _ _ _ _ _ _ _ _ _ _ _ _ _ _ _ _
 72
    65
 73
     2
 40
4.762499999999998
 49
3.174999999999998
 74
     0
 49
-1.587499999999999
 74
     0
  0
LTYPE
  5
48F
330
69
100
AcDbSymbolTableRecord
100
AcDbLinetypeTableRecord
  2
SEKKEI_H
 70
     0
  3
Hidden-S _ _ _ _ _ _ _ _ _ _ _ _ _ _ _ _ _
 72
    65
 73
     2
 40
2.381249999999999
 49
1.587499999999999
 74
     0
 49
-0.79375
 74
     0
  0
ENDTAB
  0
TABLE
  2
LAYER
  5
66
330
0
100
AcDbSymbolTable
 70
     8
  0
LAYER
  5
5E
330
66
100
AcDbSymbolTableRecord
100
AcDbLayerTableRecord
  2
0
 70
     0
 62
     7
  6
CONTINUOUS
  0
LAYER
  5
3E
330
66
100
AcDbSymbolTableRecord
100
AcDbLayerTableRecord
  2
CENTER
 70
     0
 62
     3
  6
SEKKEI_A2_
  0
LAYER
  5
135
330
66
100
AcDbSymbolTableRecord
100
AcDbLayerTableRecord
  2
DEFPOINTS
 70
     0
 62
     7
  6
CONTINUOUS
  0
LAYER
  5
2B5
330
66
100
AcDbSymbolTableRecord
100
AcDbLayerTableRecord
  2
HIDS
 70
     0
 62
     1
  6
HIDDEN2
  0
LAYER
  5
2BA
330
66
100
AcDbSymbolTableRecord
100
AcDbLayerTableRecord
  2
HOJO
 70
     0
 62
     4
  6
CONTINUOUS
  0
LAYER
  5
3FA
330
66
100
AcDbSymbolTableRecord
100
AcDbLayerTableRecord
  2
TITLE
 70
     0
 62
     4
  6
CONTINUOUS
  0
ENDTAB
  0
TABLE
  2
STYLE
  5
67
330
0
100
AcDbSymbolTable
 70
     1
  0
STYLE
  5
16
330
67
100
AcDbSymbolTableRecord
100
AcDbTextStyleTableRecord
  2
STANDARD
 70
     0
 40
0.0
 41
1.0
 50
0.0
 71
     0
 42
2.0
  3
simplex.shx
  4
extfont.shx
  0
ENDTAB
  0
TABLE
  2
VIEW
  5
6C
330
0
100
AcDbSymbolTable
 70
     0
  0
ENDTAB
  0
TABLE
  2
UCS
  5
6D
330
0
100
AcDbSymbolTable
 70
     0
  0
ENDTAB
  0
TABLE
  2
APPID
  5
70
330
0
100
AcDbSymbolTable
 70
     2
  0
APPID
  5
71
330
70
100
AcDbSymbolTableRecord
100
AcDbRegAppTableRecord
  2
ACAD
 70
     0
  0
APPID
  5
2245
330
70
100
AcDbSymbolTableRecord
100
AcDbRegAppTableRecord
  2
CONTENTBLOCKICON
 70
     0
  0
ENDTAB
  0
TABLE
  2
DIMSTYLE
  5
72
330
0
100
AcDbSymbolTable
 70
     1
  0
DIMSTYLE
105
73
330
72
100
AcDbSymbolTableRecord
100
AcDbDimStyleTableRecord
  2
STANDARD
 70
     0
  3

  4

  5

  6

  7

 40
2.0
 41
1.8
 42
0.625
 43
3.75
 44
0.8
 45
0.0
 46
0.0
 47
0.0
 48
0.0
140
1.8
141
2.5
142
0.0
143
0.0394
144
1.0
145
0.0
146
1.0
147
0.75
 71
     0
 72
     0
 73
     0
 74
     0
 75
     0
 76
     0
 77
     1
 78
     8
170
     0
171
     4
172
     1
173
     0
174
     0
175
     0
176
     0
177
     0
178
     0
270
     2
271
     2
272
     2
273
     8
274
     4
340
16
275
     0
280
     0
281
     0
282
     0
283
     1
284
     0
285
     0
286
     0
287
     3
288
     0
  0
ENDTAB
  0
TABLE
  2
BLOCK_RECORD
  5
1
330
0
100
AcDbSymbolTable
 70
    19
  0
BLOCK_RECORD
  5
2
102
{ACAD_XDICTIONARY
360
2241
102
}
330
1
100
AcDbSymbolTableRecord
100
AcDbBlockTableRecord
  2
*MODEL_SPACE
  0
BLOCK_RECORD
  5
225F
102
{ACAD_XDICTIONARY
360
2287
102
}
330
1
100
AcDbSymbolTableRecord
100
AcDbBlockTableRecord
  2
*PAPER_SPACE
  0
ENDTAB
  0
ENDSEC
  0
SECTION
  2
BLOCKS
  0
BLOCK
  5
5D
330
2
100
AcDbEntity
  8
0
100
AcDbBlockBegin
  2
*MODEL_SPACE
 70
     0
 10
0.0
 20
0.0
 30
0.0
  3
*MODEL_SPACE
  1

  0
ENDBLK
  5
5F
330
2
100
AcDbEntity
  8
0
100
AcDbBlockEnd
  0
BLOCK
  5
2261
330
225F
100
AcDbEntity
 67
     1
  8
0
100
AcDbBlockBegin
  2
*PAPER_SPACE
 70
     0
 10
0.0
 20
0.0
 30
0.0
  3
*PAPER_SPACE
  1

  0
ENDBLK
  5
2262
330
225F
100
AcDbEntity
 67
     1
  8
0
100
AcDbBlockEnd
  0
ENDSEC
  0
SECTION
  2
ENTITIES
  0
LINE
  5
7C5
330
2
100
AcDbEntity
  8
0
100
AcDbLine
 10
368.9711769446137
 20
121.2849691742065
 30
0.0
 11
437.4711769446139
 21
121.2849691742065
 31
0.0
  0
LINE
  5
7C6
330
2
100
AcDbEntity
  8
0
100
AcDbLine
 10
368.9711769446137
 20
114.4849811742065
 30
0.0
 11
437.4711769446139
 21
114.4849811742065
 31
0.0
  0
LINE
  5
7C7
330
2
100
AcDbEntity
  8
HIDS
100
AcDbLine
 10
368.9711769446137
 20
181.4849811742065
 30
0.0
 11
437.4711769446139
 21
181.4849811742065
 31
0.0
  0
LINE
  5
7C8
330
2
100
AcDbEntity
  8
HIDS
100
AcDbLine
 10
368.9711769446137
 20
188.2849691742065
 30
0.0
 11
437.4711769446139
 21
188.2849691742065
 31
0.0
  0
LINE
  5
7C9
330
2
100
AcDbEntity
  8
HIDS
100
AcDbLine
 10
373.9711769446139
 20
111.3849751742065
 30
0.0
 11
418.5397189446137
 21
111.3849751742065
 31
0.0
  0
LINE
  5
7CA
330
2
100
AcDbEntity
  8
HIDS
100
AcDbLine
 10
419.9711769446137
 20
191.3849751742065
 30
0.0
 11
375.4026349446138
 21
191.3849751742065
 31
0.0
  0
LINE
  5
7CB
330
2
100
AcDbEntity
  8
CENTER
100
AcDbLine
 10
353.9662029446138
 20
184.8849751742065
 30
0.0
 11
441.0149389446138
 21
184.8849751742065
 31
0.0
  0
LINE
  5
7CC
330
2
100
AcDbEntity
  8
CENTER
100
AcDbLine
 10
353.9662029446138
 20
117.8849751742065
 30
0.0
 11
441.0149389446138
 21
117.8849751742065
 31
0.0
  0
LINE
  5
7CD
330
2
100
AcDbEntity
  8
HIDS
100
AcDbLine
 10
375.9362649446138
 20
113.7521471742064
 30
0.0
 11
396.9711769446139
 21
113.3849751742065
 31
0.0
  0
LINE
  5
7CE
330
2
100
AcDbEntity
  8
HIDS
100
AcDbLine
 10
375.9362649446138
 20
189.0178181742065
 30
0.0
 11
396.9711769446139
 21
189.3849751742065
 31
0.0
  0
LINE
  5
7CF
330
2
100
AcDbEntity
  8
0
100
AcDbLine
 10
396.9711769446139
 20
110.8849751742065
 30
0.0
 11
356.4711769446137
 21
111.5918991742065
 31
0.0
  0
LINE
  5
7D0
330
2
100
AcDbEntity
  8
0
100
AcDbLine
 10
396.9711769446139
 20
191.8849751742065
 30
0.0
 11
356.4711769446137
 21
191.1780351742065
 31
0.0
  0
LINE
  5
7D2
330
2
100
AcDbEntity
  8
HIDS
100
AcDbLine
 10
356.9711769446139
 20
172.9535171742065
 30
0.0
 11
356.9711769446139
 21
128.3849751742065
 31
0.0
  0
LINE
  5
7D3
330
2
100
AcDbEntity
  8
0
100
AcDbLine
 10
30.76714241911702
 20
186.3849751742065
 30
0.0
 11
30.76714241911702
 21
116.3849751742064
 31
0.0
  0
LINE
  5
7D4
330
2
100
AcDbEntity
  8
0
100
AcDbLine
 10
79.76713041911705
 20
111.3849751742065
 30
0.0
 11
79.76713041911705
 21
191.3849751742065
 31
0.0
  0
LINE
  5
7D5
330
2
100
AcDbEntity
  8
0
100
AcDbLine
 10
89.26713041911705
 20
189.3849751742065
 30
0.0
 11
89.26713041911705
 21
113.3849751742065
 31
0.0
  0
CIRCLE
  5
7D6
330
2
100
AcDbEntity
  8
0
100
AcDbCircle
 10
223.3226344191169
 20
151.3849751742065
 30
0.0
 40
25.002001
  0
CIRCLE
  5
7D7
330
2
100
AcDbEntity
  8
0
100
AcDbCircle
 10
223.3226344191169
 20
151.3849751742065
 30
0.0
 40
23.0
  0
CIRCLE
  5
7D8
330
2
100
AcDbEntity
  8
0
100
AcDbCircle
 10
223.3226344191169
 20
151.3849751742065
 30
0.0
 40
19.0
  0
ARC
  5
7D9
330
2
100
AcDbEntity
  8
0
100
AcDbCircle
 10
164.3226344191169
 20
134.3849751742065
 30
0.0
 40
2.0
100
AcDbArc
 50
180.0
 51
270.0
  0
ARC
  5
7DB
330
2
100
AcDbEntity
  8
0
100
AcDbCircle
 10
260.322634419117
 20
134.3849751742065
 30
0.0
 40
2.0
100
AcDbArc
 50
270.0
 51
0.0
  0
ARC
  5
7DD
330
2
100
AcDbEntity
  8
0
100
AcDbCircle
 10
193.322634419117
 20
137.8849751742065
 30
0.0
 40
22.0
100
AcDbArc
 50
180.0
 51
194.4775090000003
  0
ARC
  5
7DE
330
2
100
AcDbEntity
  8
0
100
AcDbCircle
 10
231.322634419117
 20
137.8849751742065
 30
0.0
 40
22.0
100
AcDbArc
 50
345.5224880000002
 51
0.0
  0
ARC
  5
7DF
330
2
100
AcDbEntity
  8
0
100
AcDbCircle
 10
173.5489074191169
 20
134.8849751742065
 30
0.0
 40
2.0
100
AcDbArc
 50
188.6269229999999
 51
270.0
  0
LINE
  5
7E0
330
2
100
AcDbEntity
  8
0
100
AcDbLine
 10
176.158343419117
 20
132.7019921742065
 30
0.0
 11
175.238482419117
 21
130.7019921742065
 31
0.0
  0
ARC
  5
7E1
330
2
100
AcDbEntity
  8
0
100
AcDbCircle
 10
175.322634419117
 20
130.8849751742065
 30
0.0
 40
2.0
100
AcDbArc
 50
40.60129499999971
 51
90.0
  0
ARC
  5
7E2
330
2
100
AcDbEntity
  8
0
100
AcDbCircle
 10
251.096346419117
 20
134.8849751742065
 30
0.0
 40
2.0
100
AcDbArc
 50
270.0
 51
351.373077
  0
LINE
  5
7E3
330
2
100
AcDbEntity
  8
0
100
AcDbLine
 10
248.486910419117
 20
132.7019921742065
 30
0.0
 11
249.406801419117
 21
130.7019921742065
 31
0.0
  0
ARC
  5
7E4
330
2
100
AcDbEntity
  8
0
100
AcDbCircle
 10
249.322634419117
 20
130.8849751742065
 30
0.0
 40
2.0
100
AcDbArc
 50
90.0
 51
139.3987120000005
  0
LINE
  5
7E5
330
2
100
AcDbEntity
  8
0
100
AcDbLine
 10
162.3226344191169
 20
135.0565451742064
 30
0.0
 11
162.3226344191169
 21
117.8849751742065
 31
0.0
  0
LINE
  5
7E6
330
2
100
AcDbEntity
  8
0
100
AcDbLine
 10
262.322634419117
 20
117.8849751742065
 30
0.0
 11
262.322634419117
 21
184.8849751742065
 31
0.0
  0
LINE
  5
7E8
330
2
100
AcDbEntity
  8
0
100
AcDbLine
 10
356.4711769446137
 20
191.1780351742065
 30
0.0
 11
356.4711769446137
 21
111.5918991742065
 31
0.0
  0
LINE
  5
7E9
330
2
100
AcDbEntity
  8
0
100
AcDbLine
 10
161.8226344191169
 20
177.0754351742065
 30
0.0
 11
161.8226344191169
 21
125.6945151742065
 31
0.0
  0
ARC
  5
7EA
330
2
100
AcDbEntity
  8
HIDS
100
AcDbCircle
 10
396.9711769446139
 20
151.3849751742065
 30
0.0
 40
38.0
100
AcDbArc
 50
129.3567050000003
 51
230.6432949999995
  0
LINE
  5
7EB
330
2
100
AcDbEntity
  8
0
100
AcDbLine
 10
368.9711769446137
 20
191.3962361742065
 30
0.0
 11
368.9711769446137
 21
111.3737141742064
 31
0.0
  0
LINE
  5
7EC
330
2
100
AcDbEntity
  8
0
100
AcDbLine
 10
89.26713041911705
 20
121.1360131742065
 30
0.0
 11
162.3226344191169
 21
121.1360131742065
 31
0.0
  0
LINE
  5
7ED
330
2
100
AcDbEntity
  8
0
100
AcDbLine
 10
89.26713041911705
 20
113.3849751742065
 30
0.0
 11
160.9638854191169
 21
113.3849751742065
 31
0.0
  0
LINE
  5
7EF
330
2
100
AcDbEntity
  8
0
100
AcDbLine
 10
33.51714241911702
 20
125.3849751742065
 30
0.0
 11
79.76713041911705
 21
125.3849751742065
 31
0.0
  0
LINE
  5
7F0
330
2
100
AcDbEntity
  8
0
100
AcDbLine
 10
35.76714241911702
 20
111.3849751742065
 30
0.0
 11
79.76713041911705
 21
111.3849751742065
 31
0.0
  0
ARC
  5
7F1
330
2
100
AcDbEntity
  8
0
100
AcDbCircle
 10
35.76714941911699
 20
116.3849751742064
 30
0.0
 40
5.0
100
AcDbArc
 50
180.0
 51
270.0
  0
LINE
  5
7F2
330
2
100
AcDbEntity
  8
0
100
AcDbLine
 10
79.76713041911705
 20
121.1359821742065
 30
0.0
 11
89.26713041911705
 21
121.1359821742065
 31
0.0
  0
LINE
  5
7F3
330
2
100
AcDbEntity
  8
0
100
AcDbLine
 10
79.76713041911705
 20
113.3849751742065
 30
0.0
 11
89.26713041911705
 21
113.3849751742065
 31
0.0
  0
CIRCLE
  5
7F4
330
2
100
AcDbEntity
  8
HOJO
100
AcDbCircle
 10
255.322634419117
 20
117.8849751742065
 30
0.0
 40
4.0
  0
CIRCLE
  5
7F5
330
2
100
AcDbEntity
  8
0
100
AcDbCircle
 10
255.322634419117
 20
117.8849751742065
 30
0.0
 40
4.25
  0
CIRCLE
  5
7F6
330
2
100
AcDbEntity
  8
0
100
AcDbCircle
 10
255.322634419117
 20
117.8849751742065
 30
0.0
 40
3.399999999999999
  0
LINE
  5
7F7
330
2
100
AcDbEntity
  8
0
100
AcDbLine
 10
260.322634419117
 20
132.3849751742065
 30
0.0
 11
257.822634419117
 21
132.3849751742065
 31
0.0
  0
LINE
  5
7F8
330
2
100
AcDbEntity
  8
0
100
AcDbLine
 10
260.322634419117
 20
123.3849751742065
 30
0.0
 11
257.822634419117
 21
123.3849751742065
 31
0.0
  0
LINE
  5
7FA
330
2
100
AcDbEntity
  8
0
100
AcDbLine
 10
257.822634419117
 20
129.6849931742065
 30
0.0
 11
259.322634419117
 21
128.8189651742065
 31
0.0
  0
LINE
  5
7FB
330
2
100
AcDbEntity
  8
0
100
AcDbLine
 10
257.822634419117
 20
126.0849871742065
 30
0.0
 11
259.322634419117
 21
126.9510151742065
 31
0.0
  0
CIRCLE
  5
7FC
330
2
100
AcDbEntity
  8
0
100
AcDbCircle
 10
257.822634419117
 20
127.8849751742064
 30
0.0
 40
3.5
  0
CIRCLE
  5
7FD
330
2
100
AcDbEntity
  8
0
100
AcDbCircle
 10
257.822634419117
 20
127.8849751742064
 30
0.0
 40
3.799999999999998
  0
ARC
  5
7FE
330
2
100
AcDbEntity
  8
0
100
AcDbCircle
 10
255.322634419117
 20
117.8849751742065
 30
0.0
 40
7.0
100
AcDbArc
 50
227.364075
 51
0.0
  0
LINE
  5
800
330
2
100
AcDbEntity
  8
0
100
AcDbLine
 10
231.322634419117
 20
115.8849751742065
 30
0.0
 11
193.322634419117
 21
115.8849751742065
 31
0.0
  0
LINE
  5
801
330
2
100
AcDbEntity
  8
0
100
AcDbLine
 10
169.3226344191169
 20
110.8849751742065
 30
0.0
 11
255.322634419117
 21
110.8849751742065
 31
0.0
  0
CIRCLE
  5
803
330
2
100
AcDbEntity
  8
0
100
AcDbCircle
 10
166.8226344191169
 20
127.8849751742064
 30
0.0
 40
3.5
  0
CIRCLE
  5
804
330
2
100
AcDbEntity
  8
0
100
AcDbCircle
 10
166.8226344191169
 20
127.8849751742064
 30
0.0
 40
3.799999999999998
  0
ARC
  5
805
330
2
100
AcDbEntity
  8
0
100
AcDbCircle
 10
164.3226344191169
 20
121.3849751742064
 30
0.0
 40
2.0
100
AcDbArc
 50
90.0
 51
180.0
  0
LINE
  5
806
330
2
100
AcDbEntity
  8
0
100
AcDbLine
 10
161.659014419117
 20
113.2602801742065
 30
0.0
 11
166.8896514191169
 21
111.3213921742065
 31
0.0
  0
ARC
  5
807
330
2
100
AcDbEntity
  8
0
100
AcDbCircle
 10
169.3226344191169
 20
117.8849751742065
 30
0.0
 40
7.0
100
AcDbArc
 50
180.0
 51
312.6359249999997
  0
ARC
  5
809
330
2
100
AcDbEntity
  8
0
100
AcDbCircle
 10
160.9638854191169
 20
111.3849751742065
 30
0.0
 40
2.0
100
AcDbArc
 50
69.66127000000013
 51
90.0
  0
LINE
  5
80A
330
2
100
AcDbEntity
  8
0
100
AcDbLine
 10
161.8226344191169
 20
125.6945151742065
 30
0.0
 11
162.3226344191169
 21
125.6945151742065
 31
0.0
  0
ARC
  5
80B
330
2
100
AcDbEntity
  8
0
100
AcDbCircle
 10
188.723299419117
 20
120.8849751742065
 30
0.0
 40
10.0
100
AcDbArc
 50
247.6683579999995
 51
270.0
  0
ARC
  5
80D
330
2
100
AcDbEntity
  8
0
100
AcDbCircle
 10
178.128023419117
 20
108.3212391742065
 30
0.0
 40
6.0
100
AcDbArc
 50
59.64169699999963
 51
132.6359249999995
  0
LINE
  5
80E
330
2
100
AcDbEntity
  8
0
100
AcDbLine
 10
176.841143419117
 20
132.1865501742065
 30
0.0
 11
185.841143419117
 21
121.6865501742065
 31
0.0
  0
LINE
  5
80F
330
2
100
AcDbEntity
  8
0
100
AcDbLine
 10
175.921282419117
 20
130.1865501742065
 30
0.0
 11
183.841143419117
 21
120.9467121742065
 31
0.0
  0
CIRCLE
  5
810
330
2
100
AcDbEntity
  8
0
100
AcDbCircle
 10
169.3226344191169
 20
117.8849751742065
 30
0.0
 40
4.25
  0
CIRCLE
  5
811
330
2
100
AcDbEntity
  8
HOJO
100
AcDbCircle
 10
169.3226344191169
 20
117.8849751742065
 30
0.0
 40
4.0
  0
CIRCLE
  5
812
330
2
100
AcDbEntity
  8
0
100
AcDbCircle
 10
169.3226344191169
 20
117.8849751742065
 30
0.0
 40
3.399999999999999
  0
ARC
  5
813
330
2
100
AcDbEntity
  8
0
100
AcDbCircle
 10
173.957720419117
 20
132.8849751742065
 30
0.0
 40
2.0
100
AcDbArc
 50
194.4775090000003
 51
270.0
  0
LINE
  5
814
330
2
100
AcDbEntity
  8
0
100
AcDbLine
 10
164.3226344191169
 20
132.3849751742065
 30
0.0
 11
166.8226344191169
 21
132.3849751742065
 31
0.0
  0
LINE
  5
815
330
2
100
AcDbEntity
  8
0
100
AcDbLine
 10
166.8226344191169
 20
126.0849871742065
 30
0.0
 11
168.3226344191169
 21
126.9510151742065
 31
0.0
  0
LINE
  5
816
330
2
100
AcDbEntity
  8
0
100
AcDbLine
 10
168.3226344191169
 20
128.8189651742065
 30
0.0
 11
168.3226344191169
 21
126.9510151742065
 31
0.0
  0
LINE
  5
817
330
2
100
AcDbEntity
  8
0
100
AcDbLine
 10
166.8226344191169
 20
129.6849931742065
 30
0.0
 11
168.3226344191169
 21
128.8189651742065
 31
0.0
  0
LINE
  5
818
330
2
100
AcDbEntity
  8
0
100
AcDbLine
 10
166.8226344191169
 20
129.6849931742065
 30
0.0
 11
165.3226344191169
 21
128.8189651742065
 31
0.0
  0
LINE
  5
819
330
2
100
AcDbEntity
  8
0
100
AcDbLine
 10
165.3226344191169
 20
128.8189651742065
 30
0.0
 11
165.3226344191169
 21
126.9510151742065
 31
0.0
  0
LINE
  5
81A
330
2
100
AcDbEntity
  8
0
100
AcDbLine
 10
166.8226344191169
 20
126.0849871742065
 30
0.0
 11
165.3226344191169
 21
126.9510151742065
 31
0.0
  0
LINE
  5
81B
330
2
100
AcDbEntity
  8
0
100
AcDbLine
 10
164.3226344191169
 20
123.3849751742065
 30
0.0
 11
166.8226344191169
 21
123.3849751742065
 31
0.0
  0
ARC
  5
81C
330
2
100
AcDbEntity
  8
0
100
AcDbCircle
 10
166.8226344191169
 20
127.8849751742064
 30
0.0
 40
4.5
100
AcDbArc
 50
270.0
 51
90.0
  0
LINE
  5
81D
330
2
100
AcDbEntity
  8
0
100
AcDbLine
 10
174.402758419117
 20
130.8849751742065
 30
0.0
 11
173.957720419117
 21
130.8849751742065
 31
0.0
  0
ARC
  5
81E
330
2
100
AcDbEntity
  8
0
100
AcDbCircle
 10
174.402758419117
 20
128.8849751742065
 30
0.0
 40
2.0
100
AcDbArc
 50
40.60129499999971
 51
90.0
  0
ARC
  5
81F
330
2
100
AcDbEntity
  8
0
100
AcDbCircle
 10
188.322634419117
 20
118.5200461742065
 30
0.0
 40
2.0
100
AcDbArc
 50
180.0
 51
255.5224910000001
  0
ARC
  5
820
330
2
100
AcDbEntity
  8
0
100
AcDbCircle
 10
193.322634419117
 20
137.8849751742065
 30
0.0
 40
22.0
100
AcDbArc
 50
249.5126880000004
 51
270.0
  0
ARC
  5
821
330
2
100
AcDbEntity
  8
0
100
AcDbCircle
 10
186.322634419117
 20
119.1499901742065
 30
0.0
 40
2.0
100
AcDbArc
 50
180.0
 51
249.51268
  0
LINE
  5
822
330
2
100
AcDbEntity
  8
0
100
AcDbLine
 10
186.198397419117
 20
121.0788531742065
 30
0.0
 11
184.198397419117
 21
120.3390161742065
 31
0.0
  0
ARC
  5
823
330
2
100
AcDbEntity
  8
0
100
AcDbCircle
 10
182.3226344191169
 20
119.6451371742065
 30
0.0
 40
2.0
100
AcDbArc
 50
0.0
 51
40.60129499999971
  0
ARC
  5
824
330
2
100
AcDbEntity
  8
0
100
AcDbCircle
 10
184.322634419117
 20
120.3849751742064
 30
0.0
 40
2.0
100
AcDbArc
 50
0.0
 51
40.60129499999971
  0
LINE
  5
825
330
2
100
AcDbEntity
  8
0
100
AcDbLine
 10
186.322634419117
 20
120.3849751742064
 30
0.0
 11
186.322634419117
 21
118.5200461742065
 31
0.0
  0
LINE
  5
826
330
2
100
AcDbEntity
  8
0
100
AcDbLine
 10
184.322634419117
 20
119.6451371742065
 30
0.0
 11
184.322634419117
 21
119.1499901742065
 31
0.0
  0
ARC
  5
827
330
2
100
AcDbEntity
  8
0
100
AcDbCircle
 10
196.322634419117
 20
139.3849751742065
 30
0.0
 40
30.0
100
AcDbArc
 50
239.6417009999993
 51
247.6683579999995
  0
ARC
  5
828
330
2
100
AcDbEntity
  8
0
100
AcDbCircle
 10
235.921969419117
 20
120.8849751742065
 30
0.0
 40
10.0
100
AcDbArc
 50
270.0
 51
292.3316420000002
  0
LINE
  5
82A
330
2
100
AcDbEntity
  8
0
100
AcDbLine
 10
247.804110419117
 20
132.1865501742065
 30
0.0
 11
238.804125419117
 21
121.6865501742065
 31
0.0
  0
LINE
  5
82B
330
2
100
AcDbEntity
  8
0
100
AcDbLine
 10
248.7240014191169
 20
130.1865501742065
 30
0.0
 11
240.804110419117
 21
120.9467121742065
 31
0.0
  0
ARC
  5
82C
330
2
100
AcDbEntity
  8
0
100
AcDbCircle
 10
228.322634419117
 20
139.3849751742065
 30
0.0
 40
30.0
100
AcDbArc
 50
292.3316420000002
 51
300.3583030000003
  0
ARC
  5
82D
330
2
100
AcDbEntity
  8
0
100
AcDbCircle
 10
231.322634419117
 20
137.8849751742065
 30
0.0
 40
22.0
100
AcDbArc
 50
270.0
 51
290.4873049999998
  0
ARC
  5
82E
330
2
100
AcDbEntity
  8
0
100
AcDbCircle
 10
238.322634419117
 20
119.1499901742065
 30
0.0
 40
2.0
100
AcDbArc
 50
290.4873119999995
 51
0.0
  0
ARC
  5
82F
330
2
100
AcDbEntity
  8
0
100
AcDbCircle
 10
236.322634419117
 20
118.5200461742065
 30
0.0
 40
2.0
100
AcDbArc
 50
284.4775089999998
 51
0.0
  0
LINE
  5
830
330
2
100
AcDbEntity
  8
0
100
AcDbLine
 10
238.4468714191171
 20
121.0788531742065
 30
0.0
 11
240.446871419117
 21
120.3390161742065
 31
0.0
  0
ARC
  5
831
330
2
100
AcDbEntity
  8
0
100
AcDbCircle
 10
242.322634419117
 20
119.6451371742065
 30
0.0
 40
2.0
100
AcDbArc
 50
139.3987120000005
 51
180.0
  0
ARC
  5
832
330
2
100
AcDbEntity
  8
0
100
AcDbCircle
 10
240.322634419117
 20
120.3849751742064
 30
0.0
 40
2.0
100
AcDbArc
 50
139.3987120000005
 51
180.0
  0
LINE
  5
833
330
2
100
AcDbEntity
  8
0
100
AcDbLine
 10
238.322634419117
 20
120.3849751742064
 30
0.0
 11
238.322634419117
 21
118.5200461742065
 31
0.0
  0
LINE
  5
834
330
2
100
AcDbEntity
  8
0
100
AcDbLine
 10
240.322634419117
 20
119.6451371742065
 30
0.0
 11
240.322634419117
 21
119.1499901742065
 31
0.0
  0
ARC
  5
835
330
2
100
AcDbEntity
  8
0
100
AcDbCircle
 10
246.517245419117
 20
108.3212391742065
 30
0.0
 40
6.0
100
AcDbArc
 50
47.3640670000003
 51
120.3582990000006
  0
ARC
  5
836
330
2
100
AcDbEntity
  8
0
100
AcDbCircle
 10
250.242495419117
 20
128.8849751742065
 30
0.0
 40
2.0
100
AcDbArc
 50
90.0
 51
139.3987120000005
  0
ARC
  5
837
330
2
100
AcDbEntity
  8
0
100
AcDbCircle
 10
257.822634419117
 20
127.8849751742064
 30
0.0
 40
4.5
100
AcDbArc
 50
90.0
 51
270.0
  0
LINE
  5
838
330
2
100
AcDbEntity
  8
0
100
AcDbLine
 10
257.822634419117
 20
129.6849931742065
 30
0.0
 11
256.322634419117
 21
128.8189651742065
 31
0.0
  0
LINE
  5
839
330
2
100
AcDbEntity
  8
0
100
AcDbLine
 10
257.822634419117
 20
126.0849871742065
 30
0.0
 11
256.322634419117
 21
126.9510151742065
 31
0.0
  0
LINE
  5
83A
330
2
100
AcDbEntity
  8
0
100
AcDbLine
 10
256.322634419117
 20
128.8189651742065
 30
0.0
 11
256.322634419117
 21
126.9510151742065
 31
0.0
  0
ARC
  5
83B
330
2
100
AcDbEntity
  8
0
100
AcDbCircle
 10
250.687563419117
 20
132.8849751742065
 30
0.0
 40
2.0
100
AcDbArc
 50
270.0
 51
345.5224909999996
  0
LINE
  5
83C
330
2
100
AcDbEntity
  8
0
100
AcDbLine
 10
250.242495419117
 20
130.8849751742065
 30
0.0
 11
250.687563419117
 21
130.8849751742065
 31
0.0
  0
ARC
  5
83D
330
2
100
AcDbEntity
  8
0
100
AcDbCircle
 10
260.322634419117
 20
121.3849751742064
 30
0.0
 40
2.0
100
AcDbArc
 50
0.0
 51
90.0
  0
LINE
  5
83E
330
2
100
AcDbEntity
  8
0
100
AcDbLine
 10
259.322634419117
 20
128.8189651742065
 30
0.0
 11
259.322634419117
 21
126.9510151742065
 31
0.0
  0
LINE
  5
840
330
2
100
AcDbEntity
  8
0
100
AcDbLine
 10
356.4711769446137
 20
113.6349751742065
 30
0.0
 11
368.9711769446137
 21
113.6349751742065
 31
0.0
  0
LINE
  5
841
330
2
100
AcDbEntity
  8
0
100
AcDbLine
 10
356.4711769446137
 20
122.1349751742065
 30
0.0
 11
368.9711769446137
 21
122.1349751742065
 31
0.0
  0
LINE
  5
842
330
2
100
AcDbEntity
  8
HIDS
100
AcDbLine
 10
363.5742039446138
 20
125.3849751742065
 30
0.0
 11
370.9711769446137
 21
117.9880021742065
 31
0.0
  0
ARC
  5
844
330
2
100
AcDbEntity
  8
HIDS
100
AcDbCircle
 10
359.9711769446138
 20
128.3849751742065
 30
0.0
 40
3.0
100
AcDbArc
 50
180.0
 51
270.0
  0
LINE
  5
845
330
2
100
AcDbEntity
  8
0
100
AcDbLine
 10
356.4711769446137
 20
132.5551721742065
 30
0.0
 11
362.9711769446139
 21
132.3849751742065
 31
0.0
  0
LINE
  5
846
330
2
100
AcDbEntity
  8
CENTER
100
AcDbLine
 10
356.0314799446138
 20
127.8849751742064
 30
0.0
 11
364.0161899446137
 21
127.8849751742064
 31
0.0
  0
LINE
  5
849
330
2
100
AcDbEntity
  8
HIDS
100
AcDbLine
 10
359.9711769446138
 20
125.3849751742065
 30
0.0
 11
363.5742039446138
 21
125.3849751742065
 31
0.0
  0
LINE
  5
84A
330
2
100
AcDbEntity
  8
0
100
AcDbLine
 10
361.9711459446138
 20
131.6849631742065
 30
0.0
 11
362.9711769446139
 21
131.6849631742065
 31
0.0
  0
LINE
  5
84B
330
2
100
AcDbEntity
  8
0
100
AcDbLine
 10
357.9711459446138
 20
131.3849751742065
 30
0.0
 11
361.9711459446138
 21
131.3850061742064
 31
0.0
  0
LINE
  5
84C
330
2
100
AcDbEntity
  8
0
100
AcDbLine
 10
362.9711769446139
 20
126.1991204955434
 30
0.0
 11
362.9711769446139
 21
132.3849751742065
 31
0.0
  0
LINE
  5
84E
330
2
100
AcDbEntity
  8
0
100
AcDbLine
 10
357.9711459446138
 20
125.8118249140909
 30
0.0
 11
357.9711459446138
 21
131.3849751742065
 31
0.0
  0
LINE
  5
850
330
2
100
AcDbEntity
  8
0
100
AcDbLine
 10
361.9711459446138
 20
126.0598359865195
 30
0.0
 11
361.9711459446138
 21
131.6849631742065
 31
0.0
  0
ARC
  5
851
330
2
100
AcDbEntity
  8
HIDS
100
AcDbCircle
 10
373.9711769446139
 20
114.3849751742065
 30
0.0
 40
3.0
100
AcDbArc
 50
180.0
 51
270.0
  0
LINE
  5
853
330
2
100
AcDbEntity
  8
HOJO
100
AcDbLine
 10
368.9711769446137
 20
113.8849751742065
 30
0.0
 11
388.9711769446137
 21
113.8849751742065
 31
0.0
  0
LINE
  5
854
330
2
100
AcDbEntity
  8
HOJO
100
AcDbLine
 10
368.9711769446137
 20
121.8849751742065
 30
0.0
 11
388.9711769446137
 21
121.8849751742065
 31
0.0
  0
ARC
  5
855
330
2
100
AcDbEntity
  8
HIDS
100
AcDbCircle
 10
370.9711769446137
 20
119.6832541742065
 30
0.0
 40
3.0
100
AcDbArc
 50
0.0
 51
50.64329900000029
  0
LINE
  5
856
330
2
100
AcDbEntity
  8
HIDS
100
AcDbLine
 10
370.9711769446137
 20
114.3849751742065
 30
0.0
 11
370.9711769446137
 21
117.9880021742065
 31
0.0
  0
ARC
  5
857
330
2
100
AcDbEntity
  8
HIDS
100
AcDbCircle
 10
375.9711769446139
 20
115.7518421742065
 30
0.0
 40
2.0
100
AcDbArc
 50
180.0
 51
268.9999999999998
  0
LINE
  5
858
330
2
100
AcDbEntity
  8
HIDS
100
AcDbLine
 10
373.9711769446139
 20
115.7518421742065
 30
0.0
 11
373.9711769446139
 21
119.6832541742065
 31
0.0
  0
LINE
  5
85C
330
2
100
AcDbEntity
  8
HOJO
100
AcDbLine
 10
388.9711769446137
 20
121.8849751742065
 30
0.0
 11
388.9711769446137
 21
113.8849751742065
 31
0.0
  0
LINE
  5
860
330
2
100
AcDbEntity
  8
0
100
AcDbLine
 10
89.26713041911705
 20
181.6339371742065
 30
0.0
 11
162.3226344191169
 21
181.6339371742065
 31
0.0
  0
LINE
  5
861
330
2
100
AcDbEntity
  8
0
100
AcDbLine
 10
89.26713041911705
 20
189.3849751742065
 30
0.0
 11
160.9638854191169
 21
189.3849751742065
 31
0.0
  0
LINE
  5
862
330
2
100
AcDbEntity
  8
CENTER
100
AcDbLine
 10
269.8634054191169
 20
151.3849751742065
 30
0.0
 11
22.24661245088269
 21
151.3849751742065
 31
0.0
  0
LINE
  5
863
330
2
100
AcDbEntity
  8
0
100
AcDbLine
 10
33.51714241911702
 20
175.3849751742065
 30
0.0
 11
79.76713041911705
 21
175.3849751742065
 31
0.0
  0
LINE
  5
864
330
2
100
AcDbEntity
  8
0
100
AcDbLine
 10
35.76714241911702
 20
191.3849751742065
 30
0.0
 11
79.76713041911705
 21
191.3849751742065
 31
0.0
  0
ARC
  5
865
330
2
100
AcDbEntity
  8
0
100
AcDbCircle
 10
35.76714241911702
 20
186.3849751742065
 30
0.0
 40
5.0
100
AcDbArc
 50
90.0
 51
180.0
  0
ARC
  5
866
330
2
100
AcDbEntity
  8
0
100
AcDbCircle
 10
79.76713041911705
 20
174.9143631742064
 30
0.0
 40
1.5
100
AcDbArc
 50
0.0
 51
90.0
  0
ARC
  5
867
330
2
100
AcDbEntity
  8
0
100
AcDbCircle
 10
79.76713041911705
 20
174.9143631742064
 30
0.0
 40
3.0
100
AcDbArc
 50
0.0
 51
90.0
  0
ARC
  5
868
330
2
100
AcDbEntity
  8
0
100
AcDbCircle
 10
79.76713041911705
 20
174.9143631742064
 30
0.0
 40
4.5
100
AcDbArc
 50
0.0
 51
90.0
  0
LINE
  5
869
330
2
100
AcDbEntity
  8
HOJO
100
AcDbLine
 10
82.76713041911705
 20
170.9143631742064
 30
0.0
 11
84.26713041911705
 21
170.4143631742065
 31
0.0
  0
LINE
  5
86A
330
2
100
AcDbEntity
  8
HOJO
100
AcDbLine
 10
81.26713041911704
 20
169.9143631742064
 30
0.0
 11
82.76713041911705
 21
170.4143631742065
 31
0.0
  0
LINE
  5
86B
330
2
100
AcDbEntity
  8
0
100
AcDbLine
 10
84.26713041911705
 20
174.9143631742064
 30
0.0
 11
84.26713041911705
 21
170.4143631742065
 31
0.0
  0
LINE
  5
86C
330
2
100
AcDbEntity
  8
0
100
AcDbLine
 10
82.76713041911705
 20
174.9143631742064
 30
0.0
 11
82.76713041911705
 21
170.4143631742065
 31
0.0
  0
LINE
  5
86D
330
2
100
AcDbEntity
  8
0
100
AcDbLine
 10
81.26713041911704
 20
174.9143631742064
 30
0.0
 11
81.26713041911704
 21
169.8987691742065
 31
0.0
  0
LINE
  5
872
330
2
100
AcDbEntity
  8
0
100
AcDbLine
 10
79.76713041911705
 20
181.6339681742064
 30
0.0
 11
89.26713041911705
 21
181.6339681742064
 31
0.0
  0
LINE
  5
873
330
2
100
AcDbEntity
  8
0
100
AcDbLine
 10
79.76713041911705
 20
189.3849751742065
 30
0.0
 11
89.26713041911705
 21
189.3849751742065
 31
0.0
  0
CIRCLE
  5
87B
330
2
100
AcDbEntity
  8
HOJO
100
AcDbCircle
 10
255.322634419117
 20
184.8849751742065
 30
0.0
 40
4.0
  0
CIRCLE
  5
87C
330
2
100
AcDbEntity
  8
0
100
AcDbCircle
 10
255.322634419117
 20
184.8849751742065
 30
0.0
 40
4.25
  0
CIRCLE
  5
87D
330
2
100
AcDbEntity
  8
0
100
AcDbCircle
 10
255.322634419117
 20
184.8849751742065
 30
0.0
 40
3.399999999999999
  0
LINE
  5
87F
330
2
100
AcDbEntity
  8
0
100
AcDbLine
 10
260.322634419117
 20
170.3849751742065
 30
0.0
 11
257.822634419117
 21
170.3849751742065
 31
0.0
  0
LINE
  5
880
330
2
100
AcDbEntity
  8
0
100
AcDbLine
 10
260.322634419117
 20
179.3849751742065
 30
0.0
 11
257.822634419117
 21
179.3849751742065
 31
0.0
  0
LINE
  5
881
330
2
100
AcDbEntity
  8
0
100
AcDbLine
 10
257.822634419117
 20
173.0849571742064
 30
0.0
 11
259.322634419117
 21
173.9509851742065
 31
0.0
  0
LINE
  5
882
330
2
100
AcDbEntity
  8
0
100
AcDbLine
 10
257.822634419117
 20
176.6849631742064
 30
0.0
 11
259.322634419117
 21
175.8189351742065
 31
0.0
  0
CIRCLE
  5
883
330
2
100
AcDbEntity
  8
0
100
AcDbCircle
 10
257.822634419117
 20
174.8849751742065
 30
0.0
 40
3.5
  0
CIRCLE
  5
884
330
2
100
AcDbEntity
  8
0
100
AcDbCircle
 10
257.822634419117
 20
174.8849751742065
 30
0.0
 40
3.799999999999998
  0
ARC
  5
885
330
2
100
AcDbEntity
  8
0
100
AcDbCircle
 10
255.322634419117
 20
184.8849751742065
 30
0.0
 40
7.0
100
AcDbArc
 50
0.0
 51
132.6359249999995
  0
LINE
  5
887
330
2
100
AcDbEntity
  8
0
100
AcDbLine
 10
231.322634419117
 20
186.8849751742065
 30
0.0
 11
193.322634419117
 21
186.8849751742065
 31
0.0
  0
LINE
  5
888
330
2
100
AcDbEntity
  8
0
100
AcDbLine
 10
169.3226344191169
 20
191.8849751742065
 30
0.0
 11
255.322634419117
 21
191.8849751742065
 31
0.0
  0
ARC
  5
88A
330
2
100
AcDbEntity
  8
0
100
AcDbCircle
 10
166.8226344191169
 20
174.8849751742065
 30
0.0
 40
4.5
100
AcDbArc
 50
270.0
 51
90.0
  0
LINE
  5
88B
330
2
100
AcDbEntity
  8
0
100
AcDbLine
 10
165.3226344191169
 20
173.9509851742065
 30
0.0
 11
165.3226344191169
 21
175.8189351742065
 31
0.0
  0
LINE
  5
88C
330
2
100
AcDbEntity
  8
0
100
AcDbLine
 10
168.3226344191169
 20
173.9509851742065
 30
0.0
 11
168.3226344191169
 21
175.8189351742065
 31
0.0
  0
CIRCLE
  5
88D
330
2
100
AcDbEntity
  8
0
100
AcDbCircle
 10
166.8226344191169
 20
174.8849751742065
 30
0.0
 40
3.5
  0
CIRCLE
  5
88E
330
2
100
AcDbEntity
  8
0
100
AcDbCircle
 10
166.8226344191169
 20
174.8849751742065
 30
0.0
 40
3.799999999999998
  0
LINE
  5
88F
330
2
100
AcDbEntity
  8
0
100
AcDbLine
 10
176.841143419117
 20
170.5834001742065
 30
0.0
 11
185.841143419117
 21
181.0834001742064
 31
0.0
  0
LINE
  5
890
330
2
100
AcDbEntity
  8
0
100
AcDbLine
 10
175.921282419117
 20
172.5834001742065
 30
0.0
 11
183.841143419117
 21
181.8232381742064
 31
0.0
  0
LINE
  5
891
330
2
100
AcDbEntity
  8
0
100
AcDbLine
 10
162.3226344191169
 20
184.8849751742065
 30
0.0
 11
162.3226344191169
 21
167.7134051742065
 31
0.0
  0
ARC
  5
893
330
2
100
AcDbEntity
  8
0
100
AcDbCircle
 10
164.3226344191169
 20
168.3849751742065
 30
0.0
 40
2.0
100
AcDbArc
 50
90.0
 51
180.0
  0
LINE
  5
894
330
2
100
AcDbEntity
  8
0
100
AcDbLine
 10
165.7368494191169
 20
163.4707601742064
 30
0.0
 11
162.908419419117
 21
166.2991901742065
 31
0.0
  0
LINE
  5
895
330
2
100
AcDbEntity
  8
0
100
AcDbLine
 10
165.7368494191169
 20
139.2991901742065
 30
0.0
 11
162.908419419117
 21
136.4707601742064
 31
0.0
  0
ARC
  5
896
330
2
100
AcDbEntity
  8
0
100
AcDbCircle
 10
164.3226344191169
 20
135.0565451742064
 30
0.0
 40
2.0
100
AcDbArc
 50
134.9999999999996
 51
180.0
  0
ARC
  5
897
330
2
100
AcDbEntity
  8
0
100
AcDbCircle
 10
164.3226344191169
 20
167.7134051742065
 30
0.0
 40
2.0
100
AcDbArc
 50
180.0
 51
225.0000000000003
  0
LINE
  5
898
330
2
100
AcDbEntity
  8
0
100
AcDbLine
 10
171.3226344191169
 20
164.8849751742065
 30
0.0
 11
171.3226344191169
 21
137.8849751742065
 31
0.0
  0
LINE
  5
899
330
2
100
AcDbEntity
  8
0
100
AcDbLine
 10
166.3226344191169
 20
140.7134051742065
 30
0.0
 11
166.3226344191169
 21
162.0565451742064
 31
0.0
  0
ARC
  5
89A
330
2
100
AcDbEntity
  8
0
100
AcDbCircle
 10
164.3226344191169
 20
140.7134051742065
 30
0.0
 40
2.0
100
AcDbArc
 50
314.9999999999997
 51
0.0
  0
LINE
  5
89B
330
2
100
AcDbEntity
  8
0
100
AcDbLine
 10
175.322634419117
 20
132.8849751742065
 30
0.0
 11
173.5489074191169
 21
132.8849751742065
 31
0.0
  0
ARC
  5
89C
330
2
100
AcDbEntity
  8
0
100
AcDbCircle
 10
164.3226344191169
 20
162.0565451742064
 30
0.0
 40
2.0
100
AcDbArc
 50
0.0
 51
45.00000000000028
  0
ARC
  5
89D
330
2
100
AcDbEntity
  8
0
100
AcDbCircle
 10
173.957720419117
 20
169.8849751742065
 30
0.0
 40
2.0
100
AcDbArc
 50
90.0
 51
165.5224909999996
  0
ARC
  5
89E
330
2
100
AcDbEntity
  8
0
100
AcDbCircle
 10
173.5489074191169
 20
167.8849751742065
 30
0.0
 40
2.0
100
AcDbArc
 50
90.0
 51
171.3730769999999
  0
LINE
  5
89F
330
2
100
AcDbEntity
  8
0
100
AcDbLine
 10
164.3226344191169
 20
170.3849751742065
 30
0.0
 11
166.8226344191169
 21
170.3849751742065
 31
0.0
  0
LINE
  5
8A0
330
2
100
AcDbEntity
  8
0
100
AcDbLine
 10
166.8226344191169
 20
173.0849571742064
 30
0.0
 11
168.3226344191169
 21
173.9509851742065
 31
0.0
  0
LINE
  5
8A1
330
2
100
AcDbEntity
  8
0
100
AcDbLine
 10
166.8226344191169
 20
173.0849571742064
 30
0.0
 11
165.3226344191169
 21
173.9509851742065
 31
0.0
  0
ARC
  5
8A2
330
2
100
AcDbEntity
  8
0
100
AcDbCircle
 10
193.322634419117
 20
164.8849751742065
 30
0.0
 40
22.0
100
AcDbArc
 50
165.5224909999996
 51
180.0
  0
LINE
  5
8A3
330
2
100
AcDbEntity
  8
0
100
AcDbLine
 10
174.402758419117
 20
171.8849751742065
 30
0.0
 11
173.957720419117
 21
171.8849751742065
 31
0.0
  0
LINE
  5
8A4
330
2
100
AcDbEntity
  8
0
100
AcDbLine
 10
175.322634419117
 20
169.8849751742065
 30
0.0
 11
173.5489074191169
 21
169.8849751742065
 31
0.0
  0
LINE
  5
8A5
330
2
100
AcDbEntity
  8
0
100
AcDbLine
 10
176.158343419117
 20
170.0679581742065
 30
0.0
 11
175.238482419117
 21
172.0679581742064
 31
0.0
  0
ARC
  5
8A6
330
2
100
AcDbEntity
  8
0
100
AcDbCircle
 10
175.322634419117
 20
171.8849751742065
 30
0.0
 40
2.0
100
AcDbArc
 50
270.0
 51
319.3987050000003
  0
ARC
  5
8A7
330
2
100
AcDbEntity
  8
0
100
AcDbCircle
 10
174.402758419117
 20
173.8849751742065
 30
0.0
 40
2.0
100
AcDbArc
 50
270.0
 51
319.3987050000003
  0
ARC
  5
8A8
330
2
100
AcDbEntity
  8
0
100
AcDbCircle
 10
164.3226344191169
 20
181.3849751742065
 30
0.0
 40
2.0
100
AcDbArc
 50
180.0
 51
270.0
  0
LINE
  5
8A9
330
2
100
AcDbEntity
  8
0
100
AcDbLine
 10
161.659014419117
 20
189.5096701742065
 30
0.0
 11
166.8896514191169
 21
191.4485431742065
 31
0.0
  0
ARC
  5
8AA
330
2
100
AcDbEntity
  8
0
100
AcDbCircle
 10
169.3226344191169
 20
184.8849751742065
 30
0.0
 40
7.0
100
AcDbArc
 50
47.3640670000003
 51
180.0
  0
LINE
  5
8AC
330
2
100
AcDbEntity
  8
0
100
AcDbLine
 10
161.8226344191169
 20
177.0754351742065
 30
0.0
 11
162.3226344191169
 21
177.0754351742065
 31
0.0
  0
ARC
  5
8AD
330
2
100
AcDbEntity
  8
0
100
AcDbCircle
 10
160.9638854191169
 20
191.3849751742065
 30
0.0
 40
2.0
100
AcDbArc
 50
270.0
 51
290.3387299999998
  0
ARC
  5
8AE
330
2
100
AcDbEntity
  8
0
100
AcDbCircle
 10
178.128023419117
 20
194.4487261742065
 30
0.0
 40
6.0
100
AcDbArc
 50
227.364075
 51
300.3583030000003
  0
CIRCLE
  5
8AF
330
2
100
AcDbEntity
  8
HOJO
100
AcDbCircle
 10
169.3226344191169
 20
184.8849751742065
 30
0.0
 40
4.0
  0
CIRCLE
  5
8B0
330
2
100
AcDbEntity
  8
0
100
AcDbCircle
 10
169.3226344191169
 20
184.8849751742065
 30
0.0
 40
4.25
  0
CIRCLE
  5
8B1
330
2
100
AcDbEntity
  8
0
100
AcDbCircle
 10
169.3226344191169
 20
184.8849751742065
 30
0.0
 40
3.399999999999999
  0
LINE
  5
8B3
330
2
100
AcDbEntity
  8
0
100
AcDbLine
 10
164.3226344191169
 20
179.3849751742065
 30
0.0
 11
166.8226344191169
 21
179.3849751742065
 31
0.0
  0
LINE
  5
8B4
330
2
100
AcDbEntity
  8
0
100
AcDbLine
 10
166.8226344191169
 20
176.6849631742064
 30
0.0
 11
165.3226344191169
 21
175.8189351742065
 31
0.0
  0
LINE
  5
8B5
330
2
100
AcDbEntity
  8
0
100
AcDbLine
 10
166.8226344191169
 20
176.6849631742064
 30
0.0
 11
168.3226344191169
 21
175.8189351742065
 31
0.0
  0
ARC
  5
8B6
330
2
100
AcDbEntity
  8
0
100
AcDbCircle
 10
186.322634419117
 20
183.6199601742065
 30
0.0
 40
2.0
100
AcDbArc
 50
110.4873119999995
 51
180.0
  0
ARC
  5
8B7
330
2
100
AcDbEntity
  8
0
100
AcDbCircle
 10
188.322634419117
 20
184.2499041742065
 30
0.0
 40
2.0
100
AcDbArc
 50
104.4775089999999
 51
180.0
  0
ARC
  5
8B8
330
2
100
AcDbEntity
  8
0
100
AcDbCircle
 10
193.322634419117
 20
164.8849751742065
 30
0.0
 40
22.0
100
AcDbArc
 50
90.0
 51
110.4873119999995
  0
LINE
  5
8B9
330
2
100
AcDbEntity
  8
0
100
AcDbLine
 10
186.198397419117
 20
181.6910971742064
 30
0.0
 11
184.198397419117
 21
182.4309341742065
 31
0.0
  0
ARC
  5
8BA
330
2
100
AcDbEntity
  8
0
100
AcDbCircle
 10
182.3226344191169
 20
183.1248131742063
 30
0.0
 40
2.0
100
AcDbArc
 50
319.3987050000003
 51
0.0
  0
ARC
  5
8BB
330
2
100
AcDbEntity
  8
0
100
AcDbCircle
 10
184.322634419117
 20
182.3849751742065
 30
0.0
 40
2.0
100
AcDbArc
 50
319.3987050000003
 51
0.0
  0
LINE
  5
8BC
330
2
100
AcDbEntity
  8
0
100
AcDbLine
 10
186.322634419117
 20
182.3849751742065
 30
0.0
 11
186.322634419117
 21
184.2499041742065
 31
0.0
  0
LINE
  5
8BD
330
2
100
AcDbEntity
  8
0
100
AcDbLine
 10
184.322634419117
 20
183.1248131742063
 30
0.0
 11
184.322634419117
 21
183.6199601742065
 31
0.0
  0
ARC
  5
8BE
330
2
100
AcDbEntity
  8
0
100
AcDbCircle
 10
188.723299419117
 20
181.8849751742065
 30
0.0
 40
10.0
100
AcDbArc
 50
90.0
 51
112.3316420000002
  0
ARC
  5
8BF
330
2
100
AcDbEntity
  8
0
100
AcDbCircle
 10
196.322634419117
 20
163.3849751742065
 30
0.0
 40
30.0
100
AcDbArc
 50
112.3316420000002
 51
120.3582990000006
  0
ARC
  5
8C0
330
2
100
AcDbEntity
  8
0
100
AcDbCircle
 10
257.822634419117
 20
174.8849751742065
 30
0.0
 40
4.5
100
AcDbArc
 50
90.0
 51
270.0
  0
LINE
  5
8C2
330
2
100
AcDbEntity
  8
0
100
AcDbLine
 10
256.322634419117
 20
173.9509851742065
 30
0.0
 11
256.322634419117
 21
175.8189351742065
 31
0.0
  0
LINE
  5
8C3
330
2
100
AcDbEntity
  8
0
100
AcDbLine
 10
247.804110419117
 20
170.5834001742065
 30
0.0
 11
238.804125419117
 21
181.0834001742064
 31
0.0
  0
LINE
  5
8C4
330
2
100
AcDbEntity
  8
0
100
AcDbLine
 10
248.7240014191169
 20
172.5834001742065
 30
0.0
 11
240.804110419117
 21
181.8232381742064
 31
0.0
  0
ARC
  5
8C5
330
2
100
AcDbEntity
  8
0
100
AcDbCircle
 10
223.3226344191169
 20
151.3849751742065
 30
0.0
 40
7.5
100
AcDbArc
 50
19.47122199999969
 51
340.5287780000002
  0
ARC
  5
8C6
330
2
100
AcDbEntity
  8
0
100
AcDbCircle
 10
223.3226344191169
 20
151.3849751742065
 30
0.0
 40
8.5
100
AcDbArc
 50
17.1046349999995
 51
342.8953549999996
  0
CIRCLE
  5
8C7
330
2
100
AcDbEntity
  8
0
100
AcDbCircle
 10
223.3226344191169
 20
151.3849751742065
 30
0.0
 40
15.0
  0
LINE
  5
8C8
330
2
100
AcDbEntity
  8
0
100
AcDbLine
 10
227.822634419117
 20
153.8849751742065
 30
0.0
 11
227.822634419117
 21
148.8849751742065
 31
0.0
  0
LINE
  5
8C9
330
2
100
AcDbEntity
  8
0
100
AcDbLine
 10
232.822634419117
 20
153.8849751742065
 30
0.0
 11
232.822634419117
 21
148.8849751742065
 31
0.0
  0
LINE
  5
8CA
330
2
100
AcDbEntity
  8
0
100
AcDbLine
 10
253.322634419117
 20
164.8849751742065
 30
0.0
 11
253.322634419117
 21
137.8849751742065
 31
0.0
  0
LINE
  5
8CB
330
2
100
AcDbEntity
  8
0
100
AcDbLine
 10
227.822634419117
 20
148.8849751742065
 30
0.0
 11
232.822634419117
 21
148.8849751742065
 31
0.0
  0
LINE
  5
8CC
330
2
100
AcDbEntity
  8
0
100
AcDbLine
 10
249.322634419117
 20
132.8849751742065
 30
0.0
 11
251.096346419117
 21
132.8849751742065
 31
0.0
  0
LINE
  5
8CD
330
2
100
AcDbEntity
  8
0
100
AcDbLine
 10
227.822634419117
 20
153.8849751742065
 30
0.0
 11
232.822634419117
 21
153.8849751742065
 31
0.0
  0
LINE
  5
8CE
330
2
100
AcDbEntity
  8
0
100
AcDbLine
 10
249.322634419117
 20
169.8849751742065
 30
0.0
 11
251.096346419117
 21
169.8849751742065
 31
0.0
  0
ARC
  5
8CF
330
2
100
AcDbEntity
  8
0
100
AcDbCircle
 10
250.242495419117
 20
173.8849751742065
 30
0.0
 40
2.0
100
AcDbArc
 50
220.6012879999994
 51
270.0
  0
LINE
  5
8D0
330
2
100
AcDbEntity
  8
0
100
AcDbLine
 10
248.486910419117
 20
170.0679581742065
 30
0.0
 11
249.406801419117
 21
172.0679581742064
 31
0.0
  0
ARC
  5
8D1
330
2
100
AcDbEntity
  8
0
100
AcDbCircle
 10
249.322634419117
 20
171.8849751742065
 30
0.0
 40
2.0
100
AcDbArc
 50
220.6012879999994
 51
270.0
  0
LINE
  5
8D2
330
2
100
AcDbEntity
  8
0
100
AcDbLine
 10
257.822634419117
 20
173.0849571742064
 30
0.0
 11
256.322634419117
 21
173.9509851742065
 31
0.0
  0
ARC
  5
8D3
330
2
100
AcDbEntity
  8
0
100
AcDbCircle
 10
231.322634419117
 20
164.8849751742065
 30
0.0
 40
22.0
100
AcDbArc
 50
0.0
 51
14.47751199999975
  0
ARC
  5
8D4
330
2
100
AcDbEntity
  8
0
100
AcDbCircle
 10
250.687563419117
 20
169.8849751742065
 30
0.0
 40
2.0
100
AcDbArc
 50
14.47751199999975
 51
90.0
  0
ARC
  5
8D5
330
2
100
AcDbEntity
  8
0
100
AcDbCircle
 10
251.096346419117
 20
167.8849751742065
 30
0.0
 40
2.0
100
AcDbArc
 50
8.626927000000625
 51
90.0
  0
LINE
  5
8D6
330
2
100
AcDbEntity
  8
0
100
AcDbLine
 10
250.242495419117
 20
171.8849751742065
 30
0.0
 11
250.687563419117
 21
171.8849751742065
 31
0.0
  0
ARC
  5
8D7
330
2
100
AcDbEntity
  8
0
100
AcDbCircle
 10
228.322634419117
 20
163.3849751742065
 30
0.0
 40
30.0
100
AcDbArc
 50
59.64169699999963
 51
67.66835799999966
  0
ARC
  5
8D8
330
2
100
AcDbEntity
  8
0
100
AcDbCircle
 10
238.322634419117
 20
183.6199601742065
 30
0.0
 40
2.0
100
AcDbArc
 50
0.0
 51
69.51268800000041
  0
ARC
  5
8D9
330
2
100
AcDbEntity
  8
0
100
AcDbCircle
 10
236.322634419117
 20
184.2499041742065
 30
0.0
 40
2.0
100
AcDbArc
 50
0.0
 51
75.52249100000008
  0
ARC
  5
8DA
330
2
100
AcDbEntity
  8
0
100
AcDbCircle
 10
231.322634419117
 20
164.8849751742065
 30
0.0
 40
22.0
100
AcDbArc
 50
69.51268800000041
 51
90.0
  0
LINE
  5
8DB
330
2
100
AcDbEntity
  8
0
100
AcDbLine
 10
238.4468714191171
 20
181.6910971742064
 30
0.0
 11
240.446871419117
 21
182.4309341742065
 31
0.0
  0
ARC
  5
8DC
330
2
100
AcDbEntity
  8
0
100
AcDbCircle
 10
242.322634419117
 20
183.1248131742063
 30
0.0
 40
2.0
100
AcDbArc
 50
180.0
 51
220.6012879999994
  0
ARC
  5
8DD
330
2
100
AcDbEntity
  8
0
100
AcDbCircle
 10
240.322634419117
 20
182.3849751742065
 30
0.0
 40
2.0
100
AcDbArc
 50
180.0
 51
220.6012879999994
  0
LINE
  5
8DE
330
2
100
AcDbEntity
  8
0
100
AcDbLine
 10
238.322634419117
 20
182.3849751742065
 30
0.0
 11
238.322634419117
 21
184.2499041742065
 31
0.0
  0
LINE
  5
8DF
330
2
100
AcDbEntity
  8
0
100
AcDbLine
 10
240.322634419117
 20
183.1248131742063
 30
0.0
 11
240.322634419117
 21
183.6199601742065
 31
0.0
  0
ARC
  5
8E0
330
2
100
AcDbEntity
  8
0
100
AcDbCircle
 10
235.921969419117
 20
181.8849751742065
 30
0.0
 40
10.0
100
AcDbArc
 50
67.66835799999966
 51
90.0
  0
LINE
  5
8E2
330
2
100
AcDbEntity
  8
0
100
AcDbLine
 10
257.822634419117
 20
176.6849631742064
 30
0.0
 11
256.322634419117
 21
175.8189351742065
 31
0.0
  0
ARC
  5
8E3
330
2
100
AcDbEntity
  8
0
100
AcDbCircle
 10
246.517245419117
 20
194.4487261742065
 30
0.0
 40
6.0
100
AcDbArc
 50
239.6417009999993
 51
312.6359329999996
  0
LINE
  5
8E4
330
2
100
AcDbEntity
  8
0
100
AcDbLine
 10
328.4711769446137
 20
148.8849751742065
 30
0.0
 11
349.9711769446137
 21
148.8849751742065
 31
0.0
  0
LINE
  5
8E5
330
2
100
AcDbEntity
  8
0
100
AcDbLine
 10
328.4711769446137
 20
153.8849751742065
 30
0.0
 11
349.9711769446137
 21
153.8849751742065
 31
0.0
  0
LINE
  5
8E6
330
2
100
AcDbEntity
  8
0
100
AcDbLine
 10
328.4711769446137
 20
143.8849751742065
 30
0.0
 11
355.4711769446137
 21
143.8849751742065
 31
0.0
  0
LINE
  5
8E7
330
2
100
AcDbEntity
  8
0
100
AcDbLine
 10
328.4711769446137
 20
158.8849751742065
 30
0.0
 11
355.4711769446137
 21
158.8849751742065
 31
0.0
  0
LINE
  5
8E8
330
2
100
AcDbEntity
  8
0
100
AcDbLine
 10
259.322634419117
 20
173.9509851742065
 30
0.0
 11
259.322634419117
 21
175.8189351742065
 31
0.0
  0
LINE
  5
8E9
330
2
100
AcDbEntity
  8
0
100
AcDbLine
 10
258.322634419117
 20
140.7134051742065
 30
0.0
 11
258.322634419117
 21
162.0565451742064
 31
0.0
  0
ARC
  5
8EA
330
2
100
AcDbEntity
  8
0
100
AcDbCircle
 10
260.322634419117
 20
140.7134051742065
 30
0.0
 40
2.0
100
AcDbArc
 50
180.0
 51
225.0000000000003
  0
ARC
  5
8EB
330
2
100
AcDbEntity
  8
0
100
AcDbCircle
 10
260.322634419117
 20
135.0565451742064
 30
0.0
 40
2.0
100
AcDbArc
 50
0.0
 51
45.00000000000028
  0
LINE
  5
8EC
330
2
100
AcDbEntity
  8
0
100
AcDbLine
 10
258.908419419117
 20
139.2991901742065
 30
0.0
 11
261.736849419117
 21
136.4707601742064
 31
0.0
  0
LINE
  5
8ED
330
2
100
AcDbEntity
  8
0
100
AcDbLine
 10
258.908419419117
 20
163.4707601742064
 30
0.0
 11
261.736849419117
 21
166.2991901742065
 31
0.0
  0
ARC
  5
8EE
330
2
100
AcDbEntity
  8
0
100
AcDbCircle
 10
260.322634419117
 20
162.0565451742064
 30
0.0
 40
2.0
100
AcDbArc
 50
134.9999999999996
 51
180.0
  0
ARC
  5
8EF
330
2
100
AcDbEntity
  8
0
100
AcDbCircle
 10
260.322634419117
 20
168.3849751742065
 30
0.0
 40
2.0
100
AcDbArc
 50
0.0
 51
90.0
  0
ARC
  5
8F0
330
2
100
AcDbEntity
  8
0
100
AcDbCircle
 10
260.322634419117
 20
167.7134051742065
 30
0.0
 40
2.0
100
AcDbArc
 50
314.9999999999997
 51
0.0
  0
LINE
  5
8F1
330
2
100
AcDbEntity
  8
0
100
AcDbLine
 10
328.4711769446137
 20
158.8849751742065
 30
0.0
 11
328.4711769446137
 21
143.8849751742065
 31
0.0
  0
ARC
  5
8F2
330
2
100
AcDbEntity
  8
0
100
AcDbCircle
 10
260.322634419117
 20
181.3849751742065
 30
0.0
 40
2.0
100
AcDbArc
 50
270.0
 51
0.0
  0
ARC
  5
8F3
330
2
100
AcDbEntity
  8
HIDS
100
AcDbCircle
 10
361.9711769446137
 20
172.9535171742065
 30
0.0
 40
5.0
100
AcDbArc
 50
134.9999999999996
 51
180.0
  0
LINE
  5
8F4
330
2
100
AcDbEntity
  8
0
100
AcDbLine
 10
362.9711769446139
 20
179.3849751742065
 30
0.0
 11
362.9711769446139
 21
170.3849751742065
 31
0.0
  0
LINE
  5
8F5
330
2
100
AcDbEntity
  8
0
100
AcDbLine
 10
357.9711459446138
 20
178.3849751742065
 30
0.0
 11
357.9711459446138
 21
171.3849751742065
 31
0.0
  0
LINE
  5
8F6
330
2
100
AcDbEntity
  8
0
100
AcDbLine
 10
361.9711459446138
 20
178.6849631742065
 30
0.0
 11
361.9711459446138
 21
171.0849871742064
 31
0.0
  0
LINE
  5
8F7
330
2
100
AcDbEntity
  8
0
100
AcDbLine
 10
368.9711769446137
 20
135.8849751742065
 30
0.0
 11
356.4711769446137
 21
135.8849751742065
 31
0.0
  0
LINE
  5
8F8
330
2
100
AcDbEntity
  8
0
100
AcDbLine
 10
368.9711769446137
 20
139.8849751742065
 30
0.0
 11
356.4711769446137
 21
139.8849751742065
 31
0.0
  0
LINE
  5
8F9
330
2
100
AcDbEntity
  8
0
100
AcDbLine
 10
368.9711769446137
 20
162.8849751742065
 30
0.0
 11
356.4711769446137
 21
162.8849751742065
 31
0.0
  0
LINE
  5
8FA
330
2
100
AcDbEntity
  8
0
100
AcDbLine
 10
368.9711769446137
 20
166.8849751742065
 30
0.0
 11
356.4711769446137
 21
166.8849751742065
 31
0.0
  0
LINE
  5
8FB
330
2
100
AcDbEntity
  8
0
100
AcDbLine
 10
355.4711769446137
 20
159.1963151742065
 30
0.0
 11
355.4711769446137
 21
143.5736351742065
 31
0.0
  0
ARC
  5
8FC
330
2
100
AcDbEntity
  8
0
100
AcDbCircle
 10
349.9711769446137
 20
151.3849751742065
 30
0.0
 40
2.5
100
AcDbArc
 50
270.0
 51
90.0
  0
ARC
  5
8FD
330
2
100
AcDbEntity
  8
0
100
AcDbCircle
 10
355.9711769446137
 20
143.5736351742065
 30
0.0
 40
0.5
100
AcDbArc
 50
180.0
 51
239.9999999999999
  0
LINE
  5
8FE
330
2
100
AcDbEntity
  8
0
100
AcDbLine
 10
356.4711769446137
 20
142.8849751742065
 30
0.0
 11
356.2486119446138
 21
142.8849751742065
 31
0.0
  0
LINE
  5
8FF
330
2
100
AcDbEntity
  8
0
100
AcDbLine
 10
355.7211769446137
 20
143.1406511742065
 30
0.0
 11
355.8730939446137
 21
143.0529131742065
 31
0.0
  0
ARC
  5
900
330
2
100
AcDbEntity
  8
0
100
AcDbCircle
 10
356.8730939446138
 20
144.7849691742065
 30
0.0
 40
2.0
100
AcDbArc
 50
239.9999999999999
 51
251.8051299999997
  0
LINE
  5
901
330
2
100
AcDbEntity
  8
0
100
AcDbLine
 10
356.4711769446137
 20
159.8849751742065
 30
0.0
 11
356.2486119446138
 21
159.8849751742065
 31
0.0
  0
ARC
  5
902
330
2
100
AcDbEntity
  8
0
100
AcDbCircle
 10
356.8730939446138
 20
157.9849811742064
 30
0.0
 40
2.0
100
AcDbArc
 50
108.1948699999997
 51
119.9999999999995
  0
LINE
  5
903
330
2
100
AcDbEntity
  8
0
100
AcDbLine
 10
355.7211769446137
 20
159.6292991742064
 30
0.0
 11
355.8730939446137
 21
159.7170371742064
 31
0.0
  0
ARC
  5
904
330
2
100
AcDbEntity
  8
0
100
AcDbCircle
 10
355.9711769446137
 20
159.1963151742065
 30
0.0
 40
0.5
100
AcDbArc
 50
119.9999999999995
 51
180.0
  0
LINE
  5
905
330
2
100
AcDbEntity
  8
0
100
AcDbLine
 10
356.4711769446137
 20
170.2147781742065
 30
0.0
 11
362.9711769446139
 21
170.3849751742065
 31
0.0
  0
LINE
  5
906
330
2
100
AcDbEntity
  8
CENTER
100
AcDbLine
 10
356.0314799446138
 20
174.8849751742065
 30
0.0
 11
364.0161899446137
 21
174.8849751742065
 31
0.0
  0
LINE
  5
907
330
2
100
AcDbEntity
  8
0
100
AcDbLine
 10
361.9711459446138
 20
171.0849871742064
 30
0.0
 11
362.9711769446139
 21
171.0849871742064
 31
0.0
  0
LINE
  5
908
330
2
100
AcDbEntity
  8
0
100
AcDbLine
 10
357.9711459446138
 20
171.3849751742065
 30
0.0
 11
361.9711459446138
 21
171.3849441742065
 31
0.0
  0
LINE
  5
909
330
2
100
AcDbEntity
  8
0
100
AcDbLine
 10
389.6382609446138
 20
160.5588341742065
 30
0.0
 11
389.6382609446138
 21
142.2111161742065
 31
0.0
  0
LINE
  5
90A
330
2
100
AcDbEntity
  8
0
100
AcDbLine
 10
391.9711769446137
 20
138.2518271742065
 30
0.0
 11
391.9711769446137
 21
164.5181231742064
 31
0.0
  0
LINE
  5
90B
330
2
100
AcDbEntity
  8
0
100
AcDbLine
 10
387.6731729446138
 20
140.2114221742065
 30
0.0
 11
368.9711769446137
 21
139.8849751742065
 31
0.0
  0
LINE
  5
90C
330
2
100
AcDbEntity
  8
0
100
AcDbLine
 10
390.0060889446138
 20
136.2521321742065
 30
0.0
 11
368.9711769446137
 21
135.8849751742065
 31
0.0
  0
ARC
  5
90D
330
2
100
AcDbEntity
  8
0
100
AcDbCircle
 10
387.6382609446138
 20
142.2111161742065
 30
0.0
 40
2.0
100
AcDbArc
 50
271.0
 51
0.0
  0
ARC
  5
90E
330
2
100
AcDbEntity
  8
0
100
AcDbCircle
 10
389.9711769446139
 20
138.2518271742065
 30
0.0
 40
2.0
100
AcDbArc
 50
271.0
 51
0.0
  0
LINE
  5
90F
330
2
100
AcDbEntity
  8
0
100
AcDbLine
 10
391.5423129446137
 20
137.0142781742065
 30
0.0
 11
389.2093969446138
 21
140.9735681742064
 31
0.0
  0
LINE
  5
910
330
2
100
AcDbEntity
  8
0
100
AcDbLine
 10
387.6731729446138
 20
162.5585281742065
 30
0.0
 11
368.9711769446137
 21
162.8849751742065
 31
0.0
  0
LINE
  5
911
330
2
100
AcDbEntity
  8
0
100
AcDbLine
 10
390.0060889446138
 20
166.5178181742065
 30
0.0
 11
368.9711769446137
 21
166.8849751742065
 31
0.0
  0
LINE
  5
912
330
2
100
AcDbEntity
  8
0
100
AcDbLine
 10
389.2093969446138
 20
161.7963821742065
 30
0.0
 11
391.5423129446137
 21
165.7556721742064
 31
0.0
  0
ARC
  5
913
330
2
100
AcDbEntity
  8
0
100
AcDbCircle
 10
387.6382609446138
 20
160.5588341742065
 30
0.0
 40
2.0
100
AcDbArc
 50
0.0
 51
88.99999999999987
  0
ARC
  5
914
330
2
100
AcDbEntity
  8
0
100
AcDbCircle
 10
389.9711769446139
 20
164.5181231742064
 30
0.0
 40
2.0
100
AcDbArc
 50
0.0
 51
88.99999999999987
  0
LINE
  5
916
330
2
100
AcDbEntity
  8
HIDS
100
AcDbLine
 10
356.4711769446137
 20
180.6349751742065
 30
0.0
 11
368.9711769446137
 21
180.6349751742065
 31
0.0
  0
LINE
  5
917
330
2
100
AcDbEntity
  8
HIDS
100
AcDbLine
 10
356.4711769446137
 20
189.1349751742065
 30
0.0
 11
368.9711769446137
 21
189.1349751742065
 31
0.0
  0
LINE
  5
918
330
2
100
AcDbEntity
  8
HIDS
100
AcDbLine
 10
358.4356549446138
 20
176.4890401742064
 30
0.0
 11
371.8671119446137
 21
189.9204971742065
 31
0.0
  0
LINE
  5
91A
330
2
100
AcDbEntity
  8
0
100
AcDbLine
 10
356.4711769446137
 20
179.5551721742065
 30
0.0
 11
362.9711769446139
 21
179.3849751742065
 31
0.0
  0
LINE
  5
91C
330
2
100
AcDbEntity
  8
0
100
AcDbLine
 10
361.9711459446138
 20
178.6849631742065
 30
0.0
 11
362.9711769446139
 21
178.6849631742065
 31
0.0
  0
LINE
  5
91D
330
2
100
AcDbEntity
  8
0
100
AcDbLine
 10
357.9711459446138
 20
178.3849751742065
 30
0.0
 11
361.9711459446138
 21
178.3850061742064
 31
0.0
  0
LINE
  5
91F
330
2
100
AcDbEntity
  8
HIDS
100
AcDbLine
 10
368.9711769446137
 20
180.8849751742065
 30
0.0
 11
388.9711769446137
 21
180.8849751742065
 31
0.0
  0
LINE
  5
920
330
2
100
AcDbEntity
  8
HIDS
100
AcDbLine
 10
368.9711769446137
 20
188.8849751742065
 30
0.0
 11
388.9711769446137
 21
188.8849751742065
 31
0.0
  0
LINE
  5
921
330
2
100
AcDbEntity
  8
HIDS
100
AcDbLine
 10
373.9711769446139
 20
187.0181231742065
 30
0.0
 11
373.9711769446139
 21
183.0866961742065
 31
0.0
  0
ARC
  5
923
330
2
100
AcDbEntity
  8
HIDS
100
AcDbCircle
 10
370.9711769446137
 20
183.0866961742065
 30
0.0
 40
3.0
100
AcDbArc
 50
309.3567009999997
 51
0.0
  0
ARC
  5
926
330
2
100
AcDbEntity
  8
HIDS
100
AcDbCircle
 10
375.4026349446138
 20
186.3849751742065
 30
0.0
 40
5.0
100
AcDbArc
 50
90.0
 51
134.9999999999996
  0
ARC
  5
927
330
2
100
AcDbEntity
  8
HIDS
100
AcDbCircle
 10
375.9711769446139
 20
187.0181231742065
 30
0.0
 40
2.0
100
AcDbArc
 50
91.00000000000013
 51
180.0
  0
LINE
  5
928
330
2
100
AcDbEntity
  8
HIDS
100
AcDbLine
 10
388.9711769446137
 20
188.8849751742065
 30
0.0
 11
388.9711769446137
 21
180.8849751742065
 31
0.0
  0
LINE
  5
92C
330
2
100
AcDbEntity
  8
HIDS
100
AcDbLine
 10
436.9711769446139
 20
174.3849751742065
 30
0.0
 11
436.9711769446139
 21
129.8164331742065
 31
0.0
  0
LINE
  5
92D
330
2
100
AcDbEntity
  8
0
100
AcDbLine
 10
789.5266579446138
 20
186.3849751742065
 30
0.0
 11
789.5266579446138
 21
116.3849751742064
 31
0.0
  0
LINE
  5
92E
330
2
100
AcDbEntity
  8
0
100
AcDbLine
 10
740.5266579446138
 20
111.3849751742065
 30
0.0
 11
740.5266579446138
 21
191.3849751742065
 31
0.0
  0
LINE
  5
92F
330
2
100
AcDbEntity
  8
0
100
AcDbLine
 10
731.0266579446138
 20
189.3849751742065
 30
0.0
 11
731.0266579446138
 21
113.3849751742065
 31
0.0
  0
CIRCLE
  5
930
330
2
100
AcDbEntity
  8
0
100
AcDbCircle
 10
596.9711769446138
 20
151.3849751742065
 30
0.0
 40
25.002001
  0
CIRCLE
  5
931
330
2
100
AcDbEntity
  8
0
100
AcDbCircle
 10
596.9711769446138
 20
151.3849751742065
 30
0.0
 40
23.0
  0
CIRCLE
  5
932
330
2
100
AcDbEntity
  8
0
100
AcDbCircle
 10
596.9711769446138
 20
151.3849751742065
 30
0.0
 40
19.0
  0
ARC
  5
933
330
2
100
AcDbEntity
  8
0
100
AcDbCircle
 10
626.9711769446138
 20
137.8849751742065
 30
0.0
 40
22.0
100
AcDbArc
 50
345.5224880000002
 51
0.0
  0
ARC
  5
934
330
2
100
AcDbEntity
  8
0
100
AcDbCircle
 10
588.9711769446138
 20
137.8849751742065
 30
0.0
 40
22.0
100
AcDbArc
 50
180.0
 51
194.4775090000003
  0
ARC
  5
935
330
2
100
AcDbEntity
  8
0
100
AcDbCircle
 10
646.7449199446137
 20
134.8849751742065
 30
0.0
 40
2.0
100
AcDbArc
 50
270.0
 51
351.373077
  0
LINE
  5
936
330
2
100
AcDbEntity
  8
0
100
AcDbLine
 10
644.1354839446138
 20
132.7019921742065
 30
0.0
 11
645.0553439446139
 21
130.7019921742065
 31
0.0
  0
ARC
  5
937
330
2
100
AcDbEntity
  8
0
100
AcDbCircle
 10
644.9711769446138
 20
130.8849751742065
 30
0.0
 40
2.0
100
AcDbArc
 50
90.0
 51
139.3987120000005
  0
ARC
  5
938
330
2
100
AcDbEntity
  8
0
100
AcDbCircle
 10
569.1974339446138
 20
134.8849751742065
 30
0.0
 40
2.0
100
AcDbArc
 50
188.6269229999999
 51
270.0
  0
LINE
  5
939
330
2
100
AcDbEntity
  8
0
100
AcDbLine
 10
571.8068699446138
 20
132.7019921742065
 30
0.0
 11
570.8870099446138
 21
130.7019921742065
 31
0.0
  0
ARC
  5
93A
330
2
100
AcDbEntity
  8
0
100
AcDbCircle
 10
570.9711769446138
 20
130.8849751742065
 30
0.0
 40
2.0
100
AcDbArc
 50
40.60129499999971
 51
90.0
  0
LINE
  5
93B
330
2
100
AcDbEntity
  8
0
100
AcDbLine
 10
657.9711769446138
 20
135.0565451742064
 30
0.0
 11
657.9711769446138
 21
117.8849751742065
 31
0.0
  0
LINE
  5
93C
330
2
100
AcDbEntity
  8
0
100
AcDbLine
 10
557.9711769446138
 20
117.8849751742065
 30
0.0
 11
557.9711769446138
 21
184.8849751742065
 31
0.0
  0
ARC
  5
93E
330
2
100
AcDbEntity
  8
HIDS
100
AcDbCircle
 10
396.9711769446139
 20
151.3849751742065
 30
0.0
 40
38.0
100
AcDbArc
 50
309.3567009999997
 51
50.64329900000029
  0
LINE
  5
93F
330
2
100
AcDbEntity
  8
0
100
AcDbLine
 10
437.4711769446139
 20
191.1780351742065
 30
0.0
 11
437.4711769446139
 21
111.5918991742065
 31
0.0
  0
ARC
  5
941
330
2
100
AcDbEntity
  8
0
100
AcDbCircle
 10
642.165817944614
 20
108.3212391742065
 30
0.0
 40
6.0
100
AcDbArc
 50
47.3640670000003
 51
120.3582990000006
  0
ARC
  5
942
330
2
100
AcDbEntity
  8
0
100
AcDbCircle
 10
645.891037944614
 20
128.8849751742065
 30
0.0
 40
2.0
100
AcDbArc
 50
90.0
 51
139.3987120000005
  0
LINE
  5
943
330
2
100
AcDbEntity
  8
0
100
AcDbLine
 10
650.9711769446138
 20
110.8849751742065
 30
0.0
 11
564.9711769446138
 21
110.8849751742065
 31
0.0
  0
LINE
  5
946
330
2
100
AcDbEntity
  8
HOJO
100
AcDbLine
 10
404.9711769446139
 20
113.8849751742065
 30
0.0
 11
437.4711769446139
 21
113.8849751742065
 31
0.0
  0
LINE
  5
947
330
2
100
AcDbEntity
  8
HOJO
100
AcDbLine
 10
404.9711769446139
 20
121.8849751742065
 30
0.0
 11
437.4711769446139
 21
121.8849751742065
 31
0.0
  0
LINE
  5
948
330
2
100
AcDbEntity
  8
HIDS
100
AcDbLine
 10
435.5066989446138
 20
126.2809101742065
 30
0.0
 11
422.0752419446139
 21
112.8494371742065
 31
0.0
  0
LINE
  5
949
330
2
100
AcDbEntity
  8
0
100
AcDbLine
 10
396.9711769446139
 20
110.8849751742065
 30
0.0
 11
437.4711769446139
 21
111.5918991742065
 31
0.0
  0
ARC
  5
94A
330
2
100
AcDbEntity
  8
HIDS
100
AcDbCircle
 10
418.5397189446137
 20
116.3849751742064
 30
0.0
 40
5.0
100
AcDbArc
 50
270.0
 51
314.9999999999997
  0
LINE
  5
94C
330
2
100
AcDbEntity
  8
HIDS
100
AcDbLine
 10
418.0060889446138
 20
113.7521471742064
 30
0.0
 11
396.9711769446139
 21
113.3849751742065
 31
0.0
  0
LINE
  5
94D
330
2
100
AcDbEntity
  8
HOJO
100
AcDbLine
 10
404.9711769446139
 20
121.8849751742065
 30
0.0
 11
404.9711769446139
 21
113.8849751742065
 31
0.0
  0
ARC
  5
950
330
2
100
AcDbEntity
  8
HIDS
100
AcDbCircle
 10
422.9711769446137
 20
119.6832541742065
 30
0.0
 40
3.0
100
AcDbArc
 50
129.3567050000003
 51
180.0
  0
ARC
  5
951
330
2
100
AcDbEntity
  8
HIDS
100
AcDbCircle
 10
417.9711769446138
 20
115.7518421742065
 30
0.0
 40
2.0
100
AcDbArc
 50
271.0
 51
0.0
  0
LINE
  5
952
330
2
100
AcDbEntity
  8
HIDS
100
AcDbLine
 10
419.9711769446137
 20
115.7518421742065
 30
0.0
 11
419.9711769446137
 21
119.6832541742065
 31
0.0
  0
ARC
  5
958
330
2
100
AcDbEntity
  8
HIDS
100
AcDbCircle
 10
431.9711769446137
 20
129.8164331742065
 30
0.0
 40
5.0
100
AcDbArc
 50
314.9999999999997
 51
0.0
  0
ARC
  5
959
330
2
100
AcDbEntity
  8
0
100
AcDbCircle
 10
583.9711769446138
 20
118.5200461742065
 30
0.0
 40
2.0
100
AcDbArc
 50
180.0
 51
255.5224910000001
  0
ARC
  5
95A
330
2
100
AcDbEntity
  8
0
100
AcDbCircle
 10
588.9711769446138
 20
137.8849751742065
 30
0.0
 40
22.0
100
AcDbArc
 50
249.5126880000004
 51
270.0
  0
ARC
  5
95B
330
2
100
AcDbEntity
  8
0
100
AcDbCircle
 10
584.3718119446139
 20
120.8849751742065
 30
0.0
 40
10.0
100
AcDbArc
 50
247.66835
 51
270.0
  0
ARC
  5
95C
330
2
100
AcDbEntity
  8
0
100
AcDbCircle
 10
564.9711769446138
 20
117.8849751742065
 30
0.0
 40
7.0
100
AcDbArc
 50
180.0
 51
312.6359249999997
  0
CIRCLE
  5
95E
330
2
100
AcDbEntity
  8
HOJO
100
AcDbCircle
 10
564.9711769446138
 20
117.8849751742065
 30
0.0
 40
4.0
  0
CIRCLE
  5
95F
330
2
100
AcDbEntity
  8
0
100
AcDbCircle
 10
564.9711769446138
 20
117.8849751742065
 30
0.0
 40
3.399999999999999
  0
ARC
  5
960
330
2
100
AcDbEntity
  8
0
100
AcDbCircle
 10
569.6062479446139
 20
132.8849751742065
 30
0.0
 40
2.0
100
AcDbArc
 50
194.4775090000003
 51
270.0
  0
LINE
  5
962
330
2
100
AcDbEntity
  8
0
100
AcDbLine
 10
572.4896709446137
 20
132.1865501742065
 30
0.0
 11
581.4896709446137
 21
121.6865501742065
 31
0.0
  0
LINE
  5
963
330
2
100
AcDbEntity
  8
0
100
AcDbLine
 10
571.5698099446139
 20
130.1865501742065
 30
0.0
 11
579.4896709446137
 21
120.9467121742065
 31
0.0
  0
ARC
  5
964
330
2
100
AcDbEntity
  8
0
100
AcDbCircle
 10
573.7765359446139
 20
108.3212391742065
 30
0.0
 40
6.0
100
AcDbArc
 50
59.64169699999963
 51
132.6359249999995
  0
ARC
  5
965
330
2
100
AcDbEntity
  8
0
100
AcDbCircle
 10
581.9711769446138
 20
119.1499901742065
 30
0.0
 40
2.0
100
AcDbArc
 50
180.0
 51
249.51268
  0
LINE
  5
966
330
2
100
AcDbEntity
  8
0
100
AcDbLine
 10
581.8469699446137
 20
121.0788531742065
 30
0.0
 11
579.8469699446139
 21
120.3390161742065
 31
0.0
  0
ARC
  5
967
330
2
100
AcDbEntity
  8
0
100
AcDbCircle
 10
577.9711769446138
 20
119.6451371742065
 30
0.0
 40
2.0
100
AcDbArc
 50
0.0
 51
40.60129499999971
  0
ARC
  5
968
330
2
100
AcDbEntity
  8
0
100
AcDbCircle
 10
579.9711769446138
 20
120.3849751742064
 30
0.0
 40
2.0
100
AcDbArc
 50
0.0
 51
40.60129499999971
  0
LINE
  5
969
330
2
100
AcDbEntity
  8
0
100
AcDbLine
 10
581.9711769446138
 20
120.3849751742064
 30
0.0
 11
581.9711769446138
 21
118.5200461742065
 31
0.0
  0
LINE
  5
96A
330
2
100
AcDbEntity
  8
0
100
AcDbLine
 10
579.9711769446138
 20
119.6451371742065
 30
0.0
 11
579.9711769446138
 21
119.1499901742065
 31
0.0
  0
ARC
  5
96B
330
2
100
AcDbEntity
  8
0
100
AcDbCircle
 10
591.9711769446138
 20
139.3849751742065
 30
0.0
 40
30.0
100
AcDbArc
 50
239.6416929999996
 51
247.66835
  0
LINE
  5
96C
330
2
100
AcDbEntity
  8
0
100
AcDbLine
 10
570.0513159446138
 20
130.8849751742065
 30
0.0
 11
569.6062479446139
 21
130.8849751742065
 31
0.0
  0
ARC
  5
96D
330
2
100
AcDbEntity
  8
0
100
AcDbCircle
 10
570.0513159446138
 20
128.8849751742065
 30
0.0
 40
2.0
100
AcDbArc
 50
40.60129499999971
 51
90.0
  0
LINE
  5
96E
330
2
100
AcDbEntity
  8
0
100
AcDbLine
 10
588.9711769446138
 20
115.8849751742065
 30
0.0
 11
626.9711769446138
 21
115.8849751742065
 31
0.0
  0
ARC
  5
96F
330
2
100
AcDbEntity
  8
0
100
AcDbCircle
 10
631.5705419446138
 20
120.8849751742065
 30
0.0
 40
10.0
100
AcDbArc
 50
270.0
 51
292.3316349999998
  0
ARC
  5
970
330
2
100
AcDbEntity
  8
0
100
AcDbCircle
 10
626.9711769446138
 20
137.8849751742065
 30
0.0
 40
22.0
100
AcDbArc
 50
270.0
 51
290.4873049999998
  0
LINE
  5
971
330
2
100
AcDbEntity
  8
0
100
AcDbLine
 10
643.4526829446136
 20
132.1865501742065
 30
0.0
 11
634.4526829446136
 21
121.6865501742065
 31
0.0
  0
LINE
  5
972
330
2
100
AcDbEntity
  8
0
100
AcDbLine
 10
644.3725439446137
 20
130.1865501742065
 30
0.0
 11
636.4526829446137
 21
120.9467121742065
 31
0.0
  0
ARC
  5
973
330
2
100
AcDbEntity
  8
0
100
AcDbCircle
 10
623.9711769446138
 20
139.3849751742065
 30
0.0
 40
30.0
100
AcDbArc
 50
292.3316349999998
 51
300.3583070000003
  0
ARC
  5
974
330
2
100
AcDbEntity
  8
0
100
AcDbCircle
 10
633.971176944614
 20
119.1499901742065
 30
0.0
 40
2.0
100
AcDbArc
 50
290.4873119999995
 51
0.0
  0
ARC
  5
975
330
2
100
AcDbEntity
  8
0
100
AcDbCircle
 10
631.9711769446138
 20
118.5200461742065
 30
0.0
 40
2.0
100
AcDbArc
 50
284.4775089999998
 51
0.0
  0
LINE
  5
976
330
2
100
AcDbEntity
  8
0
100
AcDbLine
 10
634.0953839446139
 20
121.0788531742065
 30
0.0
 11
636.095383944614
 21
120.3390161742065
 31
0.0
  0
ARC
  5
977
330
2
100
AcDbEntity
  8
0
100
AcDbCircle
 10
637.9711769446138
 20
119.6451371742065
 30
0.0
 40
2.0
100
AcDbArc
 50
139.3987120000005
 51
180.0
  0
ARC
  5
978
330
2
100
AcDbEntity
  8
0
100
AcDbCircle
 10
635.9711769446138
 20
120.3849751742064
 30
0.0
 40
2.0
100
AcDbArc
 50
139.3987120000005
 51
180.0
  0
LINE
  5
979
330
2
100
AcDbEntity
  8
0
100
AcDbLine
 10
633.971176944614
 20
120.3849751742064
 30
0.0
 11
633.971176944614
 21
118.5200461742065
 31
0.0
  0
LINE
  5
97A
330
2
100
AcDbEntity
  8
0
100
AcDbLine
 10
635.9711769446138
 20
119.6451371742065
 30
0.0
 11
635.9711769446138
 21
119.1499901742065
 31
0.0
  0
LINE
  5
97B
330
2
100
AcDbEntity
  8
0
100
AcDbLine
 10
786.7766579446138
 20
125.3849751742065
 30
0.0
 11
740.5266579446138
 21
125.3849751742065
 31
0.0
  0
LINE
  5
97C
330
2
100
AcDbEntity
  8
0
100
AcDbLine
 10
784.5266579446138
 20
111.3849751742065
 30
0.0
 11
740.5266579446138
 21
111.3849751742065
 31
0.0
  0
LINE
  5
97D
330
2
100
AcDbEntity
  8
0
100
AcDbLine
 10
731.0266579446138
 20
121.1360131742065
 30
0.0
 11
657.9711769446138
 21
121.1360131742065
 31
0.0
  0
LINE
  5
97E
330
2
100
AcDbEntity
  8
0
100
AcDbLine
 10
731.0266579446138
 20
113.3849751742065
 30
0.0
 11
659.3299419446139
 21
113.3849751742065
 31
0.0
  0
LINE
  5
97F
330
2
100
AcDbEntity
  8
0
100
AcDbLine
 10
658.6348119446137
 20
113.2602801742065
 30
0.0
 11
653.4041599446139
 21
111.3213921742065
 31
0.0
  0
ARC
  5
980
330
2
100
AcDbEntity
  8
0
100
AcDbCircle
 10
650.9711769446138
 20
117.8849751742065
 30
0.0
 40
7.0
100
AcDbArc
 50
227.364075
 51
0.0
  0
CIRCLE
  5
982
330
2
100
AcDbEntity
  8
HOJO
100
AcDbCircle
 10
650.9711769446138
 20
117.8849751742065
 30
0.0
 40
4.0
  0
CIRCLE
  5
983
330
2
100
AcDbEntity
  8
0
100
AcDbCircle
 10
650.9711769446138
 20
117.8849751742065
 30
0.0
 40
3.399999999999999
  0
ARC
  5
984
330
2
100
AcDbEntity
  8
0
100
AcDbCircle
 10
659.3299419446139
 20
111.3849751742065
 30
0.0
 40
2.0
100
AcDbArc
 50
90.0
 51
110.3387299999997
  0
ARC
  5
985
330
2
100
AcDbEntity
  8
0
100
AcDbCircle
 10
646.3361059446136
 20
132.8849751742065
 30
0.0
 40
2.0
100
AcDbArc
 50
270.0
 51
345.5224909999996
  0
LINE
  5
986
330
2
100
AcDbEntity
  8
0
100
AcDbLine
 10
645.891037944614
 20
130.8849751742065
 30
0.0
 11
646.3361059446136
 21
130.8849751742065
 31
0.0
  0
LINE
  5
987
330
2
100
AcDbEntity
  8
0
100
AcDbLine
 10
740.5266579446138
 20
121.1359821742065
 30
0.0
 11
731.0266579446138
 21
121.1359821742065
 31
0.0
  0
LINE
  5
988
330
2
100
AcDbEntity
  8
0
100
AcDbLine
 10
740.5266579446138
 20
113.3849751742065
 30
0.0
 11
731.0266579446138
 21
113.3849751742065
 31
0.0
  0
ARC
  5
989
330
2
100
AcDbEntity
  8
0
100
AcDbCircle
 10
784.5266579446138
 20
116.3849751742064
 30
0.0
 40
5.0
100
AcDbArc
 50
270.0
 51
0.0
  0
LINE
  5
98A
330
2
100
AcDbEntity
  8
0
100
AcDbLine
 10
558.6780859446138
 20
400.6252473789534
 30
0.0
 11
657.2642679446138
 21
400.6252473789534
 31
0.0
  0
ARC
  5
98B
330
2
100
AcDbEntity
  8
0
100
AcDbCircle
 10
642.165817944614
 20
194.4487261742065
 30
0.0
 40
6.0
100
AcDbArc
 50
239.6416929999996
 51
312.6359249999997
  0
ARC
  5
98C
330
2
100
AcDbEntity
  8
0
100
AcDbCircle
 10
642.3131569446137
 20
363.9212373789533
 30
0.0
 40
11.0
100
AcDbArc
 50
248.9246669999996
 51
295.7177279999998
  0
LINE
  5
98D
330
2
100
AcDbEntity
  8
0
100
AcDbLine
 10
633.3386699446139
 20
355.1252473789534
 30
0.0
 11
650.883896944614
 21
355.1252473789534
 31
0.0
  0
ARC
  5
98E
330
2
100
AcDbEntity
  8
0
100
AcDbCircle
 10
642.3131569446137
 20
356.3292573789534
 30
0.0
 40
11.0
100
AcDbArc
 50
64.28227200000015
 51
111.0753330000002
  0
LINE
  5
98F
330
2
100
AcDbEntity
  8
0
100
AcDbLine
 10
633.3386699446139
 20
365.1252473789534
 30
0.0
 11
650.883896944614
 21
365.1252473789534
 31
0.0
  0
LINE
  5
990
330
2
100
AcDbEntity
  8
0
100
AcDbLine
 10
658.971176944614
 20
388.1252473789534
 30
0.0
 11
558.4599469446137
 21
388.1252473789534
 31
0.0
  0
LINE
  5
991
330
2
100
AcDbEntity
  8
0
100
AcDbLine
 10
657.2642679446138
 20
319.6252473789533
 30
0.0
 11
558.6780859446138
 21
319.6252473789533
 31
0.0
  0
LINE
  5
993
330
2
100
AcDbEntity
  8
0
100
AcDbLine
 10
644.9711769446138
 20
132.8849751742065
 30
0.0
 11
646.7449199446137
 21
132.8849751742065
 31
0.0
  0
LINE
  5
994
330
2
100
AcDbEntity
  8
0
100
AcDbLine
 10
644.9711769446138
 20
169.8849751742065
 30
0.0
 11
646.7449199446137
 21
169.8849751742065
 31
0.0
  0
ARC
  5
995
330
2
100
AcDbEntity
  8
0
100
AcDbCircle
 10
645.891037944614
 20
173.8849751742065
 30
0.0
 40
2.0
100
AcDbArc
 50
220.6012879999994
 51
270.0
  0
LINE
  5
996
330
2
100
AcDbEntity
  8
0
100
AcDbLine
 10
650.9711769446138
 20
191.8849751742065
 30
0.0
 11
564.9711769446138
 21
191.8849751742065
 31
0.0
  0
LINE
  5
998
330
2
100
AcDbEntity
  8
CENTER
100
AcDbLine
 10
550.4304059446138
 20
151.3849751742065
 30
0.0
 11
798.0471879128482
 21
151.3849751742065
 31
0.0
  0
LINE
  5
999
330
2
100
AcDbEntity
  8
HIDS
100
AcDbLine
 10
568.9711769446138
 20
319.6252473789533
 30
0.0
 11
568.9711769446138
 21
352.1252473789534
 31
0.0
  0
LINE
  5
99A
330
2
100
AcDbEntity
  8
HIDS
100
AcDbLine
 10
560.9711769446138
 20
319.6252473789533
 30
0.0
 11
560.9711769446138
 21
352.1252473789534
 31
0.0
  0
LINE
  5
99B
330
2
100
AcDbEntity
  8
HIDS
100
AcDbLine
 10
568.3712009446138
 20
388.1252473789534
 30
0.0
 11
568.3712009446138
 21
319.6252473789533
 31
0.0
  0
LINE
  5
99C
330
2
100
AcDbEntity
  8
HIDS
100
AcDbLine
 10
561.5711529446139
 20
388.1252473789534
 30
0.0
 11
561.5711529446139
 21
319.6252473789533
 31
0.0
  0
LINE
  5
99D
330
2
100
AcDbEntity
  8
0
100
AcDbLine
 10
642.3131569446137
 20
352.9212373789533
 30
0.0
 11
642.3131569446137
 21
319.6252473789533
 31
0.0
  0
LINE
  5
99E
330
2
100
AcDbEntity
  8
0
100
AcDbLine
 10
633.3386699446139
 20
355.1252473789534
 30
0.0
 11
633.3386699446139
 21
319.6252473789533
 31
0.0
  0
LINE
  5
99F
330
2
100
AcDbEntity
  8
0
100
AcDbLine
 10
582.6036839446138
 20
355.1252473789534
 30
0.0
 11
582.6036839446138
 21
319.6252473789533
 31
0.0
  0
LINE
  5
9A0
330
2
100
AcDbEntity
  8
0
100
AcDbLine
 10
573.6291969446137
 20
352.9212373789533
 30
0.0
 11
573.6291969446137
 21
319.6252473789533
 31
0.0
  0
LINE
  5
9A1
330
2
100
AcDbEntity
  8
0
100
AcDbLine
 10
557.9711769446138
 20
360.1252473789534
 30
0.0
 11
558.6780859446138
 21
319.6252473789533
 31
0.0
  0
LINE
  5
9A2
330
2
100
AcDbEntity
  8
CENTER
100
AcDbLine
 10
564.9711769446138
 20
316.2663303789533
 30
0.0
 11
564.9711769446138
 21
403.9413483789534
 31
0.0
  0
LINE
  5
9A4
330
2
100
AcDbEntity
  8
0
100
AcDbLine
 10
465.4711769446137
 20
148.8849751742065
 30
0.0
 11
443.9711769446137
 21
148.8849751742065
 31
0.0
  0
LINE
  5
9A5
330
2
100
AcDbEntity
  8
0
100
AcDbLine
 10
465.4711769446137
 20
153.8849751742065
 30
0.0
 11
443.9711769446137
 21
153.8849751742065
 31
0.0
  0
LINE
  5
9A6
330
2
100
AcDbEntity
  8
0
100
AcDbLine
 10
465.4711769446137
 20
143.8849751742065
 30
0.0
 11
438.4711769446139
 21
143.8849751742065
 31
0.0
  0
LINE
  5
9A7
330
2
100
AcDbEntity
  8
0
100
AcDbLine
 10
465.4711769446137
 20
158.8849751742065
 30
0.0
 11
438.4711769446139
 21
158.8849751742065
 31
0.0
  0
ARC
  5
9A8
330
2
100
AcDbEntity
  8
HIDS
100
AcDbCircle
 10
433.9711769446139
 20
174.3849751742065
 30
0.0
 40
3.0
100
AcDbArc
 50
0.0
 51
90.0
  0
LINE
  5
9A9
330
2
100
AcDbEntity
  8
0
100
AcDbLine
 10
406.2691809446138
 20
162.3403281742065
 30
0.0
 11
437.4711769446139
 21
162.8849751742065
 31
0.0
  0
LINE
  5
9AA
330
2
100
AcDbEntity
  8
0
100
AcDbLine
 10
403.9362649446138
 20
166.2996171742065
 30
0.0
 11
437.4711769446139
 21
166.8849751742065
 31
0.0
  0
LINE
  5
9AB
330
2
100
AcDbEntity
  8
0
100
AcDbLine
 10
406.2691809446138
 20
140.4296221742065
 30
0.0
 11
437.4711769446139
 21
139.8849751742065
 31
0.0
  0
LINE
  5
9AC
330
2
100
AcDbEntity
  8
0
100
AcDbLine
 10
403.9362649446138
 20
136.4703331742065
 30
0.0
 11
437.4711769446139
 21
135.8849751742065
 31
0.0
  0
LINE
  5
9AD
330
2
100
AcDbEntity
  8
0
100
AcDbLine
 10
404.3040929446139
 20
160.3406331742065
 30
0.0
 11
404.3040929446139
 21
142.4293171742065
 31
0.0
  0
LINE
  5
9AE
330
2
100
AcDbEntity
  8
0
100
AcDbLine
 10
401.9711769446137
 20
164.2999231742065
 30
0.0
 11
401.9711769446137
 21
138.4700271742065
 31
0.0
  0
ARC
  5
9AF
330
2
100
AcDbEntity
  8
0
100
AcDbCircle
 10
406.3040929446137
 20
142.4293171742065
 30
0.0
 40
2.0
100
AcDbArc
 50
180.0
 51
268.9999999999998
  0
LINE
  5
9B0
330
2
100
AcDbEntity
  8
0
100
AcDbLine
 10
404.7329569446138
 20
141.1917681742065
 30
0.0
 11
402.4000409446138
 21
137.2324791742065
 31
0.0
  0
ARC
  5
9B1
330
2
100
AcDbEntity
  8
0
100
AcDbCircle
 10
403.9711769446139
 20
138.4700271742065
 30
0.0
 40
2.0
100
AcDbArc
 50
180.0
 51
268.9999999999998
  0
ARC
  5
9B2
330
2
100
AcDbEntity
  8
0
100
AcDbCircle
 10
403.9711769446139
 20
164.2999231742065
 30
0.0
 40
2.0
100
AcDbArc
 50
91.00000000000013
 51
180.0
  0
LINE
  5
9B3
330
2
100
AcDbEntity
  8
0
100
AcDbLine
 10
404.7329569446138
 20
161.5782121742064
 30
0.0
 11
402.4000409446138
 21
165.5374711742064
 31
0.0
  0
ARC
  5
9B4
330
2
100
AcDbEntity
  8
0
100
AcDbCircle
 10
406.3040929446137
 20
160.3406331742065
 30
0.0
 40
2.0
100
AcDbArc
 50
91.00000000000013
 51
180.0
  0
LINE
  5
9B5
330
2
100
AcDbEntity
  8
0
100
AcDbLine
 10
438.4711769446139
 20
143.5736351742065
 30
0.0
 11
438.4711769446139
 21
159.1963151742065
 31
0.0
  0
ARC
  5
9B6
330
2
100
AcDbEntity
  8
0
100
AcDbCircle
 10
443.9711769446137
 20
151.3849751742065
 30
0.0
 40
2.5
100
AcDbArc
 50
90.0
 51
270.0
  0
ARC
  5
9B7
330
2
100
AcDbEntity
  8
0
100
AcDbCircle
 10
437.9711769446139
 20
143.5736351742065
 30
0.0
 40
0.5
100
AcDbArc
 50
299.9999999999995
 51
0.0
  0
LINE
  5
9B8
330
2
100
AcDbEntity
  8
0
100
AcDbLine
 10
437.6937419446139
 20
142.8849751742065
 30
0.0
 11
437.4711769446139
 21
142.8849751742065
 31
0.0
  0
ARC
  5
9B9
330
2
100
AcDbEntity
  8
0
100
AcDbCircle
 10
437.0692599446138
 20
144.7849691742065
 30
0.0
 40
2.0
100
AcDbArc
 50
288.1948699999997
 51
299.9999999999995
  0
LINE
  5
9BA
330
2
100
AcDbEntity
  8
0
100
AcDbLine
 10
438.2211769446137
 20
143.1406511742065
 30
0.0
 11
438.0692599446138
 21
143.0529131742065
 31
0.0
  0
LINE
  5
9BB
330
2
100
AcDbEntity
  8
0
100
AcDbLine
 10
437.6937419446139
 20
159.8849751742065
 30
0.0
 11
437.4711769446139
 21
159.8849751742065
 31
0.0
  0
ARC
  5
9BC
330
2
100
AcDbEntity
  8
0
100
AcDbCircle
 10
437.0692599446138
 20
157.9849811742064
 30
0.0
 40
2.0
100
AcDbArc
 50
60.00000000000041
 51
71.8051300000003
  0
ARC
  5
9BD
330
2
100
AcDbEntity
  8
0
100
AcDbCircle
 10
437.9711769446139
 20
159.1963151742065
 30
0.0
 40
0.5
100
AcDbArc
 50
0.0
 51
60.00000000000041
  0
LINE
  5
9BE
330
2
100
AcDbEntity
  8
0
100
AcDbLine
 10
438.2211769446137
 20
159.6292991742064
 30
0.0
 11
438.0692599446138
 21
159.7170371742064
 31
0.0
  0
LINE
  5
9C0
330
2
100
AcDbEntity
  8
HIDS
100
AcDbLine
 10
404.9711769446139
 20
180.8849751742065
 30
0.0
 11
437.4711769446139
 21
180.8849751742065
 31
0.0
  0
LINE
  5
9C1
330
2
100
AcDbEntity
  8
HIDS
100
AcDbLine
 10
404.9711769446139
 20
188.8849751742065
 30
0.0
 11
437.4711769446139
 21
188.8849751742065
 31
0.0
  0
LINE
  5
9C2
330
2
100
AcDbEntity
  8
HIDS
100
AcDbLine
 10
422.9711769446137
 20
184.7819481742065
 30
0.0
 11
430.3681499446138
 21
177.3849751742065
 31
0.0
  0
LINE
  5
9C3
330
2
100
AcDbEntity
  8
0
100
AcDbLine
 10
396.9711769446139
 20
191.8849751742065
 30
0.0
 11
437.4711769446139
 21
191.1780351742065
 31
0.0
  0
LINE
  5
9C5
330
2
100
AcDbEntity
  8
HIDS
100
AcDbLine
 10
418.0060889446138
 20
189.0178181742065
 30
0.0
 11
396.9711769446139
 21
189.3849751742065
 31
0.0
  0
LINE
  5
9C6
330
2
100
AcDbEntity
  8
HIDS
100
AcDbLine
 10
404.9711769446139
 20
188.8849751742065
 30
0.0
 11
404.9711769446139
 21
180.8849751742065
 31
0.0
  0
LINE
  5
9C9
330
2
100
AcDbEntity
  8
HIDS
100
AcDbLine
 10
422.9711769446137
 20
188.3849751742065
 30
0.0
 11
422.9711769446137
 21
184.7819481742065
 31
0.0
  0
LINE
  5
9CA
330
2
100
AcDbEntity
  8
HIDS
100
AcDbLine
 10
419.9711769446137
 20
187.0181231742065
 30
0.0
 11
419.9711769446137
 21
183.0866961742065
 31
0.0
  0
ARC
  5
9CE
330
2
100
AcDbEntity
  8
HIDS
100
AcDbCircle
 10
422.9711769446137
 20
183.0866961742065
 30
0.0
 40
3.0
100
AcDbArc
 50
180.0
 51
230.6432949999995
  0
ARC
  5
9CF
330
2
100
AcDbEntity
  8
HIDS
100
AcDbCircle
 10
417.9711769446138
 20
187.0181231742065
 30
0.0
 40
2.0
100
AcDbArc
 50
0.0
 51
88.99999999999987
  0
ARC
  5
9D0
330
2
100
AcDbEntity
  8
HIDS
100
AcDbCircle
 10
419.9711769446137
 20
188.3849751742065
 30
0.0
 40
3.0
100
AcDbArc
 50
0.0
 51
90.0
  0
LINE
  5
9D3
330
2
100
AcDbEntity
  8
HIDS
100
AcDbLine
 10
433.9711769446139
 20
177.3849751742065
 30
0.0
 11
430.3681499446138
 21
177.3849751742065
 31
0.0
  0
LINE
  5
9D4
330
2
100
AcDbEntity
  8
0
100
AcDbLine
 10
465.4711769446137
 20
158.8849751742065
 30
0.0
 11
465.4711769446137
 21
143.8849751742065
 31
0.0
  0
CIRCLE
  5
9D5
330
2
100
AcDbEntity
  8
0
100
AcDbCircle
 10
596.9711769446138
 20
151.3849751742065
 30
0.0
 40
15.0
  0
ARC
  5
9D6
330
2
100
AcDbEntity
  8
0
100
AcDbCircle
 10
583.9711769446138
 20
184.2499041742065
 30
0.0
 40
2.0
100
AcDbArc
 50
104.4775089999999
 51
180.0
  0
ARC
  5
9D7
330
2
100
AcDbEntity
  8
0
100
AcDbCircle
 10
588.9711769446138
 20
164.8849751742065
 30
0.0
 40
22.0
100
AcDbArc
 50
90.0
 51
110.4873119999995
  0
ARC
  5
9D8
330
2
100
AcDbEntity
  8
0
100
AcDbCircle
 10
584.3718119446139
 20
181.8849751742065
 30
0.0
 40
10.0
100
AcDbArc
 50
90.0
 51
112.3316420000002
  0
LINE
  5
9D9
330
2
100
AcDbEntity
  8
0
100
AcDbLine
 10
572.4896709446137
 20
170.5834001742065
 30
0.0
 11
581.4896709446137
 21
181.0834001742064
 31
0.0
  0
LINE
  5
9DA
330
2
100
AcDbEntity
  8
0
100
AcDbLine
 10
571.5698099446139
 20
172.5834001742065
 30
0.0
 11
579.4896709446137
 21
181.8232381742064
 31
0.0
  0
LINE
  5
9DB
330
2
100
AcDbEntity
  8
0
100
AcDbLine
 10
566.9711769446138
 20
164.8849751742065
 30
0.0
 11
566.9711769446138
 21
137.8849751742065
 31
0.0
  0
LINE
  5
9DC
330
2
100
AcDbEntity
  8
0
100
AcDbLine
 10
561.9711769446138
 20
140.7134051742065
 30
0.0
 11
561.9711769446138
 21
162.0565451742064
 31
0.0
  0
LINE
  5
9DD
330
2
100
AcDbEntity
  8
0
100
AcDbLine
 10
561.3853619446138
 20
139.2991901742065
 30
0.0
 11
558.5569919446138
 21
136.4707601742064
 31
0.0
  0
ARC
  5
9DE
330
2
100
AcDbEntity
  8
0
100
AcDbCircle
 10
559.9711769446138
 20
135.0565451742064
 30
0.0
 40
2.0
100
AcDbArc
 50
134.9999999999996
 51
180.0
  0
ARC
  5
9DF
330
2
100
AcDbEntity
  8
0
100
AcDbCircle
 10
559.9711769446138
 20
140.7134051742065
 30
0.0
 40
2.0
100
AcDbArc
 50
314.9999999999997
 51
0.0
  0
LINE
  5
9E0
330
2
100
AcDbEntity
  8
0
100
AcDbLine
 10
570.9711769446138
 20
132.8849751742065
 30
0.0
 11
569.1974339446138
 21
132.8849751742065
 31
0.0
  0
ARC
  5
9E1
330
2
100
AcDbEntity
  8
0
100
AcDbCircle
 10
569.6062479446139
 20
169.8849751742065
 30
0.0
 40
2.0
100
AcDbArc
 50
90.0
 51
165.5224909999996
  0
ARC
  5
9E2
330
2
100
AcDbEntity
  8
0
100
AcDbCircle
 10
569.1974339446138
 20
167.8849751742065
 30
0.0
 40
2.0
100
AcDbArc
 50
90.0
 51
171.3730769999999
  0
LINE
  5
9E3
330
2
100
AcDbEntity
  8
0
100
AcDbLine
 10
561.3853619446138
 20
163.4707601742064
 30
0.0
 11
558.5569919446138
 21
166.2991901742065
 31
0.0
  0
ARC
  5
9E4
330
2
100
AcDbEntity
  8
0
100
AcDbCircle
 10
559.9711769446138
 20
162.0565451742064
 30
0.0
 40
2.0
100
AcDbArc
 50
0.0
 51
45.00000000000028
  0
ARC
  5
9E5
330
2
100
AcDbEntity
  8
0
100
AcDbCircle
 10
559.9711769446138
 20
167.7134051742065
 30
0.0
 40
2.0
100
AcDbArc
 50
180.0
 51
225.0000000000003
  0
ARC
  5
9E6
330
2
100
AcDbEntity
  8
0
100
AcDbCircle
 10
588.9711769446138
 20
164.8849751742065
 30
0.0
 40
22.0
100
AcDbArc
 50
165.5224909999996
 51
180.0
  0
LINE
  5
9E7
330
2
100
AcDbEntity
  8
0
100
AcDbLine
 10
570.0513159446138
 20
171.8849751742065
 30
0.0
 11
569.6062479446139
 21
171.8849751742065
 31
0.0
  0
LINE
  5
9E8
330
2
100
AcDbEntity
  8
0
100
AcDbLine
 10
570.9711769446138
 20
169.8849751742065
 30
0.0
 11
569.1974339446138
 21
169.8849751742065
 31
0.0
  0
LINE
  5
9E9
330
2
100
AcDbEntity
  8
0
100
AcDbLine
 10
571.8068699446138
 20
170.0679581742065
 30
0.0
 11
570.8870099446138
 21
172.0679581742064
 31
0.0
  0
ARC
  5
9EA
330
2
100
AcDbEntity
  8
0
100
AcDbCircle
 10
570.9711769446138
 20
171.8849751742065
 30
0.0
 40
2.0
100
AcDbArc
 50
270.0
 51
319.3987050000003
  0
ARC
  5
9EB
330
2
100
AcDbEntity
  8
0
100
AcDbCircle
 10
570.0513159446138
 20
173.8849751742065
 30
0.0
 40
2.0
100
AcDbArc
 50
270.0
 51
319.3987050000003
  0
CIRCLE
  5
9EC
330
2
100
AcDbEntity
  8
HOJO
100
AcDbCircle
 10
564.9711769446138
 20
184.8849751742065
 30
0.0
 40
4.0
  0
CIRCLE
  5
9ED
330
2
100
AcDbEntity
  8
0
100
AcDbCircle
 10
564.9711769446138
 20
184.8849751742065
 30
0.0
 40
3.399999999999999
  0
ARC
  5
9EE
330
2
100
AcDbEntity
  8
0
100
AcDbCircle
 10
564.9711769446138
 20
184.8849751742065
 30
0.0
 40
7.0
100
AcDbArc
 50
47.3640670000003
 51
180.0
  0
ARC
  5
9F1
330
2
100
AcDbEntity
  8
0
100
AcDbCircle
 10
581.9711769446138
 20
183.6199601742065
 30
0.0
 40
2.0
100
AcDbArc
 50
110.4873119999995
 51
180.0
  0
LINE
  5
9F2
330
2
100
AcDbEntity
  8
0
100
AcDbLine
 10
581.8469699446137
 20
181.6910971742064
 30
0.0
 11
579.8469699446139
 21
182.4309341742065
 31
0.0
  0
ARC
  5
9F3
330
2
100
AcDbEntity
  8
0
100
AcDbCircle
 10
577.9711769446138
 20
183.1248131742063
 30
0.0
 40
2.0
100
AcDbArc
 50
319.3987050000003
 51
0.0
  0
ARC
  5
9F4
330
2
100
AcDbEntity
  8
0
100
AcDbCircle
 10
579.9711769446138
 20
182.3849751742065
 30
0.0
 40
2.0
100
AcDbArc
 50
319.3987050000003
 51
0.0
  0
LINE
  5
9F5
330
2
100
AcDbEntity
  8
0
100
AcDbLine
 10
581.9711769446138
 20
182.3849751742065
 30
0.0
 11
581.9711769446138
 21
184.2499041742065
 31
0.0
  0
LINE
  5
9F6
330
2
100
AcDbEntity
  8
0
100
AcDbLine
 10
579.9711769446138
 20
183.1248131742063
 30
0.0
 11
579.9711769446138
 21
183.6199601742065
 31
0.0
  0
ARC
  5
9F7
330
2
100
AcDbEntity
  8
0
100
AcDbCircle
 10
573.7765359446139
 20
194.4487261742065
 30
0.0
 40
6.0
100
AcDbArc
 50
227.364075
 51
300.3583070000003
  0
ARC
  5
9F8
330
2
100
AcDbEntity
  8
0
100
AcDbCircle
 10
591.9711769446138
 20
163.3849751742065
 30
0.0
 40
30.0
100
AcDbArc
 50
112.3316420000002
 51
120.3582990000006
  0
LINE
  5
9F9
330
2
100
AcDbEntity
  8
0
100
AcDbLine
 10
643.4526829446136
 20
170.5834001742065
 30
0.0
 11
634.4526829446136
 21
181.0834001742064
 31
0.0
  0
LINE
  5
9FA
330
2
100
AcDbEntity
  8
0
100
AcDbLine
 10
644.3725439446137
 20
172.5834001742065
 30
0.0
 11
636.4526829446137
 21
181.8232381742064
 31
0.0
  0
ARC
  5
9FB
330
2
100
AcDbEntity
  8
0
100
AcDbCircle
 10
596.9711769446138
 20
151.3849751742065
 30
0.0
 40
7.5
100
AcDbArc
 50
199.4712219999996
 51
160.5287780000001
  0
LINE
  5
9FC
330
2
100
AcDbEntity
  8
0
100
AcDbLine
 10
592.4711769446138
 20
153.8849751742065
 30
0.0
 11
592.4711769446138
 21
148.8849751742065
 31
0.0
  0
LINE
  5
9FD
330
2
100
AcDbEntity
  8
0
100
AcDbLine
 10
587.4711769446138
 20
153.8849751742065
 30
0.0
 11
587.4711769446138
 21
148.8849751742065
 31
0.0
  0
ARC
  5
9FE
330
2
100
AcDbEntity
  8
0
100
AcDbCircle
 10
596.9711769446138
 20
151.3849751742065
 30
0.0
 40
8.5
100
AcDbArc
 50
197.1046299999992
 51
162.8953700000008
  0
LINE
  5
9FF
330
2
100
AcDbEntity
  8
0
100
AcDbLine
 10
592.4711769446138
 20
148.8849751742065
 30
0.0
 11
587.4711769446138
 21
148.8849751742065
 31
0.0
  0
LINE
  5
A00
330
2
100
AcDbEntity
  8
0
100
AcDbLine
 10
592.4711769446138
 20
153.8849751742065
 30
0.0
 11
587.4711769446138
 21
153.8849751742065
 31
0.0
  0
LINE
  5
A01
330
2
100
AcDbEntity
  8
0
100
AcDbLine
 10
644.1354839446138
 20
170.0679581742065
 30
0.0
 11
645.0553439446139
 21
172.0679581742064
 31
0.0
  0
ARC
  5
A02
330
2
100
AcDbEntity
  8
0
100
AcDbCircle
 10
644.9711769446138
 20
171.8849751742065
 30
0.0
 40
2.0
100
AcDbArc
 50
220.6012879999994
 51
270.0
  0
LINE
  5
A03
330
2
100
AcDbEntity
  8
0
100
AcDbLine
 10
588.9711769446138
 20
186.8849751742065
 30
0.0
 11
626.9711769446138
 21
186.8849751742065
 31
0.0
  0
ARC
  5
A04
330
2
100
AcDbEntity
  8
0
100
AcDbCircle
 10
626.9711769446138
 20
164.8849751742065
 30
0.0
 40
22.0
100
AcDbArc
 50
69.51268800000041
 51
90.0
  0
ARC
  5
A05
330
2
100
AcDbEntity
  8
0
100
AcDbCircle
 10
633.971176944614
 20
183.6199601742065
 30
0.0
 40
2.0
100
AcDbArc
 50
0.0
 51
69.51268800000041
  0
ARC
  5
A06
330
2
100
AcDbEntity
  8
0
100
AcDbCircle
 10
631.9711769446138
 20
184.2499041742065
 30
0.0
 40
2.0
100
AcDbArc
 50
0.0
 51
75.52249100000008
  0
LINE
  5
A07
330
2
100
AcDbEntity
  8
0
100
AcDbLine
 10
634.0953839446139
 20
181.6910971742064
 30
0.0
 11
636.095383944614
 21
182.4309341742065
 31
0.0
  0
ARC
  5
A08
330
2
100
AcDbEntity
  8
0
100
AcDbCircle
 10
637.9711769446138
 20
183.1248131742063
 30
0.0
 40
2.0
100
AcDbArc
 50
180.0
 51
220.6012879999994
  0
ARC
  5
A09
330
2
100
AcDbEntity
  8
0
100
AcDbCircle
 10
635.9711769446138
 20
182.3849751742065
 30
0.0
 40
2.0
100
AcDbArc
 50
180.0
 51
220.6012879999994
  0
LINE
  5
A0A
330
2
100
AcDbEntity
  8
0
100
AcDbLine
 10
633.971176944614
 20
182.3849751742065
 30
0.0
 11
633.971176944614
 21
184.2499041742065
 31
0.0
  0
LINE
  5
A0B
330
2
100
AcDbEntity
  8
0
100
AcDbLine
 10
635.9711769446138
 20
183.1248131742063
 30
0.0
 11
635.9711769446138
 21
183.6199601742065
 31
0.0
  0
ARC
  5
A0C
330
2
100
AcDbEntity
  8
0
100
AcDbCircle
 10
623.9711769446138
 20
163.3849751742065
 30
0.0
 40
30.0
100
AcDbArc
 50
59.64169699999963
 51
67.66835799999966
  0
ARC
  5
A0D
330
2
100
AcDbEntity
  8
0
100
AcDbCircle
 10
631.5705419446138
 20
181.8849751742065
 30
0.0
 40
10.0
100
AcDbArc
 50
67.66835799999966
 51
90.0
  0
LINE
  5
A0E
330
2
100
AcDbEntity
  8
0
100
AcDbLine
 10
589.9001319446137
 20
291.6252473789533
 30
0.0
 11
589.9001319446137
 21
313.1252473789533
 31
0.0
  0
LINE
  5
A0F
330
2
100
AcDbEntity
  8
0
100
AcDbLine
 10
587.4711769446138
 20
291.6252473789533
 30
0.0
 11
587.4711769446138
 21
315.6252473789533
 31
0.0
  0
LINE
  5
A10
330
2
100
AcDbEntity
  8
0
100
AcDbLine
 10
604.4711769446138
 20
318.6252473789533
 30
0.0
 11
604.4711769446138
 21
291.6252473789533
 31
0.0
  0
LINE
  5
A11
330
2
100
AcDbEntity
  8
0
100
AcDbLine
 10
587.4711769446138
 20
291.6252473789533
 30
0.0
 11
604.4711769446138
 21
291.6252473789533
 31
0.0
  0
LINE
  5
A12
330
2
100
AcDbEntity
  8
0
100
AcDbLine
 10
589.1598369446137
 20
318.6252473789533
 30
0.0
 11
604.7825169446139
 21
318.6252473789533
 31
0.0
  0
LINE
  5
A13
330
2
100
AcDbEntity
  8
0
100
AcDbLine
 10
588.4711769446138
 20
319.4026823789533
 30
0.0
 11
588.4711769446138
 21
319.6252473789533
 31
0.0
  0
ARC
  5
A14
330
2
100
AcDbEntity
  8
0
100
AcDbCircle
 10
590.3712009446138
 20
320.0271643789533
 30
0.0
 40
2.0
100
AcDbArc
 50
198.1948700000004
 51
209.9999999999999
  0
ARC
  5
A15
330
2
100
AcDbEntity
  8
0
100
AcDbCircle
 10
589.1598369446137
 20
319.1252473789533
 30
0.0
 40
0.5
100
AcDbArc
 50
209.9999999999999
 51
270.0
  0
LINE
  5
A16
330
2
100
AcDbEntity
  8
0
100
AcDbLine
 10
588.7268529446138
 20
318.8752473789533
 30
0.0
 11
588.639145944614
 21
319.0271643789533
 31
0.0
  0
ARC
  5
A17
330
2
100
AcDbEntity
  8
0
100
AcDbCircle
 10
582.4001319446137
 20
313.1252473789533
 30
0.0
 40
7.500003999999998
100
AcDbArc
 50
0.0
 51
19.47121200000039
  0
LINE
  5
A18
330
2
100
AcDbEntity
  8
0
100
AcDbLine
 10
589.4711769446138
 20
315.6252473789533
 30
0.0
 11
589.4711769446138
 21
318.6252473789533
 31
0.0
  0
LINE
  5
A19
330
2
100
AcDbEntity
  8
0
100
AcDbLine
 10
587.4711769446138
 20
315.6252473789533
 30
0.0
 11
589.4711769446138
 21
315.6252473789533
 31
0.0
  0
LINE
  5
A1A
330
2
100
AcDbEntity
  8
0
100
AcDbLine
 10
605.4711769446138
 20
319.4026823789533
 30
0.0
 11
605.4711769446138
 21
319.6252473789533
 31
0.0
  0
ARC
  5
A1B
330
2
100
AcDbEntity
  8
0
100
AcDbCircle
 10
603.5711529446139
 20
320.0271643789533
 30
0.0
 40
2.0
100
AcDbArc
 50
330.0
 51
341.8051279999994
  0
ARC
  5
A1C
330
2
100
AcDbEntity
  8
0
100
AcDbCircle
 10
604.7825169446139
 20
319.1252473789533
 30
0.0
 40
0.5
100
AcDbArc
 50
270.0
 51
330.0
  0
LINE
  5
A1D
330
2
100
AcDbEntity
  8
0
100
AcDbLine
 10
605.2155009446138
 20
318.8752473789533
 30
0.0
 11
605.3032079446137
 21
319.0271643789533
 31
0.0
  0
LINE
  5
A1E
330
2
100
AcDbEntity
  8
0
100
AcDbLine
 10
589.9001319446137
 20
428.6252473789534
 30
0.0
 11
589.9001319446137
 21
407.1252473789534
 31
0.0
  0
LINE
  5
A1F
330
2
100
AcDbEntity
  8
0
100
AcDbLine
 10
587.4711769446138
 20
428.6252473789534
 30
0.0
 11
587.4711769446138
 21
404.6252473789534
 31
0.0
  0
LINE
  5
A20
330
2
100
AcDbEntity
  8
0
100
AcDbLine
 10
604.4711769446138
 20
401.6252473789534
 30
0.0
 11
604.4711769446138
 21
428.6252473789534
 31
0.0
  0
LINE
  5
A21
330
2
100
AcDbEntity
  8
HIDS
100
AcDbLine
 10
560.9711769446138
 20
388.1252473789534
 30
0.0
 11
560.9711769446138
 21
368.1252473789534
 31
0.0
  0
LINE
  5
A22
330
2
100
AcDbEntity
  8
HIDS
100
AcDbLine
 10
568.9711769446138
 20
388.1252473789534
 30
0.0
 11
568.9711769446138
 21
368.1252473789534
 31
0.0
  0
LINE
  5
A23
330
2
100
AcDbEntity
  8
0
100
AcDbLine
 10
573.6291969446137
 20
400.6252473789534
 30
0.0
 11
573.6291969446137
 21
367.3292573789534
 31
0.0
  0
LINE
  5
A24
330
2
100
AcDbEntity
  8
0
100
AcDbLine
 10
582.6036839446138
 20
400.6252473789534
 30
0.0
 11
582.6036839446138
 21
365.1252473789534
 31
0.0
  0
LINE
  5
A25
330
2
100
AcDbEntity
  8
0
100
AcDbLine
 10
557.9711769446138
 20
360.1252473789534
 30
0.0
 11
558.6780859446138
 21
400.6252473789534
 31
0.0
  0
LINE
  5
A26
330
2
100
AcDbEntity
  8
HIDS
100
AcDbLine
 10
560.9711769446138
 20
352.1252473789534
 30
0.0
 11
568.9711769446138
 21
352.1252473789534
 31
0.0
  0
LINE
  5
A27
330
2
100
AcDbEntity
  8
HIDS
100
AcDbLine
 10
560.9711769446138
 20
368.1252473789534
 30
0.0
 11
568.9711769446138
 21
368.1252473789534
 31
0.0
  0
ARC
  5
A28
330
2
100
AcDbEntity
  8
0
100
AcDbCircle
 10
565.0584569446139
 20
348.6252473789534
 30
0.0
 40
6.5
100
AcDbArc
 50
64.28227200000015
 51
90.0
  0
LINE
  5
A29
330
2
100
AcDbEntity
  8
0
100
AcDbLine
 10
582.6036839446138
 20
355.1252473789534
 30
0.0
 11
565.0584569446139
 21
355.1252473789534
 31
0.0
  0
ARC
  5
A2A
330
2
100
AcDbEntity
  8
0
100
AcDbCircle
 10
565.0584569446139
 20
371.6252473789534
 30
0.0
 40
6.5
100
AcDbArc
 50
270.0
 51
295.7177279999998
  0
LINE
  5
A2B
330
2
100
AcDbEntity
  8
0
100
AcDbLine
 10
582.6036839446138
 20
365.1252473789534
 30
0.0
 11
565.0584569446139
 21
365.1252473789534
 31
0.0
  0
ARC
  5
A2C
330
2
100
AcDbEntity
  8
0
100
AcDbCircle
 10
573.6291969446137
 20
363.9212373789533
 30
0.0
 40
11.0
100
AcDbArc
 50
244.282272
 51
291.0753169999998
  0
LINE
  5
A2D
330
2
100
AcDbEntity
  8
0
100
AcDbLine
 10
568.8558819446138
 20
354.0108673789533
 30
0.0
 11
567.8790749446139
 21
354.4813873789534
 31
0.0
  0
ARC
  5
A2E
330
2
100
AcDbEntity
  8
0
100
AcDbCircle
 10
582.6036839446138
 20
348.6252473789534
 30
0.0
 40
6.5
100
AcDbArc
 50
90.0
 51
111.0753330000002
  0
LINE
  5
A2F
330
2
100
AcDbEntity
  8
0
100
AcDbLine
 10
580.2662819446139
 20
354.6904633789533
 30
0.0
 11
577.5847629446139
 21
353.6570463789534
 31
0.0
  0
ARC
  5
A30
330
2
100
AcDbEntity
  8
0
100
AcDbCircle
 10
573.6291969446137
 20
356.3292573789534
 30
0.0
 40
11.0
100
AcDbArc
 50
68.92466699999977
 51
115.7177279999997
  0
LINE
  5
A31
330
2
100
AcDbEntity
  8
0
100
AcDbLine
 10
568.8558819446138
 20
366.2396273789533
 30
0.0
 11
567.8790749446139
 21
365.7691073789533
 31
0.0
  0
ARC
  5
A32
330
2
100
AcDbEntity
  8
0
100
AcDbCircle
 10
582.6036839446138
 20
371.6252473789534
 30
0.0
 40
6.5
100
AcDbArc
 50
248.9246669999996
 51
270.0
  0
LINE
  5
A33
330
2
100
AcDbEntity
  8
0
100
AcDbLine
 10
580.2662819446139
 20
365.5600313789534
 30
0.0
 11
577.5847629446139
 21
366.5934483789533
 31
0.0
  0
LINE
  5
A34
330
2
100
AcDbEntity
  8
HIDS
100
AcDbLine
 10
569.2211769446138
 20
388.1252473789534
 30
0.0
 11
569.2211769446138
 21
400.6252473789534
 31
0.0
  0
LINE
  5
A35
330
2
100
AcDbEntity
  8
HIDS
100
AcDbLine
 10
560.7211769446138
 20
388.1252473789534
 30
0.0
 11
560.7211769446138
 21
400.6252473789534
 31
0.0
  0
LINE
  5
A36
330
2
100
AcDbEntity
  8
0
100
AcDbLine
 10
642.3131569446137
 20
400.6252473789534
 30
0.0
 11
642.3131569446137
 21
367.3292573789534
 31
0.0
  0
LINE
  5
A37
330
2
100
AcDbEntity
  8
0
100
AcDbLine
 10
633.3386699446139
 20
400.6252473789534
 30
0.0
 11
633.3386699446139
 21
365.1252473789534
 31
0.0
  0
LINE
  5
A38
330
2
100
AcDbEntity
  8
0
100
AcDbLine
 10
635.6760109446137
 20
354.6904633789533
 30
0.0
 11
638.3575909446137
 21
353.6570463789534
 31
0.0
  0
ARC
  5
A39
330
2
100
AcDbEntity
  8
0
100
AcDbCircle
 10
633.3386699446139
 20
348.6252473789534
 30
0.0
 40
6.5
100
AcDbArc
 50
68.92466699999977
 51
90.0
  0
LINE
  5
A3A
330
2
100
AcDbEntity
  8
0
100
AcDbLine
 10
635.6760109446137
 20
365.5600313789534
 30
0.0
 11
638.3575909446137
 21
366.5934483789533
 31
0.0
  0
ARC
  5
A3B
330
2
100
AcDbEntity
  8
0
100
AcDbCircle
 10
633.3386699446139
 20
371.6252473789534
 30
0.0
 40
6.5
100
AcDbArc
 50
270.0
 51
291.0753169999998
  0
LINE
  5
A3C
330
2
100
AcDbEntity
  8
0
100
AcDbLine
 10
604.7825169446139
 20
401.6252473789534
 30
0.0
 11
589.1598369446137
 21
401.6252473789534
 31
0.0
  0
ARC
  5
A3D
330
2
100
AcDbEntity
  8
0
100
AcDbCircle
 10
582.4001319446137
 20
407.1252473789534
 30
0.0
 40
7.500003999999998
100
AcDbArc
 50
340.5287879999996
 51
0.0
  0
LINE
  5
A3E
330
2
100
AcDbEntity
  8
0
100
AcDbLine
 10
588.4711769446138
 20
400.6252473789534
 30
0.0
 11
588.4711769446138
 21
400.8478123789534
 31
0.0
  0
ARC
  5
A3F
330
2
100
AcDbEntity
  8
0
100
AcDbCircle
 10
589.1598369446137
 20
401.1252473789534
 30
0.0
 40
0.5
100
AcDbArc
 50
90.0
 51
150.0
  0
LINE
  5
A40
330
2
100
AcDbEntity
  8
0
100
AcDbLine
 10
588.7268529446138
 20
401.3752473789534
 30
0.0
 11
588.639145944614
 21
401.2233303789534
 31
0.0
  0
ARC
  5
A41
330
2
100
AcDbEntity
  8
0
100
AcDbCircle
 10
590.3712009446138
 20
400.2233303789534
 30
0.0
 40
2.0
100
AcDbArc
 50
150.0
 51
161.8051299999994
  0
LINE
  5
A42
330
2
100
AcDbEntity
  8
0
100
AcDbLine
 10
589.4711769446138
 20
404.6252473789534
 30
0.0
 11
589.4711769446138
 21
401.6252473789534
 31
0.0
  0
LINE
  5
A43
330
2
100
AcDbEntity
  8
0
100
AcDbLine
 10
587.4711769446138
 20
404.6252473789534
 30
0.0
 11
589.4711769446138
 21
404.6252473789534
 31
0.0
  0
LINE
  5
A44
330
2
100
AcDbEntity
  8
0
100
AcDbLine
 10
605.4711769446138
 20
400.6252473789534
 30
0.0
 11
605.4711769446138
 21
400.8478123789534
 31
0.0
  0
ARC
  5
A45
330
2
100
AcDbEntity
  8
0
100
AcDbCircle
 10
603.5711529446139
 20
400.2233303789534
 30
0.0
 40
2.0
100
AcDbArc
 50
18.19487200000064
 51
29.99999999999992
  0
LINE
  5
A46
330
2
100
AcDbEntity
  8
0
100
AcDbLine
 10
605.2155009446138
 20
401.3752473789534
 30
0.0
 11
605.3032079446137
 21
401.2233303789534
 31
0.0
  0
ARC
  5
A47
330
2
100
AcDbEntity
  8
0
100
AcDbCircle
 10
604.7825169446139
 20
401.1252473789534
 30
0.0
 40
0.5
100
AcDbArc
 50
29.99999999999992
 51
90.0
  0
LINE
  5
A48
330
2
100
AcDbEntity
  8
0
100
AcDbLine
 10
587.4711769446138
 20
428.6252473789534
 30
0.0
 11
604.4711769446138
 21
428.6252473789534
 31
0.0
  0
LINE
  5
A49
330
2
100
AcDbEntity
  8
HIDS
100
AcDbLine
 10
654.9711769446138
 20
319.6252473789533
 30
0.0
 11
654.9711769446138
 21
352.1252473789534
 31
0.0
  0
LINE
  5
A4A
330
2
100
AcDbEntity
  8
HIDS
100
AcDbLine
 10
646.9711769446138
 20
319.6252473789533
 30
0.0
 11
646.9711769446138
 21
352.1252473789534
 31
0.0
  0
LINE
  5
A4B
330
2
100
AcDbEntity
  8
HIDS
100
AcDbLine
 10
654.371200944614
 20
388.1252473789534
 30
0.0
 11
654.371200944614
 21
319.6252473789533
 31
0.0
  0
LINE
  5
A4C
330
2
100
AcDbEntity
  8
HIDS
100
AcDbLine
 10
647.5711529446137
 20
388.1252473789534
 30
0.0
 11
647.5711529446137
 21
319.6252473789533
 31
0.0
  0
LINE
  5
A4D
330
2
100
AcDbEntity
  8
0
100
AcDbLine
 10
789.5266579446138
 20
395.1252473789534
 30
0.0
 11
789.5266579446138
 21
325.1252473789533
 31
0.0
  0
LINE
  5
A4E
330
2
100
AcDbEntity
  8
0
100
AcDbLine
 10
740.5266579446138
 20
400.1252473789532
 30
0.0
 11
740.5266579446138
 21
320.1252473789533
 31
0.0
  0
LINE
  5
A4F
330
2
100
AcDbEntity
  8
0
100
AcDbLine
 10
731.0266579446138
 20
322.1252473789533
 30
0.0
 11
731.0266579446136
 21
335.1252473789533
 31
0.0
  0
LINE
  5
A50
330
2
100
AcDbEntity
  8
0
100
AcDbLine
 10
657.2642679446138
 20
319.6252473789533
 30
0.0
 11
657.5696879446137
 21
337.1252473789533
 31
0.0
  0
LINE
  5
A51
330
2
100
AcDbEntity
  8
CENTER
100
AcDbLine
 10
650.9711769446138
 20
316.2663303789533
 30
0.0
 11
650.9711769446138
 21
403.9413483789534
 31
0.0
  0
LINE
  5
A52
330
2
100
AcDbEntity
  8
0
100
AcDbLine
 10
784.5266579446138
 20
320.1252473789533
 30
0.0
 11
740.5266579446138
 21
320.1252473789533
 31
0.0
  0
LINE
  5
A53
330
2
100
AcDbEntity
  8
0
100
AcDbLine
 10
786.7766579446138
 20
175.3849751742065
 30
0.0
 11
740.5266579446138
 21
175.3849751742065
 31
0.0
  0
LINE
  5
A54
330
2
100
AcDbEntity
  8
0
100
AcDbLine
 10
784.5266579446138
 20
191.3849751742065
 30
0.0
 11
740.5266579446138
 21
191.3849751742065
 31
0.0
  0
LINE
  5
A55
330
2
100
AcDbEntity
  8
0
100
AcDbLine
 10
731.0266579446138
 20
181.6339371742065
 30
0.0
 11
657.9711769446138
 21
181.6339371742065
 31
0.0
  0
LINE
  5
A56
330
2
100
AcDbEntity
  8
0
100
AcDbLine
 10
731.0266579446138
 20
189.3849751742065
 30
0.0
 11
659.3299419446139
 21
189.3849751742065
 31
0.0
  0
LINE
  5
A57
330
2
100
AcDbEntity
  8
0
100
AcDbLine
 10
657.9711769446138
 20
184.8849751742065
 30
0.0
 11
657.9711769446138
 21
167.7134051742065
 31
0.0
  0
LINE
  5
A58
330
2
100
AcDbEntity
  8
0
100
AcDbLine
 10
648.9711769446138
 20
164.8849751742065
 30
0.0
 11
648.9711769446138
 21
137.8849751742065
 31
0.0
  0
LINE
  5
A59
330
2
100
AcDbEntity
  8
0
100
AcDbLine
 10
653.9711769446138
 20
140.7134051742065
 30
0.0
 11
653.9711769446138
 21
162.0565451742064
 31
0.0
  0
ARC
  5
A5A
330
2
100
AcDbEntity
  8
0
100
AcDbCircle
 10
655.9711769446138
 20
140.7134051742065
 30
0.0
 40
2.0
100
AcDbArc
 50
180.0
 51
225.0000000000003
  0
ARC
  5
A5B
330
2
100
AcDbEntity
  8
0
100
AcDbCircle
 10
655.9711769446138
 20
135.0565451742064
 30
0.0
 40
2.0
100
AcDbArc
 50
0.0
 51
45.00000000000028
  0
LINE
  5
A5C
330
2
100
AcDbEntity
  8
0
100
AcDbLine
 10
654.5569919446137
 20
139.2991901742065
 30
0.0
 11
657.3853619446136
 21
136.4707601742064
 31
0.0
  0
LINE
  5
A5D
330
2
100
AcDbEntity
  8
0
100
AcDbLine
 10
654.5569919446137
 20
163.4707601742064
 30
0.0
 11
657.3853619446136
 21
166.2991901742065
 31
0.0
  0
ARC
  5
A5E
330
2
100
AcDbEntity
  8
0
100
AcDbCircle
 10
655.9711769446138
 20
162.0565451742064
 30
0.0
 40
2.0
100
AcDbArc
 50
134.9999999999996
 51
180.0
  0
ARC
  5
A5F
330
2
100
AcDbEntity
  8
0
100
AcDbCircle
 10
626.9711769446138
 20
164.8849751742065
 30
0.0
 40
22.0
100
AcDbArc
 50
0.0
 51
14.47751199999975
  0
ARC
  5
A60
330
2
100
AcDbEntity
  8
0
100
AcDbCircle
 10
646.3361059446136
 20
169.8849751742065
 30
0.0
 40
2.0
100
AcDbArc
 50
14.47751199999975
 51
90.0
  0
ARC
  5
A61
330
2
100
AcDbEntity
  8
0
100
AcDbCircle
 10
646.7449199446137
 20
167.8849751742065
 30
0.0
 40
2.0
100
AcDbArc
 50
8.626927000000625
 51
90.0
  0
LINE
  5
A62
330
2
100
AcDbEntity
  8
0
100
AcDbLine
 10
645.891037944614
 20
171.8849751742065
 30
0.0
 11
646.3361059446136
 21
171.8849751742065
 31
0.0
  0
ARC
  5
A63
330
2
100
AcDbEntity
  8
0
100
AcDbCircle
 10
655.9711769446138
 20
167.7134051742065
 30
0.0
 40
2.0
100
AcDbArc
 50
314.9999999999997
 51
0.0
  0
CIRCLE
  5
A64
330
2
100
AcDbEntity
  8
HOJO
100
AcDbCircle
 10
650.9711769446138
 20
184.8849751742065
 30
0.0
 40
4.0
  0
CIRCLE
  5
A65
330
2
100
AcDbEntity
  8
0
100
AcDbCircle
 10
650.9711769446138
 20
184.8849751742065
 30
0.0
 40
3.399999999999999
  0
ARC
  5
A66
330
2
100
AcDbEntity
  8
0
100
AcDbCircle
 10
650.9711769446138
 20
184.8849751742065
 30
0.0
 40
7.0
100
AcDbArc
 50
0.0
 51
132.6359249999995
  0
LINE
  5
A68
330
2
100
AcDbEntity
  8
0
100
AcDbLine
 10
658.6348119446137
 20
189.5096701742065
 30
0.0
 11
653.4041599446139
 21
191.4485431742065
 31
0.0
  0
ARC
  5
A69
330
2
100
AcDbEntity
  8
0
100
AcDbCircle
 10
659.3299419446139
 20
191.3849751742065
 30
0.0
 40
2.0
100
AcDbArc
 50
249.66127
 51
270.0
  0
ARC
  5
A6A
330
2
100
AcDbEntity
  8
HIDS
  6
SEKKEI_H
100
AcDbCircle
 10
740.5266579446138
 20
174.9143631742064
 30
0.0
 40
1.5
100
AcDbArc
 50
90.0
 51
180.0
  0
ARC
  5
A6B
330
2
100
AcDbEntity
  8
HIDS
  6
SEKKEI_H
100
AcDbCircle
 10
740.5266579446138
 20
174.9143631742064
 30
0.0
 40
3.0
100
AcDbArc
 50
90.0
 51
180.0
  0
ARC
  5
A6C
330
2
100
AcDbEntity
  8
HIDS
  6
SEKKEI_H
100
AcDbCircle
 10
740.5266579446138
 20
174.9143631742064
 30
0.0
 40
4.5
100
AcDbArc
 50
90.0
 51
180.0
  0
LINE
  5
A6D
330
2
100
AcDbEntity
  8
HIDS
  6
SEKKEI_H
100
AcDbLine
 10
737.5266579446138
 20
170.9143631742064
 30
0.0
 11
736.0266579446138
 21
170.4143631742065
 31
0.0
  0
LINE
  5
A6E
330
2
100
AcDbEntity
  8
HIDS
  6
SEKKEI_H
100
AcDbLine
 10
739.0266579446138
 20
169.9143631742064
 30
0.0
 11
737.5266579446138
 21
170.4143631742065
 31
0.0
  0
LINE
  5
A6F
330
2
100
AcDbEntity
  8
HIDS
  6
SEKKEI_H
100
AcDbLine
 10
736.0266579446138
 20
174.9143631742064
 30
0.0
 11
736.0266579446138
 21
170.4143631742065
 31
0.0
  0
LINE
  5
A70
330
2
100
AcDbEntity
  8
HIDS
  6
SEKKEI_H
100
AcDbLine
 10
737.5266579446138
 20
174.9143631742064
 30
0.0
 11
737.5266579446138
 21
170.4143631742065
 31
0.0
  0
LINE
  5
A71
330
2
100
AcDbEntity
  8
HIDS
  6
SEKKEI_H
100
AcDbLine
 10
739.0266579446138
 20
174.9143631742064
 30
0.0
 11
739.0266579446138
 21
169.8987691742065
 31
0.0
  0
LINE
  5
A72
330
2
100
AcDbEntity
  8
0
100
AcDbLine
 10
740.5266579446138
 20
181.6339681742064
 30
0.0
 11
731.0266579446138
 21
181.6339681742064
 31
0.0
  0
LINE
  5
A73
330
2
100
AcDbEntity
  8
0
100
AcDbLine
 10
740.5266579446138
 20
189.3849751742065
 30
0.0
 11
731.0266579446138
 21
189.3849751742065
 31
0.0
  0
LINE
  5
A7F
330
2
100
AcDbEntity
  8
0
100
AcDbLine
 10
659.2733009446138
 20
322.1252473789533
 30
0.0
 11
731.0266579446138
 21
322.1252473789533
 31
0.0
  0
ARC
  5
A80
330
2
100
AcDbEntity
  8
0
100
AcDbCircle
 10
659.2733009446138
 20
320.1252473789533
 30
0.0
 40
2.0
100
AcDbArc
 50
90.0
 51
178.9999999999998
  0
LINE
  5
A81
330
2
100
AcDbEntity
  8
0
100
AcDbLine
 10
740.5266579446138
 20
322.1252473789533
 30
0.0
 11
731.0266579446138
 21
322.1252473789533
 31
0.0
  0
ARC
  5
A82
330
2
100
AcDbEntity
  8
0
100
AcDbCircle
 10
784.5266579446138
 20
186.3849751742065
 30
0.0
 40
5.0
100
AcDbArc
 50
0.0
 51
90.0
  0
ARC
  5
A83
330
2
100
AcDbEntity
  8
0
100
AcDbCircle
 10
784.5266579446138
 20
325.1252473789533
 30
0.0
 40
5.0
100
AcDbArc
 50
270.0
 51
0.0
  0
LINE
  5
A84
330
2
100
AcDbEntity
  8
0
100
AcDbLine
 10
787.2766579446138
 20
336.1252473789533
 30
0.0
 11
740.5266579446138
 21
336.1252473789533
 31
0.0
  0
LINE
  5
A85
330
2
100
AcDbEntity
  8
0
100
AcDbLine
 10
787.2766579446138
 20
384.1252473789534
 30
0.0
 11
740.5266579446138
 21
384.1252473789534
 31
0.0
  0
LINE
  5
A86
330
2
100
AcDbEntity
  8
0
100
AcDbLine
 10
784.5266579446138
 20
400.1252473789532
 30
0.0
 11
740.5266579446138
 21
400.1252473789532
 31
0.0
  0
LINE
  5
A87
330
2
100
AcDbEntity
  8
0
100
AcDbLine
 10
690.0268489446138
 20
337.1252473789533
 30
0.0
 11
654.9680639446138
 21
337.1252473789533
 31
0.0
  0
LINE
  5
A88
330
2
100
AcDbEntity
  8
0
100
AcDbLine
 10
690.0268489446138
 20
383.1252473789534
 30
0.0
 11
654.9680639446138
 21
383.1252473789534
 31
0.0
  0
LINE
  5
A89
330
2
100
AcDbEntity
  8
0
100
AcDbLine
 10
660.4194799446137
 20
398.1252473789534
 30
0.0
 11
731.0266579446138
 21
398.1252473789534
 31
0.0
  0
LINE
  5
A8A
330
2
100
AcDbEntity
  8
HIDS
100
AcDbLine
 10
646.9711769446138
 20
388.1252473789534
 30
0.0
 11
646.9711769446138
 21
368.1252473789534
 31
0.0
  0
LINE
  5
A8B
330
2
100
AcDbEntity
  8
HIDS
100
AcDbLine
 10
654.9711769446138
 20
388.1252473789534
 30
0.0
 11
654.9711769446138
 21
368.1252473789534
 31
0.0
  0
LINE
  5
A8C
330
2
100
AcDbEntity
  8
0
100
AcDbLine
 10
653.4041599446139
 20
360.1252473789534
 30
0.0
 11
652.9683689446138
 21
385.0903353789533
 31
0.0
  0
LINE
  5
A8D
330
2
100
AcDbEntity
  8
0
100
AcDbLine
 10
658.971176944614
 20
383.1252473789534
 30
0.0
 11
658.971176944614
 21
337.1252473789533
 31
0.0
  0
LINE
  5
A8E
330
2
100
AcDbEntity
  8
0
100
AcDbLine
 10
653.4041599446139
 20
360.1252473789534
 30
0.0
 11
652.9683689446138
 21
335.1601593789534
 31
0.0
  0
ARC
  5
A8F
330
2
100
AcDbEntity
  8
0
100
AcDbCircle
 10
654.9680639446138
 20
335.1252473789533
 30
0.0
 40
2.0
100
AcDbArc
 50
90.0
 51
178.9999999999998
  0
LINE
  5
A90
330
2
100
AcDbEntity
  8
HIDS
100
AcDbLine
 10
646.9711769446138
 20
352.1252473789534
 30
0.0
 11
654.9711769446138
 21
352.1252473789534
 31
0.0
  0
LINE
  5
A91
330
2
100
AcDbEntity
  8
0
100
AcDbLine
 10
647.086471944614
 20
354.0108673789533
 30
0.0
 11
648.0632789446136
 21
354.4813873789534
 31
0.0
  0
ARC
  5
A92
330
2
100
AcDbEntity
  8
0
100
AcDbCircle
 10
650.883896944614
 20
348.6252473789534
 30
0.0
 40
6.5
100
AcDbArc
 50
90.0
 51
115.7177279999997
  0
LINE
  5
A93
330
2
100
AcDbEntity
  8
HIDS
100
AcDbLine
 10
646.9711769446138
 20
368.1252473789534
 30
0.0
 11
654.9711769446138
 21
368.1252473789534
 31
0.0
  0
LINE
  5
A94
330
2
100
AcDbEntity
  8
0
100
AcDbLine
 10
647.086471944614
 20
366.2396273789533
 30
0.0
 11
648.0632789446136
 21
365.7691073789533
 31
0.0
  0
ARC
  5
A95
330
2
100
AcDbEntity
  8
0
100
AcDbCircle
 10
650.883896944614
 20
371.6252473789534
 30
0.0
 40
6.5
100
AcDbArc
 50
244.282272
 51
270.0
  0
LINE
  5
A96
330
2
100
AcDbEntity
  8
HIDS
100
AcDbLine
 10
655.2211769446138
 20
388.1252473789534
 30
0.0
 11
655.2211769446138
 21
400.6252473789534
 31
0.0
  0
LINE
  5
A97
330
2
100
AcDbEntity
  8
HIDS
100
AcDbLine
 10
646.7211769446138
 20
388.1252473789534
 30
0.0
 11
646.7211769446138
 21
400.6252473789534
 31
0.0
  0
LINE
  5
A98
330
2
100
AcDbEntity
  8
0
100
AcDbLine
 10
657.2642679446138
 20
400.6252473789534
 30
0.0
 11
657.5696879446137
 21
383.1252473789534
 31
0.0
  0
LINE
  5
A99
330
2
100
AcDbEntity
  8
0
100
AcDbLine
 10
658.971176944614
 20
397.5045193789533
 30
0.0
 11
658.971176944614
 21
388.1252473789534
 31
0.0
  0
ARC
  5
A9A
330
2
100
AcDbEntity
  8
0
100
AcDbCircle
 10
654.9680639446138
 20
385.1252473789534
 30
0.0
 40
2.0
100
AcDbArc
 50
181.0
 51
270.0
  0
ARC
  5
A9B
330
2
100
AcDbEntity
  8
0
100
AcDbCircle
 10
660.4194799446137
 20
396.1252473789534
 30
0.0
 40
2.0
100
AcDbArc
 50
90.0
 51
136.3987580000002
  0
LINE
  5
A9C
330
2
100
AcDbEntity
  8
0
100
AcDbLine
 10
731.0266579446136
 20
385.1252473789534
 30
0.0
 11
731.0266579446138
 21
398.1252473789534
 31
0.0
  0
LINE
  5
A9D
330
2
100
AcDbEntity
  8
0
100
AcDbLine
 10
740.5266579446138
 20
337.1252473789533
 30
0.0
 11
740.0267579446137
 21
337.1252473789533
 31
0.0
  0
ARC
  5
AAA
330
2
100
AcDbEntity
  8
0
100
AcDbCircle
 10
740.5266579446138
 20
392.2684053789533
 30
0.0
 40
1.5
100
AcDbArc
 50
180.0
 51
270.0
  0
ARC
  5
AAB
330
2
100
AcDbEntity
  8
0
100
AcDbCircle
 10
740.5266579446138
 20
392.2684053789533
 30
0.0
 40
3.0
100
AcDbArc
 50
180.0
 51
270.0
  0
ARC
  5
AAC
330
2
100
AcDbEntity
  8
0
100
AcDbCircle
 10
740.5266579446138
 20
392.2684053789533
 30
0.0
 40
4.5
100
AcDbArc
 50
180.0
 51
270.0
  0
LINE
  5
AAD
330
2
100
AcDbEntity
  8
0
100
AcDbLine
 10
740.5266579446138
 20
398.1252473789534
 30
0.0
 11
731.0266579446138
 21
398.1252473789534
 31
0.0
  0
LINE
  5
AAE
330
2
100
AcDbEntity
  8
0
100
AcDbLine
 10
740.5266579446138
 20
383.1252473789534
 30
0.0
 11
740.0267579446137
 21
383.1252473789534
 31
0.0
  0
LINE
  5
AAF
330
2
100
AcDbEntity
  8
0
100
AcDbLine
 10
736.0266579446138
 20
392.2684053789533
 30
0.0
 11
736.0266579446138
 21
396.7684053789533
 31
0.0
  0
LINE
  5
AB0
330
2
100
AcDbEntity
  8
0
100
AcDbLine
 10
737.5266579446138
 20
392.2684053789533
 30
0.0
 11
737.5266579446138
 21
396.7684053789533
 31
0.0
  0
LINE
  5
AB1
330
2
100
AcDbEntity
  8
0
100
AcDbLine
 10
739.0266579446138
 20
392.2684053789533
 30
0.0
 11
739.0266579446138
 21
397.2840303789534
 31
0.0
  0
LINE
  5
AB2
330
2
100
AcDbEntity
  8
HOJO
100
AcDbLine
 10
737.5266579446138
 20
396.2684053789534
 30
0.0
 11
736.0266579446138
 21
396.7684053789533
 31
0.0
  0
LINE
  5
AB3
330
2
100
AcDbEntity
  8
HOJO
100
AcDbLine
 10
739.0266579446138
 20
397.2684053789533
 30
0.0
 11
737.5266579446138
 21
396.7684053789533
 31
0.0
  0
ARC
  5
AB4
330
2
100
AcDbEntity
  8
0
100
AcDbCircle
 10
784.5266579446138
 20
395.1252783789533
 30
0.0
 40
5.0
100
AcDbArc
 50
0.0
 51
90.0
  0
TEXT
  5
1784
330
2
100
AcDbEntity
  8
TITLE
100
AcDbText
 10
154.0061856861201
 20
71.85468741727851
 30
0.0
 40
5.0
  1
F2FB-15T-10～240-S15WK
100
AcDbText
  0
TEXT
  5
1785
330
2
100
AcDbEntity
  8
TITLE
100
AcDbText
 10
154.0061856861201
 20
62.85468741727851
 30
0.0
 40
5.0
  1
F2FB-15T-10～240-S25K
100
AcDbText
  0
TEXT
  5
1786
330
2
100
AcDbEntity
  8
TITLE
100
AcDbText
 10
154.0061856861201
 20
53.85468741727851
 30
0.0
 40
5.0
  1
F2FB-15T-10～240-S25WK
100
AcDbText
  0
TEXT
  5
1787
330
2
100
AcDbEntity
  8
TITLE
100
AcDbText
 10
154.0061856861201
 20
80.85468741727851
 30
0.0
 40
5.0
  1
F2FB-15T-10～240-S15K
100
AcDbText
  0
TEXT
  5
1788
330
2
100
AcDbEntity
  8
TITLE
100
AcDbText
 10
32.76932711878782
 20
71.88247792693272
 30
0.0
 40
5.0
  1
F2FB-15T-10～240-T15WK
100
AcDbText
  0
TEXT
  5
1789
330
2
100
AcDbEntity
  8
TITLE
100
AcDbText
 10
32.76932711878782
 20
62.88247792693272
 30
0.0
 40
5.0
  1
F2FB-15T-10～240-T25K
100
AcDbText
  0
TEXT
  5
178A
330
2
100
AcDbEntity
  8
TITLE
100
AcDbText
 10
32.76932711878782
 20
53.88247792693271
 30
0.0
 40
5.0
  1
F2FB-15T-10～240-T25WK
100
AcDbText
  0
TEXT
  5
178B
330
2
100
AcDbEntity
  8
TITLE
100
AcDbText
 10
32.76932711878782
 20
44.88247792693271
 30
0.0
 40
5.0
  1
F2FB-15T-10～120-T40K
100
AcDbText
  0
TEXT
  5
178C
330
2
100
AcDbEntity
  8
TITLE
100
AcDbText
 10
32.76932711878782
 20
80.88247792693271
 30
0.0
 40
5.0
  1
F2FB-15T-10～240-T15K
100
AcDbText
  0
TEXT
  5
178D
330
2
100
AcDbEntity
  8
TITLE
100
AcDbText
 10
32.76932711878782
 20
26.88247792693271
 30
0.0
 40
5.0
  1
F2FB-15T-10～60-T60K
100
AcDbText
  0
TEXT
  5
178E
330
2
100
AcDbEntity
  8
TITLE
100
AcDbText
 10
32.76932711878782
 20
35.88247792693271
 30
0.0
 40
5.0
  1
F2FB-15T-10～120-T40WK
100
AcDbText
  0
TEXT
  5
178F
330
2
100
AcDbEntity
  8
TITLE
100
AcDbText
 10
154.0061856861201
 20
44.85468741727851
 30
0.0
 40
5.0
  1
F2FB-15T-10～120-S40K
100
AcDbText
  0
TEXT
  5
1790
330
2
100
AcDbEntity
  8
TITLE
100
AcDbText
 10
154.0061856861201
 20
35.85468741727851
 30
0.0
 40
5.0
  1
F2FB-15T-10～120-S40WK
100
AcDbText
  0
LINE
  5
1793
330
2
100
AcDbEntity
  8
CENTER
100
AcDbLine
 10
169.3226344191169
 20
125.8636131742065
 30
0.0
 11
169.3226344191169
 21
109.9063371742065
 31
0.0
  0
LINE
  5
1794
330
2
100
AcDbEntity
  8
CENTER
100
AcDbLine
 10
161.250292419117
 20
127.8849751742064
 30
0.0
 11
172.394976419117
 21
127.8849751742064
 31
0.0
  0
LINE
  5
1795
330
2
100
AcDbEntity
  8
CENTER
100
AcDbLine
 10
177.301272419117
 20
117.8849751742065
 30
0.0
 11
161.3439964191169
 21
117.8849751742065
 31
0.0
  0
LINE
  5
1796
330
2
100
AcDbEntity
  8
CENTER
100
AcDbLine
 10
166.8226344191169
 20
122.3126331742065
 30
0.0
 11
166.8226344191169
 21
133.4573171742065
 31
0.0
  0
LINE
  5
1797
330
2
100
AcDbEntity
  8
CENTER
100
AcDbLine
 10
169.3226344191169
 20
192.8636131742065
 30
0.0
 11
169.3226344191169
 21
176.9063371742064
 31
0.0
  0
LINE
  5
1798
330
2
100
AcDbEntity
  8
CENTER
100
AcDbLine
 10
161.250292419117
 20
174.8849751742065
 30
0.0
 11
172.394976419117
 21
174.8849751742065
 31
0.0
  0
LINE
  5
1799
330
2
100
AcDbEntity
  8
CENTER
100
AcDbLine
 10
166.8226344191169
 20
169.3126331742065
 30
0.0
 11
166.8226344191169
 21
180.4573171742065
 31
0.0
  0
LINE
  5
179A
330
2
100
AcDbEntity
  8
CENTER
100
AcDbLine
 10
177.301272419117
 20
184.8849751742065
 30
0.0
 11
161.3439964191169
 21
184.8849751742065
 31
0.0
  0
LINE
  5
179B
330
2
100
AcDbEntity
  8
CENTER
100
AcDbLine
 10
223.3226344191169
 20
121.2781021742065
 30
0.0
 11
223.3226344191169
 21
181.4918481742065
 31
0.0
  0
LINE
  5
179C
330
2
100
AcDbEntity
  8
CENTER
100
AcDbLine
 10
255.3226344191171
 20
125.8636131742065
 30
0.0
 11
255.3226344191171
 21
109.9063371742065
 31
0.0
  0
LINE
  5
179D
330
2
100
AcDbEntity
  8
CENTER
100
AcDbLine
 10
252.250292419117
 20
127.8849751742064
 30
0.0
 11
263.394976419117
 21
127.8849751742064
 31
0.0
  0
LINE
  5
179E
330
2
100
AcDbEntity
  8
CENTER
100
AcDbLine
 10
263.301272419117
 20
117.8849751742065
 30
0.0
 11
247.343996419117
 21
117.8849751742065
 31
0.0
  0
LINE
  5
179F
330
2
100
AcDbEntity
  8
CENTER
100
AcDbLine
 10
257.8226344191171
 20
122.3126331742065
 30
0.0
 11
257.8226344191171
 21
133.4573171742065
 31
0.0
  0
LINE
  5
17A0
330
2
100
AcDbEntity
  8
CENTER
100
AcDbLine
 10
255.3226344191171
 20
192.8636131742065
 30
0.0
 11
255.3226344191171
 21
176.9063371742064
 31
0.0
  0
LINE
  5
17A1
330
2
100
AcDbEntity
  8
CENTER
100
AcDbLine
 10
252.250292419117
 20
174.8849751742065
 30
0.0
 11
263.394976419117
 21
174.8849751742065
 31
0.0
  0
LINE
  5
17A2
330
2
100
AcDbEntity
  8
CENTER
100
AcDbLine
 10
257.8226344191171
 20
169.3126331742065
 30
0.0
 11
257.8226344191171
 21
180.4573171742065
 31
0.0
  0
LINE
  5
17A3
330
2
100
AcDbEntity
  8
CENTER
100
AcDbLine
 10
263.301272419117
 20
184.8849751742065
 30
0.0
 11
247.343996419117
 21
184.8849751742065
 31
0.0
  0
LINE
  5
17A4
330
2
100
AcDbEntity
  8
CENTER
100
AcDbLine
 10
596.9711769446138
 20
121.1784626742065
 30
0.0
 11
596.9711769446138
 21
181.5914876742065
 31
0.0
  0
LINE
  5
17A5
330
2
100
AcDbEntity
  8
CENTER
100
AcDbLine
 10
564.9711769446138
 20
125.8636131742065
 30
0.0
 11
564.9711769446138
 21
109.9063371742065
 31
0.0
  0
LINE
  5
17A6
330
2
100
AcDbEntity
  8
CENTER
100
AcDbLine
 10
572.949814944614
 20
117.8849751742065
 30
0.0
 11
556.9925389446138
 21
117.8849751742065
 31
0.0
  0
LINE
  5
17A7
330
2
100
AcDbEntity
  8
CENTER
100
AcDbLine
 10
650.9711769446138
 20
125.8636131742065
 30
0.0
 11
650.9711769446138
 21
109.9063371742065
 31
0.0
  0
LINE
  5
17A8
330
2
100
AcDbEntity
  8
CENTER
100
AcDbLine
 10
658.9498149446138
 20
117.8849751742065
 30
0.0
 11
642.9925389446139
 21
117.8849751742065
 31
0.0
  0
LINE
  5
17A9
330
2
100
AcDbEntity
  8
CENTER
100
AcDbLine
 10
564.9711769446138
 20
192.8636131742065
 30
0.0
 11
564.9711769446138
 21
176.9063371742064
 31
0.0
  0
LINE
  5
17AA
330
2
100
AcDbEntity
  8
CENTER
100
AcDbLine
 10
572.949814944614
 20
184.8849751742065
 30
0.0
 11
556.9925389446138
 21
184.8849751742065
 31
0.0
  0
LINE
  5
17AB
330
2
100
AcDbEntity
  8
CENTER
100
AcDbLine
 10
650.9711769446138
 20
192.8636131742065
 30
0.0
 11
650.9711769446138
 21
176.9063371742064
 31
0.0
  0
LINE
  5
17AC
330
2
100
AcDbEntity
  8
CENTER
100
AcDbLine
 10
658.9498149446138
 20
184.8849751742065
 30
0.0
 11
642.9925389446139
 21
184.8849751742065
 31
0.0
  0
SPLINE
  5
17AD
330
2
100
AcDbEntity
  8
HOJO
100
AcDbSpline
210
0.0
220
0.0
230
1.0
 70
     8
 71
     3
 72
    27
 73
    23
 74
    21
 42
0.0000000001
 43
0.0000000001
 44
0.0000000001
 40
0.0
 40
0.0
 40
0.0
 40
0.0
 40
3.539268772771862
 40
7.287513562995783
 40
11.09046033223695
 40
14.6259942381697
 40
18.69227008921794
 40
22.26802890950281
 40
26.82672101949674
 40
31.55579532198597
 40
36.28066624743832
 40
40.14414690074355
 40
45.48003284016016
 40
49.44095400921186
 40
54.14226030623301
 40
58.6286890972445
 40
62.78426171223561
 40
66.26314687902695
 40
70.60953379849491
 40
74.3051141661396
 40
78.24621988074824
 40
82.00437648752247
 40
82.00437648752247
 40
82.00437648752247
 40
82.00437648752247
 10
356.4711769446138
 20
126.0029879762537
 30
0.0
 10
357.6502433103631
 20
125.8372889546752
 30
0.0
 10
360.077993979703
 20
125.4961072178098
 30
0.0
 10
363.733874465614
 20
126.6420624624444
 30
0.0
 10
367.4203115601851
 20
125.382487119814
 30
0.0
 10
371.1727818681804
 20
126.8324681453606
 30
0.0
 10
374.8791353099169
 20
125.2733388999271
 30
0.0
 10
378.8795531259896
 20
126.8998753874676
 30
0.0
 10
383.1604905246447
 20
125.2508388042988
 30
0.0
 10
387.77618452278
 20
127.118730795018
 30
0.0
 10
392.197782239288
 20
125.3106464660806
 30
0.0
 10
396.7533528441192
 20
127.1446011253381
 30
0.0
 10
401.1574536230241
 20
125.3359540182422
 30
0.0
 10
405.7440742529703
 20
127.3749569286517
 30
0.0
 10
410.0587955075688
 20
124.9565673112756
 30
0.0
 10
414.4266228456739
 20
127.5472150729325
 30
0.0
 10
418.3882786100752
 20
125.0019467349666
 30
0.0
 10
422.2338550772547
 20
127.4401466326173
 30
0.0
 10
426.0492572103087
 20
125.1318100544308
 30
0.0
 10
429.9543712974077
 20
127.258500663986
 30
0.0
 10
433.686954469378
 20
125.4123393380141
 30
0.0
 10
436.2299112820779
 20
126.0971122656423
 30
0.0
 10
437.4711769446139
 20
126.4313629762537
 30
0.0
 11
356.4711769446138
 21
126.0029879762537
 31
0.0
 11
360.002365944614
 21
125.7639739762538
 31
0.0
 11
363.7211769446138
 21
126.2327849762536
 31
0.0
 11
367.5023659446138
 21
125.8265659762537
 31
0.0
 11
371.0023659446138
 21
126.3265659762538
 31
0.0
 11
375.0337689446138
 21
125.7951629762537
 31
0.0
 11
378.5649879446139
 21
126.3577849762536
 31
0.0
 11
383.0961769446139
 21
125.8577849762537
 31
0.0
 11
387.7837689446138
 21
126.4827849762536
 31
0.0
 11
392.4711769446139
 21
125.8889739762538
 31
0.0
 11
396.2837689446138
 21
126.5139739762537
 31
0.0
 11
401.5961769446138
 21
126.0139739762538
 31
0.0
 11
405.5023659446138
 21
126.6701629762537
 31
0.0
 11
410.127365944614
 21
125.8265659762537
 31
0.0
 11
414.5337689446138
 21
126.6701629762537
 31
0.0
 11
418.5961769446138
 21
125.7951629762537
 31
0.0
 11
421.9711769446139
 21
126.6389739762536
 31
0.0
 11
426.252365944614
 21
125.8889739762538
 31
0.0
 11
429.877365944614
 21
126.6077849762536
 31
0.0
 11
433.752365944614
 21
125.8889739762538
 31
0.0
 11
437.4711769446139
 21
126.4313629762537
 31
0.0
  0
LINE
  5
17B0
330
2
100
AcDbEntity
  8
CENTER
100
AcDbLine
 10
324.0996249446141
 20
151.3849751742065
 30
0.0
 11
469.842728944614
 21
151.3849751742065
 31
0.0
  0
LINE
  5
17B1
330
2
100
AcDbEntity
  8
CENTER
100
AcDbLine
 10
396.9711769446139
 20
241.2724901742064
 30
0.0
 11
396.9711769446139
 21
103.8368491742065
 31
0.0
  0
LINE
  5
17B2
330
2
100
AcDbEntity
  8
CENTER
100
AcDbLine
 10
596.9711769446138
 20
432.9967993789534
 30
0.0
 11
596.9711769446138
 21
287.2536953789533
 31
0.0
  0
LINE
  5
17B3
330
2
100
AcDbEntity
  8
CENTER
100
AcDbLine
 10
550.4304059446138
 20
360.1252473789534
 30
0.0
 11
798.047187912848
 21
360.1252473789534
 31
0.0
  0
LINE
  5
1F75
330
2
100
AcDbEntity
  8
0
100
AcDbLine
 10
376.8090857606407
 20
235.8849901742065
 30
0.0
 11
417.1332681285871
 21
235.8849901742065
 31
0.0
  0
LINE
  5
1F77
330
2
100
AcDbEntity
  8
0
100
AcDbLine
 10
371.9711769446139
 20
202.8849751742065
 30
0.0
 11
421.9711619446139
 21
202.8849751742065
 31
0.0
  0
LINE
  5
1F78
330
2
100
AcDbEntity
  8
0
100
AcDbLine
 10
371.9711769446139
 20
192.8849751742065
 30
0.0
 11
421.9711619446139
 21
192.8849751742065
 31
0.0
  0
LINE
  5
1F79
330
2
100
AcDbEntity
  8
0
100
AcDbLine
 10
371.9711769446139
 20
203.8849751742065
 30
0.0
 11
421.9711619446139
 21
203.8849751742065
 31
0.0
  0
LINE
  5
1F7A
330
2
100
AcDbEntity
  8
0
100
AcDbLine
 10
379.4711769446138
 20
234.8849901742064
 30
0.0
 11
414.4711769446138
 21
234.8849901742064
 31
0.0
  0
LINE
  5
1F7B
330
2
100
AcDbEntity
  8
CENTER
100
AcDbLine
 10
366.9275699634054
 20
218.8849751742065
 30
0.0
 11
427.0147839258225
 21
218.8849751742065
 31
0.0
  0
LINE
  5
1FAC
330
2
100
AcDbEntity
  8
0
100
AcDbLine
 10
85.10504623514364
 20
235.8849901742065
 30
0.0
 11
125.4292286030907
 21
235.8849901742065
 31
0.0
  0
LINE
  5
1FAD
330
2
100
AcDbEntity
  8
0
100
AcDbLine
 10
81.76713041911705
 20
190.8849751742065
 30
0.0
 11
128.267137419117
 21
190.8849751742065
 31
0.0
  0
LINE
  5
1FAE
330
2
100
AcDbEntity
  8
0
100
AcDbLine
 10
80.26713041911705
 20
202.8849751742065
 30
0.0
 11
130.267137419117
 21
202.8849751742065
 31
0.0
  0
LINE
  5
1FAF
330
2
100
AcDbEntity
  8
0
100
AcDbLine
 10
80.26713041911705
 20
192.8849751742065
 30
0.0
 11
130.267137419117
 21
192.8849751742065
 31
0.0
  0
LINE
  5
1FB0
330
2
100
AcDbEntity
  8
0
100
AcDbLine
 10
80.26713041911705
 20
203.8849751742065
 30
0.0
 11
130.267137419117
 21
203.8849751742065
 31
0.0
  0
LINE
  5
1FB1
330
2
100
AcDbEntity
  8
0
100
AcDbLine
 10
87.76713741911706
 20
234.8849901742064
 30
0.0
 11
122.767137419117
 21
234.8849901742064
 31
0.0
  0
LINE
  5
1FB2
330
2
100
AcDbEntity
  8
CENTER
100
AcDbLine
 10
75.22353043790855
 20
218.8849751742065
 30
0.0
 11
135.3107444003255
 21
218.8849751742065
 31
0.0
  0
LINE
  5
1FB4
330
2
100
AcDbEntity
  8
CENTER
100
AcDbLine
 10
105.2671374191169
 20
184.4954791742065
 30
0.0
 11
105.2671374191169
 21
241.2724901742064
 31
0.0
  0
LINE
  5
1FB5
330
2
100
AcDbEntity
  8
0
100
AcDbLine
 10
80.26713041911705
 20
234.8849901742064
 30
0.0
 11
80.26713041911705
 21
192.8849751742065
 31
0.0
  0
LINE
  5
1FB6
330
2
100
AcDbEntity
  8
0
100
AcDbLine
 10
81.76713041911705
 20
190.8849751742065
 30
0.0
 11
81.76713041911705
 21
189.3849751742065
 31
0.0
  0
LINE
  5
1FB7
330
2
100
AcDbEntity
  8
0
100
AcDbLine
 10
80.26713041911705
 20
192.8849751742065
 30
0.0
 11
82.26713041911706
 21
190.8849751742065
 31
0.0
  0
LINE
  5
1FB9
330
2
100
AcDbEntity
  8
0
100
AcDbLine
 10
79.39213041911705
 20
208.3849751742065
 30
0.0
 11
81.39213041911705
 21
208.3849751742065
 31
0.0
  0
LINE
  5
1FBA
330
2
100
AcDbEntity
  8
0
100
AcDbLine
 10
83.47963741866193
 20
234.4679901742066
 30
0.0
 11
84.05463741957204
 21
234.4679901742066
 31
0.0
  0
LINE
  5
1FBB
330
2
100
AcDbEntity
  8
0
100
AcDbLine
 10
87.76713741911709
 20
233.3849901742065
 30
0.0
 11
80.26713741911706
 21
233.3849901742066
 31
0.0
  0
ARC
  5
1FBC
330
2
100
AcDbEntity
  8
0
100
AcDbCircle
 10
83.76713741911698
 20
226.9849901742066
 30
0.0
 40
9.0
100
AcDbArc
 50
74.11914999171883
 51
105.8808500082811
  0
LINE
  5
1FBD
330
2
100
AcDbEntity
  8
0
100
AcDbLine
 10
81.26713741911705
 20
235.8849901742065
 30
0.0
 11
80.26713741911706
 21
234.8849901742064
 31
0.0
  0
SPLINE
  5
1FBE
330
2
100
AcDbEntity
  8
0
100
AcDbSpline
210
0.0
220
0.0
230
1.0
 70
     8
 71
     3
 72
    11
 73
     7
 74
     0
 42
0.0000000001
 43
0.0000000001
 40
0.0
 40
0.0
 40
0.0
 40
0.0
 40
0.4601364636755307
 40
1.04988694485363
 40
1.713742833862792
 40
2.320347933405154
 40
2.320347933405154
 40
2.320347933405154
 40
2.320347933405178
 10
83.47963741866193
 20
234.4679901742066
 30
0.0
 10
83.45721976155408
 20
234.6230136138863
 30
0.0
 10
83.4060697063208
 20
234.976728431804
 30
0.0
 10
82.97018454478722
 20
235.4014561034056
 30
0.0
 10
82.36513382977978
 20
235.6206432833714
 30
0.0
 10
81.93994920560397
 20
235.5516519837609
 30
0.0
 10
81.73739759595287
 20
235.5374317115842
 30
0.0
  0
LINE
  5
1FBF
330
2
100
AcDbEntity
  8
0
100
AcDbLine
 10
81.73739759595287
 20
235.5374317115842
 30
0.0
 11
81.71713741911695
 21
235.7484084570458
 31
0.0
  0
ARC
  5
1FC0
330
2
100
AcDbEntity
  8
0
100
AcDbCircle
 10
81.66012666552417
 20
234.3911028984529
 30
0.0
 40
1.3
100
AcDbArc
 50
105.8808500082811
 51
175.0
  0
LINE
  5
1FC1
330
2
100
AcDbEntity
  8
0
100
AcDbLine
 10
80.26713741911709
 20
233.3849901742066
 30
0.0
 11
80.36507355800489
 21
234.5044053640248
 31
0.0
  0
LINE
  5
1FC2
330
2
100
AcDbEntity
  8
0
100
AcDbLine
 10
82.42922860309056
 20
235.8849901742065
 30
0.0
 11
81.26713741911705
 21
235.8849901742065
 31
0.0
  0
LINE
  5
1FC3
330
2
100
AcDbEntity
  8
0
100
AcDbLine
 10
79.39213041911705
 20
229.3849751742065
 30
0.0
 11
81.39213041911705
 21
229.3849751742065
 31
0.0
  0
LINE
  5
1FC4
330
2
100
AcDbEntity
  8
0
100
AcDbLine
 10
88.26713741911706
 20
235.8849901742065
 30
0.0
 11
87.76713741911706
 21
235.3849901742065
 31
0.0
  0
LINE
  5
1FC5
330
2
100
AcDbEntity
  8
0
100
AcDbLine
 10
87.76713741911709
 20
233.3849901742065
 30
0.0
 11
87.76713741911709
 21
235.3849901742065
 31
0.0
  0
ARC
  5
1FC6
330
2
100
AcDbEntity
  8
0
100
AcDbCircle
 10
85.87414817271001
 20
234.3911028984529
 30
0.0
 40
1.3
100
AcDbArc
 50
4.999999999999777
 51
74.11914999171883
  0
LINE
  5
1FC7
330
2
100
AcDbEntity
  8
0
100
AcDbLine
 10
85.79687724228106
 20
235.5374317115842
 30
0.0
 11
85.81713741911698
 21
235.7484084570458
 31
0.0
  0
LINE
  5
1FC8
330
2
100
AcDbEntity
  8
0
100
AcDbLine
 10
87.267137419117
 20
233.3849901742066
 30
0.0
 11
87.16920128022918
 21
234.5044053640248
 31
0.0
  0
LINE
  5
1FC9
330
2
100
AcDbEntity
  8
0
100
AcDbLine
 10
87.76713741911706
 20
235.3849901742065
 30
0.0
 11
86.71211480873742
 21
235.3849901742065
 31
0.0
  0
SPLINE
  5
1FCA
330
2
100
AcDbEntity
  8
0
100
AcDbSpline
210
0.0
220
0.0
230
1.0
 70
     8
 71
     3
 72
    11
 73
     7
 74
     0
 42
0.0000000001
 43
0.0000000001
 40
0.0
 40
0.0
 40
0.0
 40
0.0
 40
0.4601364636755307
 40
1.04988694485363
 40
1.713742833862792
 40
2.320347933405154
 40
2.320347933405154
 40
2.320347933405154
 40
2.320347933405178
 10
84.05463741957204
 20
234.4679901742066
 30
0.0
 10
84.07705507667989
 20
234.6230136138863
 30
0.0
 10
84.12820513191316
 20
234.976728431804
 30
0.0
 10
84.56409029344673
 20
235.4014561034056
 30
0.0
 10
85.16914100845417
 20
235.6206432833714
 30
0.0
 10
85.59432563262999
 20
235.5516519837609
 30
0.0
 10
85.79687724228106
 20
235.5374317115842
 30
0.0
  0
LINE
  5
1FCB
330
2
100
AcDbEntity
  8
0
100
AcDbLine
 10
130.267137419117
 20
234.8849901742064
 30
0.0
 11
130.267137419117
 21
192.8849751742065
 31
0.0
  0
LINE
  5
1FCC
330
2
100
AcDbEntity
  8
0
100
AcDbLine
 10
127.767137419117
 20
190.8849751742065
 30
0.0
 11
127.767137419117
 21
189.3849751742065
 31
0.0
  0
LINE
  5
1FCD
330
2
100
AcDbEntity
  8
0
100
AcDbLine
 10
128.267137419117
 20
190.8849751742065
 30
0.0
 11
130.267137419117
 21
192.8849751742065
 31
0.0
  0
ARC
  5
1FCE
330
2
100
AcDbEntity
  8
0
100
AcDbCircle
 10
126.767137419117
 20
226.9849901742066
 30
0.0
 40
9.0
100
AcDbArc
 50
74.11914999171883
 51
105.8808500082811
  0
SPLINE
  5
1FCF
330
2
100
AcDbEntity
  8
0
100
AcDbSpline
210
0.0
220
0.0
230
1.0
 70
     8
 71
     3
 72
    11
 73
     7
 74
     0
 42
0.0000000001
 43
0.0000000001
 40
0.0
 40
0.0
 40
0.0
 40
0.0
 40
0.4601364636755307
 40
1.04988694485363
 40
1.713742833862792
 40
2.320347933405154
 40
2.320347933405154
 40
2.320347933405154
 40
2.320347933405178
 10
126.4796374186621
 20
234.4679901742066
 30
0.0
 10
126.4572197615541
 20
234.6230136138863
 30
0.0
 10
126.4060697063209
 20
234.976728431804
 30
0.0
 10
125.9701845447874
 20
235.4014561034056
 30
0.0
 10
125.3651338297799
 20
235.6206432833714
 30
0.0
 10
124.939949205604
 20
235.5516519837609
 30
0.0
 10
124.737397595953
 20
235.5374317115842
 30
0.0
  0
LINE
  5
1FD0
330
2
100
AcDbEntity
  8
0
100
AcDbLine
 10
122.767137419117
 20
233.3849901742065
 30
0.0
 11
130.267137419117
 21
233.3849901742066
 31
0.0
  0
LINE
  5
1FD1
330
2
100
AcDbEntity
  8
0
100
AcDbLine
 10
123.2671374191171
 20
233.3849901742066
 30
0.0
 11
123.3650735580049
 21
234.5044053640248
 31
0.0
  0
LINE
  5
1FD2
330
2
100
AcDbEntity
  8
0
100
AcDbLine
 10
124.737397595953
 20
235.5374317115842
 30
0.0
 11
124.717137419117
 21
235.7484084570458
 31
0.0
  0
ARC
  5
1FD3
330
2
100
AcDbEntity
  8
0
100
AcDbCircle
 10
124.6601266655241
 20
234.3911028984529
 30
0.0
 40
1.3
100
AcDbArc
 50
105.8808500082811
 51
175.0
  0
LINE
  5
1FD4
330
2
100
AcDbEntity
  8
0
100
AcDbLine
 10
122.767137419117
 20
235.3849901742065
 30
0.0
 11
123.8221600294967
 21
235.3849901742065
 31
0.0
  0
LINE
  5
1FD5
330
2
100
AcDbEntity
  8
0
100
AcDbLine
 10
122.2671374191169
 20
235.8849901742065
 30
0.0
 11
122.767137419117
 21
235.3849901742065
 31
0.0
  0
LINE
  5
1FD6
330
2
100
AcDbEntity
  8
0
100
AcDbLine
 10
122.767137419117
 20
233.3849901742065
 30
0.0
 11
122.767137419117
 21
235.3849901742065
 31
0.0
  0
LINE
  5
1FD7
330
2
100
AcDbEntity
  8
0
100
AcDbLine
 10
128.1050462351435
 20
235.8849901742065
 30
0.0
 11
129.267137419117
 21
235.8849901742065
 31
0.0
  0
LINE
  5
1FD8
330
2
100
AcDbEntity
  8
0
100
AcDbLine
 10
130.267137419117
 20
233.3849901742066
 30
0.0
 11
130.1692012802291
 21
234.5044053640248
 31
0.0
  0
ARC
  5
1FD9
330
2
100
AcDbEntity
  8
0
100
AcDbCircle
 10
128.8741481727099
 20
234.3911028984529
 30
0.0
 40
1.3
100
AcDbArc
 50
4.999999999999777
 51
74.11914999171883
  0
LINE
  5
1FDA
330
2
100
AcDbEntity
  8
0
100
AcDbLine
 10
128.7968772422811
 20
235.5374317115842
 30
0.0
 11
128.817137419117
 21
235.7484084570458
 31
0.0
  0
LINE
  5
1FDB
330
2
100
AcDbEntity
  8
0
100
AcDbLine
 10
127.0546374195722
 20
234.4679901742066
 30
0.0
 11
126.4796374186621
 21
234.4679901742066
 31
0.0
  0
SPLINE
  5
1FDC
330
2
100
AcDbEntity
  8
0
100
AcDbSpline
210
0.0
220
0.0
230
1.0
 70
     8
 71
     3
 72
    11
 73
     7
 74
     0
 42
0.0000000001
 43
0.0000000001
 40
0.0
 40
0.0
 40
0.0
 40
0.0
 40
0.4601364636755307
 40
1.04988694485363
 40
1.713742833862792
 40
2.320347933405154
 40
2.320347933405154
 40
2.320347933405154
 40
2.320347933405178
 10
127.0546374195722
 20
234.4679901742066
 30
0.0
 10
127.07705507668
 20
234.6230136138863
 30
0.0
 10
127.1282051319132
 20
234.976728431804
 30
0.0
 10
127.5640902934469
 20
235.4014561034056
 30
0.0
 10
128.1691410084543
 20
235.6206432833714
 30
0.0
 10
128.5943256326301
 20
235.5516519837609
 30
0.0
 10
128.7968772422811
 20
235.5374317115842
 30
0.0
  0
LINE
  5
1FDD
330
2
100
AcDbEntity
  8
0
100
AcDbLine
 10
129.267137419117
 20
235.8849901742065
 30
0.0
 11
130.267137419117
 21
234.8849901742064
 31
0.0
  0
LINE
  5
1FDE
330
2
100
AcDbEntity
  8
0
100
AcDbLine
 10
371.9711769446139
 20
234.8849901742064
 30
0.0
 11
371.9711769446139
 21
192.8849751742065
 31
0.0
  0
LINE
  5
1FE0
330
2
100
AcDbEntity
  8
0
100
AcDbLine
 10
371.9711769446139
 20
192.8849751742065
 30
0.0
 11
373.3829172970884
 21
191.4732348217319
 31
0.0
  0
ARC
  5
1FE1
330
2
100
AcDbEntity
  8
0
100
AcDbCircle
 10
375.4711769446137
 20
226.9849901742066
 30
0.0
 40
9.0
100
AcDbArc
 50
74.11914999171883
 51
105.8808500082811
  0
SPLINE
  5
1FE2
330
2
100
AcDbEntity
  8
0
100
AcDbSpline
210
0.0
220
0.0
230
1.0
 70
     8
 71
     3
 72
    11
 73
     7
 74
     0
 42
0.0000000001
 43
0.0000000001
 40
0.0
 40
0.0
 40
0.0
 40
0.0
 40
0.4601364636755307
 40
1.04988694485363
 40
1.713742833862792
 40
2.320347933405154
 40
2.320347933405154
 40
2.320347933405154
 40
2.320347933405178
 10
375.1836769441587
 20
234.4679901742066
 30
0.0
 10
375.1612592870508
 20
234.6230136138864
 30
0.0
 10
375.1101092318176
 20
234.976728431804
 30
0.0
 10
374.6742240702841
 20
235.4014561034056
 30
0.0
 10
374.0691733552766
 20
235.6206432833714
 30
0.0
 10
373.6439887311008
 20
235.5516519837609
 30
0.0
 10
373.4414371214496
 20
235.5374317115842
 30
0.0
  0
LINE
  5
1FE3
330
2
100
AcDbEntity
  8
0
100
AcDbLine
 10
379.4711769446138
 20
233.3849901742066
 30
0.0
 11
371.9711769446139
 21
233.3849901742066
 31
0.0
  0
LINE
  5
1FE4
330
2
100
AcDbEntity
  8
0
100
AcDbLine
 10
374.1332681285873
 20
235.8849901742066
 30
0.0
 11
372.9711769446138
 21
235.8849901742066
 31
0.0
  0
LINE
  5
1FE5
330
2
100
AcDbEntity
  8
0
100
AcDbLine
 10
371.9711769446139
 20
233.3849901742066
 30
0.0
 11
372.0691130835017
 21
234.5044053640249
 31
0.0
  0
ARC
  5
1FE6
330
2
100
AcDbEntity
  8
0
100
AcDbCircle
 10
373.3641661910209
 20
234.391102898453
 30
0.0
 40
1.3
100
AcDbArc
 50
105.8808500082811
 51
175.0
  0
LINE
  5
1FE7
330
2
100
AcDbEntity
  8
0
100
AcDbLine
 10
373.4414371214496
 20
235.5374317115842
 30
0.0
 11
373.4211769446138
 21
235.7484084570458
 31
0.0
  0
LINE
  5
1FE8
330
2
100
AcDbEntity
  8
0
100
AcDbLine
 10
372.9711769446138
 20
235.8849901742066
 30
0.0
 11
371.9711769446139
 21
234.8849901742064
 31
0.0
  0
LINE
  5
1FE9
330
2
100
AcDbEntity
  8
0
100
AcDbLine
 10
379.9711769446139
 20
235.8849901742066
 30
0.0
 11
379.4711769446138
 21
235.3849901742065
 31
0.0
  0
LINE
  5
1FEA
330
2
100
AcDbEntity
  8
0
100
AcDbLine
 10
378.9711769446137
 20
233.3849901742066
 30
0.0
 11
378.873240805726
 21
234.5044053640249
 31
0.0
  0
LINE
  5
1FEB
330
2
100
AcDbEntity
  8
0
100
AcDbLine
 10
379.4711769446138
 20
233.3849901742066
 30
0.0
 11
379.4711769446138
 21
235.3849901742065
 31
0.0
  0
SPLINE
  5
1FEC
330
2
100
AcDbEntity
  8
0
100
AcDbSpline
210
0.0
220
0.0
230
1.0
 70
     8
 71
     3
 72
    11
 73
     7
 74
     0
 42
0.0000000001
 43
0.0000000001
 40
0.0
 40
0.0
 40
0.0
 40
0.0
 40
0.4601364636755307
 40
1.04988694485363
 40
1.713742833862792
 40
2.320347933405154
 40
2.320347933405154
 40
2.320347933405154
 40
2.320347933405178
 10
375.7586769450688
 20
234.4679901742066
 30
0.0
 10
375.7810946021766
 20
234.6230136138864
 30
0.0
 10
375.83224465741
 20
234.976728431804
 30
0.0
 10
376.2681298189436
 20
235.4014561034056
 30
0.0
 10
376.873180533951
 20
235.6206432833714
 30
0.0
 10
377.2983651581268
 20
235.5516519837609
 30
0.0
 10
377.5009167677779
 20
235.5374317115842
 30
0.0
  0
LINE
  5
1FED
330
2
100
AcDbEntity
  8
0
100
AcDbLine
 10
377.5009167677779
 20
235.5374317115842
 30
0.0
 11
377.5211769446138
 21
235.7484084570458
 31
0.0
  0
LINE
  5
1FEE
330
2
100
AcDbEntity
  8
0
100
AcDbLine
 10
375.1836769441587
 20
234.4679901742066
 30
0.0
 11
375.7586769450688
 21
234.4679901742066
 31
0.0
  0
LINE
  5
1FEF
330
2
100
AcDbEntity
  8
0
100
AcDbLine
 10
379.4711769446138
 20
235.3849901742065
 30
0.0
 11
378.4161543342343
 21
235.3849901742065
 31
0.0
  0
ARC
  5
1FF0
330
2
100
AcDbEntity
  8
0
100
AcDbCircle
 10
377.5781876982069
 20
234.391102898453
 30
0.0
 40
1.3
100
AcDbArc
 50
4.999999999999777
 51
74.11914999171883
  0
LINE
  5
1FF6
330
2
100
AcDbEntity
  8
0
100
AcDbLine
 10
421.9711619446139
 20
234.8849901742064
 30
0.0
 11
421.9711619446139
 21
192.8849751742065
 31
0.0
  0
LINE
  5
1FF9
330
2
100
AcDbEntity
  8
0
100
AcDbLine
 10
420.5594218494771
 20
191.4732350790695
 30
0.0
 11
421.9711619446139
 21
192.8849751742065
 31
0.0
  0
LINE
  5
1FFA
330
2
100
AcDbEntity
  8
0
100
AcDbLine
 10
414.4711769446138
 20
233.3849901742066
 30
0.0
 11
421.9711769446139
 21
233.3849901742066
 31
0.0
  0
SPLINE
  5
1FFB
330
2
100
AcDbEntity
  8
0
100
AcDbSpline
210
0.0
220
0.0
230
1.0
 70
     8
 71
     3
 72
    11
 73
     7
 74
     0
 42
0.0000000001
 43
0.0000000001
 40
0.0
 40
0.0
 40
0.0
 40
0.0
 40
0.4601364636755307
 40
1.04988694485363
 40
1.713742833862792
 40
2.320347933405154
 40
2.320347933405154
 40
2.320347933405154
 40
2.320347933405178
 10
418.1836769441588
 20
234.4679901742066
 30
0.0
 10
418.1612592870512
 20
234.6230136138864
 30
0.0
 10
418.1101092318177
 20
234.976728431804
 30
0.0
 10
417.6742240702841
 20
235.4014561034056
 30
0.0
 10
417.0691733552768
 20
235.6206432833714
 30
0.0
 10
416.643988731101
 20
235.5516519837609
 30
0.0
 10
416.4414371214498
 20
235.5374317115842
 30
0.0
  0
ARC
  5
1FFC
330
2
100
AcDbEntity
  8
0
100
AcDbCircle
 10
418.4711769446139
 20
226.9849901742066
 30
0.0
 40
9.0
100
AcDbArc
 50
74.11914999171883
 51
105.8808500082811
  0
LINE
  5
1FFD
330
2
100
AcDbEntity
  8
0
100
AcDbLine
 10
413.9711769446138
 20
235.8849901742066
 30
0.0
 11
414.4711769446138
 21
235.3849901742065
 31
0.0
  0
LINE
  5
1FFE
330
2
100
AcDbEntity
  8
0
100
AcDbLine
 10
414.4711769446138
 20
233.3849901742066
 30
0.0
 11
414.4711769446138
 21
235.3849901742065
 31
0.0
  0
ARC
  5
1FFF
330
2
100
AcDbEntity
  8
0
100
AcDbCircle
 10
416.3641661910209
 20
234.391102898453
 30
0.0
 40
1.3
100
AcDbArc
 50
105.8808500082811
 51
175.0
  0
LINE
  5
2000
330
2
100
AcDbEntity
  8
0
100
AcDbLine
 10
416.4414371214498
 20
235.5374317115842
 30
0.0
 11
416.4211769446138
 21
235.7484084570458
 31
0.0
  0
LINE
  5
2001
330
2
100
AcDbEntity
  8
0
100
AcDbLine
 10
414.971176944614
 20
233.3849901742066
 30
0.0
 11
415.0691130835018
 21
234.5044053640249
 31
0.0
  0
LINE
  5
2002
330
2
100
AcDbEntity
  8
0
100
AcDbLine
 10
414.4711769446138
 20
235.3849901742065
 30
0.0
 11
415.5261995549936
 21
235.3849901742065
 31
0.0
  0
LINE
  5
2003
330
2
100
AcDbEntity
  8
0
100
AcDbLine
 10
420.9711769446139
 20
235.8849901742066
 30
0.0
 11
421.9711769446139
 21
234.8849901742064
 31
0.0
  0
SPLINE
  5
2004
330
2
100
AcDbEntity
  8
0
100
AcDbSpline
210
0.0
220
0.0
230
1.0
 70
     8
 71
     3
 72
    11
 73
     7
 74
     0
 42
0.0000000001
 43
0.0000000001
 40
0.0
 40
0.0
 40
0.0
 40
0.0
 40
0.4601364636755307
 40
1.04988694485363
 40
1.713742833862792
 40
2.320347933405154
 40
2.320347933405154
 40
2.320347933405154
 40
2.320347933405178
 10
418.7586769450689
 20
234.4679901742066
 30
0.0
 10
418.7810946021769
 20
234.6230136138864
 30
0.0
 10
418.8322446574102
 20
234.976728431804
 30
0.0
 10
419.2681298189437
 20
235.4014561034056
 30
0.0
 10
419.8731805339511
 20
235.6206432833714
 30
0.0
 10
420.2983651581269
 20
235.5516519837609
 30
0.0
 10
420.5009167677781
 20
235.5374317115842
 30
0.0
  0
LINE
  5
2005
330
2
100
AcDbEntity
  8
0
100
AcDbLine
 10
418.7586769450689
 20
234.4679901742066
 30
0.0
 11
418.1836769441588
 21
234.4679901742066
 31
0.0
  0
LINE
  5
2006
330
2
100
AcDbEntity
  8
0
100
AcDbLine
 10
420.5009167677781
 20
235.5374317115842
 30
0.0
 11
420.5211769446139
 21
235.7484084570458
 31
0.0
  0
ARC
  5
2007
330
2
100
AcDbEntity
  8
0
100
AcDbCircle
 10
420.5781876982069
 20
234.391102898453
 30
0.0
 40
1.3
100
AcDbArc
 50
4.999999999999777
 51
74.11914999171883
  0
LINE
  5
2008
330
2
100
AcDbEntity
  8
0
100
AcDbLine
 10
421.9711769446139
 20
233.3849901742066
 30
0.0
 11
421.8732408057261
 21
234.5044053640249
 31
0.0
  0
LINE
  5
2009
330
2
100
AcDbEntity
  8
0
100
AcDbLine
 10
419.8090857606405
 20
235.8849901742066
 30
0.0
 11
420.9711769446139
 21
235.8849901742066
 31
0.0
  0
LINE
  5
200B
330
2
100
AcDbEntity
  8
0
100
AcDbLine
 10
732.5266509446138
 20
234.8849901742064
 30
0.0
 11
697.5266509446138
 21
234.8849901742064
 31
0.0
  0
LINE
  5
200C
330
2
100
AcDbEntity
  8
0
100
AcDbLine
 10
740.0266579446138
 20
203.8849751742065
 30
0.0
 11
690.0266509446138
 21
203.8849751742065
 31
0.0
  0
LINE
  5
200D
330
2
100
AcDbEntity
  8
0
100
AcDbLine
 10
740.0266579446138
 20
192.8849751742065
 30
0.0
 11
690.0266509446138
 21
192.8849751742065
 31
0.0
  0
LINE
  5
200E
330
2
100
AcDbEntity
  8
0
100
AcDbLine
 10
740.0266579446138
 20
202.8849751742065
 30
0.0
 11
690.0266509446138
 21
202.8849751742065
 31
0.0
  0
LINE
  5
200F
330
2
100
AcDbEntity
  8
0
100
AcDbLine
 10
738.5266579446138
 20
190.8849751742065
 30
0.0
 11
692.0266509446138
 21
190.8849751742065
 31
0.0
  0
LINE
  5
2010
330
2
100
AcDbEntity
  8
0
100
AcDbLine
 10
735.1887421285871
 20
235.8849901742065
 30
0.0
 11
694.86455976064
 21
235.8849901742065
 31
0.0
  0
LINE
  5
2011
330
2
100
AcDbEntity
  8
CENTER
100
AcDbLine
 10
745.0702579258222
 20
218.8849751742065
 30
0.0
 11
684.9830439634051
 21
218.8849751742065
 31
0.0
  0
LINE
  5
2012
330
2
100
AcDbEntity
  8
0
100
AcDbLine
 10
690.0266509446138
 20
234.8849901742064
 30
0.0
 11
690.0266509446138
 21
192.8849751742065
 31
0.0
  0
LINE
  5
2013
330
2
100
AcDbEntity
  8
CENTER
100
AcDbLine
 10
715.0266509446138
 20
184.4954791742065
 30
0.0
 11
715.0266509446138
 21
241.2724901742064
 31
0.0
  0
LINE
  5
2014
330
2
100
AcDbEntity
  8
0
100
AcDbLine
 10
692.5266509446138
 20
190.8849751742065
 30
0.0
 11
692.5266509446138
 21
189.3849751742065
 31
0.0
  0
LINE
  5
2015
330
2
100
AcDbEntity
  8
0
100
AcDbLine
 10
692.0266509446138
 20
190.8849751742065
 30
0.0
 11
690.0266509446138
 21
192.8849751742065
 31
0.0
  0
LINE
  5
2016
330
2
100
AcDbEntity
  8
0
100
AcDbLine
 10
697.5266509446138
 20
235.3849901742065
 30
0.0
 11
696.4716283342341
 21
235.3849901742065
 31
0.0
  0
LINE
  5
2017
330
2
100
AcDbEntity
  8
0
100
AcDbLine
 10
697.5266509446138
 20
233.3849901742065
 30
0.0
 11
690.0266509446138
 21
233.3849901742066
 31
0.0
  0
SPLINE
  5
2018
330
2
100
AcDbEntity
  8
0
100
AcDbSpline
210
0.0
220
0.0
230
1.0
 70
     8
 71
     3
 72
    11
 73
     7
 74
     0
 42
0.0000000001
 43
0.0000000001
 40
0.0
 40
0.0
 40
0.0
 40
0.0
 40
0.4601364636755307
 40
1.04988694485363
 40
1.713742833862792
 40
2.320347933405154
 40
2.320347933405154
 40
2.320347933405154
 40
2.320347933405178
 10
693.2391509441586
 20
234.4679901742066
 30
0.0
 10
693.2167332870508
 20
234.6230136138863
 30
0.0
 10
693.1655832318174
 20
234.976728431804
 30
0.0
 10
692.7296980702839
 20
235.4014561034056
 30
0.0
 10
692.1246473552765
 20
235.6206432833714
 30
0.0
 10
691.6994627311007
 20
235.5516519837609
 30
0.0
 10
691.4969111214494
 20
235.5374317115842
 30
0.0
  0
ARC
  5
2019
330
2
100
AcDbEntity
  8
0
100
AcDbCircle
 10
693.5266509446138
 20
226.9849901742066
 30
0.0
 40
9.0
100
AcDbArc
 50
74.11914999171883
 51
105.8808500082811
  0
LINE
  5
201A
330
2
100
AcDbEntity
  8
0
100
AcDbLine
 10
690.0266509446138
 20
233.3849901742066
 30
0.0
 11
690.1245870835016
 21
234.5044053640248
 31
0.0
  0
LINE
  5
201B
330
2
100
AcDbEntity
  8
0
100
AcDbLine
 10
691.4969111214494
 20
235.5374317115842
 30
0.0
 11
691.4766509446137
 21
235.7484084570458
 31
0.0
  0
LINE
  5
201C
330
2
100
AcDbEntity
  8
0
100
AcDbLine
 10
692.1887421285871
 20
235.8849901742065
 30
0.0
 11
691.0266509446138
 21
235.8849901742065
 31
0.0
  0
LINE
  5
201D
330
2
100
AcDbEntity
  8
0
100
AcDbLine
 10
691.0266509446138
 20
235.8849901742065
 30
0.0
 11
690.0266509446138
 21
234.8849901742064
 31
0.0
  0
ARC
  5
201E
330
2
100
AcDbEntity
  8
0
100
AcDbCircle
 10
691.4196401910207
 20
234.3911028984529
 30
0.0
 40
1.3
100
AcDbArc
 50
105.8808500082811
 51
175.0
  0
SPLINE
  5
201F
330
2
100
AcDbEntity
  8
0
100
AcDbSpline
210
0.0
220
0.0
230
1.0
 70
     8
 71
     3
 72
    11
 73
     7
 74
     0
 42
0.0000000001
 43
0.0000000001
 40
0.0
 40
0.0
 40
0.0
 40
0.0
 40
0.4601364636755307
 40
1.04988694485363
 40
1.713742833862792
 40
2.320347933405154
 40
2.320347933405154
 40
2.320347933405154
 40
2.320347933405178
 10
693.8141509450688
 20
234.4679901742066
 30
0.0
 10
693.8365686021766
 20
234.6230136138863
 30
0.0
 10
693.8877186574098
 20
234.976728431804
 30
0.0
 10
694.3236038189432
 20
235.4014561034056
 30
0.0
 10
694.928654533951
 20
235.6206432833714
 30
0.0
 10
695.3538391581266
 20
235.5516519837609
 30
0.0
 10
695.5563907677777
 20
235.5374317115842
 30
0.0
  0
LINE
  5
2020
330
2
100
AcDbEntity
  8
0
100
AcDbLine
 10
693.2391509441586
 20
234.4679901742066
 30
0.0
 11
693.8141509450688
 21
234.4679901742066
 31
0.0
  0
ARC
  5
2021
330
2
100
AcDbEntity
  8
0
100
AcDbCircle
 10
695.6336616982067
 20
234.3911028984529
 30
0.0
 40
1.3
100
AcDbArc
 50
4.999999999999777
 51
74.11914999171883
  0
LINE
  5
2022
330
2
100
AcDbEntity
  8
0
100
AcDbLine
 10
697.0266509446138
 20
233.3849901742066
 30
0.0
 11
696.9287148057259
 21
234.5044053640248
 31
0.0
  0
LINE
  5
2023
330
2
100
AcDbEntity
  8
0
100
AcDbLine
 10
695.5563907677777
 20
235.5374317115842
 30
0.0
 11
695.5766509446136
 21
235.7484084570458
 31
0.0
  0
LINE
  5
2024
330
2
100
AcDbEntity
  8
0
100
AcDbLine
 10
697.5266509446138
 20
233.3849901742065
 30
0.0
 11
697.5266509446138
 21
235.3849901742065
 31
0.0
  0
LINE
  5
2025
330
2
100
AcDbEntity
  8
0
100
AcDbLine
 10
698.0266509446138
 20
235.8849901742065
 30
0.0
 11
697.5266509446138
 21
235.3849901742065
 31
0.0
  0
LINE
  5
2026
330
2
100
AcDbEntity
  8
0
100
AcDbLine
 10
740.0266579446138
 20
234.8849901742064
 30
0.0
 11
740.0266579446138
 21
192.8849751742065
 31
0.0
  0
LINE
  5
2028
330
2
100
AcDbEntity
  8
0
100
AcDbLine
 10
738.5266579446138
 20
190.8849751742065
 30
0.0
 11
738.5266579446138
 21
189.3849751742065
 31
0.0
  0
LINE
  5
2029
330
2
100
AcDbEntity
  8
0
100
AcDbLine
 10
740.0266579446138
 20
192.8849751742065
 30
0.0
 11
738.0266579446137
 21
190.8849751742065
 31
0.0
  0
SPLINE
  5
202A
330
2
100
AcDbEntity
  8
0
100
AcDbSpline
210
0.0
220
0.0
230
1.0
 70
     8
 71
     3
 72
    11
 73
     7
 74
     0
 42
0.0000000001
 43
0.0000000001
 40
0.0
 40
0.0
 40
0.0
 40
0.0
 40
0.4601364636755307
 40
1.04988694485363
 40
1.713742833862792
 40
2.320347933405154
 40
2.320347933405154
 40
2.320347933405154
 40
2.320347933405178
 10
736.2391509441588
 20
234.4679901742066
 30
0.0
 10
736.2167332870511
 20
234.6230136138863
 30
0.0
 10
736.1655832318176
 20
234.976728431804
 30
0.0
 10
735.7296980702841
 20
235.4014561034056
 30
0.0
 10
735.1246473552768
 20
235.6206432833714
 30
0.0
 10
734.6994627311008
 20
235.5516519837609
 30
0.0
 10
734.4969111214497
 20
235.5374317115842
 30
0.0
  0
ARC
  5
202B
330
2
100
AcDbEntity
  8
0
100
AcDbCircle
 10
736.5266509446138
 20
226.9849901742066
 30
0.0
 40
9.0
100
AcDbArc
 50
74.11914999171883
 51
105.8808500082811
  0
LINE
  5
202C
330
2
100
AcDbEntity
  8
0
100
AcDbLine
 10
732.5266509446138
 20
233.3849901742065
 30
0.0
 11
740.0266509446138
 21
233.3849901742066
 31
0.0
  0
LINE
  5
202D
330
2
100
AcDbEntity
  8
0
100
AcDbLine
 10
733.0266509446138
 20
233.3849901742066
 30
0.0
 11
733.1245870835016
 21
234.5044053640248
 31
0.0
  0
LINE
  5
202E
330
2
100
AcDbEntity
  8
0
100
AcDbLine
 10
732.5266509446138
 20
233.3849901742065
 30
0.0
 11
732.5266509446138
 21
235.3849901742065
 31
0.0
  0
LINE
  5
202F
330
2
100
AcDbEntity
  8
0
100
AcDbLine
 10
732.0266509446138
 20
235.8849901742065
 30
0.0
 11
732.5266509446138
 21
235.3849901742065
 31
0.0
  0
LINE
  5
2030
330
2
100
AcDbEntity
  8
0
100
AcDbLine
 10
734.4969111214497
 20
235.5374317115842
 30
0.0
 11
734.4766509446137
 21
235.7484084570458
 31
0.0
  0
LINE
  5
2031
330
2
100
AcDbEntity
  8
0
100
AcDbLine
 10
732.5266509446138
 20
235.3849901742065
 30
0.0
 11
733.5816735549935
 21
235.3849901742065
 31
0.0
  0
ARC
  5
2032
330
2
100
AcDbEntity
  8
0
100
AcDbCircle
 10
734.4196401910208
 20
234.3911028984529
 30
0.0
 40
1.3
100
AcDbArc
 50
105.8808500082811
 51
175.0
  0
LINE
  5
2033
330
2
100
AcDbEntity
  8
0
100
AcDbLine
 10
740.9016579446138
 20
208.3849751742065
 30
0.0
 11
738.9016579446137
 21
208.3849751742065
 31
0.0
  0
LINE
  5
2034
330
2
100
AcDbEntity
  8
0
100
AcDbLine
 10
740.9016579446138
 20
229.3849751742065
 30
0.0
 11
738.9016579446137
 21
229.3849751742065
 31
0.0
  0
ARC
  5
2035
330
2
100
AcDbEntity
  8
0
100
AcDbCircle
 10
738.6336616982066
 20
234.3911028984529
 30
0.0
 40
1.3
100
AcDbArc
 50
4.999999999999777
 51
74.11914999171883
  0
LINE
  5
2036
330
2
100
AcDbEntity
  8
0
100
AcDbLine
 10
739.0266509446138
 20
235.8849901742065
 30
0.0
 11
740.0266509446138
 21
234.8849901742064
 31
0.0
  0
LINE
  5
2037
330
2
100
AcDbEntity
  8
0
100
AcDbLine
 10
736.8141509450688
 20
234.4679901742066
 30
0.0
 11
736.2391509441588
 21
234.4679901742066
 31
0.0
  0
LINE
  5
2038
330
2
100
AcDbEntity
  8
0
100
AcDbLine
 10
738.556390767778
 20
235.5374317115842
 30
0.0
 11
738.5766509446137
 21
235.7484084570458
 31
0.0
  0
LINE
  5
2039
330
2
100
AcDbEntity
  8
0
100
AcDbLine
 10
737.8645597606403
 20
235.8849901742065
 30
0.0
 11
739.0266509446138
 21
235.8849901742065
 31
0.0
  0
SPLINE
  5
203A
330
2
100
AcDbEntity
  8
0
100
AcDbSpline
210
0.0
220
0.0
230
1.0
 70
     8
 71
     3
 72
    11
 73
     7
 74
     0
 42
0.0000000001
 43
0.0000000001
 40
0.0
 40
0.0
 40
0.0
 40
0.0
 40
0.4601364636755307
 40
1.04988694485363
 40
1.713742833862792
 40
2.320347933405154
 40
2.320347933405154
 40
2.320347933405154
 40
2.320347933405178
 10
736.8141509450688
 20
234.4679901742066
 30
0.0
 10
736.8365686021768
 20
234.6230136138863
 30
0.0
 10
736.88771865741
 20
234.976728431804
 30
0.0
 10
737.3236038189436
 20
235.4014561034056
 30
0.0
 10
737.928654533951
 20
235.6206432833714
 30
0.0
 10
738.3538391581268
 20
235.5516519837609
 30
0.0
 10
738.556390767778
 20
235.5374317115842
 30
0.0
  0
LINE
  5
203B
330
2
100
AcDbEntity
  8
0
100
AcDbLine
 10
740.0266509446138
 20
233.3849901742066
 30
0.0
 11
739.928714805726
 21
234.5044053640248
 31
0.0
  0
LINE
  5
203E
330
2
100
AcDbEntity
  8
0
100
AcDbLine
 10
738.0267579446138
 20
335.1252473789533
 30
0.0
 11
692.0268489446137
 21
335.1252473789533
 31
0.0
  0
LINE
  5
203F
330
2
100
AcDbEntity
  8
0
100
AcDbLine
 10
738.0267579446138
 20
385.1252473789532
 30
0.0
 11
692.0268489446137
 21
385.1252473789532
 31
0.0
  0
LINE
  5
2041
330
2
100
AcDbEntity
  8
0
100
AcDbLine
 10
690.0268489446138
 20
383.1252473789533
 30
0.0
 11
690.0268489446138
 21
337.1252473789533
 31
0.0
  0
LINE
  5
2043
330
2
100
AcDbEntity
  8
0
100
AcDbLine
 10
692.0268489446137
 20
342.6252473789533
 30
0.0
 11
692.0268489446137
 21
377.6252473789534
 31
0.0
  0
LINE
  5
2044
330
2
100
AcDbEntity
  8
CENTER
100
AcDbLine
 10
715.0266509446138
 20
390.1688543601619
 30
0.0
 11
715.0266509446138
 21
330.0816403977449
 31
0.0
  0
ARC
  5
2045
330
2
100
AcDbEntity
  8
0
100
AcDbCircle
 10
693.5266509446138
 20
338.6252473789533
 30
0.0
 40
4.0
100
AcDbArc
 50
0.0
 51
90.0
  0
ARC
  5
2046
330
2
100
AcDbEntity
  8
0
100
AcDbCircle
 10
691.4969509446137
 20
340.6549473789533
 30
0.0
 40
1.742199999999999
100
AcDbArc
 50
269.9986903345035
 51
0.0013096654997424
  0
ARC
  5
2047
330
2
100
AcDbEntity
  8
0
100
AcDbCircle
 10
691.4969509446137
 20
336.5955473789533
 30
0.0
 40
1.742199999999999
100
AcDbArc
 50
359.9986903345002
 51
90.00130966549972
  0
LINE
  5
2048
330
2
100
AcDbEntity
  8
0
100
AcDbLine
 10
693.5268489446137
 20
342.6252473789533
 30
0.0
 11
690.0268489446138
 21
342.6252473789533
 31
0.0
  0
CIRCLE
  5
2049
330
2
100
AcDbEntity
  8
0
100
AcDbCircle
 10
693.5266509446138
 20
338.6252473789533
 30
0.0
 40
3.500000000000028
  0
ARC
  5
204A
330
2
100
AcDbEntity
  8
0
100
AcDbCircle
 10
693.5266509446138
 20
338.6252473789533
 30
0.0
 40
2.049999999999998
100
AcDbArc
 50
180.0
 51
188.0619600839818
  0
ARC
  5
204B
330
2
100
AcDbEntity
  8
0
100
AcDbCircle
 10
693.5266509446138
 20
338.6252473789533
 30
0.0
 40
2.049999999999998
100
AcDbArc
 50
171.9380399160181
 51
180.0
  0
LINE
  5
204C
330
2
100
AcDbEntity
  8
0
100
AcDbLine
 10
690.0268489446138
 20
337.1252473789533
 30
0.0
 11
692.0268489446137
 21
335.1252473789533
 31
0.0
  0
LINE
  5
204D
330
2
100
AcDbEntity
  8
0
100
AcDbLine
 10
690.0268489446138
 20
337.1252473789533
 30
0.0
 11
692.0268489446137
 21
335.1252473789533
 31
0.0
  0
LINE
  5
204E
330
2
100
AcDbEntity
  8
0
100
AcDbLine
 10
690.0266509446138
 20
337.1252473789533
 30
0.0
 11
692.0268489446137
 21
335.1252473789533
 31
0.0
  0
ARC
  5
204F
330
2
100
AcDbEntity
  8
0
100
AcDbCircle
 10
693.5266509446138
 20
338.6252473789533
 30
0.0
 40
2.049999999999998
100
AcDbArc
 50
90.0
 51
98.06196008398213
  0
ARC
  5
2050
330
2
100
AcDbEntity
  8
0
100
AcDbCircle
 10
693.5266509446138
 20
338.6252473789533
 30
0.0
 40
2.049999999999998
100
AcDbArc
 50
81.93803991601789
 51
90.0
  0
ARC
  5
2051
330
2
100
AcDbEntity
  8
0
100
AcDbCircle
 10
693.5266509446138
 20
338.6252473789533
 30
0.0
 40
2.049999999999998
100
AcDbArc
 50
261.9380399160177
 51
270.0
  0
ARC
  5
2052
330
2
100
AcDbEntity
  8
0
100
AcDbCircle
 10
693.5266509446138
 20
338.6252473789533
 30
0.0
 40
2.049999999999998
100
AcDbArc
 50
270.0
 51
278.0619600839819
  0
ARC
  5
2053
330
2
100
AcDbEntity
  8
0
100
AcDbCircle
 10
695.556350944614
 20
340.6549473789533
 30
0.0
 40
1.742199999999999
100
AcDbArc
 50
179.9986903345001
 51
270.0013096654964
  0
ARC
  5
2054
330
2
100
AcDbEntity
  8
0
100
AcDbCircle
 10
695.556350944614
 20
336.5955473789533
 30
0.0
 40
1.742199999999999
100
AcDbArc
 50
89.9986903345035
 51
180.0013096654996
  0
ARC
  5
2055
330
2
100
AcDbEntity
  8
0
100
AcDbCircle
 10
693.5266509446138
 20
338.6252473789533
 30
0.0
 40
2.049999999999998
100
AcDbArc
 50
351.9380399160181
 51
0.0
  0
ARC
  5
2056
330
2
100
AcDbEntity
  8
0
100
AcDbCircle
 10
693.5266509446138
 20
338.6252473789533
 30
0.0
 40
2.049999999999998
100
AcDbArc
 50
0.0
 51
8.061960083981876
  0
LINE
  5
2057
330
2
100
AcDbEntity
  8
0
100
AcDbLine
 10
697.5268489446137
 20
337.1252473789533
 30
0.0
 11
732.5267579446138
 21
337.1252473789533
 31
0.0
  0
LINE
  5
2058
330
2
100
AcDbEntity
  8
0
100
AcDbLine
 10
697.5268489446137
 20
338.6252473789533
 30
0.0
 11
697.5268489446137
 21
335.1254313789533
 31
0.0
  0
ARC
  5
2059
330
2
100
AcDbEntity
  8
0
100
AcDbCircle
 10
693.5266509446138
 20
381.6253393789533
 30
0.0
 40
4.0
100
AcDbArc
 50
270.0
 51
0.0
  0
CIRCLE
  5
205A
330
2
100
AcDbEntity
  8
0
100
AcDbCircle
 10
693.5266509446138
 20
381.6253393789533
 30
0.0
 40
3.500000000000028
  0
ARC
  5
205B
330
2
100
AcDbEntity
  8
0
100
AcDbCircle
 10
693.5266509446138
 20
381.6253393789533
 30
0.0
 40
2.049999999999998
100
AcDbArc
 50
180.0
 51
188.0619600839818
  0
ARC
  5
205C
330
2
100
AcDbEntity
  8
0
100
AcDbCircle
 10
693.5266509446138
 20
381.6253393789533
 30
0.0
 40
2.049999999999998
100
AcDbArc
 50
351.9380399160181
 51
0.0
  0
ARC
  5
205D
330
2
100
AcDbEntity
  8
0
100
AcDbCircle
 10
695.556350944614
 20
379.5956393789534
 30
0.0
 40
1.742199999999999
100
AcDbArc
 50
89.9986903345035
 51
180.0013096654996
  0
ARC
  5
205E
330
2
100
AcDbEntity
  8
0
100
AcDbCircle
 10
691.4969509446137
 20
379.5956393789534
 30
0.0
 40
1.742199999999999
100
AcDbArc
 50
359.9986903345002
 51
90.00130966549972
  0
LINE
  5
2060
330
2
100
AcDbEntity
  8
0
100
AcDbLine
 10
693.5268489446137
 20
377.6252473789533
 30
0.0
 11
690.0268489446138
 21
377.6252473789533
 31
0.0
  0
ARC
  5
2061
330
2
100
AcDbEntity
  8
0
100
AcDbCircle
 10
693.5266509446138
 20
381.6253393789533
 30
0.0
 40
2.049999999999998
100
AcDbArc
 50
261.9380399160177
 51
270.0
  0
ARC
  5
2062
330
2
100
AcDbEntity
  8
0
100
AcDbCircle
 10
693.5266509446138
 20
381.6253393789533
 30
0.0
 40
2.049999999999998
100
AcDbArc
 50
270.0
 51
278.0619600839819
  0
ARC
  5
2063
330
2
100
AcDbEntity
  8
0
100
AcDbCircle
 10
691.4969509446137
 20
383.6550393789534
 30
0.0
 40
1.742199999999999
100
AcDbArc
 50
269.9986903345035
 51
0.0013096654997424
  0
ARC
  5
2064
330
2
100
AcDbEntity
  8
0
100
AcDbCircle
 10
693.5266509446138
 20
381.6253393789533
 30
0.0
 40
2.049999999999998
100
AcDbArc
 50
171.9380399160181
 51
180.0
  0
LINE
  5
2065
330
2
100
AcDbEntity
  8
0
100
AcDbLine
 10
690.0268489446138
 20
383.1252473789533
 30
0.0
 11
692.0268489446137
 21
385.1252473789532
 31
0.0
  0
LINE
  5
2066
330
2
100
AcDbEntity
  8
0
100
AcDbLine
 10
692.0268489446137
 20
385.1252473789532
 30
0.0
 11
690.0268489446138
 21
383.1252473789533
 31
0.0
  0
ARC
  5
2067
330
2
100
AcDbEntity
  8
0
100
AcDbCircle
 10
693.5266509446138
 20
381.6253393789533
 30
0.0
 40
2.049999999999998
100
AcDbArc
 50
90.0
 51
98.06196008398213
  0
ARC
  5
2068
330
2
100
AcDbEntity
  8
0
100
AcDbCircle
 10
693.5266509446138
 20
381.6253393789533
 30
0.0
 40
2.049999999999998
100
AcDbArc
 50
81.93803991601789
 51
90.0
  0
ARC
  5
2069
330
2
100
AcDbEntity
  8
0
100
AcDbCircle
 10
695.556350944614
 20
383.6550393789534
 30
0.0
 40
1.742199999999999
100
AcDbArc
 50
179.9986903345001
 51
270.0013096654964
  0
ARC
  5
206A
330
2
100
AcDbEntity
  8
0
100
AcDbCircle
 10
693.5266509446138
 20
381.6253393789533
 30
0.0
 40
2.049999999999998
100
AcDbArc
 50
0.0
 51
8.061960083981876
  0
LINE
  5
206B
330
2
100
AcDbEntity
  8
0
100
AcDbLine
 10
697.5268489446137
 20
383.1252473789533
 30
0.0
 11
732.5267579446136
 21
383.1252473789534
 31
0.0
  0
LINE
  5
206C
330
2
100
AcDbEntity
  8
0
100
AcDbLine
 10
697.5268489446137
 20
381.6253393789533
 30
0.0
 11
697.5268489446137
 21
385.1252473789532
 31
0.0
  0
LINE
  5
206D
330
2
100
AcDbEntity
  8
0
100
AcDbLine
 10
740.0267579446137
 20
383.1252473789533
 30
0.0
 11
740.0267579446137
 21
337.1252473789533
 31
0.0
  0
LINE
  5
206E
330
2
100
AcDbEntity
  8
0
100
AcDbLine
 10
738.0267579446138
 20
342.6252473789533
 30
0.0
 11
738.0267579446138
 21
377.6252473789534
 31
0.0
  0
ARC
  5
206F
330
2
100
AcDbEntity
  8
0
100
AcDbCircle
 10
734.4970579446137
 20
340.6549473789533
 30
0.0
 40
1.742199999999999
100
AcDbArc
 50
269.9986903345035
 51
0.0013096654997424
  0
ARC
  5
2070
330
2
100
AcDbEntity
  8
0
100
AcDbCircle
 10
734.4970579446137
 20
336.5955473789533
 30
0.0
 40
1.742199999999999
100
AcDbArc
 50
359.9986903345002
 51
90.00130966549972
  0
ARC
  5
2071
330
2
100
AcDbEntity
  8
0
100
AcDbCircle
 10
736.5267579446138
 20
338.6252473789533
 30
0.0
 40
4.0
100
AcDbArc
 50
90.0
 51
180.0
  0
CIRCLE
  5
2072
330
2
100
AcDbEntity
  8
0
100
AcDbCircle
 10
736.5267579446138
 20
338.6252473789533
 30
0.0
 40
3.500000000000028
  0
LINE
  5
2073
330
2
100
AcDbEntity
  8
0
100
AcDbLine
 10
732.5267579446138
 20
338.6252473789533
 30
0.0
 11
732.5267579446138
 21
335.1254313789533
 31
0.0
  0
ARC
  5
2074
330
2
100
AcDbEntity
  8
0
100
AcDbCircle
 10
736.5267579446138
 20
338.6252473789533
 30
0.0
 40
2.049999999999998
100
AcDbArc
 50
180.0
 51
188.0619600839818
  0
ARC
  5
2075
330
2
100
AcDbEntity
  8
0
100
AcDbCircle
 10
736.5267579446138
 20
338.6252473789533
 30
0.0
 40
2.049999999999998
100
AcDbArc
 50
171.9380399160181
 51
180.0
  0
LINE
  5
2076
330
2
100
AcDbEntity
  8
0
100
AcDbLine
 10
740.0267579446137
 20
337.1252473789533
 30
0.0
 11
738.0267579446138
 21
335.1252473789533
 31
0.0
  0
LINE
  5
2077
330
2
100
AcDbEntity
  8
0
100
AcDbLine
 10
740.0267579446137
 20
337.1252473789533
 30
0.0
 11
738.0267579446138
 21
335.1252473789533
 31
0.0
  0
LINE
  5
2078
330
2
100
AcDbEntity
  8
0
100
AcDbLine
 10
736.5267579446138
 20
342.6252473789533
 30
0.0
 11
740.0267579446137
 21
342.6252473789533
 31
0.0
  0
ARC
  5
2079
330
2
100
AcDbEntity
  8
0
100
AcDbCircle
 10
736.5267579446138
 20
338.6252473789533
 30
0.0
 40
2.049999999999998
100
AcDbArc
 50
90.0
 51
98.06196008398213
  0
ARC
  5
207A
330
2
100
AcDbEntity
  8
0
100
AcDbCircle
 10
736.5267579446138
 20
338.6252473789533
 30
0.0
 40
2.049999999999998
100
AcDbArc
 50
81.93803991601789
 51
90.0
  0
ARC
  5
207B
330
2
100
AcDbEntity
  8
0
100
AcDbCircle
 10
736.5267579446138
 20
338.6252473789533
 30
0.0
 40
2.049999999999998
100
AcDbArc
 50
261.9380399160177
 51
270.0
  0
ARC
  5
207C
330
2
100
AcDbEntity
  8
0
100
AcDbCircle
 10
736.5267579446138
 20
338.6252473789533
 30
0.0
 40
2.049999999999998
100
AcDbArc
 50
270.0
 51
278.0619600839819
  0
ARC
  5
207D
330
2
100
AcDbEntity
  8
0
100
AcDbCircle
 10
736.5267579446138
 20
338.6252473789533
 30
0.0
 40
2.049999999999998
100
AcDbArc
 50
351.9380399160181
 51
0.0
  0
ARC
  5
207E
330
2
100
AcDbEntity
  8
0
100
AcDbCircle
 10
736.5267579446138
 20
338.6252473789533
 30
0.0
 40
2.049999999999998
100
AcDbArc
 50
0.0
 51
8.061960083981876
  0
ARC
  5
207F
330
2
100
AcDbEntity
  8
0
100
AcDbCircle
 10
738.5564579446138
 20
340.6549473789533
 30
0.0
 40
1.742199999999999
100
AcDbArc
 50
179.9986903345001
 51
270.0013096654964
  0
ARC
  5
2080
330
2
100
AcDbEntity
  8
0
100
AcDbCircle
 10
738.5564579446138
 20
336.5955473789533
 30
0.0
 40
1.742199999999999
100
AcDbArc
 50
89.9986903345035
 51
180.0013096654996
  0
ARC
  5
2081
330
2
100
AcDbEntity
  8
0
100
AcDbCircle
 10
734.4970579446137
 20
383.6550393789534
 30
0.0
 40
1.742199999999999
100
AcDbArc
 50
269.9986903345035
 51
0.0013096654997424
  0
ARC
  5
2082
330
2
100
AcDbEntity
  8
0
100
AcDbCircle
 10
736.5267579446138
 20
381.6253393789533
 30
0.0
 40
4.0
100
AcDbArc
 50
180.0
 51
270.0
  0
CIRCLE
  5
2083
330
2
100
AcDbEntity
  8
0
100
AcDbCircle
 10
736.5267579446138
 20
381.6253393789533
 30
0.0
 40
3.500000000000028
  0
ARC
  5
2084
330
2
100
AcDbEntity
  8
0
100
AcDbCircle
 10
734.4970579446137
 20
379.5956393789534
 30
0.0
 40
1.742199999999999
100
AcDbArc
 50
359.9986903345002
 51
90.00130966549972
  0
ARC
  5
2085
330
2
100
AcDbEntity
  8
0
100
AcDbCircle
 10
736.5267579446138
 20
381.6253393789533
 30
0.0
 40
2.049999999999998
100
AcDbArc
 50
180.0
 51
188.0619600839818
  0
LINE
  5
2086
330
2
100
AcDbEntity
  8
0
100
AcDbLine
 10
732.5267579446138
 20
381.6253393789533
 30
0.0
 11
732.5267579446138
 21
385.1252473789532
 31
0.0
  0
ARC
  5
2087
330
2
100
AcDbEntity
  8
0
100
AcDbCircle
 10
736.5267579446138
 20
381.6253393789533
 30
0.0
 40
2.049999999999998
100
AcDbArc
 50
171.9380399160181
 51
180.0
  0
ARC
  5
2088
330
2
100
AcDbEntity
  8
0
100
AcDbCircle
 10
736.5267579446138
 20
381.6253393789533
 30
0.0
 40
2.049999999999998
100
AcDbArc
 50
351.9380399160181
 51
0.0
  0
ARC
  5
2089
330
2
100
AcDbEntity
  8
0
100
AcDbCircle
 10
738.5564579446138
 20
379.5956393789534
 30
0.0
 40
1.742199999999999
100
AcDbArc
 50
89.9986903345035
 51
180.0013096654996
  0
LINE
  5
208B
330
2
100
AcDbEntity
  8
0
100
AcDbLine
 10
736.5267579446138
 20
377.6252473789533
 30
0.0
 11
740.0267579446137
 21
377.6252473789533
 31
0.0
  0
ARC
  5
208C
330
2
100
AcDbEntity
  8
0
100
AcDbCircle
 10
736.5267579446138
 20
381.6253393789533
 30
0.0
 40
2.049999999999998
100
AcDbArc
 50
261.9380399160177
 51
270.0
  0
ARC
  5
208D
330
2
100
AcDbEntity
  8
0
100
AcDbCircle
 10
736.5267579446138
 20
381.6253393789533
 30
0.0
 40
2.049999999999998
100
AcDbArc
 50
270.0
 51
278.0619600839819
  0
LINE
  5
208E
330
2
100
AcDbEntity
  8
0
100
AcDbLine
 10
740.0267579446137
 20
383.1252473789533
 30
0.0
 11
738.0267579446138
 21
385.1252473789532
 31
0.0
  0
ARC
  5
208F
330
2
100
AcDbEntity
  8
0
100
AcDbCircle
 10
736.5267579446138
 20
381.6253393789533
 30
0.0
 40
2.049999999999998
100
AcDbArc
 50
90.0
 51
98.06196008398213
  0
ARC
  5
2090
330
2
100
AcDbEntity
  8
0
100
AcDbCircle
 10
736.5267579446138
 20
381.6253393789533
 30
0.0
 40
2.049999999999998
100
AcDbArc
 50
81.93803991601789
 51
90.0
  0
ARC
  5
2091
330
2
100
AcDbEntity
  8
0
100
AcDbCircle
 10
736.5267579446138
 20
381.6253393789533
 30
0.0
 40
2.049999999999998
100
AcDbArc
 50
0.0
 51
8.061960083981876
  0
ARC
  5
2092
330
2
100
AcDbEntity
  8
0
100
AcDbCircle
 10
738.5564579446138
 20
383.6550393789534
 30
0.0
 40
1.742199999999999
100
AcDbArc
 50
179.9986903345001
 51
270.0013096654964
  0
ENDSEC
  0
SECTION
  2
OBJECTS
  0
DICTIONARY
  5
7
330
0
100
AcDbDictionary
  3
ACAD_GROUP
350
75
  3
ACAD_LAYOUT
350
61
  3
ACAD_MLINESTYLE
350
76
  3
ACAD_PLOTSETTINGS
350
77
  3
ACAD_PLOTSTYLENAME
350
6
  3
ACADDIM
350
480
  3
ACDBHEADERROUNDTRIPXREC
350
2265
  3
ACDBVARIABLEDICTIONARY
350
102
  3
DWGPROPS
350
3D2
  0
DICTIONARY
  5
2241
330
2
100
AcDbDictionary
280
     1
  3
ACAD_LAYOUTSELFREF
360
2286
  0
DICTIONARY
  5
2287
330
225F
100
AcDbDictionary
280
     1
  3
ACAD_LAYOUTSELFREF
360
2288
  0
DICTIONARY
  5
75
102
{ACAD_REACTORS
330
7
102
}
330
7
100
AcDbDictionary
  0
DICTIONARY
  5
61
102
{ACAD_REACTORS
330
7
102
}
330
7
100
AcDbDictionary
  0
DICTIONARY
  5
76
102
{ACAD_REACTORS
330
7
102
}
330
7
100
AcDbDictionary
  3
STANDARD
350
78
  0
DICTIONARY
  5
77
102
{ACAD_REACTORS
330
7
102
}
330
7
100
AcDbDictionary
  0
ACDBDICTIONARYWDFLT
  5
6
102
{ACAD_REACTORS
330
7
102
}
330
7
100
AcDbDictionary
281
     1
  3
Normal
350
5
100
AcDbDictionaryWithDefault
340
5
  0
XRECORD
  5
480
102
{ACAD_REACTORS
330
7
102
}
330
7
100
AcDbXrecord
 90
   990106
  3

 60
     0
 61
     0
 62
     1
 63
     3
 64
     1
 65
     0
 66
     0
 67
     3
 68
     1
 69
     0
 70
     0
 71
     0
 72
     0
 40
0.0
170
     2
340
0
  0
DICTIONARY
  5
2265
102
{ACAD_REACTORS
330
7
102
}
330
7
100
AcDbDictionary
  3
CEPSNTYPE
350
226F
  3
DIMSTYLEDATA
350
2273
  3
FINGERPRINTGUID
350
2270
  3
HYPERLINKBASE
350
2268
  3
INSUNITS
350
226E
  3
LAYOUTDICT
350
226A
  3
LWETCUNION
350
226D
  3
PLOTSETDICT
350
226B
  3
PLOTSTYLNAMDICT
350
226C
  3
PSVPSCALE
350
2272
  3
PUCSBASE
350
2276
  3
PUCSORGBACK
350
227C
  3
PUCSORGBOTTOM
350
2278
  3
PUCSORGFRONT
350
227B
  3
PUCSORGLEFT
350
2279
  3
PUCSORGRIGHT
350
227A
  3
PUCSORGTOP
350
2277
  3
PUCSORTHOREF
350
2274
  3
PUCSORTHOVIEW
350
2275
  3
STYLESHEET
350
2269
  3
TSTACKALIGN
350
2266
  3
TSTACKSIZE
350
2267
  3
UCSBASE
350
227F
  3
UCSORGBACK
350
2285
  3
UCSORGBOTTOM
350
2281
  3
UCSORGFRONT
350
2284
  3
UCSORGLEFT
350
2282
  3
UCSORGRIGHT
350
2283
  3
UCSORGTOP
350
2280
  3
UCSORTHOREF
350
227D
  3
UCSORTHOVIEW
350
227E
  3
VERSIONGUID
350
2271
  0
DICTIONARY
  5
102
102
{ACAD_REACTORS
330
7
102
}
330
7
100
AcDbDictionary
  3
DIMASSOC
350
103
  0
XRECORD
  5
3D2
102
{ACAD_REACTORS
330
7
102
}
330
7
100
AcDbXrecord
  1
DWGPROPS COOKIE
  2

  3

  4

  6

  7

  8

  9

300
=
301
=
302
=
303
=
304
=
305
=
306
=
307
=
308
=
309
=
 40
0.5353330671296296
 41
2452052.431989363
 42
2453406.550756376
  1

 90
        0
  0
XRECORD
  5
2286
102
{ACAD_REACTORS
330
2241
102
}
330
2241
100
AcDbXrecord
340
2
  0
XRECORD
  5
2288
102
{ACAD_REACTORS
330
2287
102
}
330
2287
100
AcDbXrecord
340
225F
  0
MLINESTYLE
  5
78
102
{ACAD_REACTORS
330
76
102
}
330
76
100
AcDbMlineStyle
  2
STANDARD
 70
     0
  3

 62
     0
 51
90.0
 52
90.0
 71
     2
 49
0.5
 62
   256
  6
BYLAYER
 49
-0.5
 62
   256
  6
BYLAYER
  0
ACDBPLACEHOLDER
  5
5
102
{ACAD_REACTORS
330
6
102
}
330
6
100
AcDbPlaceHolder
280
     0
  0
XRECORD
  5
226F
102
{ACAD_REACTORS
330
2265
102
}
330
2265
100
AcDbXrecord
 90
        0
  0
XRECORD
  5
2273
102
{ACAD_REACTORS
330
2265
102
}
330
2265
100
AcDbXrecord
1000
DSTYLE
1002
{
1070
   179
 70
     2
1002
}
  0
XRECORD
  5
2270
102
{ACAD_REACTORS
330
2265
102
}
330
2265
100
AcDbXrecord
  1
{6385560B-F4B1-4644-A7C2-A3E32AC3D232}
  0
XRECORD
  5
2268
102
{ACAD_REACTORS
330
2265
102
}
330
2265
100
AcDbXrecord
  1

  0
XRECORD
  5
226E
102
{ACAD_REACTORS
330
2265
102
}
330
2265
100
AcDbXrecord
 90
        0
  0
XRECORD
  5
226A
102
{ACAD_REACTORS
330
2265
102
}
330
2265
100
AcDbXrecord
340
61
  0
XRECORD
  5
226D
102
{ACAD_REACTORS
330
2265
102
}
330
2265
100
AcDbXrecord
 90
    10781
  0
XRECORD
  5
226B
102
{ACAD_REACTORS
330
2265
102
}
330
2265
100
AcDbXrecord
340
77
  0
XRECORD
  5
226C
102
{ACAD_REACTORS
330
2265
102
}
330
2265
100
AcDbXrecord
340
6
  0
XRECORD
  5
2272
102
{ACAD_REACTORS
330
2265
102
}
330
2265
100
AcDbXrecord
 40
0.0
  0
XRECORD
  5
2276
102
{ACAD_REACTORS
330
2265
102
}
330
2265
100
AcDbXrecord
340
0
  0
XRECORD
  5
227C
102
{ACAD_REACTORS
330
2265
102
}
330
2265
100
AcDbXrecord
 10
0.0
 20
0.0
 30
0.0
  0
XRECORD
  5
2278
102
{ACAD_REACTORS
330
2265
102
}
330
2265
100
AcDbXrecord
 10
0.0
 20
0.0
 30
0.0
  0
XRECORD
  5
227B
102
{ACAD_REACTORS
330
2265
102
}
330
2265
100
AcDbXrecord
 10
0.0
 20
0.0
 30
0.0
  0
XRECORD
  5
2279
102
{ACAD_REACTORS
330
2265
102
}
330
2265
100
AcDbXrecord
 10
0.0
 20
0.0
 30
0.0
  0
XRECORD
  5
227A
102
{ACAD_REACTORS
330
2265
102
}
330
2265
100
AcDbXrecord
 10
0.0
 20
0.0
 30
0.0
  0
XRECORD
  5
2277
102
{ACAD_REACTORS
330
2265
102
}
330
2265
100
AcDbXrecord
 10
0.0
 20
0.0
 30
0.0
  0
XRECORD
  5
2274
102
{ACAD_REACTORS
330
2265
102
}
330
2265
100
AcDbXrecord
340
0
  0
XRECORD
  5
2275
102
{ACAD_REACTORS
330
2265
102
}
330
2265
100
AcDbXrecord
 70
     0
  0
XRECORD
  5
2269
102
{ACAD_REACTORS
330
2265
102
}
330
2265
100
AcDbXrecord
  1
Sekkei.ctb
  0
XRECORD
  5
2266
102
{ACAD_REACTORS
330
2265
102
}
330
2265
100
AcDbXrecord
 90
        1
  0
XRECORD
  5
2267
102
{ACAD_REACTORS
330
2265
102
}
330
2265
100
AcDbXrecord
 90
       70
  0
XRECORD
  5
227F
102
{ACAD_REACTORS
330
2265
102
}
330
2265
100
AcDbXrecord
340
0
  0
XRECORD
  5
2285
102
{ACAD_REACTORS
330
2265
102
}
330
2265
100
AcDbXrecord
 10
0.0
 20
0.0
 30
0.0
  0
XRECORD
  5
2281
102
{ACAD_REACTORS
330
2265
102
}
330
2265
100
AcDbXrecord
 10
0.0
 20
0.0
 30
0.0
  0
XRECORD
  5
2284
102
{ACAD_REACTORS
330
2265
102
}
330
2265
100
AcDbXrecord
 10
0.0
 20
0.0
 30
0.0
  0
XRECORD
  5
2282
102
{ACAD_REACTORS
330
2265
102
}
330
2265
100
AcDbXrecord
 10
0.0
 20
0.0
 30
0.0
  0
XRECORD
  5
2283
102
{ACAD_REACTORS
330
2265
102
}
330
2265
100
AcDbXrecord
 10
0.0
 20
0.0
 30
0.0
  0
XRECORD
  5
2280
102
{ACAD_REACTORS
330
2265
102
}
330
2265
100
AcDbXrecord
 10
0.0
 20
0.0
 30
0.0
  0
XRECORD
  5
227D
102
{ACAD_REACTORS
330
2265
102
}
330
2265
100
AcDbXrecord
340
0
  0
XRECORD
  5
227E
102
{ACAD_REACTORS
330
2265
102
}
330
2265
100
AcDbXrecord
 70
     0
  0
XRECORD
  5
2271
102
{ACAD_REACTORS
330
2265
102
}
330
2265
100
AcDbXrecord
  1
{2CBD3E1E-D74F-41DC-BA01-C0664FE32C19}
  0
DICTIONARYVAR
  5
103
102
{ACAD_REACTORS
330
102
102
}
330
102
100
DictionaryVariables
280
     0
  1
1
  0
ENDSEC
  0
EOF
