  0
SECTION
  2
HEADER
  9
$ACADVER
  1
AC1014
  9
$ACADMAINTVER
 70
     9
  9
$DWGCODEPAGE
  3
ANSI_932
  9
$INSBASE
 10
0.0
 20
0.0
 30
0.0
  9
$EXTMIN
 10
22.2466124508827
 20
26.88247792693272
 30
0.0
  9
$EXTMAX
 10
798.0471879128482
 20
445.0456577744116
 30
0.0
  9
$LIMMIN
 10
0.0
 20
0.0
  9
$LIMMAX
 10
297.0
 20
210.0
  9
$ORTHOMODE
 70
     1
  9
$REGENMODE
 70
     1
  9
$FILLMODE
 70
     1
  9
$QTEXTMODE
 70
     0
  9
$MIRRTEXT
 70
     0
  9
$DRAGMODE
 70
     2
  9
$LTSCALE
 40
2.0
  9
$OSMODE
 70
    37
  9
$ATTMODE
 70
     1
  9
$TEXTSIZE
 40
2.0
  9
$TRACEWID
 40
1.0
  9
$TEXTSTYLE
  7
STANDARD
  9
$CLAYER
  8
0
  9
$CELTYPE
  6
BYLAYER
  9
$CECOLOR
 62
   256
  9
$CELTSCALE
 40
1.0
  9
$DELOBJ
 70
     1
  9
$DISPSILH
 70
     0
  9
$DIMSCALE
 40
2.0
  9
$DIMASZ
 40
1.8
  9
$DIMEXO
 40
0.625
  9
$DIMDLI
 40
3.75
  9
$DIMRND
 40
0.0
  9
$DIMDLE
 40
0.0
  9
$DIMEXE
 40
0.8
  9
$DIMTP
 40
0.0
  9
$DIMTM
 40
0.0
  9
$DIMTXT
 40
1.8
  9
$DIMCEN
 40
2.5
  9
$DIMTSZ
 40
0.0
  9
$DIMTOL
 70
     0
  9
$DIMLIM
 70
     0
  9
$DIMTIH
 70
     0
  9
$DIMTOH
 70
     0
  9
$DIMSE1
 70
     0
  9
$DIMSE2
 70
     0
  9
$DIMTAD
 70
     1
  9
$DIMZIN
 70
     8
  9
$DIMBLK
  1

  9
$DIMASO
 70
     1
  9
$DIMSHO
 70
     1
  9
$DIMPOST
  1

  9
$DIMAPOST
  1

  9
$DIMALT
 70
     0
  9
$DIMALTD
 70
     4
  9
$DIMALTF
 40
0.0394
  9
$DIMLFAC
 40
1.0
  9
$DIMTOFL
 70
     1
  9
$DIMTVP
 40
0.0
  9
$DIMTIX
 70
     0
  9
$DIMSOXD
 70
     0
  9
$DIMSAH
 70
     0
  9
$DIMBLK1
  1

  9
$DIMBLK2
  1

  9
$DIMSTYLE
  2
STANDARD
  9
$DIMCLRD
 70
     0
  9
$DIMCLRE
 70
     0
  9
$DIMCLRT
 70
     0
  9
$DIMTFAC
 40
1.0
  9
$DIMGAP
 40
0.75
  9
$DIMJUST
 70
     0
  9
$DIMSD1
 70
     0
  9
$DIMSD2
 70
     0
  9
$DIMTOLJ
 70
     1
  9
$DIMTZIN
 70
     0
  9
$DIMALTZ
 70
     0
  9
$DIMALTTZ
 70
     0
  9
$DIMFIT
 70
     3
  9
$DIMUPT
 70
     0
  9
$DIMUNIT
 70
     8
  9
$DIMDEC
 70
     2
  9
$DIMTDEC
 70
     2
  9
$DIMALTU
 70
     8
  9
$DIMALTTD
 70
     4
  9
$DIMTXSTY
  7
STANDARD
  9
$DIMAUNIT
 70
     0
  9
$LUNITS
 70
     2
  9
$LUPREC
 70
     3
  9
$SKETCHINC
 40
1.0
  9
$FILLETRAD
 40
10.0
  9
$AUNITS
 70
     0
  9
$AUPREC
 70
     2
  9
$MENU
  1
.
  9
$ELEVATION
 40
0.0
  9
$PELEVATION
 40
0.0
  9
$THICKNESS
 40
0.0
  9
$LIMCHECK
 70
     0
  9
$BLIPMODE
 70
     0
  9
$CHAMFERA
 40
0.0
  9
$CHAMFERB
 40
0.0
  9
$CHAMFERC
 40
20.0
  9
$CHAMFERD
 40
0.0
  9
$SKPOLY
 70
     0
  9
$TDCREATE
 40
2453557.751274768
  9
$TDUPDATE
 40
2453615.567893333
  9
$TDINDWG
 40
0.2112453125
  9
$TDUSRTIMER
 40
0.2112453125
  9
$USRTIMER
 70
     1
  9
$ANGBASE
 50
0.0
  9
$ANGDIR
 70
     0
  9
$PDMODE
 70
     0
  9
$PDSIZE
 40
-10.0
  9
$PLINEWID
 40
0.0
  9
$COORDS
 70
     2
  9
$SPLFRAME
 70
     0
  9
$SPLINETYPE
 70
     6
  9
$SPLINESEGS
 70
     8
  9
$ATTDIA
 70
     0
  9
$ATTREQ
 70
     1
  9
$HANDLING
 70
-16383
  9
$HANDSEED
  5
2272
  9
$SURFTAB1
 70
     6
  9
$SURFTAB2
 70
     6
  9
$SURFTYPE
 70
     6
  9
$SURFU
 70
     6
  9
$SURFV
 70
     6
  9
$UCSNAME
  2

  9
$UCSORG
 10
0.0
 20
0.0
 30
0.0
  9
$UCSXDIR
 10
1.0
 20
0.0
 30
0.0
  9
$UCSYDIR
 10
0.0
 20
1.0
 30
0.0
  9
$PUCSNAME
  2

  9
$PUCSORG
 10
0.0
 20
0.0
 30
0.0
  9
$PUCSXDIR
 10
1.0
 20
0.0
 30
0.0
  9
$PUCSYDIR
 10
0.0
 20
1.0
 30
0.0
  9
$USERI1
 70
     0
  9
$USERI2
 70
     0
  9
$USERI3
 70
     0
  9
$USERI4
 70
     0
  9
$USERI5
 70
     0
  9
$USERR1
 40
0.0
  9
$USERR2
 40
0.0
  9
$USERR3
 40
0.0
  9
$USERR4
 40
0.0
  9
$USERR5
 40
0.0
  9
$WORLDVIEW
 70
     1
  9
$SHADEDGE
 70
     3
  9
$SHADEDIF
 70
    70
  9
$TILEMODE
 70
     1
  9
$MAXACTVP
 70
    48
  9
$PINSBASE
 10
0.0
 20
0.0
 30
0.0
  9
$PLIMCHECK
 70
     0
  9
$PEXTMIN
 10
3.0
 20
3.999999999999998
 30
0.0
  9
$PEXTMAX
 10
280.0
 20
194.0
 30
0.0
  9
$PLIMMIN
 10
-5.873748779296875
 20
-5.873749732971191
  9
$PLIMMAX
 10
291.05224609375
 20
204.0995779037475
  9
$UNITMODE
 70
     0
  9
$VISRETAIN
 70
     1
  9
$PLINEGEN
 70
     0
  9
$PSLTSCALE
 70
     0
  9
$TREEDEPTH
 70
  3020
  9
$PICKSTYLE
 70
     1
  9
$CMLSTYLE
  2
STANDARD
  9
$CMLJUST
 70
     0
  9
$CMLSCALE
 40
1.0
  9
$PROXYGRAPHICS
 70
     1
  9
$MEASUREMENT
 70
     0
  0
ENDSEC
  0
SECTION
  2
CLASSES
  0
CLASS
  1
DICTIONARYVAR
  2
AcDbDictionaryVar
  3
AutoCAD 2000
 90
        0
280
     0
281
     0
  0
CLASS
  1
ACDBDICTIONARYWDFLT
  2
AcDbDictionaryWithDefault
  3
AutoCAD 2000
 90
        0
280
     0
281
     0
  0
CLASS
  1
ACDBPLACEHOLDER
  2
AcDbPlaceHolder
  3
AutoCAD 2000
 90
        0
280
     0
281
     0
  0
CLASS
  1
LAYOUT
  2
AcDbLayout
  3
AutoCAD 2000
 90
        0
280
     0
281
     0
  0
CLASS
  1
LONG_TRANSACTION
  2
AcDbLongTransaction
  3
AutoCAD 2000
 90
        0
280
     0
281
     0
  0
CLASS
  1
LWPOLYLINE
  2
AcDbPolyline
  3
AutoCAD 2000
 90
        0
280
     0
281
     1
  0
CLASS
  1
HATCH
  2
AcDbHatch
  3
AutoCAD 2000
 90
        0
280
     0
281
     1
  0
CLASS
  1
XRECORD
  2
AcDbXrecord
  3
AutoCAD 2000
 90
        0
280
     0
281
     0
  0
ENDSEC
  0
SECTION
  2
TABLES
  0
TABLE
  2
VPORT
  5
6E
330
0
100
AcDbSymbolTable
 70
     2
  0
VPORT
  5
223B
330
6E
100
AcDbSymbolTableRecord
100
AcDbViewportTableRecord
  2
*ACTIVE
 70
     0
 10
0.0
 20
0.0
 11
1.0
 21
1.0
 12
414.857433890626
 22
235.9687284130808
 13
0.0
 23
0.0
 14
10.0
 24
10.0
 15
10.0
 25
10.0
 16
0.0
 26
0.0
 36
1.0
 17
0.0
 27
0.0
 37
0.0
 40
503.6407869427455
 41
1.566970091027308
 42
50.0
 43
0.0
 44
0.0
 50
0.0
 51
0.0
 71
     0
 72
   100
 73
     1
 74
     3
 75
     0
 76
     0
 77
     0
 78
     0
  0
ENDTAB
  0
TABLE
  2
LTYPE
  5
69
330
0
100
AcDbSymbolTable
 70
     3
  0
LTYPE
  5
6A
330
69
100
AcDbSymbolTableRecord
100
AcDbLinetypeTableRecord
  2
BYBLOCK
 70
     0
  3

 72
    65
 73
     0
 40
0.0
  0
LTYPE
  5
6B
330
69
100
AcDbSymbolTableRecord
100
AcDbLinetypeTableRecord
  2
BYLAYER
 70
     0
  3

 72
    65
 73
     0
 40
0.0
  0
LTYPE
  5
8
330
69
100
AcDbSymbolTableRecord
100
AcDbLinetypeTableRecord
  2
CONTINUOUS
 70
     0
  3
Solid line
 72
    65
 73
     0
 40
0.0
  0
LTYPE
  5
27C
330
69
100
AcDbSymbolTableRecord
100
AcDbLinetypeTableRecord
  2
SEKKEI_A2_
 70
     0
  3
center(A2)  ____ _ ____ _ ____ _ ____ _ ____ _ 
 72
    65
 73
     4
 40
14.28749999999999
 49
9.525
 74
     0
 49
-1.587499999999999
 74
     0
 49
1.587499999999999
 74
     0
 49
-1.587499999999999
 74
     0
  0
LTYPE
  5
2B4
330
69
100
AcDbSymbolTableRecord
100
AcDbLinetypeTableRecord
  2
HIDDEN2
 70
     0
  3
Hidden (.5x) _ _ _ _ _ _ _ _ _ _ _ _ _ _ _ _ _
 72
    65
 73
     2
 40
4.762499999999999
 49
3.174999999999999
 74
     0
 49
-1.587499999999999
 74
     0
  0
ENDTAB
  0
TABLE
  2
LAYER
  5
66
330
0
100
AcDbSymbolTable
 70
     9
  0
LAYER
  5
5E
330
66
100
AcDbSymbolTableRecord
100
AcDbLayerTableRecord
  2
0
 70
     0
 62
     7
  6
CONTINUOUS
  0
LAYER
  5
3E
330
66
100
AcDbSymbolTableRecord
100
AcDbLayerTableRecord
  2
CENTER
 70
     0
 62
     3
  6
SEKKEI_A2_
  0
LAYER
  5
4
330
66
100
AcDbSymbolTableRecord
100
AcDbLayerTableRecord
  2
WAKU
 70
     0
 62
     5
  6
CONTINUOUS
  0
LAYER
  5
E4
330
66
100
AcDbSymbolTableRecord
100
AcDbLayerTableRecord
  2
TEXT
 70
     0
 62
     4
  6
CONTINUOUS
  0
LAYER
  5
135
330
66
100
AcDbSymbolTableRecord
100
AcDbLayerTableRecord
  2
DEFPOINTS
 70
     0
 62
     7
  6
CONTINUOUS
  0
LAYER
  5
2B5
330
66
100
AcDbSymbolTableRecord
100
AcDbLayerTableRecord
  2
HIDS
 70
     0
 62
     1
  6
HIDDEN2
  0
LAYER
  5
2BA
330
66
100
AcDbSymbolTableRecord
100
AcDbLayerTableRecord
  2
HOJO
 70
     0
 62
     4
  6
CONTINUOUS
  0
LAYER
  5
3FA
330
66
100
AcDbSymbolTableRecord
100
AcDbLayerTableRecord
  2
TITLE
 70
     0
 62
     4
  6
CONTINUOUS
  0
ENDTAB
  0
TABLE
  2
STYLE
  5
67
330
0
100
AcDbSymbolTable
 70
     1
  0
STYLE
  5
16
330
67
100
AcDbSymbolTableRecord
100
AcDbTextStyleTableRecord
  2
STANDARD
 70
     0
 40
0.0
 41
1.0
 50
0.0
 71
     0
 42
2.0
  3
simplex.shx
  4
extfont.shx
  0
ENDTAB
  0
TABLE
  2
VIEW
  5
6C
330
0
100
AcDbSymbolTable
 70
     0
  0
ENDTAB
  0
TABLE
  2
UCS
  5
6D
330
0
100
AcDbSymbolTable
 70
     0
  0
ENDTAB
  0
TABLE
  2
APPID
  5
70
330
0
100
AcDbSymbolTable
 70
     2
  0
APPID
  5
71
330
70
100
AcDbSymbolTableRecord
100
AcDbRegAppTableRecord
  2
ACAD
 70
     0
  0
APPID
  5
2261
330
70
100
AcDbSymbolTableRecord
100
AcDbRegAppTableRecord
  2
CONTENTBLOCKICON
 70
     0
  0
ENDTAB
  0
TABLE
  2
DIMSTYLE
  5
72
330
0
100
AcDbSymbolTable
 70
     1
  0
DIMSTYLE
105
73
102
{ACAD_REACTORS
330
104A
330
110B
330
1144
330
1145
102
}
330
72
100
AcDbSymbolTableRecord
100
AcDbDimStyleTableRecord
  2
STANDARD
 70
     0
  3

  4

  5

  6

  7

 40
2.0
 41
1.8
 42
0.625
 43
3.75
 44
0.8
 45
0.0
 46
0.0
 47
0.0
 48
0.0
140
1.8
141
2.5
142
0.0
143
0.0394
144
1.0
145
0.0
146
1.0
147
0.75
 71
     0
 72
     0
 73
     0
 74
     0
 75
     0
 76
     0
 77
     1
 78
     8
170
     0
171
     4
172
     1
173
     0
174
     0
175
     0
176
     0
177
     0
178
     0
270
     8
271
     2
272
     2
273
     8
274
     4
340
16
275
     0
280
     0
281
     0
282
     0
283
     1
284
     0
285
     0
286
     0
287
     3
288
     0
  0
ENDTAB
  0
TABLE
  2
BLOCK_RECORD
  5
1
330
0
100
AcDbSymbolTable
 70
    72
  0
BLOCK_RECORD
  5
2
102
{ACAD_XDICTIONARY
360
225D
102
}
330
1
100
AcDbSymbolTableRecord
100
AcDbBlockTableRecord
  2
*MODEL_SPACE
  0
BLOCK_RECORD
  5
19CC
102
{ACAD_XDICTIONARY
360
2270
102
}
330
1
100
AcDbSymbolTableRecord
100
AcDbBlockTableRecord
  2
*PAPER_SPACE
  0
BLOCK_RECORD
  5
40C
330
1
100
AcDbSymbolTableRecord
100
AcDbBlockTableRecord
  2
外寸枠A4テンプレート
1001
CONTENTBLOCKICON
1071
        0
1004
2800000020000000200000000100080000000000000400000000000000000000000000000000000000000000000080000080000000808000800000008000800080800000C0C0C000C0DCC000F0CAA6000020400000206000002080000020A0000020C0000020E00000400000004020000040400000406000004080000040A0
1004
000040C0000040E00000600000006020000060400000606000006080000060A0000060C0000060E00000800000008020000080400000806000008080000080A0000080C0000080E00000A0000000A0200000A0400000A0600000A0800000A0A00000A0C00000A0E00000C0000000C0200000C0400000C0600000C0800000C0
1004
A00000C0C00000C0E00000E0000000E0200000E0400000E0600000E0800000E0A00000E0C00000E0E00040000000400020004000400040006000400080004000A0004000C0004000E00040200000402020004020400040206000402080004020A0004020C0004020E000404000004040200040404000404060004040800040
1004
40A0004040C0004040E00040600000406020004060400040606000406080004060A0004060C0004060E00040800000408020004080400040806000408080004080A0004080C0004080E00040A0000040A0200040A0400040A0600040A0800040A0A00040A0C00040A0E00040C0000040C0200040C0400040C0600040C08000
1004
40C0A00040C0C00040C0E00040E0000040E0200040E0400040E0600040E0800040E0A00040E0C00040E0E00080000000800020008000400080006000800080008000A0008000C0008000E00080200000802020008020400080206000802080008020A0008020C0008020E00080400000804020008040400080406000804080
1004
008040A0008040C0008040E00080600000806020008060400080606000806080008060A0008060C0008060E00080800000808020008080400080806000808080008080A0008080C0008080E00080A0000080A0200080A0400080A0600080A0800080A0A00080A0C00080A0E00080C0000080C0200080C0400080C0600080C0
1004
800080C0A00080C0C00080C0E00080E0000080E0200080E0400080E0600080E0800080E0A00080E0C00080E0E000C0000000C0002000C0004000C0006000C0008000C000A000C000C000C000E000C0200000C0202000C0204000C0206000C0208000C020A000C020C000C020E000C0400000C0402000C0404000C0406000C0
1004
408000C040A000C040C000C040E000C0600000C0602000C0604000C0606000C0608000C060A000C060C000C060E000C0800000C0802000C0804000C0806000C0808000C080A000C080C000C080E000C0A00000C0A02000C0A04000C0A06000C0A08000C0A0A000C0A0C000C0A0E000C0C00000C0C02000C0C04000C0C06000
1004
C0C08000C0C0A000F0FBFF00A4A0A000808080000000FF0000FF000000FFFF00FF000000FF00FF00FFFF0000FFFFFF0000000000000000000000000000000000000000000000000000000000000000000000000000000000000000000000000000000000000000000000000000000000000000000000000000000000000000
1004
000000000000000000000000000000000000000000000000000000000000000000000000000000000000000000000000000000000000000000000000000000000000000000000000000000000000000000000000000000000000000000000000000000000000000000000000000000000000FCFCFCFCFCFCFCFCFCFCFCFCFC
1004
FCFCFCFCFCFCFCFCFEFEFEFDFDFCFDFDFD0000FC0000000000000000000000000000000000000000FDFDFDFDFDFDFDFDFD0000FC0000000000000000000000000000000000000000FDFDFEFEFEFEFDFDFD0000FC0000000000000000000000000000000000000000FDFCFEFEFEFEFCFCFC0000FC0000000000000000000000
1004
0000000000000000000000000000000000FC0000FC00000000000000000000000000000000000000000000000000000000FC0000FC00000000000000000000000000000000000000000000000000000000FC0000FC00000000000000000000000000000000000000000000000000000000FC0000FC00000000000000000000
1004
000000000000000000000000000000000000FC0000FC00000000000000000000000000000000000000000000000000000000FC0000FC00000000000000000000000000000000000000000000000000000000FC0000FC00000000000000000000000000000000000000000000000000000000FC0000FC000000000000000000
1004
00000000000000000000000000000000000000FC0000FC00000000000000000000000000000000000000000000000000000000FC0000FC00000000000000000000000000000000000000000000000000000000FC0000FC00000000000000000000000000000000000000000000000000000000FC0000FC0000000000000000
1004
0000000000000000000000000000000000000000FC0000FC00000000000000000000000000000000000000000000000000000000FC0000FC00000000000000000000000000000000000000000000FCFCFCFCFCFCFC0000FCFCFCFCFCFCFCFCFCFCFCFCFCFCFCFCFCFCFCFCFCFCFCFCFDFCFCFCFCFC00000000000000000000
1004
00000000000000000000000000000000000000000000000000000000000000000000000000000000000000000000000000000000000000000000000000000000000000000000000000000000000000000000000000000000000000000000000000000000000000000000000000000000000000000000000000000000000000
1004
0000000000000000000000000000000000000000000000000000000000000000000000000000000000000000000000000000000000000000
  0
BLOCK_RECORD
  5
194D
330
1
100
AcDbSymbolTableRecord
100
AcDbBlockTableRecord
  2
1
  0
BLOCK_RECORD
  5
1A5B
330
1
100
AcDbSymbolTableRecord
100
AcDbBlockTableRecord
  2
10
  0
BLOCK_RECORD
  5
1A7F
330
1
100
AcDbSymbolTableRecord
100
AcDbBlockTableRecord
  2
BSPEC_90-90-0038
  0
BLOCK_RECORD
  5
1ACF
330
1
100
AcDbSymbolTableRecord
100
AcDbBlockTableRecord
  2
BSPEC_90-45-0038
  0
BLOCK_RECORD
  5
1AF9
330
1
100
AcDbSymbolTableRecord
100
AcDbBlockTableRecord
  2
GSPEC_F2F-15T-10-240
  0
BLOCK_RECORD
  5
1B47
330
1
100
AcDbSymbolTableRecord
100
AcDbBlockTableRecord
  2
GSPEC_F2F-15T-10-120
  0
BLOCK_RECORD
  5
1B68
330
1
100
AcDbSymbolTableRecord
100
AcDbBlockTableRecord
  2
GSPEC_F2F-15T-10-60
  0
BLOCK_RECORD
  5
1B84
330
1
100
AcDbSymbolTableRecord
100
AcDbBlockTableRecord
  2
MSPEC_T15F-75
  0
BLOCK_RECORD
  5
1BAA
330
1
100
AcDbSymbolTableRecord
100
AcDbBlockTableRecord
  2
MSPEC_T15WF-75
  0
BLOCK_RECORD
  5
1BD0
330
1
100
AcDbSymbolTableRecord
100
AcDbBlockTableRecord
  2
MSPEC_T25F-75
  0
BLOCK_RECORD
  5
1BF6
330
1
100
AcDbSymbolTableRecord
100
AcDbBlockTableRecord
  2
MSPEC_T25WF-75
  0
BLOCK_RECORD
  5
1C1C
330
1
100
AcDbSymbolTableRecord
100
AcDbBlockTableRecord
  2
MSPEC_T40F-75
  0
BLOCK_RECORD
  5
1C42
330
1
100
AcDbSymbolTableRecord
100
AcDbBlockTableRecord
  2
MSPEC_T40WF-75
  0
BLOCK_RECORD
  5
1C68
330
1
100
AcDbSymbolTableRecord
100
AcDbBlockTableRecord
  2
MSPEC_T60F-75
  0
BLOCK_RECORD
  5
1C8E
330
1
100
AcDbSymbolTableRecord
100
AcDbBlockTableRecord
  2
MSPEC_S15F-75
  0
BLOCK_RECORD
  5
1CB4
330
1
100
AcDbSymbolTableRecord
100
AcDbBlockTableRecord
  2
MSPEC_S15WF-75
  0
BLOCK_RECORD
  5
1DAC
330
1
100
AcDbSymbolTableRecord
100
AcDbBlockTableRecord
  2
18
  0
BLOCK_RECORD
  5
1DB1
330
1
100
AcDbSymbolTableRecord
100
AcDbBlockTableRecord
  2
19
  0
ENDTAB
  0
ENDSEC
  0
SECTION
  2
BLOCKS
  0
BLOCK
  5
5D
330
2
100
AcDbEntity
  8
0
100
AcDbBlockBegin
  2
*MODEL_SPACE
 70
     0
 10
0.0
 20
0.0
 30
0.0
  3
*MODEL_SPACE
  1

  0
ENDBLK
  5
5F
330
2
100
AcDbEntity
  8
0
100
AcDbBlockEnd
  0
BLOCK
  5
19D9
330
19CC
100
AcDbEntity
 67
     1
  8
0
100
AcDbBlockBegin
  2
*PAPER_SPACE
 70
     0
 10
0.0
 20
0.0
 30
0.0
  3
*PAPER_SPACE
  1

  0
ENDBLK
  5
19DA
330
19CC
100
AcDbEntity
 67
     1
  8
0
100
AcDbBlockEnd
  0
BLOCK
  5
463
330
40C
100
AcDbEntity
  8
0
100
AcDbBlockBegin
  2
外寸枠A4テンプレート
 70
     2
 10
0.0
 20
0.0
 30
0.0
  3
外寸枠A4テンプレート
  1

  0
LWPOLYLINE
  5
40D
330
40C
100
AcDbEntity
  8
WAKU
100
AcDbPolyline
 90
        4
 70
     1
 43
0.0
 10
3.0
 20
4.0
 10
280.0
 20
4.0
 10
280.0
 20
194.0
 10
3.0
 20
194.0
  0
LWPOLYLINE
  5
40E
330
40C
100
AcDbEntity
  8
WAKU
100
AcDbPolyline
 90
        4
 70
     1
 43
0.0
 10
3.0
 20
4.0
 10
280.0
 20
4.0
 10
280.0
 20
194.0
 10
3.0
 20
194.0
  0
LINE
  5
40F
330
40C
100
AcDbEntity
  8
WAKU
100
AcDbLine
 10
280.0
 20
182.0
 30
0.0
 11
226.4018178786999
 21
182.0
 31
0.0
  0
TEXT
  5
410
330
40C
100
AcDbEntity
  8
WAKU
 62
     6
100
AcDbText
 10
228.3816999999999
 20
190.11095
 30
0.0
 40
2.1213
  1
REVISIONS
 41
0.7
100
AcDbText
  0
LINE
  5
411
330
40C
100
AcDbEntity
  8
WAKU
100
AcDbLine
 10
226.4018178786999
 20
194.0
 30
0.0
 11
226.4018178786999
 21
181.9999999999999
 31
0.0
  0
LINE
  5
412
330
40C
100
AcDbEntity
  8
WAKU
 62
     6
100
AcDbLine
 10
203.6331999999998
 20
29.0030567071
 30
0.0
 11
280.0
 21
29.0030567071
 31
0.0
  0
LINE
  5
413
330
40C
100
AcDbEntity
  8
WAKU
 62
     6
100
AcDbLine
 10
203.6331999999998
 20
24.47761529289999
 30
0.0
 11
280.0
 21
24.47761529289999
 31
0.0
  0
LINE
  5
414
330
40C
100
AcDbEntity
  8
WAKU
 62
     6
100
AcDbLine
 10
203.6331999999998
 20
19.9521752929
 30
0.0
 11
280.0
 21
19.9521752929
 31
0.0
  0
LINE
  5
415
330
40C
100
AcDbEntity
  8
WAKU
 62
     6
100
AcDbLine
 10
203.6331999999998
 20
15.42673599999999
 30
0.0
 11
280.0
 21
15.42673599999999
 31
0.0
  0
LINE
  5
416
330
40C
100
AcDbEntity
  8
WAKU
 62
     6
100
AcDbLine
 10
203.6331999999998
 20
29.0030567071
 30
0.0
 11
280.0
 21
29.0030567071
 31
0.0
  0
LINE
  5
417
330
40C
100
AcDbEntity
  8
WAKU
 62
     6
100
AcDbLine
 10
203.6331999999998
 20
24.47761529289999
 30
0.0
 11
280.0
 21
24.47761529289999
 31
0.0
  0
LINE
  5
418
330
40C
100
AcDbEntity
  8
WAKU
 62
     6
100
AcDbLine
 10
203.6331999999998
 20
19.9521752929
 30
0.0
 11
280.0
 21
19.9521752929
 31
0.0
  0
LINE
  5
419
330
40C
100
AcDbEntity
  8
WAKU
 62
     6
100
AcDbLine
 10
203.6331999999998
 20
15.42673599999999
 30
0.0
 11
280.0
 21
15.42673599999999
 31
0.0
  0
LINE
  5
41A
330
40C
100
AcDbEntity
  8
WAKU
 62
     6
100
AcDbLine
 10
203.6331999999998
 20
29.0030567071
 30
0.0
 11
280.0
 21
29.0030567071
 31
0.0
  0
LINE
  5
41B
330
40C
100
AcDbEntity
  8
WAKU
 62
     6
100
AcDbLine
 10
203.6331999999998
 20
24.47761529289999
 30
0.0
 11
280.0
 21
24.47761529289999
 31
0.0
  0
LINE
  5
41C
330
40C
100
AcDbEntity
  8
WAKU
 62
     6
100
AcDbLine
 10
203.6331999999998
 20
19.9521752929
 30
0.0
 11
280.0
 21
19.9521752929
 31
0.0
  0
LINE
  5
41D
330
40C
100
AcDbEntity
  8
WAKU
 62
     6
100
AcDbLine
 10
203.6331999999998
 20
15.42673599999999
 30
0.0
 11
280.0
 21
15.42673599999999
 31
0.0
  0
LINE
  5
41E
330
40C
100
AcDbEntity
  8
WAKU
100
AcDbLine
 10
203.6331999999998
 20
38.053936
 30
0.0
 11
280.0
 21
38.053936
 31
0.0
  0
LINE
  5
41F
330
40C
100
AcDbEntity
  8
WAKU
100
AcDbLine
 10
203.6331999999998
 20
38.053936
 30
0.0
 11
280.0
 21
38.053936
 31
0.0
  0
LINE
  5
420
330
40C
100
AcDbEntity
  8
WAKU
100
AcDbLine
 10
203.6331999999998
 20
38.053936
 30
0.0
 11
280.0
 21
38.053936
 31
0.0
  0
TEXT
  5
421
330
40C
100
AcDbEntity
  8
WAKU
 62
     6
100
AcDbText
 10
231.4464545235218
 20
12.856420429
 30
0.0
 40
1.76775
  1
SCALE
 41
0.7
100
AcDbText
  0
TEXT
  5
422
330
40C
100
AcDbEntity
  8
TEXT
100
AcDbText
 10
228.8293221750166
 20
29.96641277760619
 30
0.0
 40
2.5
  1
外　形　寸　法　図
100
AcDbText
  0
ATTDEF
  5
423
330
40C
100
AcDbEntity
  8
TEXT
100
AcDbText
 10
241.8165999999999
 20
35.58735183158626
 30
0.0
 40
2.500000000000001
  1

 72
     4
 11
241.8165999999999
 21
35.58735183158626
 31
0.0
100
AcDbAttributeDefinition
  3
タイトル
  2
T　I　T　L　E
 70
     0
  0
LINE
  5
424
330
40C
100
AcDbEntity
  8
WAKU
100
AcDbLine
 10
203.6331999999998
 20
38.053936
 30
0.0
 11
203.6331999999998
 21
3.999999999999998
 31
0.0
  0
LINE
  5
425
330
40C
100
AcDbEntity
  8
WAKU
100
AcDbLine
 10
203.6331999999998
 20
38.053936
 30
0.0
 11
203.6331999999998
 21
3.999999999999998
 31
0.0
  0
LINE
  5
426
330
40C
100
AcDbEntity
  8
WAKU
100
AcDbLine
 10
203.6331999999998
 20
38.053936
 30
0.0
 11
203.6331999999998
 21
3.999999999999998
 31
0.0
  0
TEXT
  5
427
330
40C
100
AcDbEntity
  8
WAKU
 62
     6
100
AcDbText
 10
204.7645642425999
 20
25.805189179
 30
0.0
 40
2.1213
  1
DRAWING  NO.
 41
0.7
100
AcDbText
  0
TEXT
  5
428
330
40C
100
AcDbEntity
  8
WAKU
 62
     6
100
AcDbText
 10
204.7645642425999
 20
16.75430988609998
 30
0.0
 40
2.1213
  1
NOTICE
 41
0.7
100
AcDbText
  0
TEXT
  5
429
330
40C
100
AcDbEntity
  8
WAKU
 62
     6
100
AcDbText
 10
204.8446469479863
 20
12.674695729
 30
0.0
 40
1.8097340625
  1
APPROVE
 41
0.512174
100
AcDbText
  0
TEXT
  5
42A
330
40C
100
AcDbEntity
  8
WAKU
 62
     6
100
AcDbText
 10
204.7645642425999
 20
21.279749179
 30
0.0
 40
2.1213
  1
USER
 41
0.7
100
AcDbText
  0
TEXT
  5
42B
330
40C
100
AcDbEntity
  8
WAKU
 62
     6
100
AcDbText
 10
222.3147516895863
 20
12.6973292929
 30
0.0
 40
1.7832163983
  1
DESIGN
 41
0.5729449999999999
100
AcDbText
  0
LINE
  5
42C
330
40C
100
AcDbEntity
  8
WAKU
 62
     6
100
AcDbLine
 10
212.3823646725999
 20
15.42673599999999
 30
0.0
 11
212.3823646725999
 21
3.999999999999998
 31
0.0
  0
LINE
  5
42D
330
40C
100
AcDbEntity
  8
WAKU
 62
     6
100
AcDbLine
 10
212.3823646725999
 20
15.42673599999999
 30
0.0
 11
212.3823646725999
 21
3.999999999999998
 31
0.0
  0
LINE
  5
42E
330
40C
100
AcDbEntity
  8
WAKU
 62
     6
100
AcDbLine
 10
212.3823646725999
 20
15.42673599999999
 30
0.0
 11
212.3823646725999
 21
3.999999999999998
 31
0.0
  0
LINE
  5
42F
330
40C
100
AcDbEntity
  8
WAKU
 62
     6
100
AcDbLine
 10
221.1033047415999
 20
15.42673599999999
 30
0.0
 11
221.1033047415999
 21
3.999999999999998
 31
0.0
  0
LINE
  5
430
330
40C
100
AcDbEntity
  8
WAKU
 62
     6
100
AcDbLine
 10
221.1033047415999
 20
15.42673599999999
 30
0.0
 11
221.1033047415999
 21
3.999999999999998
 31
0.0
  0
LINE
  5
431
330
40C
100
AcDbEntity
  8
WAKU
 62
     6
100
AcDbLine
 10
221.1033047415999
 20
15.42673599999999
 30
0.0
 11
221.1033047415999
 21
3.999999999999998
 31
0.0
  0
TEXT
  5
432
330
40C
100
AcDbEntity
  8
WAKU
 62
     6
100
AcDbText
 10
213.5938010140863
 20
12.674695729
 30
0.0
 40
1.76775
  1
CHECK
 41
0.7
100
AcDbText
  0
LINE
  5
433
330
40C
100
AcDbEntity
  8
WAKU
 62
     6
100
AcDbLine
 10
229.8241790502999
 20
15.42673599999999
 30
0.0
 11
229.8241790502999
 21
3.999999999999998
 31
0.0
  0
LINE
  5
434
330
40C
100
AcDbEntity
  8
WAKU
 62
     6
100
AcDbLine
 10
229.8241790502999
 20
15.42673599999999
 30
0.0
 11
229.8241790502999
 21
3.999999999999998
 31
0.0
  0
LINE
  5
435
330
40C
100
AcDbEntity
  8
WAKU
 62
     6
100
AcDbLine
 10
229.8241790502999
 20
15.42673599999999
 30
0.0
 11
229.8241790502999
 21
3.999999999999998
 31
0.0
  0
TEXT
  5
436
330
40C
100
AcDbEntity
  8
WAKU
 62
     6
100
AcDbText
 10
204.7645642425999
 20
35.31568488609999
 30
0.0
 40
2.1213
  1
TITLE
 41
0.7
100
AcDbText
  0
ATTDEF
  5
437
330
40C
100
AcDbEntity
  8
TEXT
100
AcDbText
 10
234.056163734276
 20
8.134449518875573
 30
0.0
 40
2.0
  1

 72
     4
 11
234.056163734276
 21
8.134449518875573
 31
0.0
100
AcDbAttributeDefinition
  3
SCALE
  2
FREE
 70
     0
  0
ATTDEF
  5
438
330
40C
100
AcDbEntity
  8
TEXT
100
AcDbText
 10
207.865184683976
 20
8.134449518875573
 30
0.0
 40
2.500000000000004
  1

 72
     4
 11
207.865184683976
 21
8.134449518875573
 31
0.0
100
AcDbAttributeDefinition
  3
承認
  2
海野
 70
     0
  0
ATTDEF
  5
439
330
40C
100
AcDbEntity
  8
TEXT
100
AcDbText
 10
225.335289425576
 20
8.134449518875575
 30
0.0
 40
2.500000000000004
  1

 72
     4
 11
225.335289425576
 21
8.134449518875575
 31
0.0
100
AcDbAttributeDefinition
  3
作成
  2
鳥居
 70
     0
  0
ATTDEF
  5
43A
330
40C
100
AcDbEntity
  8
TEXT
100
AcDbText
 10
216.614349356576
 20
8.134449518875575
 30
0.0
 40
2.500000000000004
  1

 72
     4
 11
216.614349356576
 21
8.134449518875575
 31
0.0
100
AcDbAttributeDefinition
  3
確認
  2
永坂
 70
     0
  0
LINE
  5
43B
330
40C
100
AcDbEntity
  8
WAKU
 62
     6
100
AcDbLine
 10
238.6487948283999
 20
8.638576
 30
0.0
 11
280.0
 21
8.638576
 31
0.0
  0
LINE
  5
43C
330
40C
100
AcDbEntity
  8
WAKU
 62
     6
100
AcDbLine
 10
238.6487948283999
 20
8.638576
 30
0.0
 11
280.0
 21
8.638576
 31
0.0
  0
LINE
  5
43D
330
40C
100
AcDbEntity
  8
WAKU
 62
     6
100
AcDbLine
 10
238.6487948283999
 20
8.638576
 30
0.0
 11
280.0
 21
8.638576
 31
0.0
  0
TEXT
  5
43E
330
40C
100
AcDbEntity
  8
WAKU
 62
     6
100
AcDbText
 10
241.15294501234
 20
5.246258800300003
 30
0.0
 40
2.1213
  1
NISSEI  CORPORATION
100
AcDbText
  0
LINE
  5
43F
330
40C
100
AcDbEntity
  8
WAKU
100
AcDbLine
 10
246.5683127070999
 20
13.02259600000001
 30
0.0
 11
250.5280769496998
 21
14.01253599999999
 31
0.0
  0
LINE
  5
440
330
40C
100
AcDbEntity
  8
WAKU
100
AcDbLine
 10
246.5683127070999
 20
13.02259600000001
 30
0.0
 11
250.5280769496998
 21
14.01253599999999
 31
0.0
  0
LINE
  5
441
330
40C
100
AcDbEntity
  8
WAKU
100
AcDbLine
 10
246.5683127070999
 20
13.02259600000001
 30
0.0
 11
250.5280769496998
 21
14.01253599999999
 31
0.0
  0
LINE
  5
442
330
40C
100
AcDbEntity
  8
WAKU
100
AcDbLine
 10
246.5683127070999
 20
11.0427152929
 30
0.0
 11
250.5280769496998
 21
10.052776
 31
0.0
  0
LINE
  5
443
330
40C
100
AcDbEntity
  8
WAKU
100
AcDbLine
 10
246.5683127070999
 20
11.0427152929
 30
0.0
 11
250.5280769496998
 21
10.052776
 31
0.0
  0
LINE
  5
444
330
40C
100
AcDbEntity
  8
WAKU
100
AcDbLine
 10
246.5683127070999
 20
11.0427152929
 30
0.0
 11
250.5280769496998
 21
10.052776
 31
0.0
  0
LINE
  5
445
330
40C
100
AcDbEntity
  8
CENTER
 62
     6
100
AcDbLine
 10
239.4478107573998
 20
12.0326567071
 30
0.0
 11
251.3624499999998
 21
12.0326567071
 31
0.0
  0
LINE
  5
446
330
40C
100
AcDbEntity
  8
CENTER
 62
     6
100
AcDbLine
 10
239.4478107573998
 20
12.0326567071
 30
0.0
 11
251.3624499999998
 21
12.0326567071
 31
0.0
  0
LINE
  5
447
330
40C
100
AcDbEntity
  8
CENTER
 62
     6
100
AcDbLine
 10
239.4478107573998
 20
12.0326567071
 30
0.0
 11
251.3624499999998
 21
12.0326567071
 31
0.0
  0
LINE
  5
448
330
40C
100
AcDbEntity
  8
WAKU
 62
     6
100
AcDbLine
 10
238.6487948283999
 20
15.42673599999999
 30
0.0
 11
238.6487948283999
 21
3.999999999999998
 31
0.0
  0
LINE
  5
449
330
40C
100
AcDbEntity
  8
WAKU
 62
     6
100
AcDbLine
 10
238.6487948283999
 20
15.42673599999999
 30
0.0
 11
238.6487948283999
 21
3.999999999999998
 31
0.0
  0
LINE
  5
44A
330
40C
100
AcDbEntity
  8
WAKU
 62
     6
100
AcDbLine
 10
238.6487948283999
 20
15.42673599999999
 30
0.0
 11
238.6487948283999
 21
3.999999999999998
 31
0.0
  0
CIRCLE
  5
44B
330
40C
100
AcDbEntity
  8
WAKU
100
AcDbCircle
 10
242.0428769496999
 20
12.0326567071
 30
0.0
 40
0.9899399999999999
  0
CIRCLE
  5
44C
330
40C
100
AcDbEntity
  8
WAKU
100
AcDbCircle
 10
242.0428769496999
 20
12.0326567071
 30
0.0
 40
0.9899399999999999
  0
CIRCLE
  5
44D
330
40C
100
AcDbEntity
  8
WAKU
100
AcDbCircle
 10
242.0428769496999
 20
12.0326567071
 30
0.0
 40
0.9899399999999999
  0
CIRCLE
  5
44E
330
40C
100
AcDbEntity
  8
WAKU
100
AcDbCircle
 10
242.0428769496999
 20
12.0326567071
 30
0.0
 40
1.979879999999999
  0
CIRCLE
  5
44F
330
40C
100
AcDbEntity
  8
WAKU
100
AcDbCircle
 10
242.0428769496999
 20
12.0326567071
 30
0.0
 40
1.979879999999999
  0
CIRCLE
  5
450
330
40C
100
AcDbEntity
  8
WAKU
100
AcDbCircle
 10
242.0428769496999
 20
12.0326567071
 30
0.0
 40
1.979879999999999
  0
LINE
  5
451
330
40C
100
AcDbEntity
  8
WAKU
100
AcDbLine
 10
246.5683127070999
 20
13.02259600000001
 30
0.0
 11
246.5683127070999
 21
11.0427152929
 31
0.0
  0
LINE
  5
452
330
40C
100
AcDbEntity
  8
WAKU
100
AcDbLine
 10
246.5683127070999
 20
13.02259600000001
 30
0.0
 11
246.5683127070999
 21
11.0427152929
 31
0.0
  0
LINE
  5
453
330
40C
100
AcDbEntity
  8
WAKU
100
AcDbLine
 10
246.5683127070999
 20
13.02259600000001
 30
0.0
 11
246.5683127070999
 21
11.0427152929
 31
0.0
  0
LINE
  5
454
330
40C
100
AcDbEntity
  8
CENTER
 62
     6
100
AcDbLine
 10
242.0428769496999
 20
14.96005
 30
0.0
 11
242.0428769496999
 21
9.267895000000009
 31
0.0
  0
LINE
  5
455
330
40C
100
AcDbEntity
  8
CENTER
 62
     6
100
AcDbLine
 10
242.0428769496999
 20
14.96005
 30
0.0
 11
242.0428769496999
 21
9.267895000000009
 31
0.0
  0
LINE
  5
456
330
40C
100
AcDbEntity
  8
CENTER
 62
     6
100
AcDbLine
 10
242.0428769496999
 20
14.96005
 30
0.0
 11
242.0428769496999
 21
9.267895000000009
 31
0.0
  0
TEXT
  5
457
330
40C
100
AcDbEntity
  8
TEXT
100
AcDbText
 10
257.3078171288039
 20
9.492177985111482
 30
0.0
 40
2.0
  1
mm
100
AcDbText
  0
LINE
  5
458
330
40C
100
AcDbEntity
  8
WAKU
 62
     6
100
AcDbLine
 10
252.2251127070999
 20
15.42673599999999
 30
0.0
 11
252.2251127070999
 21
8.638576
 31
0.0
  0
LINE
  5
459
330
40C
100
AcDbEntity
  8
WAKU
 62
     6
100
AcDbLine
 10
252.2251127070999
 20
15.42673599999999
 30
0.0
 11
252.2251127070999
 21
8.638576
 31
0.0
  0
LINE
  5
45A
330
40C
100
AcDbEntity
  8
WAKU
 62
     6
100
AcDbLine
 10
252.2251127070999
 20
15.42673599999999
 30
0.0
 11
252.2251127070999
 21
8.638576
 31
0.0
  0
LINE
  5
45B
330
40C
100
AcDbEntity
  8
WAKU
100
AcDbLine
 10
250.5280769496998
 20
14.01253599999999
 30
0.0
 11
250.5280769496998
 21
10.052776
 31
0.0
  0
LINE
  5
45C
330
40C
100
AcDbEntity
  8
WAKU
100
AcDbLine
 10
250.5280769496998
 20
14.01253599999999
 30
0.0
 11
250.5280769496998
 21
10.052776
 31
0.0
  0
LINE
  5
45D
330
40C
100
AcDbEntity
  8
WAKU
100
AcDbLine
 10
250.5280769496998
 20
14.01253599999999
 30
0.0
 11
250.5280769496998
 21
10.052776
 31
0.0
  0
TEXT
  5
45E
330
40C
100
AcDbEntity
  8
WAKU
 62
     6
100
AcDbText
 10
253.4130357573999
 20
13.0508792929
 30
0.0
 40
1.76775
  1
UNIT
 41
0.7
100
AcDbText
  0
TEXT
  5
45F
330
40C
100
AcDbEntity
  8
WAKU
 62
     6
100
AcDbText
 10
266.9893642426
 20
13.0508792929
 30
0.0
 40
1.76775
  1
DATE
 41
0.7
100
AcDbText
  0
LINE
  5
460
330
40C
100
AcDbEntity
  8
WAKU
 62
     6
100
AcDbLine
 10
265.7448611715999
 20
15.42673599999999
 30
0.0
 11
265.7448611715999
 21
8.638576
 31
0.0
  0
LINE
  5
461
330
40C
100
AcDbEntity
  8
WAKU
 62
     6
100
AcDbLine
 10
265.7448611715999
 20
15.42673599999999
 30
0.0
 11
265.7448611715999
 21
8.638576
 31
0.0
  0
LINE
  5
462
330
40C
100
AcDbEntity
  8
WAKU
 62
     6
100
AcDbLine
 10
265.7448611715999
 20
15.42673599999999
 30
0.0
 11
265.7448611715999
 21
8.638576
 31
0.0
  0
ENDBLK
  5
464
330
40C
100
AcDbEntity
  8
0
100
AcDbBlockEnd
  0
BLOCK
  5
194F
330
194D
100
AcDbEntity
  8
0
100
AcDbBlockBegin
  2
1
 70
     0
 10
0.0
 20
0.0
 30
0.0
  3
1
  1

  0
TEXT
  5
194E
330
194D
100
AcDbEntity
  8
0
100
AcDbText
 10
0.0
 20
0.0
 30
0.0
 40
2.0
  1
注。出力軸キーは JIS B 1301-1976平行キーに依ります。
100
AcDbText
  0
ENDBLK
  5
1950
330
194D
100
AcDbEntity
  8
0
100
AcDbBlockEnd
  0
BLOCK
  5
1A5E
330
1A5B
100
AcDbEntity
  8
0
100
AcDbBlockBegin
  2
10
 70
     0
 10
0.0
 20
0.0
 30
0.0
  3
10
  1

  0
TEXT
  5
1A5C
330
1A5B
100
AcDbEntity
  8
0
100
AcDbText
 10
0.0
 20
3.5
 30
0.0
 40
2.0
  1
注。モータにはリード線が5本あり、内3本は U,V,W、
100
AcDbText
  0
TEXT
  5
1A5D
330
1A5B
100
AcDbEntity
  8
0
100
AcDbText
 10
0.0
 20
0.0
 30
0.0
 40
2.0
  1
　　他の2本はブレーキ用200V端子（赤色リード線）になっています。
100
AcDbText
  0
ENDBLK
  5
1A5F
330
1A5B
100
AcDbEntity
  8
0
100
AcDbBlockEnd
  0
BLOCK
  5
1A96
330
1A7F
100
AcDbEntity
  8
0
100
AcDbBlockBegin
  2
BSPEC_90-90-0038
 70
     0
 10
0.0
 20
0.0
 30
0.0
  3
BSPEC_90-90-0038
  1

  0
TEXT
  5
1A80
330
1A7F
100
AcDbEntity
  8
0
100
AcDbText
 10
35.94757247309064
 20
40.47485
 30
0.0
 40
2.0
  1
ブレーキ仕様
100
AcDbText
  0
LINE
  5
1A81
330
1A7F
100
AcDbEntity
  8
0
100
AcDbLine
 10
35.94757247309064
 20
40.12129999999999
 30
0.0
 11
50.05242752690936
 21
40.12129999999999
 31
0.0
  0
LINE
  5
1A82
330
1A7F
100
AcDbEntity
  8
0
100
AcDbLine
 10
35.94757247309064
 20
39.41419999999999
 30
0.0
 11
50.05242752690936
 21
39.41419999999999
 31
0.0
  0
TEXT
  5
1A83
330
1A7F
100
AcDbEntity
  8
0
100
AcDbText
 10
29.35319943225727
 20
21.29776682820352
 30
0.0
 40
2.0
  1
0.37N・m（0.038kgf・m）
100
AcDbText
  0
TEXT
  5
1A84
330
1A7F
100
AcDbEntity
  8
0
100
AcDbText
 10
29.35319943225727
 20
24.56510000000003
 30
0.0
 40
2.0
  1
12 W （於75℃）
100
AcDbText
  0
TEXT
  5
1A85
330
1A7F
100
AcDbEntity
  8
0
100
AcDbText
 10
29.35319943225727
 20
31.6361
 30
0.0
 40
2.0
  1
無励磁作動形（スプリングクローズ）
100
AcDbText
  0
LINE
  5
1A86
330
1A7F
100
AcDbEntity
  8
0
100
AcDbLine
 10
17.0
 20
20.32249999999996
 30
0.0
 11
69.0
 21
20.32249999999996
 31
0.0
  0
LINE
  5
1A87
330
1A7F
100
AcDbEntity
  8
0
100
AcDbLine
 10
17.0
 20
23.85799999999994
 30
0.0
 11
69.0
 21
23.85799999999994
 31
0.0
  0
LINE
  5
1A88
330
1A7F
100
AcDbEntity
  8
0
100
AcDbLine
 10
17.0
 20
27.39349999999999
 30
0.0
 11
69.0
 21
27.39349999999999
 31
0.0
  0
LINE
  5
1A89
330
1A7F
100
AcDbEntity
  8
0
100
AcDbLine
 10
17.0
 20
30.929
 30
0.0
 11
69.0
 21
30.92899999999997
 31
0.0
  0
LINE
  5
1A8A
330
1A7F
100
AcDbEntity
  8
0
100
AcDbLine
 10
17.0
 20
34.46450000000001
 30
0.0
 11
69.0
 21
34.46450000000001
 31
0.0
  0
LINE
  5
1A8B
330
1A7F
100
AcDbEntity
  8
0
100
AcDbLine
 10
17.0
 20
38.0
 30
0.0
 11
69.0
 21
38.0
 31
0.0
  0
TEXT
  5
1A8C
330
1A7F
100
AcDbEntity
  8
0
100
AcDbText
 10
29.35319943225727
 20
28.10060000000001
 30
0.0
 40
2.0
  1
DC 90V
100
AcDbText
  0
TEXT
  5
1A8D
330
1A7F
100
AcDbEntity
  8
0
100
AcDbText
 10
17.67809444174622
 20
28.10059999999998
 30
0.0
 40
2.0
  1
入力電圧
100
AcDbText
  0
LINE
  5
1A8E
330
1A7F
100
AcDbEntity
  8
0
100
AcDbLine
 10
28.5
 20
20.32249999999996
 30
0.0
 11
28.5
 21
38.0
 31
0.0
  0
LINE
  5
1A8F
330
1A7F
100
AcDbEntity
  8
0
100
AcDbLine
 10
17.0
 20
20.32249999999996
 30
0.0
 11
17.0
 21
38.0
 31
0.0
  0
TEXT
  5
1A90
330
1A7F
100
AcDbEntity
  8
0
100
AcDbText
 10
17.67809444174622
 20
20.93604220928048
 30
0.0
 40
2.0
  1
定格トルク
 41
0.85
100
AcDbText
  0
TEXT
  5
1A91
330
1A7F
100
AcDbEntity
  8
0
100
AcDbText
 10
17.67809444174622
 20
24.56509999999994
 30
0.0
 40
2.0
  1
容量
100
AcDbText
  0
TEXT
  5
1A92
330
1A7F
100
AcDbEntity
  8
0
100
AcDbText
 10
17.67809444174622
 20
35.17159999999998
 30
0.0
 40
2.0
  1
型式
100
AcDbText
  0
TEXT
  5
1A93
330
1A7F
100
AcDbEntity
  8
0
100
AcDbText
 10
17.67809444174622
 20
31.6361
 30
0.0
 40
2.0
  1
方式
100
AcDbText
  0
TEXT
  5
1A94
330
1A7F
100
AcDbEntity
  8
0
100
AcDbText
 10
29.35319943225727
 20
35.17159999999998
 30
0.0
 40
2.0
  1
BS-90
100
AcDbText
  0
LINE
  5
1A95
330
1A7F
100
AcDbEntity
  8
0
100
AcDbLine
 10
69.0
 20
20.32249999999996
 30
0.0
 11
69.0
 21
38.0
 31
0.0
  0
ENDBLK
  5
1A97
330
1A7F
100
AcDbEntity
  8
0
100
AcDbBlockEnd
  0
BLOCK
  5
1AE6
330
1ACF
100
AcDbEntity
  8
0
100
AcDbBlockBegin
  2
BSPEC_90-45-0038
 70
     0
 10
0.0
 20
0.0
 30
0.0
  3
BSPEC_90-45-0038
  1

  0
TEXT
  5
1AD0
330
1ACF
100
AcDbEntity
  8
0
100
AcDbText
 10
35.94757247309064
 20
40.47485
 30
0.0
 40
2.0
  1
ブレーキ仕様
100
AcDbText
  0
LINE
  5
1AD1
330
1ACF
100
AcDbEntity
  8
0
100
AcDbLine
 10
35.94757247309064
 20
40.12129999999999
 30
0.0
 11
50.05242752690936
 21
40.12129999999999
 31
0.0
  0
LINE
  5
1AD2
330
1ACF
100
AcDbEntity
  8
0
100
AcDbLine
 10
35.94757247309064
 20
39.41419999999999
 30
0.0
 11
50.05242752690936
 21
39.41419999999999
 31
0.0
  0
TEXT
  5
1AD3
330
1ACF
100
AcDbEntity
  8
0
100
AcDbText
 10
29.35319943225727
 20
21.29776682820352
 30
0.0
 40
2.0
  1
0.37N・m（0.038kgf・m）
100
AcDbText
  0
TEXT
  5
1AD4
330
1ACF
100
AcDbEntity
  8
0
100
AcDbText
 10
29.35319943225727
 20
24.56510000000003
 30
0.0
 40
2.0
  1
10 W （於75℃）
100
AcDbText
  0
TEXT
  5
1AD5
330
1ACF
100
AcDbEntity
  8
0
100
AcDbText
 10
29.35319943225727
 20
31.6361
 30
0.0
 40
2.0
  1
無励磁作動形（スプリングクローズ）
100
AcDbText
  0
LINE
  5
1AD6
330
1ACF
100
AcDbEntity
  8
0
100
AcDbLine
 10
17.0
 20
20.32249999999996
 30
0.0
 11
69.0
 21
20.32249999999996
 31
0.0
  0
LINE
  5
1AD7
330
1ACF
100
AcDbEntity
  8
0
100
AcDbLine
 10
17.0
 20
23.85799999999994
 30
0.0
 11
69.0
 21
23.85799999999994
 31
0.0
  0
LINE
  5
1AD8
330
1ACF
100
AcDbEntity
  8
0
100
AcDbLine
 10
17.0
 20
27.39349999999999
 30
0.0
 11
69.0
 21
27.39349999999999
 31
0.0
  0
LINE
  5
1AD9
330
1ACF
100
AcDbEntity
  8
0
100
AcDbLine
 10
17.0
 20
30.929
 30
0.0
 11
69.0
 21
30.92899999999997
 31
0.0
  0
LINE
  5
1ADA
330
1ACF
100
AcDbEntity
  8
0
100
AcDbLine
 10
17.0
 20
34.46450000000001
 30
0.0
 11
69.0
 21
34.46450000000001
 31
0.0
  0
LINE
  5
1ADB
330
1ACF
100
AcDbEntity
  8
0
100
AcDbLine
 10
17.0
 20
38.0
 30
0.0
 11
69.0
 21
38.0
 31
0.0
  0
TEXT
  5
1ADC
330
1ACF
100
AcDbEntity
  8
0
100
AcDbText
 10
29.35319943225727
 20
28.10060000000001
 30
0.0
 40
2.0
  1
DC 45V
100
AcDbText
  0
TEXT
  5
1ADD
330
1ACF
100
AcDbEntity
  8
0
100
AcDbText
 10
17.67809444174622
 20
28.10059999999998
 30
0.0
 40
2.0
  1
入力電圧
100
AcDbText
  0
LINE
  5
1ADE
330
1ACF
100
AcDbEntity
  8
0
100
AcDbLine
 10
28.5
 20
20.32249999999996
 30
0.0
 11
28.5
 21
38.0
 31
0.0
  0
LINE
  5
1ADF
330
1ACF
100
AcDbEntity
  8
0
100
AcDbLine
 10
17.0
 20
20.32249999999996
 30
0.0
 11
17.0
 21
38.0
 31
0.0
  0
TEXT
  5
1AE0
330
1ACF
100
AcDbEntity
  8
0
100
AcDbText
 10
17.67809444174622
 20
20.93604220928048
 30
0.0
 40
2.0
  1
定格トルク
 41
0.85
100
AcDbText
  0
TEXT
  5
1AE1
330
1ACF
100
AcDbEntity
  8
0
100
AcDbText
 10
17.67809444174622
 20
24.56509999999994
 30
0.0
 40
2.0
  1
容量
100
AcDbText
  0
TEXT
  5
1AE2
330
1ACF
100
AcDbEntity
  8
0
100
AcDbText
 10
17.67809444174622
 20
35.17159999999998
 30
0.0
 40
2.0
  1
型式
100
AcDbText
  0
TEXT
  5
1AE3
330
1ACF
100
AcDbEntity
  8
0
100
AcDbText
 10
17.67809444174622
 20
31.6361
 30
0.0
 40
2.0
  1
方式
100
AcDbText
  0
TEXT
  5
1AE4
330
1ACF
100
AcDbEntity
  8
0
100
AcDbText
 10
29.35319943225727
 20
35.17159999999998
 30
0.0
 40
2.0
  1
BS-90
100
AcDbText
  0
LINE
  5
1AE5
330
1ACF
100
AcDbEntity
  8
0
100
AcDbLine
 10
69.0
 20
20.32249999999996
 30
0.0
 11
69.0
 21
38.0
 31
0.0
  0
ENDBLK
  5
1AE7
330
1ACF
100
AcDbEntity
  8
0
100
AcDbBlockEnd
  0
BLOCK
  5
1B16
330
1AF9
100
AcDbEntity
  8
0
100
AcDbBlockBegin
  2
GSPEC_F2F-15T-10-240
 70
     0
 10
0.0
 20
0.0
 30
0.0
  3
GSPEC_F2F-15T-10-240
  1

  0
LINE
  5
1AFA
330
1AF9
100
AcDbEntity
  8
0
100
AcDbLine
 10
131.0
 20
13.25149999999988
 30
0.0
 11
183.0
 21
13.25149999999988
 31
0.0
  0
LINE
  5
1AFB
330
1AF9
100
AcDbEntity
  8
0
100
AcDbLine
 10
131.0
 20
9.715999999999894
 30
0.0
 11
183.0
 21
9.715999999999894
 31
0.0
  0
LINE
  5
1AFC
330
1AF9
100
AcDbEntity
  8
0
100
AcDbLine
 10
131.0
 20
16.78699999999986
 30
0.0
 11
183.0
 21
16.78699999999986
 31
0.0
  0
LINE
  5
1AFD
330
1AF9
100
AcDbEntity
  8
0
100
AcDbLine
 10
131.0
 20
34.46450000000001
 30
0.0
 11
183.0
 21
34.46450000000001
 31
0.0
  0
LINE
  5
1AFE
330
1AF9
100
AcDbEntity
  8
0
100
AcDbLine
 10
131.0
 20
30.929
 30
0.0
 11
183.0
 21
30.92899999999997
 31
0.0
  0
LINE
  5
1AFF
330
1AF9
100
AcDbEntity
  8
0
100
AcDbLine
 10
131.0
 20
38.0
 30
0.0
 11
183.0
 21
38.0
 31
0.0
  0
LINE
  5
1B00
330
1AF9
100
AcDbEntity
  8
0
100
AcDbLine
 10
131.0
 20
9.715999999999894
 30
0.0
 11
131.0
 21
38.0
 31
0.0
  0
TEXT
  5
1B01
330
1AF9
100
AcDbEntity
  8
0
100
AcDbText
 10
131.6780944417463
 20
13.95859999999987
 30
0.0
 40
2.0
  1
潤滑
100
AcDbText
  0
TEXT
  5
1B02
330
1AF9
100
AcDbEntity
  8
0
100
AcDbText
 10
131.6780944417462
 20
10.32954220928042
 30
0.0
 40
2.0
  1
塗色
100
AcDbText
  0
TEXT
  5
1B03
330
1AF9
100
AcDbEntity
  8
0
100
AcDbText
 10
131.6780944417462
 20
22.84191832202132
 30
0.0
 40
2.0
  1
減速比
100
AcDbText
  0
TEXT
  5
1B04
330
1AF9
100
AcDbEntity
  8
0
100
AcDbText
 10
131.6780944417462
 20
31.6361
 30
0.0
 40
2.0
  1
枠番
100
AcDbText
  0
TEXT
  5
1B05
330
1AF9
100
AcDbEntity
  8
0
100
AcDbText
 10
131.6780944417462
 20
35.17159999999998
 30
0.0
 40
2.0
  1
名称
100
AcDbText
  0
LINE
  5
1B06
330
1AF9
100
AcDbEntity
  8
0
100
AcDbLine
 10
183.0
 20
9.715999999999894
 30
0.0
 11
183.0
 21
38.0
 31
0.0
  0
LINE
  5
1B07
330
1AF9
100
AcDbEntity
  8
0
100
AcDbLine
 10
142.5
 20
9.715999999999894
 30
0.0
 11
142.5
 21
38.0
 31
0.0
  0
TEXT
  5
1B08
330
1AF9
100
AcDbEntity
  8
0
100
AcDbText
 10
143.3531994322572
 20
28.10060000000001
 30
0.0
 40
2.0
  1
1/10 1/15 1/20 1/25
100
AcDbText
  0
TEXT
  5
1B09
330
1AF9
100
AcDbEntity
  8
0
100
AcDbText
 10
143.3531994322572
 20
24.56510000000003
 30
0.0
 40
2.0
  1
1/30 1/40 1/50 1/60
100
AcDbText
  0
TEXT
  5
1B0A
330
1AF9
100
AcDbEntity
  8
0
100
AcDbText
 10
143.3531994322572
 20
10.42309999999986
 30
0.0
 40
2.0
  1
グレー（マンセル値 9B6/0.5）
100
AcDbText
  0
LINE
  5
1B0B
330
1AF9
100
AcDbEntity
  8
0
100
AcDbLine
 10
142.5
 20
27.39349999999999
 30
0.0
 11
183.0
 21
27.39349999999999
 31
0.0
  0
TEXT
  5
1B0C
330
1AF9
100
AcDbEntity
  8
0
100
AcDbText
 10
143.3531994322572
 20
13.95859999999987
 30
0.0
 40
2.0
  1
グリース
100
AcDbText
  0
LINE
  5
1B0D
330
1AF9
100
AcDbEntity
  8
0
100
AcDbLine
 10
150.4725366217368
 20
39.41419999999999
 30
0.0
 11
163.5274633782631
 21
39.41419999999999
 31
0.0
  0
LINE
  5
1B0E
330
1AF9
100
AcDbEntity
  8
0
100
AcDbLine
 10
150.4725366217368
 20
40.12129999999999
 30
0.0
 11
163.5274633782631
 21
40.12129999999999
 31
0.0
  0
TEXT
  5
1B0F
330
1AF9
100
AcDbEntity
  8
0
100
AcDbText
 10
151.1299348544099
 20
40.47485
 30
0.0
 40
2.0
  1
減速機仕様
100
AcDbText
  0
TEXT
  5
1B10
330
1AF9
100
AcDbEntity
  8
0
100
AcDbText
 10
143.3531994322572
 20
31.6361
 30
0.0
 40
2.0
  1
15T
100
AcDbText
  0
TEXT
  5
1B11
330
1AF9
100
AcDbEntity
  8
0
100
AcDbText
 10
143.3531994322572
 20
35.17159999999998
 30
0.0
 40
2.0
  1
GTR
100
AcDbText
  0
TEXT
  5
1B12
330
1AF9
100
AcDbEntity
  8
0
100
AcDbText
 10
143.3531994322572
 20
21.02960000000004
 30
0.0
 40
2.0
  1
1/80 1/100 1/120
100
AcDbText
  0
LINE
  5
1B13
330
1AF9
100
AcDbEntity
  8
0
100
AcDbLine
 10
142.5
 20
23.85799999999995
 30
0.0
 11
183.0
 21
23.85799999999994
 31
0.0
  0
LINE
  5
1B14
330
1AF9
100
AcDbEntity
  8
0
100
AcDbLine
 10
142.5
 20
20.32249999999991
 30
0.0
 11
183.0
 21
20.3224999999999
 31
0.0
  0
TEXT
  5
1B15
330
1AF9
100
AcDbEntity
  8
0
100
AcDbText
 10
143.3531994322572
 20
17.4941
 30
0.0
 40
2.0
  1
1/160 1/200 1/240
100
AcDbText
  0
ENDBLK
  5
1B17
330
1AF9
100
AcDbEntity
  8
0
100
AcDbBlockEnd
  0
BLOCK
  5
1B62
330
1B47
100
AcDbEntity
  8
0
100
AcDbBlockBegin
  2
GSPEC_F2F-15T-10-120
 70
     0
 10
0.0
 20
0.0
 30
0.0
  3
GSPEC_F2F-15T-10-120
  1

  0
LINE
  5
1B48
330
1B47
100
AcDbEntity
  8
0
100
AcDbLine
 10
131.0
 20
16.78699999999992
 30
0.0
 11
183.0
 21
16.78699999999992
 31
0.0
  0
LINE
  5
1B49
330
1B47
100
AcDbEntity
  8
0
100
AcDbLine
 10
131.0
 20
13.25149999999993
 30
0.0
 11
183.0
 21
13.25149999999993
 31
0.0
  0
LINE
  5
1B4A
330
1B47
100
AcDbEntity
  8
0
100
AcDbLine
 10
131.0
 20
20.3224999999999
 30
0.0
 11
183.0
 21
20.3224999999999
 31
0.0
  0
LINE
  5
1B4B
330
1B47
100
AcDbEntity
  8
0
100
AcDbLine
 10
131.0
 20
34.46450000000001
 30
0.0
 11
183.0
 21
34.46450000000001
 31
0.0
  0
LINE
  5
1B4C
330
1B47
100
AcDbEntity
  8
0
100
AcDbLine
 10
131.0
 20
30.929
 30
0.0
 11
183.0
 21
30.92899999999997
 31
0.0
  0
LINE
  5
1B4D
330
1B47
100
AcDbEntity
  8
0
100
AcDbLine
 10
131.0
 20
38.0
 30
0.0
 11
183.0
 21
38.0
 31
0.0
  0
LINE
  5
1B4E
330
1B47
100
AcDbEntity
  8
0
100
AcDbLine
 10
131.0
 20
13.25149999999993
 30
0.0
 11
131.0
 21
38.0
 31
0.0
  0
TEXT
  5
1B4F
330
1B47
100
AcDbEntity
  8
0
100
AcDbText
 10
131.6780944417463
 20
17.49409999999991
 30
0.0
 40
2.0
  1
潤滑
100
AcDbText
  0
TEXT
  5
1B50
330
1B47
100
AcDbEntity
  8
0
100
AcDbText
 10
131.6780944417462
 20
13.86504220928046
 30
0.0
 40
2.0
  1
塗色
100
AcDbText
  0
TEXT
  5
1B51
330
1B47
100
AcDbEntity
  8
0
100
AcDbText
 10
131.6780944417462
 20
24.60966832202135
 30
0.0
 40
2.0
  1
減速比
100
AcDbText
  0
TEXT
  5
1B52
330
1B47
100
AcDbEntity
  8
0
100
AcDbText
 10
131.6780944417462
 20
31.6361
 30
0.0
 40
2.0
  1
枠番
100
AcDbText
  0
TEXT
  5
1B53
330
1B47
100
AcDbEntity
  8
0
100
AcDbText
 10
131.6780944417462
 20
35.17159999999998
 30
0.0
 40
2.0
  1
名称
100
AcDbText
  0
LINE
  5
1B54
330
1B47
100
AcDbEntity
  8
0
100
AcDbLine
 10
183.0
 20
13.25149999999993
 30
0.0
 11
183.0
 21
38.0
 31
0.0
  0
LINE
  5
1B55
330
1B47
100
AcDbEntity
  8
0
100
AcDbLine
 10
142.5
 20
13.25149999999993
 30
0.0
 11
142.5
 21
38.0
 31
0.0
  0
TEXT
  5
1B56
330
1B47
100
AcDbEntity
  8
0
100
AcDbText
 10
143.3531994322572
 20
28.10060000000001
 30
0.0
 40
2.0
  1
1/10 1/15 1/20 1/25
100
AcDbText
  0
TEXT
  5
1B57
330
1B47
100
AcDbEntity
  8
0
100
AcDbText
 10
143.3531994322572
 20
24.56510000000003
 30
0.0
 40
2.0
  1
1/30 1/40 1/50 1/60
100
AcDbText
  0
TEXT
  5
1B58
330
1B47
100
AcDbEntity
  8
0
100
AcDbText
 10
143.3531994322572
 20
13.9585999999999
 30
0.0
 40
2.0
  1
グレー（マンセル値 9B6/0.5）
100
AcDbText
  0
LINE
  5
1B59
330
1B47
100
AcDbEntity
  8
0
100
AcDbLine
 10
142.5
 20
27.39349999999999
 30
0.0
 11
183.0
 21
27.39349999999999
 31
0.0
  0
TEXT
  5
1B5A
330
1B47
100
AcDbEntity
  8
0
100
AcDbText
 10
143.3531994322572
 20
17.49409999999991
 30
0.0
 40
2.0
  1
グリース
100
AcDbText
  0
LINE
  5
1B5B
330
1B47
100
AcDbEntity
  8
0
100
AcDbLine
 10
150.4725366217368
 20
39.41419999999999
 30
0.0
 11
163.5274633782631
 21
39.41419999999999
 31
0.0
  0
LINE
  5
1B5C
330
1B47
100
AcDbEntity
  8
0
100
AcDbLine
 10
150.4725366217368
 20
40.12129999999999
 30
0.0
 11
163.5274633782631
 21
40.12129999999999
 31
0.0
  0
TEXT
  5
1B5D
330
1B47
100
AcDbEntity
  8
0
100
AcDbText
 10
151.1299348544099
 20
40.47485
 30
0.0
 40
2.0
  1
減速機仕様
100
AcDbText
  0
TEXT
  5
1B5E
330
1B47
100
AcDbEntity
  8
0
100
AcDbText
 10
143.3531994322572
 20
31.6361
 30
0.0
 40
2.0
  1
15T
100
AcDbText
  0
TEXT
  5
1B5F
330
1B47
100
AcDbEntity
  8
0
100
AcDbText
 10
143.3531994322572
 20
35.17159999999998
 30
0.0
 40
2.0
  1
GTR
100
AcDbText
  0
TEXT
  5
1B60
330
1B47
100
AcDbEntity
  8
0
100
AcDbText
 10
143.3531994322572
 20
21.02960000000004
 30
0.0
 40
2.0
  1
1/80 1/100 1/120
100
AcDbText
  0
LINE
  5
1B61
330
1B47
100
AcDbEntity
  8
0
100
AcDbLine
 10
142.5
 20
23.85799999999995
 30
0.0
 11
183.0
 21
23.85799999999994
 31
0.0
  0
ENDBLK
  5
1B63
330
1B47
100
AcDbEntity
  8
0
100
AcDbBlockEnd
  0
BLOCK
  5
1B81
330
1B68
100
AcDbEntity
  8
0
100
AcDbBlockBegin
  2
GSPEC_F2F-15T-10-60
 70
     0
 10
0.0
 20
0.0
 30
0.0
  3
GSPEC_F2F-15T-10-60
  1

  0
LINE
  5
1B69
330
1B68
100
AcDbEntity
  8
0
100
AcDbLine
 10
131.0
 20
20.3224999999999
 30
0.0
 11
183.0
 21
20.3224999999999
 31
0.0
  0
LINE
  5
1B6A
330
1B68
100
AcDbEntity
  8
0
100
AcDbLine
 10
131.0
 20
16.78699999999992
 30
0.0
 11
183.0
 21
16.78699999999992
 31
0.0
  0
LINE
  5
1B6B
330
1B68
100
AcDbEntity
  8
0
100
AcDbLine
 10
131.0
 20
23.85799999999989
 30
0.0
 11
183.0
 21
23.85799999999989
 31
0.0
  0
LINE
  5
1B6C
330
1B68
100
AcDbEntity
  8
0
100
AcDbLine
 10
131.0
 20
34.46450000000001
 30
0.0
 11
183.0
 21
34.46450000000001
 31
0.0
  0
LINE
  5
1B6D
330
1B68
100
AcDbEntity
  8
0
100
AcDbLine
 10
131.0
 20
30.929
 30
0.0
 11
183.0
 21
30.92899999999997
 31
0.0
  0
LINE
  5
1B6E
330
1B68
100
AcDbEntity
  8
0
100
AcDbLine
 10
131.0
 20
38.0
 30
0.0
 11
183.0
 21
38.0
 31
0.0
  0
LINE
  5
1B6F
330
1B68
100
AcDbEntity
  8
0
100
AcDbLine
 10
131.0
 20
16.78699999999992
 30
0.0
 11
131.0
 21
38.0
 31
0.0
  0
TEXT
  5
1B70
330
1B68
100
AcDbEntity
  8
0
100
AcDbText
 10
131.6780944417463
 20
21.0295999999999
 30
0.0
 40
2.0
  1
潤滑
100
AcDbText
  0
TEXT
  5
1B71
330
1B68
100
AcDbEntity
  8
0
100
AcDbText
 10
131.6780944417462
 20
17.40054220928044
 30
0.0
 40
2.0
  1
塗色
100
AcDbText
  0
TEXT
  5
1B72
330
1B68
100
AcDbEntity
  8
0
100
AcDbText
 10
131.6780944417462
 20
26.37741832202131
 30
0.0
 40
2.0
  1
減速比
100
AcDbText
  0
TEXT
  5
1B73
330
1B68
100
AcDbEntity
  8
0
100
AcDbText
 10
131.6780944417462
 20
31.6361
 30
0.0
 40
2.0
  1
枠番
100
AcDbText
  0
TEXT
  5
1B74
330
1B68
100
AcDbEntity
  8
0
100
AcDbText
 10
131.6780944417462
 20
35.17159999999998
 30
0.0
 40
2.0
  1
名称
100
AcDbText
  0
LINE
  5
1B75
330
1B68
100
AcDbEntity
  8
0
100
AcDbLine
 10
183.0
 20
16.78699999999992
 30
0.0
 11
183.0
 21
38.0
 31
0.0
  0
LINE
  5
1B76
330
1B68
100
AcDbEntity
  8
0
100
AcDbLine
 10
142.5
 20
16.78699999999992
 30
0.0
 11
142.5
 21
38.0
 31
0.0
  0
TEXT
  5
1B77
330
1B68
100
AcDbEntity
  8
0
100
AcDbText
 10
143.3531994322572
 20
28.10060000000001
 30
0.0
 40
2.0
  1
1/10 1/15 1/20 1/25
100
AcDbText
  0
TEXT
  5
1B78
330
1B68
100
AcDbEntity
  8
0
100
AcDbText
 10
143.3531994322572
 20
24.56510000000003
 30
0.0
 40
2.0
  1
1/30 1/40 1/50 1/60
100
AcDbText
  0
TEXT
  5
1B79
330
1B68
100
AcDbEntity
  8
0
100
AcDbText
 10
143.3531994322572
 20
17.49409999999989
 30
0.0
 40
2.0
  1
グレー（マンセル値 9B6/0.5）
100
AcDbText
  0
LINE
  5
1B7A
330
1B68
100
AcDbEntity
  8
0
100
AcDbLine
 10
142.5
 20
27.39349999999999
 30
0.0
 11
183.0
 21
27.39349999999999
 31
0.0
  0
TEXT
  5
1B7B
330
1B68
100
AcDbEntity
  8
0
100
AcDbText
 10
143.3531994322572
 20
21.0295999999999
 30
0.0
 40
2.0
  1
グリース
100
AcDbText
  0
LINE
  5
1B7C
330
1B68
100
AcDbEntity
  8
0
100
AcDbLine
 10
150.4725366217368
 20
39.41419999999999
 30
0.0
 11
163.5274633782631
 21
39.41419999999999
 31
0.0
  0
LINE
  5
1B7D
330
1B68
100
AcDbEntity
  8
0
100
AcDbLine
 10
150.4725366217368
 20
40.12129999999999
 30
0.0
 11
163.5274633782631
 21
40.12129999999999
 31
0.0
  0
TEXT
  5
1B7E
330
1B68
100
AcDbEntity
  8
0
100
AcDbText
 10
151.1299348544099
 20
40.47485
 30
0.0
 40
2.0
  1
減速機仕様
100
AcDbText
  0
TEXT
  5
1B7F
330
1B68
100
AcDbEntity
  8
0
100
AcDbText
 10
143.3531994322572
 20
31.6361
 30
0.0
 40
2.0
  1
15T
100
AcDbText
  0
TEXT
  5
1B80
330
1B68
100
AcDbEntity
  8
0
100
AcDbText
 10
143.3531994322572
 20
35.17159999999998
 30
0.0
 40
2.0
  1
GTR
100
AcDbText
  0
ENDBLK
  5
1B82
330
1B68
100
AcDbEntity
  8
0
100
AcDbBlockEnd
  0
BLOCK
  5
1BA7
330
1B84
100
AcDbEntity
  8
0
100
AcDbBlockBegin
  2
MSPEC_T15F-75
 70
     0
 10
0.0
 20
0.0
 30
0.0
  3
MSPEC_T15F-75
  1

  0
LINE
  5
1B85
330
1B84
100
AcDbEntity
  8
0
100
AcDbLine
 10
126.0
 20
6.180499999999994
 30
0.0
 11
126.0
 21
37.99999999999997
 31
0.0
  0
TEXT
  5
1B86
330
1B84
100
AcDbEntity
  8
0
100
AcDbText
 10
86.35319943225727
 20
28.10060000000001
 30
0.0
 40
2.0
  1
15 W
100
AcDbText
  0
TEXT
  5
1B87
330
1B84
100
AcDbEntity
  8
0
100
AcDbText
 10
74.67809444174623
 20
28.10059999999998
 30
0.0
 40
2.0
  1
出力
100
AcDbText
  0
LINE
  5
1B88
330
1B84
100
AcDbEntity
  8
0
100
AcDbLine
 10
85.5
 20
6.180499999999994
 30
0.0
 11
85.5
 21
38.0
 31
0.0
  0
LINE
  5
1B89
330
1B84
100
AcDbEntity
  8
0
100
AcDbLine
 10
73.99999999999998
 20
6.180500000000023
 30
0.0
 11
74.0
 21
38.0
 31
0.0
  0
TEXT
  5
1B8A
330
1B84
100
AcDbEntity
  8
0
100
AcDbText
 10
86.35319943225727
 20
13.95859999999993
 30
0.0
 40
2.0
  1
1500/1800/1800 rpm
100
AcDbText
  0
LINE
  5
1B8B
330
1B84
100
AcDbEntity
  8
0
100
AcDbLine
 10
74.0
 20
6.180500000000023
 30
0.0
 11
126.0
 21
6.180499999999994
 31
0.0
  0
LINE
  5
1B8C
330
1B84
100
AcDbEntity
  8
0
100
AcDbLine
 10
74.0
 20
9.716000000000008
 30
0.0
 11
126.0
 21
9.715999999999979
 31
0.0
  0
LINE
  5
1B8D
330
1B84
100
AcDbEntity
  8
0
100
AcDbLine
 10
74.0
 20
13.25149999999999
 30
0.0
 11
126.0
 21
13.25149999999996
 31
0.0
  0
LINE
  5
1B8E
330
1B84
100
AcDbEntity
  8
0
100
AcDbLine
 10
74.0
 20
23.85799999999994
 30
0.0
 11
126.0
 21
23.85799999999992
 31
0.0
  0
LINE
  5
1B8F
330
1B84
100
AcDbEntity
  8
0
100
AcDbLine
 10
74.0
 20
16.78699999999997
 30
0.0
 11
126.0
 21
16.78699999999994
 31
0.0
  0
LINE
  5
1B90
330
1B84
100
AcDbEntity
  8
0
100
AcDbLine
 10
74.0
 20
20.32249999999996
 30
0.0
 11
126.0
 21
20.32249999999993
 31
0.0
  0
LINE
  5
1B91
330
1B84
100
AcDbEntity
  8
0
100
AcDbLine
 10
74.0
 20
27.39349999999999
 30
0.0
 11
126.0
 21
27.39349999999996
 31
0.0
  0
TEXT
  5
1B92
330
1B84
100
AcDbEntity
  8
0
100
AcDbText
 10
86.35319943225727
 20
24.56510000000003
 30
0.0
 40
2.0
  1
200/200/220 V
100
AcDbText
  0
TEXT
  5
1B93
330
1B84
100
AcDbEntity
  8
0
100
AcDbText
 10
86.35319943225727
 20
21.02959999999995
 30
0.0
 40
2.0
  1
50/60/60 Hz
100
AcDbText
  0
TEXT
  5
1B94
330
1B84
100
AcDbEntity
  8
0
100
AcDbText
 10
74.67809444174623
 20
10.3295422092805
 30
0.0
 40
2.0
  1
定格
100
AcDbText
  0
TEXT
  5
1B95
330
1B84
100
AcDbEntity
  8
0
100
AcDbText
 10
74.67809444174623
 20
6.794042209280519
 30
0.0
 40
2.0
  1
絶縁
100
AcDbText
  0
TEXT
  5
1B96
330
1B84
100
AcDbEntity
  8
0
100
AcDbText
 10
86.35319943225727
 20
10.42309999999994
 30
0.0
 40
2.0
  1
連続
100
AcDbText
  0
TEXT
  5
1B97
330
1B84
100
AcDbEntity
  8
0
100
AcDbText
 10
86.35319943225727
 20
6.887599999999963
 30
0.0
 40
2.0
  1
E種
100
AcDbText
  0
TEXT
  5
1B98
330
1B84
100
AcDbEntity
  8
0
100
AcDbText
 10
74.67809444174623
 20
13.86504220928048
 30
0.0
 40
2.0
  1
回転速度
100
AcDbText
  0
TEXT
  5
1B99
330
1B84
100
AcDbEntity
  8
0
100
AcDbText
 10
74.67809444174633
 20
21.02959999999995
 30
0.0
 40
2.0
  1
周波数
100
AcDbText
  0
TEXT
  5
1B9A
330
1B84
100
AcDbEntity
  8
0
100
AcDbText
 10
74.67809444174623
 20
17.4005422092805
 30
0.0
 40
2.0
  1
極数
100
AcDbText
  0
TEXT
  5
1B9B
330
1B84
100
AcDbEntity
  8
0
100
AcDbText
 10
74.67809444174623
 20
24.56509999999997
 30
0.0
 40
2.0
  1
電圧
100
AcDbText
  0
TEXT
  5
1B9C
330
1B84
100
AcDbEntity
  8
0
100
AcDbText
 10
86.35319943225727
 20
17.49409999999994
 30
0.0
 40
2.0
  1
4
100
AcDbText
  0
TEXT
  5
1B9D
330
1B84
100
AcDbEntity
  8
0
100
AcDbText
 10
86.35319943225727
 20
31.6361
 30
0.0
 40
2.0
  1
全閉外扇形　DT-75
100
AcDbText
  0
LINE
  5
1B9E
330
1B84
100
AcDbEntity
  8
0
100
AcDbLine
 10
74.0
 20
38.0
 30
0.0
 11
126.0
 21
37.99999999999997
 31
0.0
  0
LINE
  5
1B9F
330
1B84
100
AcDbEntity
  8
0
100
AcDbLine
 10
74.0
 20
30.929
 30
0.0
 11
126.0
 21
30.92899999999994
 31
0.0
  0
LINE
  5
1BA0
330
1B84
100
AcDbEntity
  8
0
100
AcDbLine
 10
74.0
 20
34.46450000000001
 30
0.0
 11
126.0
 21
34.46449999999998
 31
0.0
  0
TEXT
  5
1BA1
330
1B84
100
AcDbEntity
  8
0
100
AcDbText
 10
86.35319943225727
 20
35.17159999999998
 30
0.0
 40
2.0
  1
三相誘導電動機
100
AcDbText
  0
TEXT
  5
1BA2
330
1B84
100
AcDbEntity
  8
0
100
AcDbText
 10
74.67809444174623
 20
31.6361
 30
0.0
 40
2.0
  1
型式
100
AcDbText
  0
TEXT
  5
1BA3
330
1B84
100
AcDbEntity
  8
0
100
AcDbText
 10
74.67809444174623
 20
35.17159999999998
 30
0.0
 40
2.0
  1
名称
100
AcDbText
  0
LINE
  5
1BA4
330
1B84
100
AcDbEntity
  8
0
100
AcDbLine
 10
93.80123573807338
 20
40.12129999999999
 30
0.0
 11
106.1987642619266
 21
40.12129999999999
 31
0.0
  0
LINE
  5
1BA5
330
1B84
100
AcDbEntity
  8
0
100
AcDbLine
 10
93.80123573807338
 20
39.41419999999999
 30
0.0
 11
106.1987642619266
 21
39.41419999999999
 31
0.0
  0
TEXT
  5
1BA6
330
1B84
100
AcDbEntity
  8
0
100
AcDbText
 10
93.99902987649658
 20
40.47485
 30
0.0
 40
2.0
  1
モータ仕様
100
AcDbText
  0
ENDBLK
  5
1BA8
330
1B84
100
AcDbEntity
  8
0
100
AcDbBlockEnd
  0
BLOCK
  5
1BCD
330
1BAA
100
AcDbEntity
  8
0
100
AcDbBlockBegin
  2
MSPEC_T15WF-75
 70
     0
 10
0.0
 20
0.0
 30
0.0
  3
MSPEC_T15WF-75
  1

  0
LINE
  5
1BAB
330
1BAA
100
AcDbEntity
  8
0
100
AcDbLine
 10
126.0
 20
6.180499999999994
 30
0.0
 11
126.0
 21
37.99999999999997
 31
0.0
  0
TEXT
  5
1BAC
330
1BAA
100
AcDbEntity
  8
0
100
AcDbText
 10
86.35319943225727
 20
28.10060000000001
 30
0.0
 40
2.0
  1
15 W
100
AcDbText
  0
TEXT
  5
1BAD
330
1BAA
100
AcDbEntity
  8
0
100
AcDbText
 10
74.67809444174623
 20
28.10059999999998
 30
0.0
 40
2.0
  1
出力
100
AcDbText
  0
LINE
  5
1BAE
330
1BAA
100
AcDbEntity
  8
0
100
AcDbLine
 10
85.5
 20
6.180499999999994
 30
0.0
 11
85.5
 21
38.0
 31
0.0
  0
LINE
  5
1BAF
330
1BAA
100
AcDbEntity
  8
0
100
AcDbLine
 10
73.99999999999998
 20
6.180500000000023
 30
0.0
 11
74.0
 21
38.0
 31
0.0
  0
TEXT
  5
1BB0
330
1BAA
100
AcDbEntity
  8
0
100
AcDbText
 10
86.35319943225727
 20
13.95859999999993
 30
0.0
 40
2.0
  1
1500/1500/1800/1800 rpm
 41
0.9
100
AcDbText
  0
LINE
  5
1BB1
330
1BAA
100
AcDbEntity
  8
0
100
AcDbLine
 10
74.0
 20
6.180500000000023
 30
0.0
 11
126.0
 21
6.180499999999994
 31
0.0
  0
LINE
  5
1BB2
330
1BAA
100
AcDbEntity
  8
0
100
AcDbLine
 10
74.0
 20
9.716000000000008
 30
0.0
 11
126.0
 21
9.715999999999979
 31
0.0
  0
LINE
  5
1BB3
330
1BAA
100
AcDbEntity
  8
0
100
AcDbLine
 10
74.0
 20
13.25149999999999
 30
0.0
 11
126.0
 21
13.25149999999996
 31
0.0
  0
LINE
  5
1BB4
330
1BAA
100
AcDbEntity
  8
0
100
AcDbLine
 10
74.0
 20
23.85799999999994
 30
0.0
 11
126.0
 21
23.85799999999992
 31
0.0
  0
LINE
  5
1BB5
330
1BAA
100
AcDbEntity
  8
0
100
AcDbLine
 10
74.0
 20
16.78699999999997
 30
0.0
 11
126.0
 21
16.78699999999994
 31
0.0
  0
LINE
  5
1BB6
330
1BAA
100
AcDbEntity
  8
0
100
AcDbLine
 10
74.0
 20
20.32249999999996
 30
0.0
 11
126.0
 21
20.32249999999993
 31
0.0
  0
LINE
  5
1BB7
330
1BAA
100
AcDbEntity
  8
0
100
AcDbLine
 10
74.0
 20
27.39349999999999
 30
0.0
 11
126.0
 21
27.39349999999996
 31
0.0
  0
TEXT
  5
1BB8
330
1BAA
100
AcDbEntity
  8
0
100
AcDbText
 10
86.35319943225727
 20
24.56510000000003
 30
0.0
 40
2.0
  1
380/400/400/440 V
100
AcDbText
  0
TEXT
  5
1BB9
330
1BAA
100
AcDbEntity
  8
0
100
AcDbText
 10
86.35319943225727
 20
21.02959999999995
 30
0.0
 40
2.0
  1
50/50/60/60 Hz
100
AcDbText
  0
TEXT
  5
1BBA
330
1BAA
100
AcDbEntity
  8
0
100
AcDbText
 10
74.67809444174623
 20
10.3295422092805
 30
0.0
 40
2.0
  1
定格
100
AcDbText
  0
TEXT
  5
1BBB
330
1BAA
100
AcDbEntity
  8
0
100
AcDbText
 10
74.67809444174623
 20
6.794042209280519
 30
0.0
 40
2.0
  1
絶縁
100
AcDbText
  0
TEXT
  5
1BBC
330
1BAA
100
AcDbEntity
  8
0
100
AcDbText
 10
86.35319943225727
 20
10.42309999999994
 30
0.0
 40
2.0
  1
連続
100
AcDbText
  0
TEXT
  5
1BBD
330
1BAA
100
AcDbEntity
  8
0
100
AcDbText
 10
86.35319943225727
 20
6.887599999999963
 30
0.0
 40
2.0
  1
E種
100
AcDbText
  0
TEXT
  5
1BBE
330
1BAA
100
AcDbEntity
  8
0
100
AcDbText
 10
74.67809444174623
 20
13.86504220928048
 30
0.0
 40
2.0
  1
回転速度
100
AcDbText
  0
TEXT
  5
1BBF
330
1BAA
100
AcDbEntity
  8
0
100
AcDbText
 10
74.67809444174633
 20
21.02959999999995
 30
0.0
 40
2.0
  1
周波数
100
AcDbText
  0
TEXT
  5
1BC0
330
1BAA
100
AcDbEntity
  8
0
100
AcDbText
 10
74.67809444174623
 20
17.4005422092805
 30
0.0
 40
2.0
  1
極数
100
AcDbText
  0
TEXT
  5
1BC1
330
1BAA
100
AcDbEntity
  8
0
100
AcDbText
 10
74.67809444174623
 20
24.56509999999997
 30
0.0
 40
2.0
  1
電圧
100
AcDbText
  0
TEXT
  5
1BC2
330
1BAA
100
AcDbEntity
  8
0
100
AcDbText
 10
86.35319943225727
 20
17.49409999999994
 30
0.0
 40
2.0
  1
4
100
AcDbText
  0
TEXT
  5
1BC3
330
1BAA
100
AcDbEntity
  8
0
100
AcDbText
 10
86.35319943225727
 20
31.6361
 30
0.0
 40
2.0
  1
全閉外扇形　DT-75
100
AcDbText
  0
LINE
  5
1BC4
330
1BAA
100
AcDbEntity
  8
0
100
AcDbLine
 10
74.0
 20
38.0
 30
0.0
 11
126.0
 21
37.99999999999997
 31
0.0
  0
LINE
  5
1BC5
330
1BAA
100
AcDbEntity
  8
0
100
AcDbLine
 10
74.0
 20
30.929
 30
0.0
 11
126.0
 21
30.92899999999994
 31
0.0
  0
LINE
  5
1BC6
330
1BAA
100
AcDbEntity
  8
0
100
AcDbLine
 10
74.0
 20
34.46450000000001
 30
0.0
 11
126.0
 21
34.46449999999998
 31
0.0
  0
TEXT
  5
1BC7
330
1BAA
100
AcDbEntity
  8
0
100
AcDbText
 10
86.35319943225727
 20
35.17159999999998
 30
0.0
 40
2.0
  1
三相誘導電動機
100
AcDbText
  0
TEXT
  5
1BC8
330
1BAA
100
AcDbEntity
  8
0
100
AcDbText
 10
74.67809444174623
 20
31.6361
 30
0.0
 40
2.0
  1
型式
100
AcDbText
  0
TEXT
  5
1BC9
330
1BAA
100
AcDbEntity
  8
0
100
AcDbText
 10
74.67809444174623
 20
35.17159999999998
 30
0.0
 40
2.0
  1
名称
100
AcDbText
  0
LINE
  5
1BCA
330
1BAA
100
AcDbEntity
  8
0
100
AcDbLine
 10
93.80123573807338
 20
40.12129999999999
 30
0.0
 11
106.1987642619266
 21
40.12129999999999
 31
0.0
  0
LINE
  5
1BCB
330
1BAA
100
AcDbEntity
  8
0
100
AcDbLine
 10
93.80123573807338
 20
39.41419999999999
 30
0.0
 11
106.1987642619266
 21
39.41419999999999
 31
0.0
  0
TEXT
  5
1BCC
330
1BAA
100
AcDbEntity
  8
0
100
AcDbText
 10
93.99902987649658
 20
40.47485
 30
0.0
 40
2.0
  1
モータ仕様
100
AcDbText
  0
ENDBLK
  5
1BCE
330
1BAA
100
AcDbEntity
  8
0
100
AcDbBlockEnd
  0
BLOCK
  5
1BF3
330
1BD0
100
AcDbEntity
  8
0
100
AcDbBlockBegin
  2
MSPEC_T25F-75
 70
     0
 10
0.0
 20
0.0
 30
0.0
  3
MSPEC_T25F-75
  1

  0
LINE
  5
1BD1
330
1BD0
100
AcDbEntity
  8
0
100
AcDbLine
 10
126.0
 20
6.180499999999994
 30
0.0
 11
126.0
 21
37.99999999999997
 31
0.0
  0
TEXT
  5
1BD2
330
1BD0
100
AcDbEntity
  8
0
100
AcDbText
 10
86.35319943225727
 20
28.10060000000001
 30
0.0
 40
2.0
  1
25 W
100
AcDbText
  0
TEXT
  5
1BD3
330
1BD0
100
AcDbEntity
  8
0
100
AcDbText
 10
74.67809444174623
 20
28.10059999999998
 30
0.0
 40
2.0
  1
出力
100
AcDbText
  0
LINE
  5
1BD4
330
1BD0
100
AcDbEntity
  8
0
100
AcDbLine
 10
85.5
 20
6.180499999999994
 30
0.0
 11
85.5
 21
38.0
 31
0.0
  0
LINE
  5
1BD5
330
1BD0
100
AcDbEntity
  8
0
100
AcDbLine
 10
73.99999999999998
 20
6.180500000000023
 30
0.0
 11
74.0
 21
38.0
 31
0.0
  0
TEXT
  5
1BD6
330
1BD0
100
AcDbEntity
  8
0
100
AcDbText
 10
86.35319943225727
 20
13.95859999999993
 30
0.0
 40
2.0
  1
1500/1800/1800 rpm
100
AcDbText
  0
LINE
  5
1BD7
330
1BD0
100
AcDbEntity
  8
0
100
AcDbLine
 10
74.0
 20
6.180500000000023
 30
0.0
 11
126.0
 21
6.180499999999994
 31
0.0
  0
LINE
  5
1BD8
330
1BD0
100
AcDbEntity
  8
0
100
AcDbLine
 10
74.0
 20
9.716000000000008
 30
0.0
 11
126.0
 21
9.715999999999979
 31
0.0
  0
LINE
  5
1BD9
330
1BD0
100
AcDbEntity
  8
0
100
AcDbLine
 10
74.0
 20
13.25149999999999
 30
0.0
 11
126.0
 21
13.25149999999996
 31
0.0
  0
LINE
  5
1BDA
330
1BD0
100
AcDbEntity
  8
0
100
AcDbLine
 10
74.0
 20
23.85799999999994
 30
0.0
 11
126.0
 21
23.85799999999992
 31
0.0
  0
LINE
  5
1BDB
330
1BD0
100
AcDbEntity
  8
0
100
AcDbLine
 10
74.0
 20
16.78699999999997
 30
0.0
 11
126.0
 21
16.78699999999994
 31
0.0
  0
LINE
  5
1BDC
330
1BD0
100
AcDbEntity
  8
0
100
AcDbLine
 10
74.0
 20
20.32249999999996
 30
0.0
 11
126.0
 21
20.32249999999993
 31
0.0
  0
LINE
  5
1BDD
330
1BD0
100
AcDbEntity
  8
0
100
AcDbLine
 10
74.0
 20
27.39349999999999
 30
0.0
 11
126.0
 21
27.39349999999996
 31
0.0
  0
TEXT
  5
1BDE
330
1BD0
100
AcDbEntity
  8
0
100
AcDbText
 10
86.35319943225727
 20
24.56510000000003
 30
0.0
 40
2.0
  1
200/200/220 V
100
AcDbText
  0
TEXT
  5
1BDF
330
1BD0
100
AcDbEntity
  8
0
100
AcDbText
 10
86.35319943225727
 20
21.02959999999995
 30
0.0
 40
2.0
  1
50/60/60 Hz
100
AcDbText
  0
TEXT
  5
1BE0
330
1BD0
100
AcDbEntity
  8
0
100
AcDbText
 10
74.67809444174623
 20
10.3295422092805
 30
0.0
 40
2.0
  1
定格
100
AcDbText
  0
TEXT
  5
1BE1
330
1BD0
100
AcDbEntity
  8
0
100
AcDbText
 10
74.67809444174623
 20
6.794042209280519
 30
0.0
 40
2.0
  1
絶縁
100
AcDbText
  0
TEXT
  5
1BE2
330
1BD0
100
AcDbEntity
  8
0
100
AcDbText
 10
86.35319943225727
 20
10.42309999999994
 30
0.0
 40
2.0
  1
連続
100
AcDbText
  0
TEXT
  5
1BE3
330
1BD0
100
AcDbEntity
  8
0
100
AcDbText
 10
86.35319943225727
 20
6.887599999999963
 30
0.0
 40
2.0
  1
E種
100
AcDbText
  0
TEXT
  5
1BE4
330
1BD0
100
AcDbEntity
  8
0
100
AcDbText
 10
74.67809444174623
 20
13.86504220928048
 30
0.0
 40
2.0
  1
回転速度
100
AcDbText
  0
TEXT
  5
1BE5
330
1BD0
100
AcDbEntity
  8
0
100
AcDbText
 10
74.67809444174633
 20
21.02959999999995
 30
0.0
 40
2.0
  1
周波数
100
AcDbText
  0
TEXT
  5
1BE6
330
1BD0
100
AcDbEntity
  8
0
100
AcDbText
 10
74.67809444174623
 20
17.4005422092805
 30
0.0
 40
2.0
  1
極数
100
AcDbText
  0
TEXT
  5
1BE7
330
1BD0
100
AcDbEntity
  8
0
100
AcDbText
 10
74.67809444174623
 20
24.56509999999997
 30
0.0
 40
2.0
  1
電圧
100
AcDbText
  0
TEXT
  5
1BE8
330
1BD0
100
AcDbEntity
  8
0
100
AcDbText
 10
86.35319943225727
 20
17.49409999999994
 30
0.0
 40
2.0
  1
4
100
AcDbText
  0
TEXT
  5
1BE9
330
1BD0
100
AcDbEntity
  8
0
100
AcDbText
 10
86.35319943225727
 20
31.6361
 30
0.0
 40
2.0
  1
全閉外扇形　DT-75
100
AcDbText
  0
LINE
  5
1BEA
330
1BD0
100
AcDbEntity
  8
0
100
AcDbLine
 10
74.0
 20
38.0
 30
0.0
 11
126.0
 21
37.99999999999997
 31
0.0
  0
LINE
  5
1BEB
330
1BD0
100
AcDbEntity
  8
0
100
AcDbLine
 10
74.0
 20
30.929
 30
0.0
 11
126.0
 21
30.92899999999994
 31
0.0
  0
LINE
  5
1BEC
330
1BD0
100
AcDbEntity
  8
0
100
AcDbLine
 10
74.0
 20
34.46450000000001
 30
0.0
 11
126.0
 21
34.46449999999998
 31
0.0
  0
TEXT
  5
1BED
330
1BD0
100
AcDbEntity
  8
0
100
AcDbText
 10
86.35319943225727
 20
35.17159999999998
 30
0.0
 40
2.0
  1
三相誘導電動機
100
AcDbText
  0
TEXT
  5
1BEE
330
1BD0
100
AcDbEntity
  8
0
100
AcDbText
 10
74.67809444174623
 20
31.6361
 30
0.0
 40
2.0
  1
型式
100
AcDbText
  0
TEXT
  5
1BEF
330
1BD0
100
AcDbEntity
  8
0
100
AcDbText
 10
74.67809444174623
 20
35.17159999999998
 30
0.0
 40
2.0
  1
名称
100
AcDbText
  0
LINE
  5
1BF0
330
1BD0
100
AcDbEntity
  8
0
100
AcDbLine
 10
93.80123573807338
 20
40.12129999999999
 30
0.0
 11
106.1987642619266
 21
40.12129999999999
 31
0.0
  0
LINE
  5
1BF1
330
1BD0
100
AcDbEntity
  8
0
100
AcDbLine
 10
93.80123573807338
 20
39.41419999999999
 30
0.0
 11
106.1987642619266
 21
39.41419999999999
 31
0.0
  0
TEXT
  5
1BF2
330
1BD0
100
AcDbEntity
  8
0
100
AcDbText
 10
93.99902987649658
 20
40.47485
 30
0.0
 40
2.0
  1
モータ仕様
100
AcDbText
  0
ENDBLK
  5
1BF4
330
1BD0
100
AcDbEntity
  8
0
100
AcDbBlockEnd
  0
BLOCK
  5
1C19
330
1BF6
100
AcDbEntity
  8
0
100
AcDbBlockBegin
  2
MSPEC_T25WF-75
 70
     0
 10
0.0
 20
0.0
 30
0.0
  3
MSPEC_T25WF-75
  1

  0
LINE
  5
1BF7
330
1BF6
100
AcDbEntity
  8
0
100
AcDbLine
 10
126.0
 20
6.180499999999994
 30
0.0
 11
126.0
 21
37.99999999999997
 31
0.0
  0
TEXT
  5
1BF8
330
1BF6
100
AcDbEntity
  8
0
100
AcDbText
 10
86.35319943225727
 20
28.10060000000001
 30
0.0
 40
2.0
  1
25 W
100
AcDbText
  0
TEXT
  5
1BF9
330
1BF6
100
AcDbEntity
  8
0
100
AcDbText
 10
74.67809444174623
 20
28.10059999999998
 30
0.0
 40
2.0
  1
出力
100
AcDbText
  0
LINE
  5
1BFA
330
1BF6
100
AcDbEntity
  8
0
100
AcDbLine
 10
85.5
 20
6.180499999999994
 30
0.0
 11
85.5
 21
38.0
 31
0.0
  0
LINE
  5
1BFB
330
1BF6
100
AcDbEntity
  8
0
100
AcDbLine
 10
73.99999999999998
 20
6.180500000000023
 30
0.0
 11
74.0
 21
38.0
 31
0.0
  0
TEXT
  5
1BFC
330
1BF6
100
AcDbEntity
  8
0
100
AcDbText
 10
86.35319943225727
 20
13.95859999999993
 30
0.0
 40
2.0
  1
1500/1500/1800/1800 rpm
 41
0.9
100
AcDbText
  0
LINE
  5
1BFD
330
1BF6
100
AcDbEntity
  8
0
100
AcDbLine
 10
74.0
 20
6.180500000000023
 30
0.0
 11
126.0
 21
6.180499999999994
 31
0.0
  0
LINE
  5
1BFE
330
1BF6
100
AcDbEntity
  8
0
100
AcDbLine
 10
74.0
 20
9.716000000000008
 30
0.0
 11
126.0
 21
9.715999999999979
 31
0.0
  0
LINE
  5
1BFF
330
1BF6
100
AcDbEntity
  8
0
100
AcDbLine
 10
74.0
 20
13.25149999999999
 30
0.0
 11
126.0
 21
13.25149999999996
 31
0.0
  0
LINE
  5
1C00
330
1BF6
100
AcDbEntity
  8
0
100
AcDbLine
 10
74.0
 20
23.85799999999994
 30
0.0
 11
126.0
 21
23.85799999999992
 31
0.0
  0
LINE
  5
1C01
330
1BF6
100
AcDbEntity
  8
0
100
AcDbLine
 10
74.0
 20
16.78699999999997
 30
0.0
 11
126.0
 21
16.78699999999994
 31
0.0
  0
LINE
  5
1C02
330
1BF6
100
AcDbEntity
  8
0
100
AcDbLine
 10
74.0
 20
20.32249999999996
 30
0.0
 11
126.0
 21
20.32249999999993
 31
0.0
  0
LINE
  5
1C03
330
1BF6
100
AcDbEntity
  8
0
100
AcDbLine
 10
74.0
 20
27.39349999999999
 30
0.0
 11
126.0
 21
27.39349999999996
 31
0.0
  0
TEXT
  5
1C04
330
1BF6
100
AcDbEntity
  8
0
100
AcDbText
 10
86.35319943225727
 20
24.56510000000003
 30
0.0
 40
2.0
  1
380/400/400/440 V
100
AcDbText
  0
TEXT
  5
1C05
330
1BF6
100
AcDbEntity
  8
0
100
AcDbText
 10
86.35319943225727
 20
21.02959999999995
 30
0.0
 40
2.0
  1
50/50/60/60 Hz
100
AcDbText
  0
TEXT
  5
1C06
330
1BF6
100
AcDbEntity
  8
0
100
AcDbText
 10
74.67809444174623
 20
10.3295422092805
 30
0.0
 40
2.0
  1
定格
100
AcDbText
  0
TEXT
  5
1C07
330
1BF6
100
AcDbEntity
  8
0
100
AcDbText
 10
74.67809444174623
 20
6.794042209280519
 30
0.0
 40
2.0
  1
絶縁
100
AcDbText
  0
TEXT
  5
1C08
330
1BF6
100
AcDbEntity
  8
0
100
AcDbText
 10
86.35319943225727
 20
10.42309999999994
 30
0.0
 40
2.0
  1
連続
100
AcDbText
  0
TEXT
  5
1C09
330
1BF6
100
AcDbEntity
  8
0
100
AcDbText
 10
86.35319943225727
 20
6.887599999999963
 30
0.0
 40
2.0
  1
E種
100
AcDbText
  0
TEXT
  5
1C0A
330
1BF6
100
AcDbEntity
  8
0
100
AcDbText
 10
74.67809444174623
 20
13.86504220928048
 30
0.0
 40
2.0
  1
回転速度
100
AcDbText
  0
TEXT
  5
1C0B
330
1BF6
100
AcDbEntity
  8
0
100
AcDbText
 10
74.67809444174633
 20
21.02959999999995
 30
0.0
 40
2.0
  1
周波数
100
AcDbText
  0
TEXT
  5
1C0C
330
1BF6
100
AcDbEntity
  8
0
100
AcDbText
 10
74.67809444174623
 20
17.4005422092805
 30
0.0
 40
2.0
  1
極数
100
AcDbText
  0
TEXT
  5
1C0D
330
1BF6
100
AcDbEntity
  8
0
100
AcDbText
 10
74.67809444174623
 20
24.56509999999997
 30
0.0
 40
2.0
  1
電圧
100
AcDbText
  0
TEXT
  5
1C0E
330
1BF6
100
AcDbEntity
  8
0
100
AcDbText
 10
86.35319943225727
 20
17.49409999999994
 30
0.0
 40
2.0
  1
4
100
AcDbText
  0
TEXT
  5
1C0F
330
1BF6
100
AcDbEntity
  8
0
100
AcDbText
 10
86.35319943225727
 20
31.6361
 30
0.0
 40
2.0
  1
全閉外扇形　DT-75
100
AcDbText
  0
LINE
  5
1C10
330
1BF6
100
AcDbEntity
  8
0
100
AcDbLine
 10
74.0
 20
38.0
 30
0.0
 11
126.0
 21
37.99999999999997
 31
0.0
  0
LINE
  5
1C11
330
1BF6
100
AcDbEntity
  8
0
100
AcDbLine
 10
74.0
 20
30.929
 30
0.0
 11
126.0
 21
30.92899999999994
 31
0.0
  0
LINE
  5
1C12
330
1BF6
100
AcDbEntity
  8
0
100
AcDbLine
 10
74.0
 20
34.46450000000001
 30
0.0
 11
126.0
 21
34.46449999999998
 31
0.0
  0
TEXT
  5
1C13
330
1BF6
100
AcDbEntity
  8
0
100
AcDbText
 10
86.35319943225727
 20
35.17159999999998
 30
0.0
 40
2.0
  1
三相誘導電動機
100
AcDbText
  0
TEXT
  5
1C14
330
1BF6
100
AcDbEntity
  8
0
100
AcDbText
 10
74.67809444174623
 20
31.6361
 30
0.0
 40
2.0
  1
型式
100
AcDbText
  0
TEXT
  5
1C15
330
1BF6
100
AcDbEntity
  8
0
100
AcDbText
 10
74.67809444174623
 20
35.17159999999998
 30
0.0
 40
2.0
  1
名称
100
AcDbText
  0
LINE
  5
1C16
330
1BF6
100
AcDbEntity
  8
0
100
AcDbLine
 10
93.80123573807338
 20
40.12129999999999
 30
0.0
 11
106.1987642619266
 21
40.12129999999999
 31
0.0
  0
LINE
  5
1C17
330
1BF6
100
AcDbEntity
  8
0
100
AcDbLine
 10
93.80123573807338
 20
39.41419999999999
 30
0.0
 11
106.1987642619266
 21
39.41419999999999
 31
0.0
  0
TEXT
  5
1C18
330
1BF6
100
AcDbEntity
  8
0
100
AcDbText
 10
93.99902987649658
 20
40.47485
 30
0.0
 40
2.0
  1
モータ仕様
100
AcDbText
  0
ENDBLK
  5
1C1A
330
1BF6
100
AcDbEntity
  8
0
100
AcDbBlockEnd
  0
BLOCK
  5
1C3F
330
1C1C
100
AcDbEntity
  8
0
100
AcDbBlockBegin
  2
MSPEC_T40F-75
 70
     0
 10
0.0
 20
0.0
 30
0.0
  3
MSPEC_T40F-75
  1

  0
LINE
  5
1C1D
330
1C1C
100
AcDbEntity
  8
0
100
AcDbLine
 10
126.0
 20
6.180499999999994
 30
0.0
 11
126.0
 21
37.99999999999997
 31
0.0
  0
TEXT
  5
1C1E
330
1C1C
100
AcDbEntity
  8
0
100
AcDbText
 10
86.35319943225727
 20
28.10060000000001
 30
0.0
 40
2.0
  1
40 W
100
AcDbText
  0
TEXT
  5
1C1F
330
1C1C
100
AcDbEntity
  8
0
100
AcDbText
 10
74.67809444174623
 20
28.10059999999998
 30
0.0
 40
2.0
  1
出力
100
AcDbText
  0
LINE
  5
1C20
330
1C1C
100
AcDbEntity
  8
0
100
AcDbLine
 10
85.5
 20
6.180499999999994
 30
0.0
 11
85.5
 21
38.0
 31
0.0
  0
LINE
  5
1C21
330
1C1C
100
AcDbEntity
  8
0
100
AcDbLine
 10
73.99999999999998
 20
6.180500000000023
 30
0.0
 11
74.0
 21
38.0
 31
0.0
  0
TEXT
  5
1C22
330
1C1C
100
AcDbEntity
  8
0
100
AcDbText
 10
86.35319943225727
 20
13.95859999999993
 30
0.0
 40
2.0
  1
1500/1800/1800 rpm
100
AcDbText
  0
LINE
  5
1C23
330
1C1C
100
AcDbEntity
  8
0
100
AcDbLine
 10
74.0
 20
6.180500000000023
 30
0.0
 11
126.0
 21
6.180499999999994
 31
0.0
  0
LINE
  5
1C24
330
1C1C
100
AcDbEntity
  8
0
100
AcDbLine
 10
74.0
 20
9.716000000000008
 30
0.0
 11
126.0
 21
9.715999999999979
 31
0.0
  0
LINE
  5
1C25
330
1C1C
100
AcDbEntity
  8
0
100
AcDbLine
 10
74.0
 20
13.25149999999999
 30
0.0
 11
126.0
 21
13.25149999999996
 31
0.0
  0
LINE
  5
1C26
330
1C1C
100
AcDbEntity
  8
0
100
AcDbLine
 10
74.0
 20
23.85799999999994
 30
0.0
 11
126.0
 21
23.85799999999992
 31
0.0
  0
LINE
  5
1C27
330
1C1C
100
AcDbEntity
  8
0
100
AcDbLine
 10
74.0
 20
16.78699999999997
 30
0.0
 11
126.0
 21
16.78699999999994
 31
0.0
  0
LINE
  5
1C28
330
1C1C
100
AcDbEntity
  8
0
100
AcDbLine
 10
74.0
 20
20.32249999999996
 30
0.0
 11
126.0
 21
20.32249999999993
 31
0.0
  0
LINE
  5
1C29
330
1C1C
100
AcDbEntity
  8
0
100
AcDbLine
 10
74.0
 20
27.39349999999999
 30
0.0
 11
126.0
 21
27.39349999999996
 31
0.0
  0
TEXT
  5
1C2A
330
1C1C
100
AcDbEntity
  8
0
100
AcDbText
 10
86.35319943225727
 20
24.56510000000003
 30
0.0
 40
2.0
  1
200/200/220 V
100
AcDbText
  0
TEXT
  5
1C2B
330
1C1C
100
AcDbEntity
  8
0
100
AcDbText
 10
86.35319943225727
 20
21.02959999999995
 30
0.0
 40
2.0
  1
50/60/60 Hz
100
AcDbText
  0
TEXT
  5
1C2C
330
1C1C
100
AcDbEntity
  8
0
100
AcDbText
 10
74.67809444174623
 20
10.3295422092805
 30
0.0
 40
2.0
  1
定格
100
AcDbText
  0
TEXT
  5
1C2D
330
1C1C
100
AcDbEntity
  8
0
100
AcDbText
 10
74.67809444174623
 20
6.794042209280519
 30
0.0
 40
2.0
  1
絶縁
100
AcDbText
  0
TEXT
  5
1C2E
330
1C1C
100
AcDbEntity
  8
0
100
AcDbText
 10
86.35319943225727
 20
10.42309999999994
 30
0.0
 40
2.0
  1
連続
100
AcDbText
  0
TEXT
  5
1C2F
330
1C1C
100
AcDbEntity
  8
0
100
AcDbText
 10
86.35319943225727
 20
6.887599999999963
 30
0.0
 40
2.0
  1
E種
100
AcDbText
  0
TEXT
  5
1C30
330
1C1C
100
AcDbEntity
  8
0
100
AcDbText
 10
74.67809444174623
 20
13.86504220928048
 30
0.0
 40
2.0
  1
回転速度
100
AcDbText
  0
TEXT
  5
1C31
330
1C1C
100
AcDbEntity
  8
0
100
AcDbText
 10
74.67809444174633
 20
21.02959999999995
 30
0.0
 40
2.0
  1
周波数
100
AcDbText
  0
TEXT
  5
1C32
330
1C1C
100
AcDbEntity
  8
0
100
AcDbText
 10
74.67809444174623
 20
17.4005422092805
 30
0.0
 40
2.0
  1
極数
100
AcDbText
  0
TEXT
  5
1C33
330
1C1C
100
AcDbEntity
  8
0
100
AcDbText
 10
74.67809444174623
 20
24.56509999999997
 30
0.0
 40
2.0
  1
電圧
100
AcDbText
  0
TEXT
  5
1C34
330
1C1C
100
AcDbEntity
  8
0
100
AcDbText
 10
86.35319943225727
 20
17.49409999999994
 30
0.0
 40
2.0
  1
4
100
AcDbText
  0
TEXT
  5
1C35
330
1C1C
100
AcDbEntity
  8
0
100
AcDbText
 10
86.35319943225727
 20
31.6361
 30
0.0
 40
2.0
  1
全閉外扇形　DT-75
100
AcDbText
  0
LINE
  5
1C36
330
1C1C
100
AcDbEntity
  8
0
100
AcDbLine
 10
74.0
 20
38.0
 30
0.0
 11
126.0
 21
37.99999999999997
 31
0.0
  0
LINE
  5
1C37
330
1C1C
100
AcDbEntity
  8
0
100
AcDbLine
 10
74.0
 20
30.929
 30
0.0
 11
126.0
 21
30.92899999999994
 31
0.0
  0
LINE
  5
1C38
330
1C1C
100
AcDbEntity
  8
0
100
AcDbLine
 10
74.0
 20
34.46450000000001
 30
0.0
 11
126.0
 21
34.46449999999998
 31
0.0
  0
TEXT
  5
1C39
330
1C1C
100
AcDbEntity
  8
0
100
AcDbText
 10
86.35319943225727
 20
35.17159999999998
 30
0.0
 40
2.0
  1
三相誘導電動機
100
AcDbText
  0
TEXT
  5
1C3A
330
1C1C
100
AcDbEntity
  8
0
100
AcDbText
 10
74.67809444174623
 20
31.6361
 30
0.0
 40
2.0
  1
型式
100
AcDbText
  0
TEXT
  5
1C3B
330
1C1C
100
AcDbEntity
  8
0
100
AcDbText
 10
74.67809444174623
 20
35.17159999999998
 30
0.0
 40
2.0
  1
名称
100
AcDbText
  0
LINE
  5
1C3C
330
1C1C
100
AcDbEntity
  8
0
100
AcDbLine
 10
93.80123573807338
 20
40.12129999999999
 30
0.0
 11
106.1987642619266
 21
40.12129999999999
 31
0.0
  0
LINE
  5
1C3D
330
1C1C
100
AcDbEntity
  8
0
100
AcDbLine
 10
93.80123573807338
 20
39.41419999999999
 30
0.0
 11
106.1987642619266
 21
39.41419999999999
 31
0.0
  0
TEXT
  5
1C3E
330
1C1C
100
AcDbEntity
  8
0
100
AcDbText
 10
93.99902987649658
 20
40.47485
 30
0.0
 40
2.0
  1
モータ仕様
100
AcDbText
  0
ENDBLK
  5
1C40
330
1C1C
100
AcDbEntity
  8
0
100
AcDbBlockEnd
  0
BLOCK
  5
1C65
330
1C42
100
AcDbEntity
  8
0
100
AcDbBlockBegin
  2
MSPEC_T40WF-75
 70
     0
 10
0.0
 20
0.0
 30
0.0
  3
MSPEC_T40WF-75
  1

  0
LINE
  5
1C43
330
1C42
100
AcDbEntity
  8
0
100
AcDbLine
 10
126.0
 20
6.180499999999994
 30
0.0
 11
126.0
 21
37.99999999999997
 31
0.0
  0
TEXT
  5
1C44
330
1C42
100
AcDbEntity
  8
0
100
AcDbText
 10
86.35319943225727
 20
28.10060000000001
 30
0.0
 40
2.0
  1
40 W
100
AcDbText
  0
TEXT
  5
1C45
330
1C42
100
AcDbEntity
  8
0
100
AcDbText
 10
74.67809444174623
 20
28.10059999999998
 30
0.0
 40
2.0
  1
出力
100
AcDbText
  0
LINE
  5
1C46
330
1C42
100
AcDbEntity
  8
0
100
AcDbLine
 10
85.5
 20
6.180499999999994
 30
0.0
 11
85.5
 21
38.0
 31
0.0
  0
LINE
  5
1C47
330
1C42
100
AcDbEntity
  8
0
100
AcDbLine
 10
73.99999999999998
 20
6.180500000000023
 30
0.0
 11
74.0
 21
38.0
 31
0.0
  0
TEXT
  5
1C48
330
1C42
100
AcDbEntity
  8
0
100
AcDbText
 10
86.35319943225727
 20
13.95859999999993
 30
0.0
 40
2.0
  1
1500/1500/1800/1800 rpm
 41
0.9
100
AcDbText
  0
LINE
  5
1C49
330
1C42
100
AcDbEntity
  8
0
100
AcDbLine
 10
74.0
 20
6.180500000000023
 30
0.0
 11
126.0
 21
6.180499999999994
 31
0.0
  0
LINE
  5
1C4A
330
1C42
100
AcDbEntity
  8
0
100
AcDbLine
 10
74.0
 20
9.716000000000008
 30
0.0
 11
126.0
 21
9.715999999999979
 31
0.0
  0
LINE
  5
1C4B
330
1C42
100
AcDbEntity
  8
0
100
AcDbLine
 10
74.0
 20
13.25149999999999
 30
0.0
 11
126.0
 21
13.25149999999996
 31
0.0
  0
LINE
  5
1C4C
330
1C42
100
AcDbEntity
  8
0
100
AcDbLine
 10
74.0
 20
23.85799999999994
 30
0.0
 11
126.0
 21
23.85799999999992
 31
0.0
  0
LINE
  5
1C4D
330
1C42
100
AcDbEntity
  8
0
100
AcDbLine
 10
74.0
 20
16.78699999999997
 30
0.0
 11
126.0
 21
16.78699999999994
 31
0.0
  0
LINE
  5
1C4E
330
1C42
100
AcDbEntity
  8
0
100
AcDbLine
 10
74.0
 20
20.32249999999996
 30
0.0
 11
126.0
 21
20.32249999999993
 31
0.0
  0
LINE
  5
1C4F
330
1C42
100
AcDbEntity
  8
0
100
AcDbLine
 10
74.0
 20
27.39349999999999
 30
0.0
 11
126.0
 21
27.39349999999996
 31
0.0
  0
TEXT
  5
1C50
330
1C42
100
AcDbEntity
  8
0
100
AcDbText
 10
86.35319943225727
 20
24.56510000000003
 30
0.0
 40
2.0
  1
380/400/400/440 V
100
AcDbText
  0
TEXT
  5
1C51
330
1C42
100
AcDbEntity
  8
0
100
AcDbText
 10
86.35319943225727
 20
21.02959999999995
 30
0.0
 40
2.0
  1
50/50/60/60 Hz
100
AcDbText
  0
TEXT
  5
1C52
330
1C42
100
AcDbEntity
  8
0
100
AcDbText
 10
74.67809444174623
 20
10.3295422092805
 30
0.0
 40
2.0
  1
定格
100
AcDbText
  0
TEXT
  5
1C53
330
1C42
100
AcDbEntity
  8
0
100
AcDbText
 10
74.67809444174623
 20
6.794042209280519
 30
0.0
 40
2.0
  1
絶縁
100
AcDbText
  0
TEXT
  5
1C54
330
1C42
100
AcDbEntity
  8
0
100
AcDbText
 10
86.35319943225727
 20
10.42309999999994
 30
0.0
 40
2.0
  1
連続
100
AcDbText
  0
TEXT
  5
1C55
330
1C42
100
AcDbEntity
  8
0
100
AcDbText
 10
86.35319943225727
 20
6.887599999999963
 30
0.0
 40
2.0
  1
E種
100
AcDbText
  0
TEXT
  5
1C56
330
1C42
100
AcDbEntity
  8
0
100
AcDbText
 10
74.67809444174623
 20
13.86504220928048
 30
0.0
 40
2.0
  1
回転速度
100
AcDbText
  0
TEXT
  5
1C57
330
1C42
100
AcDbEntity
  8
0
100
AcDbText
 10
74.67809444174633
 20
21.02959999999995
 30
0.0
 40
2.0
  1
周波数
100
AcDbText
  0
TEXT
  5
1C58
330
1C42
100
AcDbEntity
  8
0
100
AcDbText
 10
74.67809444174623
 20
17.4005422092805
 30
0.0
 40
2.0
  1
極数
100
AcDbText
  0
TEXT
  5
1C59
330
1C42
100
AcDbEntity
  8
0
100
AcDbText
 10
74.67809444174623
 20
24.56509999999997
 30
0.0
 40
2.0
  1
電圧
100
AcDbText
  0
TEXT
  5
1C5A
330
1C42
100
AcDbEntity
  8
0
100
AcDbText
 10
86.35319943225727
 20
17.49409999999994
 30
0.0
 40
2.0
  1
4
100
AcDbText
  0
TEXT
  5
1C5B
330
1C42
100
AcDbEntity
  8
0
100
AcDbText
 10
86.35319943225727
 20
31.6361
 30
0.0
 40
2.0
  1
全閉外扇形　DT-75
100
AcDbText
  0
LINE
  5
1C5C
330
1C42
100
AcDbEntity
  8
0
100
AcDbLine
 10
74.0
 20
38.0
 30
0.0
 11
126.0
 21
37.99999999999997
 31
0.0
  0
LINE
  5
1C5D
330
1C42
100
AcDbEntity
  8
0
100
AcDbLine
 10
74.0
 20
30.929
 30
0.0
 11
126.0
 21
30.92899999999994
 31
0.0
  0
LINE
  5
1C5E
330
1C42
100
AcDbEntity
  8
0
100
AcDbLine
 10
74.0
 20
34.46450000000001
 30
0.0
 11
126.0
 21
34.46449999999998
 31
0.0
  0
TEXT
  5
1C5F
330
1C42
100
AcDbEntity
  8
0
100
AcDbText
 10
86.35319943225727
 20
35.17159999999998
 30
0.0
 40
2.0
  1
三相誘導電動機
100
AcDbText
  0
TEXT
  5
1C60
330
1C42
100
AcDbEntity
  8
0
100
AcDbText
 10
74.67809444174623
 20
31.6361
 30
0.0
 40
2.0
  1
型式
100
AcDbText
  0
TEXT
  5
1C61
330
1C42
100
AcDbEntity
  8
0
100
AcDbText
 10
74.67809444174623
 20
35.17159999999998
 30
0.0
 40
2.0
  1
名称
100
AcDbText
  0
LINE
  5
1C62
330
1C42
100
AcDbEntity
  8
0
100
AcDbLine
 10
93.80123573807338
 20
40.12129999999999
 30
0.0
 11
106.1987642619266
 21
40.12129999999999
 31
0.0
  0
LINE
  5
1C63
330
1C42
100
AcDbEntity
  8
0
100
AcDbLine
 10
93.80123573807338
 20
39.41419999999999
 30
0.0
 11
106.1987642619266
 21
39.41419999999999
 31
0.0
  0
TEXT
  5
1C64
330
1C42
100
AcDbEntity
  8
0
100
AcDbText
 10
93.99902987649658
 20
40.47485
 30
0.0
 40
2.0
  1
モータ仕様
100
AcDbText
  0
ENDBLK
  5
1C66
330
1C42
100
AcDbEntity
  8
0
100
AcDbBlockEnd
  0
BLOCK
  5
1C8B
330
1C68
100
AcDbEntity
  8
0
100
AcDbBlockBegin
  2
MSPEC_T60F-75
 70
     0
 10
0.0
 20
0.0
 30
0.0
  3
MSPEC_T60F-75
  1

  0
LINE
  5
1C69
330
1C68
100
AcDbEntity
  8
0
100
AcDbLine
 10
126.0
 20
6.180499999999994
 30
0.0
 11
126.0
 21
37.99999999999997
 31
0.0
  0
TEXT
  5
1C6A
330
1C68
100
AcDbEntity
  8
0
100
AcDbText
 10
86.35319943225727
 20
28.10060000000001
 30
0.0
 40
2.0
  1
60 W
100
AcDbText
  0
TEXT
  5
1C6B
330
1C68
100
AcDbEntity
  8
0
100
AcDbText
 10
74.67809444174623
 20
28.10059999999998
 30
0.0
 40
2.0
  1
出力
100
AcDbText
  0
LINE
  5
1C6C
330
1C68
100
AcDbEntity
  8
0
100
AcDbLine
 10
85.5
 20
6.180499999999994
 30
0.0
 11
85.5
 21
38.0
 31
0.0
  0
LINE
  5
1C6D
330
1C68
100
AcDbEntity
  8
0
100
AcDbLine
 10
73.99999999999998
 20
6.180500000000023
 30
0.0
 11
74.0
 21
38.0
 31
0.0
  0
TEXT
  5
1C6E
330
1C68
100
AcDbEntity
  8
0
100
AcDbText
 10
86.35319943225727
 20
13.95859999999993
 30
0.0
 40
2.0
  1
1500/1800/1800 rpm
100
AcDbText
  0
LINE
  5
1C6F
330
1C68
100
AcDbEntity
  8
0
100
AcDbLine
 10
74.0
 20
6.180500000000023
 30
0.0
 11
126.0
 21
6.180499999999994
 31
0.0
  0
LINE
  5
1C70
330
1C68
100
AcDbEntity
  8
0
100
AcDbLine
 10
74.0
 20
9.716000000000008
 30
0.0
 11
126.0
 21
9.715999999999979
 31
0.0
  0
LINE
  5
1C71
330
1C68
100
AcDbEntity
  8
0
100
AcDbLine
 10
74.0
 20
13.25149999999999
 30
0.0
 11
126.0
 21
13.25149999999996
 31
0.0
  0
LINE
  5
1C72
330
1C68
100
AcDbEntity
  8
0
100
AcDbLine
 10
74.0
 20
23.85799999999994
 30
0.0
 11
126.0
 21
23.85799999999992
 31
0.0
  0
LINE
  5
1C73
330
1C68
100
AcDbEntity
  8
0
100
AcDbLine
 10
74.0
 20
16.78699999999997
 30
0.0
 11
126.0
 21
16.78699999999994
 31
0.0
  0
LINE
  5
1C74
330
1C68
100
AcDbEntity
  8
0
100
AcDbLine
 10
74.0
 20
20.32249999999996
 30
0.0
 11
126.0
 21
20.32249999999993
 31
0.0
  0
LINE
  5
1C75
330
1C68
100
AcDbEntity
  8
0
100
AcDbLine
 10
74.0
 20
27.39349999999999
 30
0.0
 11
126.0
 21
27.39349999999996
 31
0.0
  0
TEXT
  5
1C76
330
1C68
100
AcDbEntity
  8
0
100
AcDbText
 10
86.35319943225727
 20
24.56510000000003
 30
0.0
 40
2.0
  1
200/200/220 V
100
AcDbText
  0
TEXT
  5
1C77
330
1C68
100
AcDbEntity
  8
0
100
AcDbText
 10
86.35319943225727
 20
21.02959999999995
 30
0.0
 40
2.0
  1
50/60/60 Hz
100
AcDbText
  0
TEXT
  5
1C78
330
1C68
100
AcDbEntity
  8
0
100
AcDbText
 10
74.67809444174623
 20
10.3295422092805
 30
0.0
 40
2.0
  1
定格
100
AcDbText
  0
TEXT
  5
1C79
330
1C68
100
AcDbEntity
  8
0
100
AcDbText
 10
74.67809444174623
 20
6.794042209280519
 30
0.0
 40
2.0
  1
絶縁
100
AcDbText
  0
TEXT
  5
1C7A
330
1C68
100
AcDbEntity
  8
0
100
AcDbText
 10
86.35319943225727
 20
10.42309999999994
 30
0.0
 40
2.0
  1
連続
100
AcDbText
  0
TEXT
  5
1C7B
330
1C68
100
AcDbEntity
  8
0
100
AcDbText
 10
86.35319943225727
 20
6.887599999999963
 30
0.0
 40
2.0
  1
E種
100
AcDbText
  0
TEXT
  5
1C7C
330
1C68
100
AcDbEntity
  8
0
100
AcDbText
 10
74.67809444174623
 20
13.86504220928048
 30
0.0
 40
2.0
  1
回転速度
100
AcDbText
  0
TEXT
  5
1C7D
330
1C68
100
AcDbEntity
  8
0
100
AcDbText
 10
74.67809444174633
 20
21.02959999999995
 30
0.0
 40
2.0
  1
周波数
100
AcDbText
  0
TEXT
  5
1C7E
330
1C68
100
AcDbEntity
  8
0
100
AcDbText
 10
74.67809444174623
 20
17.4005422092805
 30
0.0
 40
2.0
  1
極数
100
AcDbText
  0
TEXT
  5
1C7F
330
1C68
100
AcDbEntity
  8
0
100
AcDbText
 10
74.67809444174623
 20
24.56509999999997
 30
0.0
 40
2.0
  1
電圧
100
AcDbText
  0
TEXT
  5
1C80
330
1C68
100
AcDbEntity
  8
0
100
AcDbText
 10
86.35319943225727
 20
17.49409999999994
 30
0.0
 40
2.0
  1
4
100
AcDbText
  0
TEXT
  5
1C81
330
1C68
100
AcDbEntity
  8
0
100
AcDbText
 10
86.35319943225727
 20
31.6361
 30
0.0
 40
2.0
  1
全閉外扇形　DT-75
100
AcDbText
  0
LINE
  5
1C82
330
1C68
100
AcDbEntity
  8
0
100
AcDbLine
 10
74.0
 20
38.0
 30
0.0
 11
126.0
 21
37.99999999999997
 31
0.0
  0
LINE
  5
1C83
330
1C68
100
AcDbEntity
  8
0
100
AcDbLine
 10
74.0
 20
30.929
 30
0.0
 11
126.0
 21
30.92899999999994
 31
0.0
  0
LINE
  5
1C84
330
1C68
100
AcDbEntity
  8
0
100
AcDbLine
 10
74.0
 20
34.46450000000001
 30
0.0
 11
126.0
 21
34.46449999999998
 31
0.0
  0
TEXT
  5
1C85
330
1C68
100
AcDbEntity
  8
0
100
AcDbText
 10
86.35319943225727
 20
35.17159999999998
 30
0.0
 40
2.0
  1
三相誘導電動機
100
AcDbText
  0
TEXT
  5
1C86
330
1C68
100
AcDbEntity
  8
0
100
AcDbText
 10
74.67809444174623
 20
31.6361
 30
0.0
 40
2.0
  1
型式
100
AcDbText
  0
TEXT
  5
1C87
330
1C68
100
AcDbEntity
  8
0
100
AcDbText
 10
74.67809444174623
 20
35.17159999999998
 30
0.0
 40
2.0
  1
名称
100
AcDbText
  0
LINE
  5
1C88
330
1C68
100
AcDbEntity
  8
0
100
AcDbLine
 10
93.80123573807338
 20
40.12129999999999
 30
0.0
 11
106.1987642619266
 21
40.12129999999999
 31
0.0
  0
LINE
  5
1C89
330
1C68
100
AcDbEntity
  8
0
100
AcDbLine
 10
93.80123573807338
 20
39.41419999999999
 30
0.0
 11
106.1987642619266
 21
39.41419999999999
 31
0.0
  0
TEXT
  5
1C8A
330
1C68
100
AcDbEntity
  8
0
100
AcDbText
 10
93.99902987649658
 20
40.47485
 30
0.0
 40
2.0
  1
モータ仕様
100
AcDbText
  0
ENDBLK
  5
1C8C
330
1C68
100
AcDbEntity
  8
0
100
AcDbBlockEnd
  0
BLOCK
  5
1CB1
330
1C8E
100
AcDbEntity
  8
0
100
AcDbBlockBegin
  2
MSPEC_S15F-75
 70
     0
 10
0.0
 20
0.0
 30
0.0
  3
MSPEC_S15F-75
  1

  0
LINE
  5
1C8F
330
1C8E
100
AcDbEntity
  8
0
100
AcDbLine
 10
126.0
 20
6.180499999999994
 30
0.0
 11
126.0
 21
37.99999999999997
 31
0.0
  0
TEXT
  5
1C90
330
1C8E
100
AcDbEntity
  8
0
100
AcDbText
 10
86.35319943225727
 20
28.10060000000001
 30
0.0
 40
2.0
  1
15 W
100
AcDbText
  0
TEXT
  5
1C91
330
1C8E
100
AcDbEntity
  8
0
100
AcDbText
 10
74.67809444174623
 20
28.10059999999998
 30
0.0
 40
2.0
  1
出力
100
AcDbText
  0
LINE
  5
1C92
330
1C8E
100
AcDbEntity
  8
0
100
AcDbLine
 10
85.5
 20
6.180499999999994
 30
0.0
 11
85.5
 21
38.0
 31
0.0
  0
LINE
  5
1C93
330
1C8E
100
AcDbEntity
  8
0
100
AcDbLine
 10
73.99999999999998
 20
6.180500000000023
 30
0.0
 11
74.0
 21
38.0
 31
0.0
  0
TEXT
  5
1C94
330
1C8E
100
AcDbEntity
  8
0
100
AcDbText
 10
86.35319943225727
 20
13.95859999999993
 30
0.0
 40
2.0
  1
1500/1800 rpm
100
AcDbText
  0
LINE
  5
1C95
330
1C8E
100
AcDbEntity
  8
0
100
AcDbLine
 10
74.0
 20
6.180500000000023
 30
0.0
 11
126.0
 21
6.180499999999994
 31
0.0
  0
LINE
  5
1C96
330
1C8E
100
AcDbEntity
  8
0
100
AcDbLine
 10
74.0
 20
9.716000000000008
 30
0.0
 11
126.0
 21
9.715999999999979
 31
0.0
  0
LINE
  5
1C97
330
1C8E
100
AcDbEntity
  8
0
100
AcDbLine
 10
74.0
 20
13.25149999999999
 30
0.0
 11
126.0
 21
13.25149999999996
 31
0.0
  0
LINE
  5
1C98
330
1C8E
100
AcDbEntity
  8
0
100
AcDbLine
 10
74.0
 20
23.85799999999994
 30
0.0
 11
126.0
 21
23.85799999999992
 31
0.0
  0
LINE
  5
1C99
330
1C8E
100
AcDbEntity
  8
0
100
AcDbLine
 10
74.0
 20
16.78699999999997
 30
0.0
 11
126.0
 21
16.78699999999994
 31
0.0
  0
LINE
  5
1C9A
330
1C8E
100
AcDbEntity
  8
0
100
AcDbLine
 10
74.0
 20
20.32249999999996
 30
0.0
 11
126.0
 21
20.32249999999993
 31
0.0
  0
LINE
  5
1C9B
330
1C8E
100
AcDbEntity
  8
0
100
AcDbLine
 10
74.0
 20
27.39349999999999
 30
0.0
 11
126.0
 21
27.39349999999996
 31
0.0
  0
TEXT
  5
1C9C
330
1C8E
100
AcDbEntity
  8
0
100
AcDbText
 10
86.35319943225727
 20
24.56510000000003
 30
0.0
 40
2.0
  1
100 V
100
AcDbText
  0
TEXT
  5
1C9D
330
1C8E
100
AcDbEntity
  8
0
100
AcDbText
 10
86.35319943225727
 20
21.02959999999995
 30
0.0
 40
2.0
  1
50/60 Hz
100
AcDbText
  0
TEXT
  5
1C9E
330
1C8E
100
AcDbEntity
  8
0
100
AcDbText
 10
74.67809444174623
 20
10.3295422092805
 30
0.0
 40
2.0
  1
定格
100
AcDbText
  0
TEXT
  5
1C9F
330
1C8E
100
AcDbEntity
  8
0
100
AcDbText
 10
74.67809444174623
 20
6.794042209280519
 30
0.0
 40
2.0
  1
絶縁
100
AcDbText
  0
TEXT
  5
1CA0
330
1C8E
100
AcDbEntity
  8
0
100
AcDbText
 10
86.35319943225727
 20
10.42309999999994
 30
0.0
 40
2.0
  1
連続
100
AcDbText
  0
TEXT
  5
1CA1
330
1C8E
100
AcDbEntity
  8
0
100
AcDbText
 10
86.35319943225727
 20
6.887599999999963
 30
0.0
 40
2.0
  1
E種
100
AcDbText
  0
TEXT
  5
1CA2
330
1C8E
100
AcDbEntity
  8
0
100
AcDbText
 10
74.67809444174623
 20
13.86504220928048
 30
0.0
 40
2.0
  1
回転速度
100
AcDbText
  0
TEXT
  5
1CA3
330
1C8E
100
AcDbEntity
  8
0
100
AcDbText
 10
74.67809444174633
 20
21.02959999999995
 30
0.0
 40
2.0
  1
周波数
100
AcDbText
  0
TEXT
  5
1CA4
330
1C8E
100
AcDbEntity
  8
0
100
AcDbText
 10
74.67809444174623
 20
17.4005422092805
 30
0.0
 40
2.0
  1
極数
100
AcDbText
  0
TEXT
  5
1CA5
330
1C8E
100
AcDbEntity
  8
0
100
AcDbText
 10
74.67809444174623
 20
24.56509999999997
 30
0.0
 40
2.0
  1
電圧
100
AcDbText
  0
TEXT
  5
1CA6
330
1C8E
100
AcDbEntity
  8
0
100
AcDbText
 10
86.35319943225727
 20
17.49409999999994
 30
0.0
 40
2.0
  1
4
100
AcDbText
  0
TEXT
  5
1CA7
330
1C8E
100
AcDbEntity
  8
0
100
AcDbText
 10
86.35319943225727
 20
31.6361
 30
0.0
 40
2.0
  1
全閉外扇形（ｺﾝﾃﾞﾝｻﾗﾝ）DS-75
100
AcDbText
  0
LINE
  5
1CA8
330
1C8E
100
AcDbEntity
  8
0
100
AcDbLine
 10
74.0
 20
38.0
 30
0.0
 11
126.0
 21
37.99999999999997
 31
0.0
  0
LINE
  5
1CA9
330
1C8E
100
AcDbEntity
  8
0
100
AcDbLine
 10
74.0
 20
30.929
 30
0.0
 11
126.0
 21
30.92899999999994
 31
0.0
  0
LINE
  5
1CAA
330
1C8E
100
AcDbEntity
  8
0
100
AcDbLine
 10
74.0
 20
34.46450000000001
 30
0.0
 11
126.0
 21
34.46449999999998
 31
0.0
  0
TEXT
  5
1CAB
330
1C8E
100
AcDbEntity
  8
0
100
AcDbText
 10
86.35319943225727
 20
35.17159999999998
 30
0.0
 40
2.0
  1
単相誘導電動機
100
AcDbText
  0
TEXT
  5
1CAC
330
1C8E
100
AcDbEntity
  8
0
100
AcDbText
 10
74.67809444174623
 20
31.6361
 30
0.0
 40
2.0
  1
型式
100
AcDbText
  0
TEXT
  5
1CAD
330
1C8E
100
AcDbEntity
  8
0
100
AcDbText
 10
74.67809444174623
 20
35.17159999999998
 30
0.0
 40
2.0
  1
名称
100
AcDbText
  0
LINE
  5
1CAE
330
1C8E
100
AcDbEntity
  8
0
100
AcDbLine
 10
93.80123573807338
 20
40.12129999999999
 30
0.0
 11
106.1987642619266
 21
40.12129999999999
 31
0.0
  0
LINE
  5
1CAF
330
1C8E
100
AcDbEntity
  8
0
100
AcDbLine
 10
93.80123573807338
 20
39.41419999999999
 30
0.0
 11
106.1987642619266
 21
39.41419999999999
 31
0.0
  0
TEXT
  5
1CB0
330
1C8E
100
AcDbEntity
  8
0
100
AcDbText
 10
93.99902987649658
 20
40.47485
 30
0.0
 40
2.0
  1
モータ仕様
100
AcDbText
  0
ENDBLK
  5
1CB2
330
1C8E
100
AcDbEntity
  8
0
100
AcDbBlockEnd
  0
BLOCK
  5
1CD7
330
1CB4
100
AcDbEntity
  8
0
100
AcDbBlockBegin
  2
MSPEC_S15WF-75
 70
     0
 10
0.0
 20
0.0
 30
0.0
  3
MSPEC_S15WF-75
  1

  0
LINE
  5
1CB5
330
1CB4
100
AcDbEntity
  8
0
100
AcDbLine
 10
126.0
 20
6.180499999999994
 30
0.0
 11
126.0
 21
37.99999999999997
 31
0.0
  0
TEXT
  5
1CB6
330
1CB4
100
AcDbEntity
  8
0
100
AcDbText
 10
86.35319943225727
 20
28.10060000000001
 30
0.0
 40
2.0
  1
15 W
100
AcDbText
  0
TEXT
  5
1CB7
330
1CB4
100
AcDbEntity
  8
0
100
AcDbText
 10
74.67809444174623
 20
28.10059999999998
 30
0.0
 40
2.0
  1
出力
100
AcDbText
  0
LINE
  5
1CB8
330
1CB4
100
AcDbEntity
  8
0
100
AcDbLine
 10
85.5
 20
6.180499999999994
 30
0.0
 11
85.5
 21
38.0
 31
0.0
  0
LINE
  5
1CB9
330
1CB4
100
AcDbEntity
  8
0
100
AcDbLine
 10
73.99999999999998
 20
6.180500000000023
 30
0.0
 11
74.0
 21
38.0
 31
0.0
  0
TEXT
  5
1CBA
330
1CB4
100
AcDbEntity
  8
0
100
AcDbText
 10
86.35319943225727
 20
13.95859999999993
 30
0.0
 40
2.0
  1
1500/1800 rpm
100
AcDbText
  0
LINE
  5
1CBB
330
1CB4
100
AcDbEntity
  8
0
100
AcDbLine
 10
74.0
 20
6.180500000000023
 30
0.0
 11
126.0
 21
6.180499999999994
 31
0.0
  0
LINE
  5
1CBC
330
1CB4
100
AcDbEntity
  8
0
100
AcDbLine
 10
74.0
 20
9.716000000000008
 30
0.0
 11
126.0
 21
9.715999999999979
 31
0.0
  0
LINE
  5
1CBD
330
1CB4
100
AcDbEntity
  8
0
100
AcDbLine
 10
74.0
 20
13.25149999999999
 30
0.0
 11
126.0
 21
13.25149999999996
 31
0.0
  0
LINE
  5
1CBE
330
1CB4
100
AcDbEntity
  8
0
100
AcDbLine
 10
74.0
 20
23.85799999999994
 30
0.0
 11
126.0
 21
23.85799999999992
 31
0.0
  0
LINE
  5
1CBF
330
1CB4
100
AcDbEntity
  8
0
100
AcDbLine
 10
74.0
 20
16.78699999999997
 30
0.0
 11
126.0
 21
16.78699999999994
 31
0.0
  0
LINE
  5
1CC0
330
1CB4
100
AcDbEntity
  8
0
100
AcDbLine
 10
74.0
 20
20.32249999999996
 30
0.0
 11
126.0
 21
20.32249999999993
 31
0.0
  0
LINE
  5
1CC1
330
1CB4
100
AcDbEntity
  8
0
100
AcDbLine
 10
74.0
 20
27.39349999999999
 30
0.0
 11
126.0
 21
27.39349999999996
 31
0.0
  0
TEXT
  5
1CC2
330
1CB4
100
AcDbEntity
  8
0
100
AcDbText
 10
86.35319943225727
 20
24.56510000000003
 30
0.0
 40
2.0
  1
200 V
100
AcDbText
  0
TEXT
  5
1CC3
330
1CB4
100
AcDbEntity
  8
0
100
AcDbText
 10
86.35319943225727
 20
21.02959999999995
 30
0.0
 40
2.0
  1
50/60 Hz
100
AcDbText
  0
TEXT
  5
1CC4
330
1CB4
100
AcDbEntity
  8
0
100
AcDbText
 10
74.67809444174623
 20
10.3295422092805
 30
0.0
 40
2.0
  1
定格
100
AcDbText
  0
TEXT
  5
1CC5
330
1CB4
100
AcDbEntity
  8
0
100
AcDbText
 10
74.67809444174623
 20
6.794042209280519
 30
0.0
 40
2.0
  1
絶縁
100
AcDbText
  0
TEXT
  5
1CC6
330
1CB4
100
AcDbEntity
  8
0
100
AcDbText
 10
86.35319943225727
 20
10.42309999999994
 30
0.0
 40
2.0
  1
連続
100
AcDbText
  0
TEXT
  5
1CC7
330
1CB4
100
AcDbEntity
  8
0
100
AcDbText
 10
86.35319943225727
 20
6.887599999999963
 30
0.0
 40
2.0
  1
E種
100
AcDbText
  0
TEXT
  5
1CC8
330
1CB4
100
AcDbEntity
  8
0
100
AcDbText
 10
74.67809444174623
 20
13.86504220928048
 30
0.0
 40
2.0
  1
回転速度
100
AcDbText
  0
TEXT
  5
1CC9
330
1CB4
100
AcDbEntity
  8
0
100
AcDbText
 10
74.67809444174633
 20
21.02959999999995
 30
0.0
 40
2.0
  1
周波数
100
AcDbText
  0
TEXT
  5
1CCA
330
1CB4
100
AcDbEntity
  8
0
100
AcDbText
 10
74.67809444174623
 20
17.4005422092805
 30
0.0
 40
2.0
  1
極数
100
AcDbText
  0
TEXT
  5
1CCB
330
1CB4
100
AcDbEntity
  8
0
100
AcDbText
 10
74.67809444174623
 20
24.56509999999997
 30
0.0
 40
2.0
  1
電圧
100
AcDbText
  0
TEXT
  5
1CCC
330
1CB4
100
AcDbEntity
  8
0
100
AcDbText
 10
86.35319943225727
 20
17.49409999999994
 30
0.0
 40
2.0
  1
4
100
AcDbText
  0
TEXT
  5
1CCD
330
1CB4
100
AcDbEntity
  8
0
100
AcDbText
 10
86.35319943225727
 20
31.6361
 30
0.0
 40
2.0
  1
全閉外扇形（ｺﾝﾃﾞﾝｻﾗﾝ）DS-75
100
AcDbText
  0
LINE
  5
1CCE
330
1CB4
100
AcDbEntity
  8
0
100
AcDbLine
 10
74.0
 20
38.0
 30
0.0
 11
126.0
 21
37.99999999999997
 31
0.0
  0
LINE
  5
1CCF
330
1CB4
100
AcDbEntity
  8
0
100
AcDbLine
 10
74.0
 20
30.929
 30
0.0
 11
126.0
 21
30.92899999999994
 31
0.0
  0
LINE
  5
1CD0
330
1CB4
100
AcDbEntity
  8
0
100
AcDbLine
 10
74.0
 20
34.46450000000001
 30
0.0
 11
126.0
 21
34.46449999999998
 31
0.0
  0
TEXT
  5
1CD1
330
1CB4
100
AcDbEntity
  8
0
100
AcDbText
 10
86.35319943225727
 20
35.17159999999998
 30
0.0
 40
2.0
  1
単相誘導電動機
100
AcDbText
  0
TEXT
  5
1CD2
330
1CB4
100
AcDbEntity
  8
0
100
AcDbText
 10
74.67809444174623
 20
31.6361
 30
0.0
 40
2.0
  1
型式
100
AcDbText
  0
TEXT
  5
1CD3
330
1CB4
100
AcDbEntity
  8
0
100
AcDbText
 10
74.67809444174623
 20
35.17159999999998
 30
0.0
 40
2.0
  1
名称
100
AcDbText
  0
LINE
  5
1CD4
330
1CB4
100
AcDbEntity
  8
0
100
AcDbLine
 10
93.80123573807338
 20
40.12129999999999
 30
0.0
 11
106.1987642619266
 21
40.12129999999999
 31
0.0
  0
LINE
  5
1CD5
330
1CB4
100
AcDbEntity
  8
0
100
AcDbLine
 10
93.80123573807338
 20
39.41419999999999
 30
0.0
 11
106.1987642619266
 21
39.41419999999999
 31
0.0
  0
TEXT
  5
1CD6
330
1CB4
100
AcDbEntity
  8
0
100
AcDbText
 10
93.99902987649658
 20
40.47485
 30
0.0
 40
2.0
  1
モータ仕様
100
AcDbText
  0
ENDBLK
  5
1CD8
330
1CB4
100
AcDbEntity
  8
0
100
AcDbBlockEnd
  0
BLOCK
  5
1DAF
330
1DAC
100
AcDbEntity
  8
0
100
AcDbBlockBegin
  2
18
 70
     0
 10
0.0
 20
0.0
 30
0.0
  3
18
  1

  0
TEXT
  5
1DAD
330
1DAC
100
AcDbEntity
  8
0
100
AcDbText
 10
0.0
 20
3.5
 30
0.0
 40
2.0
  1
注。C型ターミナルボックスにはコネクター（キャプコン、膜付ゴム
100
AcDbText
  0
TEXT
  5
1DAE
330
1DAC
100
AcDbEntity
  8
0
100
AcDbText
 10
0.0
 20
0.0
 30
0.0
 40
2.0
  1
　　ブッシュ）が付属されています。
100
AcDbText
  0
ENDBLK
  5
1DB0
330
1DAC
100
AcDbEntity
  8
0
100
AcDbBlockEnd
  0
BLOCK
  5
1DB4
330
1DB1
100
AcDbEntity
  8
0
100
AcDbBlockBegin
  2
19
 70
     0
 10
0.0
 20
0.0
 30
0.0
  3
19
  1

  0
TEXT
  5
1DB2
330
1DB1
100
AcDbEntity
  8
0
100
AcDbText
 10
0.0
 20
3.5
 30
0.0
 40
2.0
  1
注。整流器はターミナルボックスに内蔵され、交流切り（B）用結線に
100
AcDbText
  0
TEXT
  5
1DB3
330
1DB1
100
AcDbEntity
  8
0
100
AcDbText
 10
0.0
 20
0.0
 30
0.0
 40
2.0
  1
　　なっています。
100
AcDbText
  0
ENDBLK
  5
1DB5
330
1DB1
100
AcDbEntity
  8
0
100
AcDbBlockEnd
  0
ENDSEC
  0
SECTION
  2
ENTITIES
  0
LINE
  5
7C5
330
2
100
AcDbEntity
  8
0
100
AcDbLine
 10
368.9711769446138
 20
121.2849691742065
 30
0.0
 11
437.4711769446139
 21
121.2849691742065
 31
0.0
  0
LINE
  5
7C6
330
2
100
AcDbEntity
  8
0
100
AcDbLine
 10
368.9711769446138
 20
114.4849811742065
 30
0.0
 11
437.4711769446139
 21
114.4849811742065
 31
0.0
  0
LINE
  5
7C7
330
2
100
AcDbEntity
  8
HIDS
100
AcDbLine
 10
368.9711769446138
 20
181.4849811742065
 30
0.0
 11
437.4711769446139
 21
181.4849811742065
 31
0.0
  0
LINE
  5
7C8
330
2
100
AcDbEntity
  8
HIDS
100
AcDbLine
 10
368.9711769446138
 20
188.2849691742065
 30
0.0
 11
437.4711769446139
 21
188.2849691742065
 31
0.0
  0
LINE
  5
7C9
330
2
100
AcDbEntity
  8
HIDS
100
AcDbLine
 10
373.9711769446139
 20
111.3849751742065
 30
0.0
 11
418.5397189446138
 21
111.3849751742065
 31
0.0
  0
LINE
  5
7CA
330
2
100
AcDbEntity
  8
HIDS
100
AcDbLine
 10
419.9711769446138
 20
191.3849751742065
 30
0.0
 11
375.4026349446139
 21
191.3849751742065
 31
0.0
  0
LINE
  5
7CB
330
2
100
AcDbEntity
  8
CENTER
100
AcDbLine
 10
353.9662029446138
 20
184.8849751742065
 30
0.0
 11
441.0149389446138
 21
184.8849751742065
 31
0.0
  0
LINE
  5
7CC
330
2
100
AcDbEntity
  8
CENTER
100
AcDbLine
 10
353.9662029446138
 20
117.8849751742065
 30
0.0
 11
441.0149389446138
 21
117.8849751742065
 31
0.0
  0
LINE
  5
7CD
330
2
100
AcDbEntity
  8
HIDS
100
AcDbLine
 10
375.9362649446138
 20
113.7521471742065
 30
0.0
 11
396.9711769446139
 21
113.3849751742065
 31
0.0
  0
LINE
  5
7CE
330
2
100
AcDbEntity
  8
HIDS
100
AcDbLine
 10
375.9362649446138
 20
189.0178181742065
 30
0.0
 11
396.9711769446139
 21
189.3849751742065
 31
0.0
  0
LINE
  5
7CF
330
2
100
AcDbEntity
  8
0
100
AcDbLine
 10
396.9711769446139
 20
110.8849751742065
 30
0.0
 11
356.4711769446138
 21
111.5918991742065
 31
0.0
  0
LINE
  5
7D0
330
2
100
AcDbEntity
  8
0
100
AcDbLine
 10
396.9711769446139
 20
191.8849751742065
 30
0.0
 11
356.4711769446138
 21
191.1780351742065
 31
0.0
  0
LINE
  5
7D2
330
2
100
AcDbEntity
  8
HIDS
100
AcDbLine
 10
356.9711769446139
 20
172.9535171742065
 30
0.0
 11
356.9711769446139
 21
128.3849751742065
 31
0.0
  0
LINE
  5
7D3
330
2
100
AcDbEntity
  8
0
100
AcDbLine
 10
30.76714241911702
 20
186.3849751742065
 30
0.0
 11
30.76714241911702
 21
116.3849751742065
 31
0.0
  0
LINE
  5
7D4
330
2
100
AcDbEntity
  8
0
100
AcDbLine
 10
79.76713041911705
 20
111.3849751742065
 30
0.0
 11
79.76713041911705
 21
191.3849751742065
 31
0.0
  0
LINE
  5
7D5
330
2
100
AcDbEntity
  8
0
100
AcDbLine
 10
89.26713041911705
 20
189.3849751742065
 30
0.0
 11
89.26713041911705
 21
113.3849751742065
 31
0.0
  0
CIRCLE
  5
7D6
330
2
100
AcDbEntity
  8
0
100
AcDbCircle
 10
223.322634419117
 20
151.3849751742065
 30
0.0
 40
25.002001
  0
CIRCLE
  5
7D7
330
2
100
AcDbEntity
  8
0
100
AcDbCircle
 10
223.322634419117
 20
151.3849751742065
 30
0.0
 40
23.0
  0
CIRCLE
  5
7D8
330
2
100
AcDbEntity
  8
0
100
AcDbCircle
 10
223.322634419117
 20
151.3849751742065
 30
0.0
 40
19.0
  0
ARC
  5
7D9
330
2
100
AcDbEntity
  8
0
100
AcDbCircle
 10
164.322634419117
 20
134.3849751742065
 30
0.0
 40
2.0
100
AcDbArc
 50
180.0
 51
270.0
  0
ARC
  5
7DB
330
2
100
AcDbEntity
  8
0
100
AcDbCircle
 10
260.322634419117
 20
134.3849751742065
 30
0.0
 40
2.0
100
AcDbArc
 50
270.0
 51
0.0
  0
ARC
  5
7DD
330
2
100
AcDbEntity
  8
0
100
AcDbCircle
 10
193.322634419117
 20
137.8849751742065
 30
0.0
 40
22.0
100
AcDbArc
 50
180.0
 51
194.4775090000003
  0
ARC
  5
7DE
330
2
100
AcDbEntity
  8
0
100
AcDbCircle
 10
231.322634419117
 20
137.8849751742065
 30
0.0
 40
22.0
100
AcDbArc
 50
345.5224880000002
 51
0.0
  0
ARC
  5
7DF
330
2
100
AcDbEntity
  8
0
100
AcDbCircle
 10
173.548907419117
 20
134.8849751742065
 30
0.0
 40
2.0
100
AcDbArc
 50
188.6269229999999
 51
270.0
  0
LINE
  5
7E0
330
2
100
AcDbEntity
  8
0
100
AcDbLine
 10
176.158343419117
 20
132.7019921742065
 30
0.0
 11
175.238482419117
 21
130.7019921742065
 31
0.0
  0
ARC
  5
7E1
330
2
100
AcDbEntity
  8
0
100
AcDbCircle
 10
175.322634419117
 20
130.8849751742065
 30
0.0
 40
2.0
100
AcDbArc
 50
40.60129499999971
 51
90.0
  0
ARC
  5
7E2
330
2
100
AcDbEntity
  8
0
100
AcDbCircle
 10
251.096346419117
 20
134.8849751742065
 30
0.0
 40
2.0
100
AcDbArc
 50
270.0
 51
351.373077
  0
LINE
  5
7E3
330
2
100
AcDbEntity
  8
0
100
AcDbLine
 10
248.486910419117
 20
132.7019921742065
 30
0.0
 11
249.406801419117
 21
130.7019921742065
 31
0.0
  0
ARC
  5
7E4
330
2
100
AcDbEntity
  8
0
100
AcDbCircle
 10
249.322634419117
 20
130.8849751742065
 30
0.0
 40
2.0
100
AcDbArc
 50
90.0
 51
139.3987120000005
  0
LINE
  5
7E5
330
2
100
AcDbEntity
  8
0
100
AcDbLine
 10
162.322634419117
 20
135.0565451742065
 30
0.0
 11
162.322634419117
 21
117.8849751742065
 31
0.0
  0
LINE
  5
7E6
330
2
100
AcDbEntity
  8
0
100
AcDbLine
 10
262.322634419117
 20
117.8849751742065
 30
0.0
 11
262.322634419117
 21
184.8849751742065
 31
0.0
  0
LINE
  5
7E8
330
2
100
AcDbEntity
  8
0
100
AcDbLine
 10
356.4711769446138
 20
191.1780351742065
 30
0.0
 11
356.4711769446138
 21
111.5918991742065
 31
0.0
  0
LINE
  5
7E9
330
2
100
AcDbEntity
  8
0
100
AcDbLine
 10
161.822634419117
 20
177.0754351742065
 30
0.0
 11
161.822634419117
 21
125.6945151742065
 31
0.0
  0
ARC
  5
7EA
330
2
100
AcDbEntity
  8
HIDS
100
AcDbCircle
 10
396.9711769446139
 20
151.3849751742065
 30
0.0
 40
38.0
100
AcDbArc
 50
129.3567050000003
 51
230.6432949999996
  0
LINE
  5
7EB
330
2
100
AcDbEntity
  8
0
100
AcDbLine
 10
368.9711769446138
 20
191.3962361742065
 30
0.0
 11
368.9711769446138
 21
111.3737141742065
 31
0.0
  0
LINE
  5
7EC
330
2
100
AcDbEntity
  8
0
100
AcDbLine
 10
89.26713041911705
 20
121.1360131742065
 30
0.0
 11
162.322634419117
 21
121.1360131742065
 31
0.0
  0
LINE
  5
7ED
330
2
100
AcDbEntity
  8
0
100
AcDbLine
 10
89.26713041911705
 20
113.3849751742065
 30
0.0
 11
160.963885419117
 21
113.3849751742065
 31
0.0
  0
LINE
  5
7EF
330
2
100
AcDbEntity
  8
0
100
AcDbLine
 10
33.51714241911702
 20
125.3849751742065
 30
0.0
 11
79.76713041911705
 21
125.3849751742065
 31
0.0
  0
LINE
  5
7F0
330
2
100
AcDbEntity
  8
0
100
AcDbLine
 10
35.76714241911702
 20
111.3849751742065
 30
0.0
 11
79.76713041911705
 21
111.3849751742065
 31
0.0
  0
ARC
  5
7F1
330
2
100
AcDbEntity
  8
0
100
AcDbCircle
 10
35.767149419117
 20
116.3849751742065
 30
0.0
 40
5.0
100
AcDbArc
 50
180.0
 51
270.0
  0
LINE
  5
7F2
330
2
100
AcDbEntity
  8
0
100
AcDbLine
 10
79.76713041911705
 20
121.1359821742065
 30
0.0
 11
89.26713041911705
 21
121.1359821742065
 31
0.0
  0
LINE
  5
7F3
330
2
100
AcDbEntity
  8
0
100
AcDbLine
 10
79.76713041911705
 20
113.3849751742065
 30
0.0
 11
89.26713041911705
 21
113.3849751742065
 31
0.0
  0
CIRCLE
  5
7F4
330
2
100
AcDbEntity
  8
HOJO
100
AcDbCircle
 10
255.322634419117
 20
117.8849751742065
 30
0.0
 40
4.0
  0
CIRCLE
  5
7F5
330
2
100
AcDbEntity
  8
0
100
AcDbCircle
 10
255.322634419117
 20
117.8849751742065
 30
0.0
 40
4.25
  0
CIRCLE
  5
7F6
330
2
100
AcDbEntity
  8
0
100
AcDbCircle
 10
255.322634419117
 20
117.8849751742065
 30
0.0
 40
3.399999999999999
  0
LINE
  5
7F7
330
2
100
AcDbEntity
  8
0
100
AcDbLine
 10
260.322634419117
 20
132.3849751742065
 30
0.0
 11
257.822634419117
 21
132.3849751742065
 31
0.0
  0
LINE
  5
7F8
330
2
100
AcDbEntity
  8
0
100
AcDbLine
 10
260.322634419117
 20
123.3849751742065
 30
0.0
 11
257.822634419117
 21
123.3849751742065
 31
0.0
  0
LINE
  5
7FA
330
2
100
AcDbEntity
  8
0
100
AcDbLine
 10
257.822634419117
 20
129.6849931742065
 30
0.0
 11
259.322634419117
 21
128.8189651742065
 31
0.0
  0
LINE
  5
7FB
330
2
100
AcDbEntity
  8
0
100
AcDbLine
 10
257.822634419117
 20
126.0849871742065
 30
0.0
 11
259.322634419117
 21
126.9510151742065
 31
0.0
  0
CIRCLE
  5
7FC
330
2
100
AcDbEntity
  8
0
100
AcDbCircle
 10
257.822634419117
 20
127.8849751742065
 30
0.0
 40
3.5
  0
CIRCLE
  5
7FD
330
2
100
AcDbEntity
  8
0
100
AcDbCircle
 10
257.822634419117
 20
127.8849751742065
 30
0.0
 40
3.799999999999999
  0
ARC
  5
7FE
330
2
100
AcDbEntity
  8
0
100
AcDbCircle
 10
255.322634419117
 20
117.8849751742065
 30
0.0
 40
7.0
100
AcDbArc
 50
227.364075
 51
0.0
  0
LINE
  5
800
330
2
100
AcDbEntity
  8
0
100
AcDbLine
 10
231.322634419117
 20
115.8849751742065
 30
0.0
 11
193.322634419117
 21
115.8849751742065
 31
0.0
  0
LINE
  5
801
330
2
100
AcDbEntity
  8
0
100
AcDbLine
 10
169.322634419117
 20
110.8849751742065
 30
0.0
 11
255.322634419117
 21
110.8849751742065
 31
0.0
  0
CIRCLE
  5
803
330
2
100
AcDbEntity
  8
0
100
AcDbCircle
 10
166.822634419117
 20
127.8849751742065
 30
0.0
 40
3.5
  0
CIRCLE
  5
804
330
2
100
AcDbEntity
  8
0
100
AcDbCircle
 10
166.822634419117
 20
127.8849751742065
 30
0.0
 40
3.799999999999999
  0
ARC
  5
805
330
2
100
AcDbEntity
  8
0
100
AcDbCircle
 10
164.322634419117
 20
121.3849751742065
 30
0.0
 40
2.0
100
AcDbArc
 50
90.0
 51
180.0
  0
LINE
  5
806
330
2
100
AcDbEntity
  8
0
100
AcDbLine
 10
161.659014419117
 20
113.2602801742065
 30
0.0
 11
166.889651419117
 21
111.3213921742065
 31
0.0
  0
ARC
  5
807
330
2
100
AcDbEntity
  8
0
100
AcDbCircle
 10
169.322634419117
 20
117.8849751742065
 30
0.0
 40
7.0
100
AcDbArc
 50
180.0
 51
312.6359249999997
  0
ARC
  5
809
330
2
100
AcDbEntity
  8
0
100
AcDbCircle
 10
160.963885419117
 20
111.3849751742065
 30
0.0
 40
2.0
100
AcDbArc
 50
69.66127000000013
 51
90.0
  0
LINE
  5
80A
330
2
100
AcDbEntity
  8
0
100
AcDbLine
 10
161.822634419117
 20
125.6945151742065
 30
0.0
 11
162.322634419117
 21
125.6945151742065
 31
0.0
  0
ARC
  5
80B
330
2
100
AcDbEntity
  8
0
100
AcDbCircle
 10
188.723299419117
 20
120.8849751742065
 30
0.0
 40
10.0
100
AcDbArc
 50
247.6683579999995
 51
270.0
  0
ARC
  5
80D
330
2
100
AcDbEntity
  8
0
100
AcDbCircle
 10
178.128023419117
 20
108.3212391742065
 30
0.0
 40
6.0
100
AcDbArc
 50
59.64169699999963
 51
132.6359249999996
  0
LINE
  5
80E
330
2
100
AcDbEntity
  8
0
100
AcDbLine
 10
176.841143419117
 20
132.1865501742065
 30
0.0
 11
185.841143419117
 21
121.6865501742065
 31
0.0
  0
LINE
  5
80F
330
2
100
AcDbEntity
  8
0
100
AcDbLine
 10
175.921282419117
 20
130.1865501742065
 30
0.0
 11
183.841143419117
 21
120.9467121742065
 31
0.0
  0
CIRCLE
  5
810
330
2
100
AcDbEntity
  8
0
100
AcDbCircle
 10
169.322634419117
 20
117.8849751742065
 30
0.0
 40
4.25
  0
CIRCLE
  5
811
330
2
100
AcDbEntity
  8
HOJO
100
AcDbCircle
 10
169.322634419117
 20
117.8849751742065
 30
0.0
 40
4.0
  0
CIRCLE
  5
812
330
2
100
AcDbEntity
  8
0
100
AcDbCircle
 10
169.322634419117
 20
117.8849751742065
 30
0.0
 40
3.399999999999999
  0
ARC
  5
813
330
2
100
AcDbEntity
  8
0
100
AcDbCircle
 10
173.957720419117
 20
132.8849751742065
 30
0.0
 40
2.0
100
AcDbArc
 50
194.4775090000003
 51
270.0
  0
LINE
  5
814
330
2
100
AcDbEntity
  8
0
100
AcDbLine
 10
164.322634419117
 20
132.3849751742065
 30
0.0
 11
166.822634419117
 21
132.3849751742065
 31
0.0
  0
LINE
  5
815
330
2
100
AcDbEntity
  8
0
100
AcDbLine
 10
166.822634419117
 20
126.0849871742065
 30
0.0
 11
168.322634419117
 21
126.9510151742065
 31
0.0
  0
LINE
  5
816
330
2
100
AcDbEntity
  8
0
100
AcDbLine
 10
168.322634419117
 20
128.8189651742065
 30
0.0
 11
168.322634419117
 21
126.9510151742065
 31
0.0
  0
LINE
  5
817
330
2
100
AcDbEntity
  8
0
100
AcDbLine
 10
166.822634419117
 20
129.6849931742065
 30
0.0
 11
168.322634419117
 21
128.8189651742065
 31
0.0
  0
LINE
  5
818
330
2
100
AcDbEntity
  8
0
100
AcDbLine
 10
166.822634419117
 20
129.6849931742065
 30
0.0
 11
165.322634419117
 21
128.8189651742065
 31
0.0
  0
LINE
  5
819
330
2
100
AcDbEntity
  8
0
100
AcDbLine
 10
165.322634419117
 20
128.8189651742065
 30
0.0
 11
165.322634419117
 21
126.9510151742065
 31
0.0
  0
LINE
  5
81A
330
2
100
AcDbEntity
  8
0
100
AcDbLine
 10
166.822634419117
 20
126.0849871742065
 30
0.0
 11
165.322634419117
 21
126.9510151742065
 31
0.0
  0
LINE
  5
81B
330
2
100
AcDbEntity
  8
0
100
AcDbLine
 10
164.322634419117
 20
123.3849751742065
 30
0.0
 11
166.822634419117
 21
123.3849751742065
 31
0.0
  0
ARC
  5
81C
330
2
100
AcDbEntity
  8
0
100
AcDbCircle
 10
166.822634419117
 20
127.8849751742065
 30
0.0
 40
4.5
100
AcDbArc
 50
270.0
 51
90.0
  0
LINE
  5
81D
330
2
100
AcDbEntity
  8
0
100
AcDbLine
 10
174.402758419117
 20
130.8849751742065
 30
0.0
 11
173.957720419117
 21
130.8849751742065
 31
0.0
  0
ARC
  5
81E
330
2
100
AcDbEntity
  8
0
100
AcDbCircle
 10
174.402758419117
 20
128.8849751742065
 30
0.0
 40
2.0
100
AcDbArc
 50
40.60129499999971
 51
90.0
  0
ARC
  5
81F
330
2
100
AcDbEntity
  8
0
100
AcDbCircle
 10
188.322634419117
 20
118.5200461742065
 30
0.0
 40
2.0
100
AcDbArc
 50
180.0
 51
255.5224910000001
  0
ARC
  5
820
330
2
100
AcDbEntity
  8
0
100
AcDbCircle
 10
193.322634419117
 20
137.8849751742065
 30
0.0
 40
22.0
100
AcDbArc
 50
249.5126880000004
 51
270.0
  0
ARC
  5
821
330
2
100
AcDbEntity
  8
0
100
AcDbCircle
 10
186.322634419117
 20
119.1499901742065
 30
0.0
 40
2.0
100
AcDbArc
 50
180.0
 51
249.51268
  0
LINE
  5
822
330
2
100
AcDbEntity
  8
0
100
AcDbLine
 10
186.198397419117
 20
121.0788531742065
 30
0.0
 11
184.198397419117
 21
120.3390161742065
 31
0.0
  0
ARC
  5
823
330
2
100
AcDbEntity
  8
0
100
AcDbCircle
 10
182.322634419117
 20
119.6451371742065
 30
0.0
 40
2.0
100
AcDbArc
 50
0.0
 51
40.60129499999971
  0
ARC
  5
824
330
2
100
AcDbEntity
  8
0
100
AcDbCircle
 10
184.322634419117
 20
120.3849751742065
 30
0.0
 40
2.0
100
AcDbArc
 50
0.0
 51
40.60129499999971
  0
LINE
  5
825
330
2
100
AcDbEntity
  8
0
100
AcDbLine
 10
186.322634419117
 20
120.3849751742065
 30
0.0
 11
186.322634419117
 21
118.5200461742065
 31
0.0
  0
LINE
  5
826
330
2
100
AcDbEntity
  8
0
100
AcDbLine
 10
184.322634419117
 20
119.6451371742065
 30
0.0
 11
184.322634419117
 21
119.1499901742065
 31
0.0
  0
ARC
  5
827
330
2
100
AcDbEntity
  8
0
100
AcDbCircle
 10
196.322634419117
 20
139.3849751742065
 30
0.0
 40
30.0
100
AcDbArc
 50
239.6417009999993
 51
247.6683579999995
  0
ARC
  5
828
330
2
100
AcDbEntity
  8
0
100
AcDbCircle
 10
235.921969419117
 20
120.8849751742065
 30
0.0
 40
10.0
100
AcDbArc
 50
270.0
 51
292.3316420000002
  0
LINE
  5
82A
330
2
100
AcDbEntity
  8
0
100
AcDbLine
 10
247.804110419117
 20
132.1865501742065
 30
0.0
 11
238.804125419117
 21
121.6865501742065
 31
0.0
  0
LINE
  5
82B
330
2
100
AcDbEntity
  8
0
100
AcDbLine
 10
248.724001419117
 20
130.1865501742065
 30
0.0
 11
240.804110419117
 21
120.9467121742065
 31
0.0
  0
ARC
  5
82C
330
2
100
AcDbEntity
  8
0
100
AcDbCircle
 10
228.322634419117
 20
139.3849751742065
 30
0.0
 40
30.0
100
AcDbArc
 50
292.3316420000002
 51
300.3583030000003
  0
ARC
  5
82D
330
2
100
AcDbEntity
  8
0
100
AcDbCircle
 10
231.322634419117
 20
137.8849751742065
 30
0.0
 40
22.0
100
AcDbArc
 50
270.0
 51
290.4873049999999
  0
ARC
  5
82E
330
2
100
AcDbEntity
  8
0
100
AcDbCircle
 10
238.322634419117
 20
119.1499901742065
 30
0.0
 40
2.0
100
AcDbArc
 50
290.4873119999995
 51
0.0
  0
ARC
  5
82F
330
2
100
AcDbEntity
  8
0
100
AcDbCircle
 10
236.322634419117
 20
118.5200461742065
 30
0.0
 40
2.0
100
AcDbArc
 50
284.4775089999998
 51
0.0
  0
LINE
  5
830
330
2
100
AcDbEntity
  8
0
100
AcDbLine
 10
238.4468714191171
 20
121.0788531742065
 30
0.0
 11
240.446871419117
 21
120.3390161742065
 31
0.0
  0
ARC
  5
831
330
2
100
AcDbEntity
  8
0
100
AcDbCircle
 10
242.322634419117
 20
119.6451371742065
 30
0.0
 40
2.0
100
AcDbArc
 50
139.3987120000005
 51
180.0
  0
ARC
  5
832
330
2
100
AcDbEntity
  8
0
100
AcDbCircle
 10
240.322634419117
 20
120.3849751742065
 30
0.0
 40
2.0
100
AcDbArc
 50
139.3987120000005
 51
180.0
  0
LINE
  5
833
330
2
100
AcDbEntity
  8
0
100
AcDbLine
 10
238.322634419117
 20
120.3849751742065
 30
0.0
 11
238.322634419117
 21
118.5200461742065
 31
0.0
  0
LINE
  5
834
330
2
100
AcDbEntity
  8
0
100
AcDbLine
 10
240.322634419117
 20
119.6451371742065
 30
0.0
 11
240.322634419117
 21
119.1499901742065
 31
0.0
  0
ARC
  5
835
330
2
100
AcDbEntity
  8
0
100
AcDbCircle
 10
246.517245419117
 20
108.3212391742065
 30
0.0
 40
6.0
100
AcDbArc
 50
47.3640670000003
 51
120.3582990000006
  0
ARC
  5
836
330
2
100
AcDbEntity
  8
0
100
AcDbCircle
 10
250.242495419117
 20
128.8849751742065
 30
0.0
 40
2.0
100
AcDbArc
 50
90.0
 51
139.3987120000005
  0
ARC
  5
837
330
2
100
AcDbEntity
  8
0
100
AcDbCircle
 10
257.822634419117
 20
127.8849751742065
 30
0.0
 40
4.5
100
AcDbArc
 50
90.0
 51
270.0
  0
LINE
  5
838
330
2
100
AcDbEntity
  8
0
100
AcDbLine
 10
257.822634419117
 20
129.6849931742065
 30
0.0
 11
256.322634419117
 21
128.8189651742065
 31
0.0
  0
LINE
  5
839
330
2
100
AcDbEntity
  8
0
100
AcDbLine
 10
257.822634419117
 20
126.0849871742065
 30
0.0
 11
256.322634419117
 21
126.9510151742065
 31
0.0
  0
LINE
  5
83A
330
2
100
AcDbEntity
  8
0
100
AcDbLine
 10
256.322634419117
 20
128.8189651742065
 30
0.0
 11
256.322634419117
 21
126.9510151742065
 31
0.0
  0
ARC
  5
83B
330
2
100
AcDbEntity
  8
0
100
AcDbCircle
 10
250.687563419117
 20
132.8849751742065
 30
0.0
 40
2.0
100
AcDbArc
 50
270.0
 51
345.5224909999996
  0
LINE
  5
83C
330
2
100
AcDbEntity
  8
0
100
AcDbLine
 10
250.242495419117
 20
130.8849751742065
 30
0.0
 11
250.687563419117
 21
130.8849751742065
 31
0.0
  0
ARC
  5
83D
330
2
100
AcDbEntity
  8
0
100
AcDbCircle
 10
260.322634419117
 20
121.3849751742065
 30
0.0
 40
2.0
100
AcDbArc
 50
0.0
 51
90.0
  0
LINE
  5
83E
330
2
100
AcDbEntity
  8
0
100
AcDbLine
 10
259.322634419117
 20
128.8189651742065
 30
0.0
 11
259.322634419117
 21
126.9510151742065
 31
0.0
  0
LINE
  5
840
330
2
100
AcDbEntity
  8
0
100
AcDbLine
 10
356.4711769446138
 20
113.6349751742065
 30
0.0
 11
368.9711769446138
 21
113.6349751742065
 31
0.0
  0
LINE
  5
841
330
2
100
AcDbEntity
  8
0
100
AcDbLine
 10
356.4711769446138
 20
122.1349751742065
 30
0.0
 11
368.9711769446138
 21
122.1349751742065
 31
0.0
  0
LINE
  5
842
330
2
100
AcDbEntity
  8
HIDS
100
AcDbLine
 10
363.5742039446138
 20
125.3849751742065
 30
0.0
 11
370.9711769446138
 21
117.9880021742065
 31
0.0
  0
ARC
  5
844
330
2
100
AcDbEntity
  8
HIDS
100
AcDbCircle
 10
359.9711769446138
 20
128.3849751742065
 30
0.0
 40
3.0
100
AcDbArc
 50
180.0
 51
270.0
  0
LINE
  5
845
330
2
100
AcDbEntity
  8
0
100
AcDbLine
 10
356.4711769446138
 20
132.5551721742065
 30
0.0
 11
362.9711769446139
 21
132.3849751742065
 31
0.0
  0
LINE
  5
846
330
2
100
AcDbEntity
  8
CENTER
100
AcDbLine
 10
356.0314799446138
 20
127.8849751742065
 30
0.0
 11
364.0161899446138
 21
127.8849751742065
 31
0.0
  0
LINE
  5
849
330
2
100
AcDbEntity
  8
HIDS
100
AcDbLine
 10
359.9711769446138
 20
125.3849751742065
 30
0.0
 11
363.5742039446138
 21
125.3849751742065
 31
0.0
  0
LINE
  5
84A
330
2
100
AcDbEntity
  8
0
100
AcDbLine
 10
361.9711459446139
 20
131.6849631742065
 30
0.0
 11
362.9711769446139
 21
131.6849631742065
 31
0.0
  0
LINE
  5
84B
330
2
100
AcDbEntity
  8
0
100
AcDbLine
 10
357.9711459446138
 20
131.3849751742065
 30
0.0
 11
361.9711459446139
 21
131.3850061742065
 31
0.0
  0
LINE
  5
84C
330
2
100
AcDbEntity
  8
0
100
AcDbLine
 10
362.9711769446139
 20
126.1991204955434
 30
0.0
 11
362.9711769446139
 21
132.3849751742065
 31
0.0
  0
LINE
  5
84E
330
2
100
AcDbEntity
  8
0
100
AcDbLine
 10
357.9711459446138
 20
125.8118249140909
 30
0.0
 11
357.9711459446138
 21
131.3849751742065
 31
0.0
  0
LINE
  5
850
330
2
100
AcDbEntity
  8
0
100
AcDbLine
 10
361.9711459446139
 20
126.0598359865196
 30
0.0
 11
361.9711459446139
 21
131.6849631742065
 31
0.0
  0
ARC
  5
851
330
2
100
AcDbEntity
  8
HIDS
100
AcDbCircle
 10
373.9711769446139
 20
114.3849751742065
 30
0.0
 40
3.0
100
AcDbArc
 50
180.0
 51
270.0
  0
LINE
  5
853
330
2
100
AcDbEntity
  8
HOJO
100
AcDbLine
 10
368.9711769446138
 20
113.8849751742065
 30
0.0
 11
388.9711769446138
 21
113.8849751742065
 31
0.0
  0
LINE
  5
854
330
2
100
AcDbEntity
  8
HOJO
100
AcDbLine
 10
368.9711769446138
 20
121.8849751742065
 30
0.0
 11
388.9711769446138
 21
121.8849751742065
 31
0.0
  0
ARC
  5
855
330
2
100
AcDbEntity
  8
HIDS
100
AcDbCircle
 10
370.9711769446138
 20
119.6832541742065
 30
0.0
 40
3.0
100
AcDbArc
 50
0.0
 51
50.64329900000029
  0
LINE
  5
856
330
2
100
AcDbEntity
  8
HIDS
100
AcDbLine
 10
370.9711769446138
 20
114.3849751742065
 30
0.0
 11
370.9711769446138
 21
117.9880021742065
 31
0.0
  0
ARC
  5
857
330
2
100
AcDbEntity
  8
HIDS
100
AcDbCircle
 10
375.9711769446139
 20
115.7518421742065
 30
0.0
 40
2.0
100
AcDbArc
 50
180.0
 51
268.9999999999998
  0
LINE
  5
858
330
2
100
AcDbEntity
  8
HIDS
100
AcDbLine
 10
373.9711769446139
 20
115.7518421742065
 30
0.0
 11
373.9711769446139
 21
119.6832541742065
 31
0.0
  0
LINE
  5
85C
330
2
100
AcDbEntity
  8
HOJO
100
AcDbLine
 10
388.9711769446138
 20
121.8849751742065
 30
0.0
 11
388.9711769446138
 21
113.8849751742065
 31
0.0
  0
LINE
  5
860
330
2
100
AcDbEntity
  8
0
100
AcDbLine
 10
89.26713041911705
 20
181.6339371742065
 30
0.0
 11
162.322634419117
 21
181.6339371742065
 31
0.0
  0
LINE
  5
861
330
2
100
AcDbEntity
  8
0
100
AcDbLine
 10
89.26713041911705
 20
189.3849751742065
 30
0.0
 11
160.963885419117
 21
189.3849751742065
 31
0.0
  0
LINE
  5
862
330
2
100
AcDbEntity
  8
CENTER
100
AcDbLine
 10
269.863405419117
 20
151.3849751742065
 30
0.0
 11
22.2466124508827
 21
151.3849751742065
 31
0.0
  0
LINE
  5
863
330
2
100
AcDbEntity
  8
0
100
AcDbLine
 10
33.51714241911702
 20
175.3849751742065
 30
0.0
 11
79.76713041911705
 21
175.3849751742065
 31
0.0
  0
LINE
  5
864
330
2
100
AcDbEntity
  8
0
100
AcDbLine
 10
35.76714241911702
 20
191.3849751742065
 30
0.0
 11
79.76713041911705
 21
191.3849751742065
 31
0.0
  0
ARC
  5
865
330
2
100
AcDbEntity
  8
0
100
AcDbCircle
 10
35.76714241911702
 20
186.3849751742065
 30
0.0
 40
5.0
100
AcDbArc
 50
90.0
 51
180.0
  0
LINE
  5
872
330
2
100
AcDbEntity
  8
0
100
AcDbLine
 10
79.76713041911705
 20
181.6339681742065
 30
0.0
 11
89.26713041911705
 21
181.6339681742065
 31
0.0
  0
LINE
  5
873
330
2
100
AcDbEntity
  8
0
100
AcDbLine
 10
79.76713041911705
 20
189.3849751742065
 30
0.0
 11
89.26713041911705
 21
189.3849751742065
 31
0.0
  0
CIRCLE
  5
87B
330
2
100
AcDbEntity
  8
HOJO
100
AcDbCircle
 10
255.322634419117
 20
184.8849751742065
 30
0.0
 40
4.0
  0
CIRCLE
  5
87C
330
2
100
AcDbEntity
  8
0
100
AcDbCircle
 10
255.322634419117
 20
184.8849751742065
 30
0.0
 40
4.25
  0
CIRCLE
  5
87D
330
2
100
AcDbEntity
  8
0
100
AcDbCircle
 10
255.322634419117
 20
184.8849751742065
 30
0.0
 40
3.399999999999999
  0
LINE
  5
87F
330
2
100
AcDbEntity
  8
0
100
AcDbLine
 10
260.322634419117
 20
170.3849751742065
 30
0.0
 11
257.822634419117
 21
170.3849751742065
 31
0.0
  0
LINE
  5
880
330
2
100
AcDbEntity
  8
0
100
AcDbLine
 10
260.322634419117
 20
179.3849751742065
 30
0.0
 11
257.822634419117
 21
179.3849751742065
 31
0.0
  0
LINE
  5
881
330
2
100
AcDbEntity
  8
0
100
AcDbLine
 10
257.822634419117
 20
173.0849571742065
 30
0.0
 11
259.322634419117
 21
173.9509851742065
 31
0.0
  0
LINE
  5
882
330
2
100
AcDbEntity
  8
0
100
AcDbLine
 10
257.822634419117
 20
176.6849631742065
 30
0.0
 11
259.322634419117
 21
175.8189351742065
 31
0.0
  0
CIRCLE
  5
883
330
2
100
AcDbEntity
  8
0
100
AcDbCircle
 10
257.822634419117
 20
174.8849751742065
 30
0.0
 40
3.5
  0
CIRCLE
  5
884
330
2
100
AcDbEntity
  8
0
100
AcDbCircle
 10
257.822634419117
 20
174.8849751742065
 30
0.0
 40
3.799999999999999
  0
ARC
  5
885
330
2
100
AcDbEntity
  8
0
100
AcDbCircle
 10
255.322634419117
 20
184.8849751742065
 30
0.0
 40
7.0
100
AcDbArc
 50
0.0
 51
132.6359249999996
  0
LINE
  5
887
330
2
100
AcDbEntity
  8
0
100
AcDbLine
 10
231.322634419117
 20
186.8849751742065
 30
0.0
 11
193.322634419117
 21
186.8849751742065
 31
0.0
  0
LINE
  5
888
330
2
100
AcDbEntity
  8
0
100
AcDbLine
 10
169.322634419117
 20
191.8849751742065
 30
0.0
 11
255.322634419117
 21
191.8849751742065
 31
0.0
  0
ARC
  5
88A
330
2
100
AcDbEntity
  8
0
100
AcDbCircle
 10
166.822634419117
 20
174.8849751742065
 30
0.0
 40
4.5
100
AcDbArc
 50
270.0
 51
90.0
  0
LINE
  5
88B
330
2
100
AcDbEntity
  8
0
100
AcDbLine
 10
165.322634419117
 20
173.9509851742065
 30
0.0
 11
165.322634419117
 21
175.8189351742065
 31
0.0
  0
LINE
  5
88C
330
2
100
AcDbEntity
  8
0
100
AcDbLine
 10
168.322634419117
 20
173.9509851742065
 30
0.0
 11
168.322634419117
 21
175.8189351742065
 31
0.0
  0
CIRCLE
  5
88D
330
2
100
AcDbEntity
  8
0
100
AcDbCircle
 10
166.822634419117
 20
174.8849751742065
 30
0.0
 40
3.5
  0
CIRCLE
  5
88E
330
2
100
AcDbEntity
  8
0
100
AcDbCircle
 10
166.822634419117
 20
174.8849751742065
 30
0.0
 40
3.799999999999999
  0
LINE
  5
88F
330
2
100
AcDbEntity
  8
0
100
AcDbLine
 10
176.841143419117
 20
170.5834001742065
 30
0.0
 11
185.841143419117
 21
181.0834001742065
 31
0.0
  0
LINE
  5
890
330
2
100
AcDbEntity
  8
0
100
AcDbLine
 10
175.921282419117
 20
172.5834001742065
 30
0.0
 11
183.841143419117
 21
181.8232381742065
 31
0.0
  0
LINE
  5
891
330
2
100
AcDbEntity
  8
0
100
AcDbLine
 10
162.322634419117
 20
184.8849751742065
 30
0.0
 11
162.322634419117
 21
167.7134051742065
 31
0.0
  0
ARC
  5
893
330
2
100
AcDbEntity
  8
0
100
AcDbCircle
 10
164.322634419117
 20
168.3849751742065
 30
0.0
 40
2.0
100
AcDbArc
 50
90.0
 51
180.0
  0
LINE
  5
894
330
2
100
AcDbEntity
  8
0
100
AcDbLine
 10
165.7368494191169
 20
163.4707601742065
 30
0.0
 11
162.908419419117
 21
166.2991901742065
 31
0.0
  0
LINE
  5
895
330
2
100
AcDbEntity
  8
0
100
AcDbLine
 10
165.7368494191169
 20
139.2991901742065
 30
0.0
 11
162.908419419117
 21
136.4707601742065
 31
0.0
  0
ARC
  5
896
330
2
100
AcDbEntity
  8
0
100
AcDbCircle
 10
164.322634419117
 20
135.0565451742065
 30
0.0
 40
2.0
100
AcDbArc
 50
134.9999999999997
 51
180.0
  0
ARC
  5
897
330
2
100
AcDbEntity
  8
0
100
AcDbCircle
 10
164.322634419117
 20
167.7134051742065
 30
0.0
 40
2.0
100
AcDbArc
 50
180.0
 51
225.0000000000003
  0
LINE
  5
898
330
2
100
AcDbEntity
  8
0
100
AcDbLine
 10
171.322634419117
 20
164.8849751742065
 30
0.0
 11
171.322634419117
 21
137.8849751742065
 31
0.0
  0
LINE
  5
899
330
2
100
AcDbEntity
  8
0
100
AcDbLine
 10
166.322634419117
 20
140.7134051742065
 30
0.0
 11
166.322634419117
 21
162.0565451742065
 31
0.0
  0
ARC
  5
89A
330
2
100
AcDbEntity
  8
0
100
AcDbCircle
 10
164.322634419117
 20
140.7134051742065
 30
0.0
 40
2.0
100
AcDbArc
 50
314.9999999999997
 51
0.0
  0
LINE
  5
89B
330
2
100
AcDbEntity
  8
0
100
AcDbLine
 10
175.322634419117
 20
132.8849751742065
 30
0.0
 11
173.548907419117
 21
132.8849751742065
 31
0.0
  0
ARC
  5
89C
330
2
100
AcDbEntity
  8
0
100
AcDbCircle
 10
164.322634419117
 20
162.0565451742065
 30
0.0
 40
2.0
100
AcDbArc
 50
0.0
 51
45.00000000000029
  0
ARC
  5
89D
330
2
100
AcDbEntity
  8
0
100
AcDbCircle
 10
173.957720419117
 20
169.8849751742065
 30
0.0
 40
2.0
100
AcDbArc
 50
90.0
 51
165.5224909999996
  0
ARC
  5
89E
330
2
100
AcDbEntity
  8
0
100
AcDbCircle
 10
173.548907419117
 20
167.8849751742065
 30
0.0
 40
2.0
100
AcDbArc
 50
90.0
 51
171.373077
  0
LINE
  5
89F
330
2
100
AcDbEntity
  8
0
100
AcDbLine
 10
164.322634419117
 20
170.3849751742065
 30
0.0
 11
166.822634419117
 21
170.3849751742065
 31
0.0
  0
LINE
  5
8A0
330
2
100
AcDbEntity
  8
0
100
AcDbLine
 10
166.822634419117
 20
173.0849571742065
 30
0.0
 11
168.322634419117
 21
173.9509851742065
 31
0.0
  0
LINE
  5
8A1
330
2
100
AcDbEntity
  8
0
100
AcDbLine
 10
166.822634419117
 20
173.0849571742065
 30
0.0
 11
165.322634419117
 21
173.9509851742065
 31
0.0
  0
ARC
  5
8A2
330
2
100
AcDbEntity
  8
0
100
AcDbCircle
 10
193.322634419117
 20
164.8849751742065
 30
0.0
 40
22.0
100
AcDbArc
 50
165.5224909999996
 51
180.0
  0
LINE
  5
8A3
330
2
100
AcDbEntity
  8
0
100
AcDbLine
 10
174.402758419117
 20
171.8849751742065
 30
0.0
 11
173.957720419117
 21
171.8849751742065
 31
0.0
  0
LINE
  5
8A4
330
2
100
AcDbEntity
  8
0
100
AcDbLine
 10
175.322634419117
 20
169.8849751742065
 30
0.0
 11
173.548907419117
 21
169.8849751742065
 31
0.0
  0
LINE
  5
8A5
330
2
100
AcDbEntity
  8
0
100
AcDbLine
 10
176.158343419117
 20
170.0679581742065
 30
0.0
 11
175.238482419117
 21
172.0679581742065
 31
0.0
  0
ARC
  5
8A6
330
2
100
AcDbEntity
  8
0
100
AcDbCircle
 10
175.322634419117
 20
171.8849751742065
 30
0.0
 40
2.0
100
AcDbArc
 50
270.0
 51
319.3987050000003
  0
ARC
  5
8A7
330
2
100
AcDbEntity
  8
0
100
AcDbCircle
 10
174.402758419117
 20
173.8849751742065
 30
0.0
 40
2.0
100
AcDbArc
 50
270.0
 51
319.3987050000003
  0
ARC
  5
8A8
330
2
100
AcDbEntity
  8
0
100
AcDbCircle
 10
164.322634419117
 20
181.3849751742065
 30
0.0
 40
2.0
100
AcDbArc
 50
180.0
 51
270.0
  0
LINE
  5
8A9
330
2
100
AcDbEntity
  8
0
100
AcDbLine
 10
161.659014419117
 20
189.5096701742065
 30
0.0
 11
166.889651419117
 21
191.4485431742065
 31
0.0
  0
ARC
  5
8AA
330
2
100
AcDbEntity
  8
0
100
AcDbCircle
 10
169.322634419117
 20
184.8849751742065
 30
0.0
 40
7.0
100
AcDbArc
 50
47.3640670000003
 51
180.0
  0
LINE
  5
8AC
330
2
100
AcDbEntity
  8
0
100
AcDbLine
 10
161.822634419117
 20
177.0754351742065
 30
0.0
 11
162.322634419117
 21
177.0754351742065
 31
0.0
  0
ARC
  5
8AD
330
2
100
AcDbEntity
  8
0
100
AcDbCircle
 10
160.963885419117
 20
191.3849751742065
 30
0.0
 40
2.0
100
AcDbArc
 50
270.0
 51
290.3387299999998
  0
ARC
  5
8AE
330
2
100
AcDbEntity
  8
0
100
AcDbCircle
 10
178.128023419117
 20
194.4487261742065
 30
0.0
 40
6.0
100
AcDbArc
 50
227.364075
 51
300.3583030000003
  0
CIRCLE
  5
8AF
330
2
100
AcDbEntity
  8
HOJO
100
AcDbCircle
 10
169.322634419117
 20
184.8849751742065
 30
0.0
 40
4.0
  0
CIRCLE
  5
8B0
330
2
100
AcDbEntity
  8
0
100
AcDbCircle
 10
169.322634419117
 20
184.8849751742065
 30
0.0
 40
4.25
  0
CIRCLE
  5
8B1
330
2
100
AcDbEntity
  8
0
100
AcDbCircle
 10
169.322634419117
 20
184.8849751742065
 30
0.0
 40
3.399999999999999
  0
LINE
  5
8B3
330
2
100
AcDbEntity
  8
0
100
AcDbLine
 10
164.322634419117
 20
179.3849751742065
 30
0.0
 11
166.822634419117
 21
179.3849751742065
 31
0.0
  0
LINE
  5
8B4
330
2
100
AcDbEntity
  8
0
100
AcDbLine
 10
166.822634419117
 20
176.6849631742065
 30
0.0
 11
165.322634419117
 21
175.8189351742065
 31
0.0
  0
LINE
  5
8B5
330
2
100
AcDbEntity
  8
0
100
AcDbLine
 10
166.822634419117
 20
176.6849631742065
 30
0.0
 11
168.322634419117
 21
175.8189351742065
 31
0.0
  0
ARC
  5
8B6
330
2
100
AcDbEntity
  8
0
100
AcDbCircle
 10
186.322634419117
 20
183.6199601742065
 30
0.0
 40
2.0
100
AcDbArc
 50
110.4873119999995
 51
180.0
  0
ARC
  5
8B7
330
2
100
AcDbEntity
  8
0
100
AcDbCircle
 10
188.322634419117
 20
184.2499041742065
 30
0.0
 40
2.0
100
AcDbArc
 50
104.4775089999999
 51
180.0
  0
ARC
  5
8B8
330
2
100
AcDbEntity
  8
0
100
AcDbCircle
 10
193.322634419117
 20
164.8849751742065
 30
0.0
 40
22.0
100
AcDbArc
 50
90.0
 51
110.4873119999995
  0
LINE
  5
8B9
330
2
100
AcDbEntity
  8
0
100
AcDbLine
 10
186.198397419117
 20
181.6910971742065
 30
0.0
 11
184.198397419117
 21
182.4309341742065
 31
0.0
  0
ARC
  5
8BA
330
2
100
AcDbEntity
  8
0
100
AcDbCircle
 10
182.322634419117
 20
183.1248131742064
 30
0.0
 40
2.0
100
AcDbArc
 50
319.3987050000003
 51
0.0
  0
ARC
  5
8BB
330
2
100
AcDbEntity
  8
0
100
AcDbCircle
 10
184.322634419117
 20
182.3849751742065
 30
0.0
 40
2.0
100
AcDbArc
 50
319.3987050000003
 51
0.0
  0
LINE
  5
8BC
330
2
100
AcDbEntity
  8
0
100
AcDbLine
 10
186.322634419117
 20
182.3849751742065
 30
0.0
 11
186.322634419117
 21
184.2499041742065
 31
0.0
  0
LINE
  5
8BD
330
2
100
AcDbEntity
  8
0
100
AcDbLine
 10
184.322634419117
 20
183.1248131742064
 30
0.0
 11
184.322634419117
 21
183.6199601742065
 31
0.0
  0
ARC
  5
8BE
330
2
100
AcDbEntity
  8
0
100
AcDbCircle
 10
188.723299419117
 20
181.8849751742065
 30
0.0
 40
10.0
100
AcDbArc
 50
90.0
 51
112.3316420000003
  0
ARC
  5
8BF
330
2
100
AcDbEntity
  8
0
100
AcDbCircle
 10
196.322634419117
 20
163.3849751742065
 30
0.0
 40
30.0
100
AcDbArc
 50
112.3316420000003
 51
120.3582990000006
  0
ARC
  5
8C0
330
2
100
AcDbEntity
  8
0
100
AcDbCircle
 10
257.822634419117
 20
174.8849751742065
 30
0.0
 40
4.5
100
AcDbArc
 50
90.0
 51
270.0
  0
LINE
  5
8C2
330
2
100
AcDbEntity
  8
0
100
AcDbLine
 10
256.322634419117
 20
173.9509851742065
 30
0.0
 11
256.322634419117
 21
175.8189351742065
 31
0.0
  0
LINE
  5
8C3
330
2
100
AcDbEntity
  8
0
100
AcDbLine
 10
247.804110419117
 20
170.5834001742065
 30
0.0
 11
238.804125419117
 21
181.0834001742065
 31
0.0
  0
LINE
  5
8C4
330
2
100
AcDbEntity
  8
0
100
AcDbLine
 10
248.724001419117
 20
172.5834001742065
 30
0.0
 11
240.804110419117
 21
181.8232381742065
 31
0.0
  0
ARC
  5
8C5
330
2
100
AcDbEntity
  8
0
100
AcDbCircle
 10
223.322634419117
 20
151.3849751742065
 30
0.0
 40
7.5
100
AcDbArc
 50
19.4712219999997
 51
340.5287780000002
  0
ARC
  5
8C6
330
2
100
AcDbEntity
  8
0
100
AcDbCircle
 10
223.322634419117
 20
151.3849751742065
 30
0.0
 40
8.5
100
AcDbArc
 50
17.10463499999951
 51
342.8953549999996
  0
CIRCLE
  5
8C7
330
2
100
AcDbEntity
  8
0
100
AcDbCircle
 10
223.322634419117
 20
151.3849751742065
 30
0.0
 40
15.0
  0
LINE
  5
8C8
330
2
100
AcDbEntity
  8
0
100
AcDbLine
 10
227.822634419117
 20
153.8849751742065
 30
0.0
 11
227.822634419117
 21
148.8849751742065
 31
0.0
  0
LINE
  5
8C9
330
2
100
AcDbEntity
  8
0
100
AcDbLine
 10
232.822634419117
 20
153.8849751742065
 30
0.0
 11
232.822634419117
 21
148.8849751742065
 31
0.0
  0
LINE
  5
8CA
330
2
100
AcDbEntity
  8
0
100
AcDbLine
 10
253.322634419117
 20
164.8849751742065
 30
0.0
 11
253.322634419117
 21
137.8849751742065
 31
0.0
  0
LINE
  5
8CB
330
2
100
AcDbEntity
  8
0
100
AcDbLine
 10
227.822634419117
 20
148.8849751742065
 30
0.0
 11
232.822634419117
 21
148.8849751742065
 31
0.0
  0
LINE
  5
8CC
330
2
100
AcDbEntity
  8
0
100
AcDbLine
 10
249.322634419117
 20
132.8849751742065
 30
0.0
 11
251.096346419117
 21
132.8849751742065
 31
0.0
  0
LINE
  5
8CD
330
2
100
AcDbEntity
  8
0
100
AcDbLine
 10
227.822634419117
 20
153.8849751742065
 30
0.0
 11
232.822634419117
 21
153.8849751742065
 31
0.0
  0
LINE
  5
8CE
330
2
100
AcDbEntity
  8
0
100
AcDbLine
 10
249.322634419117
 20
169.8849751742065
 30
0.0
 11
251.096346419117
 21
169.8849751742065
 31
0.0
  0
ARC
  5
8CF
330
2
100
AcDbEntity
  8
0
100
AcDbCircle
 10
250.242495419117
 20
173.8849751742065
 30
0.0
 40
2.0
100
AcDbArc
 50
220.6012879999994
 51
270.0
  0
LINE
  5
8D0
330
2
100
AcDbEntity
  8
0
100
AcDbLine
 10
248.486910419117
 20
170.0679581742065
 30
0.0
 11
249.406801419117
 21
172.0679581742065
 31
0.0
  0
ARC
  5
8D1
330
2
100
AcDbEntity
  8
0
100
AcDbCircle
 10
249.322634419117
 20
171.8849751742065
 30
0.0
 40
2.0
100
AcDbArc
 50
220.6012879999994
 51
270.0
  0
LINE
  5
8D2
330
2
100
AcDbEntity
  8
0
100
AcDbLine
 10
257.822634419117
 20
173.0849571742065
 30
0.0
 11
256.322634419117
 21
173.9509851742065
 31
0.0
  0
ARC
  5
8D3
330
2
100
AcDbEntity
  8
0
100
AcDbCircle
 10
231.322634419117
 20
164.8849751742065
 30
0.0
 40
22.0
100
AcDbArc
 50
0.0
 51
14.47751199999975
  0
ARC
  5
8D4
330
2
100
AcDbEntity
  8
0
100
AcDbCircle
 10
250.687563419117
 20
169.8849751742065
 30
0.0
 40
2.0
100
AcDbArc
 50
14.47751199999975
 51
90.0
  0
ARC
  5
8D5
330
2
100
AcDbEntity
  8
0
100
AcDbCircle
 10
251.096346419117
 20
167.8849751742065
 30
0.0
 40
2.0
100
AcDbArc
 50
8.626927000000625
 51
90.0
  0
LINE
  5
8D6
330
2
100
AcDbEntity
  8
0
100
AcDbLine
 10
250.242495419117
 20
171.8849751742065
 30
0.0
 11
250.687563419117
 21
171.8849751742065
 31
0.0
  0
ARC
  5
8D7
330
2
100
AcDbEntity
  8
0
100
AcDbCircle
 10
228.322634419117
 20
163.3849751742065
 30
0.0
 40
30.0
100
AcDbArc
 50
59.64169699999963
 51
67.66835799999966
  0
ARC
  5
8D8
330
2
100
AcDbEntity
  8
0
100
AcDbCircle
 10
238.322634419117
 20
183.6199601742065
 30
0.0
 40
2.0
100
AcDbArc
 50
0.0
 51
69.51268800000041
  0
ARC
  5
8D9
330
2
100
AcDbEntity
  8
0
100
AcDbCircle
 10
236.322634419117
 20
184.2499041742065
 30
0.0
 40
2.0
100
AcDbArc
 50
0.0
 51
75.52249100000008
  0
ARC
  5
8DA
330
2
100
AcDbEntity
  8
0
100
AcDbCircle
 10
231.322634419117
 20
164.8849751742065
 30
0.0
 40
22.0
100
AcDbArc
 50
69.51268800000041
 51
90.0
  0
LINE
  5
8DB
330
2
100
AcDbEntity
  8
0
100
AcDbLine
 10
238.4468714191171
 20
181.6910971742065
 30
0.0
 11
240.446871419117
 21
182.4309341742065
 31
0.0
  0
ARC
  5
8DC
330
2
100
AcDbEntity
  8
0
100
AcDbCircle
 10
242.322634419117
 20
183.1248131742064
 30
0.0
 40
2.0
100
AcDbArc
 50
180.0
 51
220.6012879999994
  0
ARC
  5
8DD
330
2
100
AcDbEntity
  8
0
100
AcDbCircle
 10
240.322634419117
 20
182.3849751742065
 30
0.0
 40
2.0
100
AcDbArc
 50
180.0
 51
220.6012879999994
  0
LINE
  5
8DE
330
2
100
AcDbEntity
  8
0
100
AcDbLine
 10
238.322634419117
 20
182.3849751742065
 30
0.0
 11
238.322634419117
 21
184.2499041742065
 31
0.0
  0
LINE
  5
8DF
330
2
100
AcDbEntity
  8
0
100
AcDbLine
 10
240.322634419117
 20
183.1248131742064
 30
0.0
 11
240.322634419117
 21
183.6199601742065
 31
0.0
  0
ARC
  5
8E0
330
2
100
AcDbEntity
  8
0
100
AcDbCircle
 10
235.921969419117
 20
181.8849751742065
 30
0.0
 40
10.0
100
AcDbArc
 50
67.66835799999966
 51
90.0
  0
LINE
  5
8E2
330
2
100
AcDbEntity
  8
0
100
AcDbLine
 10
257.822634419117
 20
176.6849631742065
 30
0.0
 11
256.322634419117
 21
175.8189351742065
 31
0.0
  0
ARC
  5
8E3
330
2
100
AcDbEntity
  8
0
100
AcDbCircle
 10
246.517245419117
 20
194.4487261742065
 30
0.0
 40
6.0
100
AcDbArc
 50
239.6417009999993
 51
312.6359329999997
  0
LINE
  5
8E4
330
2
100
AcDbEntity
  8
0
100
AcDbLine
 10
328.4711769446138
 20
148.8849751742065
 30
0.0
 11
349.9711769446138
 21
148.8849751742065
 31
0.0
  0
LINE
  5
8E5
330
2
100
AcDbEntity
  8
0
100
AcDbLine
 10
328.4711769446138
 20
153.8849751742065
 30
0.0
 11
349.9711769446138
 21
153.8849751742065
 31
0.0
  0
LINE
  5
8E6
330
2
100
AcDbEntity
  8
0
100
AcDbLine
 10
328.4711769446138
 20
143.8849751742065
 30
0.0
 11
355.4711769446138
 21
143.8849751742065
 31
0.0
  0
LINE
  5
8E7
330
2
100
AcDbEntity
  8
0
100
AcDbLine
 10
328.4711769446138
 20
158.8849751742065
 30
0.0
 11
355.4711769446138
 21
158.8849751742065
 31
0.0
  0
LINE
  5
8E8
330
2
100
AcDbEntity
  8
0
100
AcDbLine
 10
259.322634419117
 20
173.9509851742065
 30
0.0
 11
259.322634419117
 21
175.8189351742065
 31
0.0
  0
LINE
  5
8E9
330
2
100
AcDbEntity
  8
0
100
AcDbLine
 10
258.322634419117
 20
140.7134051742065
 30
0.0
 11
258.322634419117
 21
162.0565451742065
 31
0.0
  0
ARC
  5
8EA
330
2
100
AcDbEntity
  8
0
100
AcDbCircle
 10
260.322634419117
 20
140.7134051742065
 30
0.0
 40
2.0
100
AcDbArc
 50
180.0
 51
225.0000000000003
  0
ARC
  5
8EB
330
2
100
AcDbEntity
  8
0
100
AcDbCircle
 10
260.322634419117
 20
135.0565451742065
 30
0.0
 40
2.0
100
AcDbArc
 50
0.0
 51
45.00000000000029
  0
LINE
  5
8EC
330
2
100
AcDbEntity
  8
0
100
AcDbLine
 10
258.908419419117
 20
139.2991901742065
 30
0.0
 11
261.736849419117
 21
136.4707601742065
 31
0.0
  0
LINE
  5
8ED
330
2
100
AcDbEntity
  8
0
100
AcDbLine
 10
258.908419419117
 20
163.4707601742065
 30
0.0
 11
261.736849419117
 21
166.2991901742065
 31
0.0
  0
ARC
  5
8EE
330
2
100
AcDbEntity
  8
0
100
AcDbCircle
 10
260.322634419117
 20
162.0565451742065
 30
0.0
 40
2.0
100
AcDbArc
 50
134.9999999999997
 51
180.0
  0
ARC
  5
8EF
330
2
100
AcDbEntity
  8
0
100
AcDbCircle
 10
260.322634419117
 20
168.3849751742065
 30
0.0
 40
2.0
100
AcDbArc
 50
0.0
 51
90.0
  0
ARC
  5
8F0
330
2
100
AcDbEntity
  8
0
100
AcDbCircle
 10
260.322634419117
 20
167.7134051742065
 30
0.0
 40
2.0
100
AcDbArc
 50
314.9999999999997
 51
0.0
  0
LINE
  5
8F1
330
2
100
AcDbEntity
  8
0
100
AcDbLine
 10
328.4711769446138
 20
158.8849751742065
 30
0.0
 11
328.4711769446138
 21
143.8849751742065
 31
0.0
  0
ARC
  5
8F2
330
2
100
AcDbEntity
  8
0
100
AcDbCircle
 10
260.322634419117
 20
181.3849751742065
 30
0.0
 40
2.0
100
AcDbArc
 50
270.0
 51
0.0
  0
ARC
  5
8F3
330
2
100
AcDbEntity
  8
HIDS
100
AcDbCircle
 10
361.9711769446138
 20
172.9535171742065
 30
0.0
 40
5.0
100
AcDbArc
 50
134.9999999999997
 51
180.0
  0
LINE
  5
8F4
330
2
100
AcDbEntity
  8
0
100
AcDbLine
 10
362.9711769446139
 20
179.3849751742065
 30
0.0
 11
362.9711769446139
 21
170.3849751742065
 31
0.0
  0
LINE
  5
8F5
330
2
100
AcDbEntity
  8
0
100
AcDbLine
 10
357.9711459446138
 20
178.3849751742065
 30
0.0
 11
357.9711459446138
 21
171.3849751742065
 31
0.0
  0
LINE
  5
8F6
330
2
100
AcDbEntity
  8
0
100
AcDbLine
 10
361.9711459446139
 20
178.6849631742065
 30
0.0
 11
361.9711459446139
 21
171.0849871742065
 31
0.0
  0
LINE
  5
8F7
330
2
100
AcDbEntity
  8
0
100
AcDbLine
 10
368.9711769446138
 20
135.8849751742065
 30
0.0
 11
356.4711769446138
 21
135.8849751742065
 31
0.0
  0
LINE
  5
8F8
330
2
100
AcDbEntity
  8
0
100
AcDbLine
 10
368.9711769446138
 20
139.8849751742065
 30
0.0
 11
356.4711769446138
 21
139.8849751742065
 31
0.0
  0
LINE
  5
8F9
330
2
100
AcDbEntity
  8
0
100
AcDbLine
 10
368.9711769446138
 20
162.8849751742065
 30
0.0
 11
356.4711769446138
 21
162.8849751742065
 31
0.0
  0
LINE
  5
8FA
330
2
100
AcDbEntity
  8
0
100
AcDbLine
 10
368.9711769446138
 20
166.8849751742065
 30
0.0
 11
356.4711769446138
 21
166.8849751742065
 31
0.0
  0
LINE
  5
8FB
330
2
100
AcDbEntity
  8
0
100
AcDbLine
 10
355.4711769446138
 20
159.1963151742065
 30
0.0
 11
355.4711769446138
 21
143.5736351742065
 31
0.0
  0
ARC
  5
8FC
330
2
100
AcDbEntity
  8
0
100
AcDbCircle
 10
349.9711769446138
 20
151.3849751742065
 30
0.0
 40
2.5
100
AcDbArc
 50
270.0
 51
90.0
  0
ARC
  5
8FD
330
2
100
AcDbEntity
  8
0
100
AcDbCircle
 10
355.9711769446138
 20
143.5736351742065
 30
0.0
 40
0.5
100
AcDbArc
 50
180.0
 51
240.0
  0
LINE
  5
8FE
330
2
100
AcDbEntity
  8
0
100
AcDbLine
 10
356.4711769446138
 20
142.8849751742065
 30
0.0
 11
356.2486119446139
 21
142.8849751742065
 31
0.0
  0
LINE
  5
8FF
330
2
100
AcDbEntity
  8
0
100
AcDbLine
 10
355.7211769446138
 20
143.1406511742065
 30
0.0
 11
355.8730939446138
 21
143.0529131742065
 31
0.0
  0
ARC
  5
900
330
2
100
AcDbEntity
  8
0
100
AcDbCircle
 10
356.8730939446138
 20
144.7849691742065
 30
0.0
 40
2.0
100
AcDbArc
 50
240.0
 51
251.8051299999997
  0
LINE
  5
901
330
2
100
AcDbEntity
  8
0
100
AcDbLine
 10
356.4711769446138
 20
159.8849751742065
 30
0.0
 11
356.2486119446139
 21
159.8849751742065
 31
0.0
  0
ARC
  5
902
330
2
100
AcDbEntity
  8
0
100
AcDbCircle
 10
356.8730939446138
 20
157.9849811742065
 30
0.0
 40
2.0
100
AcDbArc
 50
108.1948699999998
 51
119.9999999999995
  0
LINE
  5
903
330
2
100
AcDbEntity
  8
0
100
AcDbLine
 10
355.7211769446138
 20
159.6292991742065
 30
0.0
 11
355.8730939446138
 21
159.7170371742065
 31
0.0
  0
ARC
  5
904
330
2
100
AcDbEntity
  8
0
100
AcDbCircle
 10
355.9711769446138
 20
159.1963151742065
 30
0.0
 40
0.5
100
AcDbArc
 50
119.9999999999995
 51
180.0
  0
LINE
  5
905
330
2
100
AcDbEntity
  8
0
100
AcDbLine
 10
356.4711769446138
 20
170.2147781742065
 30
0.0
 11
362.9711769446139
 21
170.3849751742065
 31
0.0
  0
LINE
  5
906
330
2
100
AcDbEntity
  8
CENTER
100
AcDbLine
 10
356.0314799446138
 20
174.8849751742065
 30
0.0
 11
364.0161899446138
 21
174.8849751742065
 31
0.0
  0
LINE
  5
907
330
2
100
AcDbEntity
  8
0
100
AcDbLine
 10
361.9711459446139
 20
171.0849871742065
 30
0.0
 11
362.9711769446139
 21
171.0849871742065
 31
0.0
  0
LINE
  5
908
330
2
100
AcDbEntity
  8
0
100
AcDbLine
 10
357.9711459446138
 20
171.3849751742065
 30
0.0
 11
361.9711459446139
 21
171.3849441742065
 31
0.0
  0
LINE
  5
909
330
2
100
AcDbEntity
  8
0
100
AcDbLine
 10
389.6382609446138
 20
160.5588341742065
 30
0.0
 11
389.6382609446138
 21
142.2111161742065
 31
0.0
  0
LINE
  5
90A
330
2
100
AcDbEntity
  8
0
100
AcDbLine
 10
391.9711769446138
 20
138.2518271742065
 30
0.0
 11
391.9711769446138
 21
164.5181231742065
 31
0.0
  0
LINE
  5
90B
330
2
100
AcDbEntity
  8
0
100
AcDbLine
 10
387.6731729446138
 20
140.2114221742065
 30
0.0
 11
368.9711769446138
 21
139.8849751742065
 31
0.0
  0
LINE
  5
90C
330
2
100
AcDbEntity
  8
0
100
AcDbLine
 10
390.0060889446139
 20
136.2521321742065
 30
0.0
 11
368.9711769446138
 21
135.8849751742065
 31
0.0
  0
ARC
  5
90D
330
2
100
AcDbEntity
  8
0
100
AcDbCircle
 10
387.6382609446138
 20
142.2111161742065
 30
0.0
 40
2.0
100
AcDbArc
 50
271.0000000000001
 51
0.0
  0
ARC
  5
90E
330
2
100
AcDbEntity
  8
0
100
AcDbCircle
 10
389.9711769446139
 20
138.2518271742065
 30
0.0
 40
2.0
100
AcDbArc
 50
271.0000000000001
 51
0.0
  0
LINE
  5
90F
330
2
100
AcDbEntity
  8
0
100
AcDbLine
 10
391.5423129446138
 20
137.0142781742065
 30
0.0
 11
389.2093969446138
 21
140.9735681742065
 31
0.0
  0
LINE
  5
910
330
2
100
AcDbEntity
  8
0
100
AcDbLine
 10
387.6731729446138
 20
162.5585281742065
 30
0.0
 11
368.9711769446138
 21
162.8849751742065
 31
0.0
  0
LINE
  5
911
330
2
100
AcDbEntity
  8
0
100
AcDbLine
 10
390.0060889446139
 20
166.5178181742065
 30
0.0
 11
368.9711769446138
 21
166.8849751742065
 31
0.0
  0
LINE
  5
912
330
2
100
AcDbEntity
  8
0
100
AcDbLine
 10
389.2093969446138
 20
161.7963821742065
 30
0.0
 11
391.5423129446138
 21
165.7556721742065
 31
0.0
  0
ARC
  5
913
330
2
100
AcDbEntity
  8
0
100
AcDbCircle
 10
387.6382609446138
 20
160.5588341742065
 30
0.0
 40
2.0
100
AcDbArc
 50
0.0
 51
88.99999999999986
  0
ARC
  5
914
330
2
100
AcDbEntity
  8
0
100
AcDbCircle
 10
389.9711769446139
 20
164.5181231742065
 30
0.0
 40
2.0
100
AcDbArc
 50
0.0
 51
88.99999999999986
  0
LINE
  5
916
330
2
100
AcDbEntity
  8
HIDS
100
AcDbLine
 10
356.4711769446138
 20
180.6349751742065
 30
0.0
 11
368.9711769446138
 21
180.6349751742065
 31
0.0
  0
LINE
  5
917
330
2
100
AcDbEntity
  8
HIDS
100
AcDbLine
 10
356.4711769446138
 20
189.1349751742065
 30
0.0
 11
368.9711769446138
 21
189.1349751742065
 31
0.0
  0
LINE
  5
918
330
2
100
AcDbEntity
  8
HIDS
100
AcDbLine
 10
358.4356549446138
 20
176.4890401742065
 30
0.0
 11
371.8671119446138
 21
189.9204971742065
 31
0.0
  0
LINE
  5
91A
330
2
100
AcDbEntity
  8
0
100
AcDbLine
 10
356.4711769446138
 20
179.5551721742065
 30
0.0
 11
362.9711769446139
 21
179.3849751742065
 31
0.0
  0
LINE
  5
91C
330
2
100
AcDbEntity
  8
0
100
AcDbLine
 10
361.9711459446139
 20
178.6849631742065
 30
0.0
 11
362.9711769446139
 21
178.6849631742065
 31
0.0
  0
LINE
  5
91D
330
2
100
AcDbEntity
  8
0
100
AcDbLine
 10
357.9711459446138
 20
178.3849751742065
 30
0.0
 11
361.9711459446139
 21
178.3850061742065
 31
0.0
  0
LINE
  5
91F
330
2
100
AcDbEntity
  8
HIDS
100
AcDbLine
 10
368.9711769446138
 20
180.8849751742065
 30
0.0
 11
388.9711769446138
 21
180.8849751742065
 31
0.0
  0
LINE
  5
920
330
2
100
AcDbEntity
  8
HIDS
100
AcDbLine
 10
368.9711769446138
 20
188.8849751742065
 30
0.0
 11
388.9711769446138
 21
188.8849751742065
 31
0.0
  0
LINE
  5
921
330
2
100
AcDbEntity
  8
HIDS
100
AcDbLine
 10
373.9711769446139
 20
187.0181231742065
 30
0.0
 11
373.9711769446139
 21
183.0866961742065
 31
0.0
  0
ARC
  5
923
330
2
100
AcDbEntity
  8
HIDS
100
AcDbCircle
 10
370.9711769446138
 20
183.0866961742065
 30
0.0
 40
3.0
100
AcDbArc
 50
309.3567009999997
 51
0.0
  0
ARC
  5
926
330
2
100
AcDbEntity
  8
HIDS
100
AcDbCircle
 10
375.4026349446139
 20
186.3849751742065
 30
0.0
 40
5.0
100
AcDbArc
 50
90.0
 51
134.9999999999997
  0
ARC
  5
927
330
2
100
AcDbEntity
  8
HIDS
100
AcDbCircle
 10
375.9711769446139
 20
187.0181231742065
 30
0.0
 40
2.0
100
AcDbArc
 50
91.00000000000013
 51
180.0
  0
LINE
  5
928
330
2
100
AcDbEntity
  8
HIDS
100
AcDbLine
 10
388.9711769446138
 20
188.8849751742065
 30
0.0
 11
388.9711769446138
 21
180.8849751742065
 31
0.0
  0
LINE
  5
92C
330
2
100
AcDbEntity
  8
HIDS
100
AcDbLine
 10
436.9711769446139
 20
174.3849751742065
 30
0.0
 11
436.9711769446139
 21
129.8164331742065
 31
0.0
  0
LINE
  5
92D
330
2
100
AcDbEntity
  8
0
100
AcDbLine
 10
789.5266579446138
 20
186.3849751742065
 30
0.0
 11
789.5266579446138
 21
116.3849751742065
 31
0.0
  0
LINE
  5
92E
330
2
100
AcDbEntity
  8
0
100
AcDbLine
 10
740.5266579446138
 20
111.3849751742065
 30
0.0
 11
740.5266579446138
 21
191.3849751742065
 31
0.0
  0
LINE
  5
92F
330
2
100
AcDbEntity
  8
0
100
AcDbLine
 10
731.0266579446138
 20
189.3849751742065
 30
0.0
 11
731.0266579446138
 21
113.3849751742065
 31
0.0
  0
CIRCLE
  5
930
330
2
100
AcDbEntity
  8
0
100
AcDbCircle
 10
596.9711769446139
 20
151.3849751742065
 30
0.0
 40
25.002001
  0
CIRCLE
  5
931
330
2
100
AcDbEntity
  8
0
100
AcDbCircle
 10
596.9711769446139
 20
151.3849751742065
 30
0.0
 40
23.0
  0
CIRCLE
  5
932
330
2
100
AcDbEntity
  8
0
100
AcDbCircle
 10
596.9711769446139
 20
151.3849751742065
 30
0.0
 40
19.0
  0
ARC
  5
933
330
2
100
AcDbEntity
  8
0
100
AcDbCircle
 10
626.9711769446139
 20
137.8849751742065
 30
0.0
 40
22.0
100
AcDbArc
 50
345.5224880000002
 51
0.0
  0
ARC
  5
934
330
2
100
AcDbEntity
  8
0
100
AcDbCircle
 10
588.9711769446139
 20
137.8849751742065
 30
0.0
 40
22.0
100
AcDbArc
 50
180.0
 51
194.4775090000003
  0
ARC
  5
935
330
2
100
AcDbEntity
  8
0
100
AcDbCircle
 10
646.7449199446138
 20
134.8849751742065
 30
0.0
 40
2.0
100
AcDbArc
 50
270.0
 51
351.373077
  0
LINE
  5
936
330
2
100
AcDbEntity
  8
0
100
AcDbLine
 10
644.1354839446139
 20
132.7019921742065
 30
0.0
 11
645.0553439446139
 21
130.7019921742065
 31
0.0
  0
ARC
  5
937
330
2
100
AcDbEntity
  8
0
100
AcDbCircle
 10
644.9711769446139
 20
130.8849751742065
 30
0.0
 40
2.0
100
AcDbArc
 50
90.0
 51
139.3987120000005
  0
ARC
  5
938
330
2
100
AcDbEntity
  8
0
100
AcDbCircle
 10
569.1974339446139
 20
134.8849751742065
 30
0.0
 40
2.0
100
AcDbArc
 50
188.6269229999999
 51
270.0
  0
LINE
  5
939
330
2
100
AcDbEntity
  8
0
100
AcDbLine
 10
571.8068699446139
 20
132.7019921742065
 30
0.0
 11
570.8870099446139
 21
130.7019921742065
 31
0.0
  0
ARC
  5
93A
330
2
100
AcDbEntity
  8
0
100
AcDbCircle
 10
570.9711769446139
 20
130.8849751742065
 30
0.0
 40
2.0
100
AcDbArc
 50
40.60129499999971
 51
90.0
  0
LINE
  5
93B
330
2
100
AcDbEntity
  8
0
100
AcDbLine
 10
657.9711769446139
 20
135.0565451742065
 30
0.0
 11
657.9711769446139
 21
117.8849751742065
 31
0.0
  0
LINE
  5
93C
330
2
100
AcDbEntity
  8
0
100
AcDbLine
 10
557.9711769446139
 20
117.8849751742065
 30
0.0
 11
557.9711769446139
 21
184.8849751742065
 31
0.0
  0
ARC
  5
93E
330
2
100
AcDbEntity
  8
HIDS
100
AcDbCircle
 10
396.9711769446139
 20
151.3849751742065
 30
0.0
 40
38.0
100
AcDbArc
 50
309.3567009999997
 51
50.64329900000029
  0
LINE
  5
93F
330
2
100
AcDbEntity
  8
0
100
AcDbLine
 10
437.4711769446139
 20
191.1780351742065
 30
0.0
 11
437.4711769446139
 21
111.5918991742065
 31
0.0
  0
ARC
  5
941
330
2
100
AcDbEntity
  8
0
100
AcDbCircle
 10
642.165817944614
 20
108.3212391742065
 30
0.0
 40
6.0
100
AcDbArc
 50
47.3640670000003
 51
120.3582990000006
  0
ARC
  5
942
330
2
100
AcDbEntity
  8
0
100
AcDbCircle
 10
645.891037944614
 20
128.8849751742065
 30
0.0
 40
2.0
100
AcDbArc
 50
90.0
 51
139.3987120000005
  0
LINE
  5
943
330
2
100
AcDbEntity
  8
0
100
AcDbLine
 10
650.9711769446139
 20
110.8849751742065
 30
0.0
 11
564.9711769446139
 21
110.8849751742065
 31
0.0
  0
LINE
  5
946
330
2
100
AcDbEntity
  8
HOJO
100
AcDbLine
 10
404.9711769446139
 20
113.8849751742065
 30
0.0
 11
437.4711769446139
 21
113.8849751742065
 31
0.0
  0
LINE
  5
947
330
2
100
AcDbEntity
  8
HOJO
100
AcDbLine
 10
404.9711769446139
 20
121.8849751742065
 30
0.0
 11
437.4711769446139
 21
121.8849751742065
 31
0.0
  0
LINE
  5
948
330
2
100
AcDbEntity
  8
HIDS
100
AcDbLine
 10
435.5066989446138
 20
126.2809101742065
 30
0.0
 11
422.0752419446139
 21
112.8494371742065
 31
0.0
  0
LINE
  5
949
330
2
100
AcDbEntity
  8
0
100
AcDbLine
 10
396.9711769446139
 20
110.8849751742065
 30
0.0
 11
437.4711769446139
 21
111.5918991742065
 31
0.0
  0
ARC
  5
94A
330
2
100
AcDbEntity
  8
HIDS
100
AcDbCircle
 10
418.5397189446138
 20
116.3849751742065
 30
0.0
 40
5.0
100
AcDbArc
 50
270.0
 51
314.9999999999997
  0
LINE
  5
94C
330
2
100
AcDbEntity
  8
HIDS
100
AcDbLine
 10
418.0060889446139
 20
113.7521471742065
 30
0.0
 11
396.9711769446139
 21
113.3849751742065
 31
0.0
  0
LINE
  5
94D
330
2
100
AcDbEntity
  8
HOJO
100
AcDbLine
 10
404.9711769446139
 20
121.8849751742065
 30
0.0
 11
404.9711769446139
 21
113.8849751742065
 31
0.0
  0
ARC
  5
950
330
2
100
AcDbEntity
  8
HIDS
100
AcDbCircle
 10
422.9711769446138
 20
119.6832541742065
 30
0.0
 40
3.0
100
AcDbArc
 50
129.3567050000003
 51
180.0
  0
ARC
  5
951
330
2
100
AcDbEntity
  8
HIDS
100
AcDbCircle
 10
417.9711769446138
 20
115.7518421742065
 30
0.0
 40
2.0
100
AcDbArc
 50
271.0000000000001
 51
0.0
  0
LINE
  5
952
330
2
100
AcDbEntity
  8
HIDS
100
AcDbLine
 10
419.9711769446138
 20
115.7518421742065
 30
0.0
 11
419.9711769446138
 21
119.6832541742065
 31
0.0
  0
ARC
  5
958
330
2
100
AcDbEntity
  8
HIDS
100
AcDbCircle
 10
431.9711769446138
 20
129.8164331742065
 30
0.0
 40
5.0
100
AcDbArc
 50
314.9999999999997
 51
0.0
  0
ARC
  5
959
330
2
100
AcDbEntity
  8
0
100
AcDbCircle
 10
583.9711769446139
 20
118.5200461742065
 30
0.0
 40
2.0
100
AcDbArc
 50
180.0
 51
255.5224910000001
  0
ARC
  5
95A
330
2
100
AcDbEntity
  8
0
100
AcDbCircle
 10
588.9711769446139
 20
137.8849751742065
 30
0.0
 40
22.0
100
AcDbArc
 50
249.5126880000004
 51
270.0
  0
ARC
  5
95B
330
2
100
AcDbEntity
  8
0
100
AcDbCircle
 10
584.3718119446139
 20
120.8849751742065
 30
0.0
 40
10.0
100
AcDbArc
 50
247.66835
 51
270.0
  0
ARC
  5
95C
330
2
100
AcDbEntity
  8
0
100
AcDbCircle
 10
564.9711769446139
 20
117.8849751742065
 30
0.0
 40
7.0
100
AcDbArc
 50
180.0
 51
312.6359249999997
  0
CIRCLE
  5
95E
330
2
100
AcDbEntity
  8
HOJO
100
AcDbCircle
 10
564.9711769446139
 20
117.8849751742065
 30
0.0
 40
4.0
  0
CIRCLE
  5
95F
330
2
100
AcDbEntity
  8
0
100
AcDbCircle
 10
564.9711769446139
 20
117.8849751742065
 30
0.0
 40
3.399999999999999
  0
ARC
  5
960
330
2
100
AcDbEntity
  8
0
100
AcDbCircle
 10
569.6062479446139
 20
132.8849751742065
 30
0.0
 40
2.0
100
AcDbArc
 50
194.4775090000003
 51
270.0
  0
LINE
  5
962
330
2
100
AcDbEntity
  8
0
100
AcDbLine
 10
572.4896709446138
 20
132.1865501742065
 30
0.0
 11
581.4896709446138
 21
121.6865501742065
 31
0.0
  0
LINE
  5
963
330
2
100
AcDbEntity
  8
0
100
AcDbLine
 10
571.5698099446139
 20
130.1865501742065
 30
0.0
 11
579.4896709446138
 21
120.9467121742065
 31
0.0
  0
ARC
  5
964
330
2
100
AcDbEntity
  8
0
100
AcDbCircle
 10
573.7765359446139
 20
108.3212391742065
 30
0.0
 40
6.0
100
AcDbArc
 50
59.64169699999963
 51
132.6359249999996
  0
ARC
  5
965
330
2
100
AcDbEntity
  8
0
100
AcDbCircle
 10
581.9711769446139
 20
119.1499901742065
 30
0.0
 40
2.0
100
AcDbArc
 50
180.0
 51
249.51268
  0
LINE
  5
966
330
2
100
AcDbEntity
  8
0
100
AcDbLine
 10
581.8469699446138
 20
121.0788531742065
 30
0.0
 11
579.8469699446139
 21
120.3390161742065
 31
0.0
  0
ARC
  5
967
330
2
100
AcDbEntity
  8
0
100
AcDbCircle
 10
577.9711769446139
 20
119.6451371742065
 30
0.0
 40
2.0
100
AcDbArc
 50
0.0
 51
40.60129499999971
  0
ARC
  5
968
330
2
100
AcDbEntity
  8
0
100
AcDbCircle
 10
579.9711769446139
 20
120.3849751742065
 30
0.0
 40
2.0
100
AcDbArc
 50
0.0
 51
40.60129499999971
  0
LINE
  5
969
330
2
100
AcDbEntity
  8
0
100
AcDbLine
 10
581.9711769446139
 20
120.3849751742065
 30
0.0
 11
581.9711769446139
 21
118.5200461742065
 31
0.0
  0
LINE
  5
96A
330
2
100
AcDbEntity
  8
0
100
AcDbLine
 10
579.9711769446139
 20
119.6451371742065
 30
0.0
 11
579.9711769446139
 21
119.1499901742065
 31
0.0
  0
ARC
  5
96B
330
2
100
AcDbEntity
  8
0
100
AcDbCircle
 10
591.9711769446139
 20
139.3849751742065
 30
0.0
 40
30.0
100
AcDbArc
 50
239.6416929999996
 51
247.66835
  0
LINE
  5
96C
330
2
100
AcDbEntity
  8
0
100
AcDbLine
 10
570.0513159446138
 20
130.8849751742065
 30
0.0
 11
569.6062479446139
 21
130.8849751742065
 31
0.0
  0
ARC
  5
96D
330
2
100
AcDbEntity
  8
0
100
AcDbCircle
 10
570.0513159446138
 20
128.8849751742065
 30
0.0
 40
2.0
100
AcDbArc
 50
40.60129499999971
 51
90.0
  0
LINE
  5
96E
330
2
100
AcDbEntity
  8
0
100
AcDbLine
 10
588.9711769446139
 20
115.8849751742065
 30
0.0
 11
626.9711769446139
 21
115.8849751742065
 31
0.0
  0
ARC
  5
96F
330
2
100
AcDbEntity
  8
0
100
AcDbCircle
 10
631.5705419446139
 20
120.8849751742065
 30
0.0
 40
10.0
100
AcDbArc
 50
270.0
 51
292.3316349999998
  0
ARC
  5
970
330
2
100
AcDbEntity
  8
0
100
AcDbCircle
 10
626.9711769446139
 20
137.8849751742065
 30
0.0
 40
22.0
100
AcDbArc
 50
270.0
 51
290.4873049999999
  0
LINE
  5
971
330
2
100
AcDbEntity
  8
0
100
AcDbLine
 10
643.4526829446138
 20
132.1865501742065
 30
0.0
 11
634.4526829446138
 21
121.6865501742065
 31
0.0
  0
LINE
  5
972
330
2
100
AcDbEntity
  8
0
100
AcDbLine
 10
644.3725439446138
 20
130.1865501742065
 30
0.0
 11
636.4526829446138
 21
120.9467121742065
 31
0.0
  0
ARC
  5
973
330
2
100
AcDbEntity
  8
0
100
AcDbCircle
 10
623.9711769446139
 20
139.3849751742065
 30
0.0
 40
30.0
100
AcDbArc
 50
292.3316349999998
 51
300.3583070000004
  0
ARC
  5
974
330
2
100
AcDbEntity
  8
0
100
AcDbCircle
 10
633.971176944614
 20
119.1499901742065
 30
0.0
 40
2.0
100
AcDbArc
 50
290.4873119999995
 51
0.0
  0
ARC
  5
975
330
2
100
AcDbEntity
  8
0
100
AcDbCircle
 10
631.9711769446139
 20
118.5200461742065
 30
0.0
 40
2.0
100
AcDbArc
 50
284.4775089999998
 51
0.0
  0
LINE
  5
976
330
2
100
AcDbEntity
  8
0
100
AcDbLine
 10
634.0953839446139
 20
121.0788531742065
 30
0.0
 11
636.095383944614
 21
120.3390161742065
 31
0.0
  0
ARC
  5
977
330
2
100
AcDbEntity
  8
0
100
AcDbCircle
 10
637.9711769446139
 20
119.6451371742065
 30
0.0
 40
2.0
100
AcDbArc
 50
139.3987120000005
 51
180.0
  0
ARC
  5
978
330
2
100
AcDbEntity
  8
0
100
AcDbCircle
 10
635.9711769446139
 20
120.3849751742065
 30
0.0
 40
2.0
100
AcDbArc
 50
139.3987120000005
 51
180.0
  0
LINE
  5
979
330
2
100
AcDbEntity
  8
0
100
AcDbLine
 10
633.971176944614
 20
120.3849751742065
 30
0.0
 11
633.971176944614
 21
118.5200461742065
 31
0.0
  0
LINE
  5
97A
330
2
100
AcDbEntity
  8
0
100
AcDbLine
 10
635.9711769446139
 20
119.6451371742065
 30
0.0
 11
635.9711769446139
 21
119.1499901742065
 31
0.0
  0
LINE
  5
97B
330
2
100
AcDbEntity
  8
0
100
AcDbLine
 10
786.7766579446138
 20
125.3849751742065
 30
0.0
 11
740.5266579446138
 21
125.3849751742065
 31
0.0
  0
LINE
  5
97C
330
2
100
AcDbEntity
  8
0
100
AcDbLine
 10
784.5266579446138
 20
111.3849751742065
 30
0.0
 11
740.5266579446138
 21
111.3849751742065
 31
0.0
  0
LINE
  5
97D
330
2
100
AcDbEntity
  8
0
100
AcDbLine
 10
731.0266579446138
 20
121.1360131742065
 30
0.0
 11
657.9711769446139
 21
121.1360131742065
 31
0.0
  0
LINE
  5
97E
330
2
100
AcDbEntity
  8
0
100
AcDbLine
 10
731.0266579446138
 20
113.3849751742065
 30
0.0
 11
659.3299419446139
 21
113.3849751742065
 31
0.0
  0
LINE
  5
97F
330
2
100
AcDbEntity
  8
0
100
AcDbLine
 10
658.6348119446138
 20
113.2602801742065
 30
0.0
 11
653.4041599446139
 21
111.3213921742065
 31
0.0
  0
ARC
  5
980
330
2
100
AcDbEntity
  8
0
100
AcDbCircle
 10
650.9711769446139
 20
117.8849751742065
 30
0.0
 40
7.0
100
AcDbArc
 50
227.364075
 51
0.0
  0
CIRCLE
  5
982
330
2
100
AcDbEntity
  8
HOJO
100
AcDbCircle
 10
650.9711769446139
 20
117.8849751742065
 30
0.0
 40
4.0
  0
CIRCLE
  5
983
330
2
100
AcDbEntity
  8
0
100
AcDbCircle
 10
650.9711769446139
 20
117.8849751742065
 30
0.0
 40
3.399999999999999
  0
ARC
  5
984
330
2
100
AcDbEntity
  8
0
100
AcDbCircle
 10
659.3299419446139
 20
111.3849751742065
 30
0.0
 40
2.0
100
AcDbArc
 50
90.0
 51
110.3387299999998
  0
ARC
  5
985
330
2
100
AcDbEntity
  8
0
100
AcDbCircle
 10
646.3361059446137
 20
132.8849751742065
 30
0.0
 40
2.0
100
AcDbArc
 50
270.0
 51
345.5224909999996
  0
LINE
  5
986
330
2
100
AcDbEntity
  8
0
100
AcDbLine
 10
645.891037944614
 20
130.8849751742065
 30
0.0
 11
646.3361059446137
 21
130.8849751742065
 31
0.0
  0
LINE
  5
987
330
2
100
AcDbEntity
  8
0
100
AcDbLine
 10
740.5266579446138
 20
121.1359821742065
 30
0.0
 11
731.0266579446138
 21
121.1359821742065
 31
0.0
  0
LINE
  5
988
330
2
100
AcDbEntity
  8
0
100
AcDbLine
 10
740.5266579446138
 20
113.3849751742065
 30
0.0
 11
731.0266579446138
 21
113.3849751742065
 31
0.0
  0
ARC
  5
989
330
2
100
AcDbEntity
  8
0
100
AcDbCircle
 10
784.5266579446138
 20
116.3849751742065
 30
0.0
 40
5.0
100
AcDbArc
 50
270.0
 51
0.0
  0
LINE
  5
98A
330
2
100
AcDbEntity
  8
0
100
AcDbLine
 10
558.6780859446139
 20
412.6741057744116
 30
0.0
 11
657.2642679446139
 21
412.6741057744116
 31
0.0
  0
ARC
  5
98B
330
2
100
AcDbEntity
  8
0
100
AcDbCircle
 10
642.165817944614
 20
194.4487261742065
 30
0.0
 40
6.0
100
AcDbArc
 50
239.6416929999996
 51
312.6359249999997
  0
ARC
  5
98C
330
2
100
AcDbEntity
  8
0
100
AcDbCircle
 10
642.3131569446138
 20
375.9700957744116
 30
0.0
 40
11.0
100
AcDbArc
 50
248.9246669999997
 51
295.7177279999998
  0
LINE
  5
98D
330
2
100
AcDbEntity
  8
0
100
AcDbLine
 10
633.3386699446139
 20
367.1741057744116
 30
0.0
 11
650.883896944614
 21
367.1741057744116
 31
0.0
  0
ARC
  5
98E
330
2
100
AcDbEntity
  8
0
100
AcDbCircle
 10
642.3131569446138
 20
368.3781157744115
 30
0.0
 40
11.0
100
AcDbArc
 50
64.28227200000016
 51
111.0753330000002
  0
LINE
  5
98F
330
2
100
AcDbEntity
  8
0
100
AcDbLine
 10
633.3386699446139
 20
377.1741057744116
 30
0.0
 11
650.883896944614
 21
377.1741057744116
 31
0.0
  0
LINE
  5
990
330
2
100
AcDbEntity
  8
0
100
AcDbLine
 10
658.971176944614
 20
400.1741057744116
 30
0.0
 11
558.4599469446138
 21
400.1741057744116
 31
0.0
  0
LINE
  5
991
330
2
100
AcDbEntity
  8
0
100
AcDbLine
 10
657.2642679446139
 20
331.6741057744116
 30
0.0
 11
558.6780859446139
 21
331.6741057744116
 31
0.0
  0
LINE
  5
993
330
2
100
AcDbEntity
  8
0
100
AcDbLine
 10
644.9711769446139
 20
132.8849751742065
 30
0.0
 11
646.7449199446138
 21
132.8849751742065
 31
0.0
  0
LINE
  5
994
330
2
100
AcDbEntity
  8
0
100
AcDbLine
 10
644.9711769446139
 20
169.8849751742065
 30
0.0
 11
646.7449199446138
 21
169.8849751742065
 31
0.0
  0
ARC
  5
995
330
2
100
AcDbEntity
  8
0
100
AcDbCircle
 10
645.891037944614
 20
173.8849751742065
 30
0.0
 40
2.0
100
AcDbArc
 50
220.6012879999994
 51
270.0
  0
LINE
  5
996
330
2
100
AcDbEntity
  8
0
100
AcDbLine
 10
650.9711769446139
 20
191.8849751742065
 30
0.0
 11
564.9711769446139
 21
191.8849751742065
 31
0.0
  0
LINE
  5
998
330
2
100
AcDbEntity
  8
CENTER
100
AcDbLine
 10
550.4304059446139
 20
151.3849751742065
 30
0.0
 11
798.0471879128482
 21
151.3849751742065
 31
0.0
  0
LINE
  5
999
330
2
100
AcDbEntity
  8
HIDS
100
AcDbLine
 10
568.9711769446139
 20
331.6741057744116
 30
0.0
 11
568.9711769446139
 21
364.1741057744116
 31
0.0
  0
LINE
  5
99A
330
2
100
AcDbEntity
  8
HIDS
100
AcDbLine
 10
560.9711769446139
 20
331.6741057744116
 30
0.0
 11
560.9711769446139
 21
364.1741057744116
 31
0.0
  0
LINE
  5
99B
330
2
100
AcDbEntity
  8
HIDS
100
AcDbLine
 10
568.3712009446139
 20
400.1741057744116
 30
0.0
 11
568.3712009446139
 21
331.6741057744116
 31
0.0
  0
LINE
  5
99C
330
2
100
AcDbEntity
  8
HIDS
100
AcDbLine
 10
561.5711529446139
 20
400.1741057744116
 30
0.0
 11
561.5711529446139
 21
331.6741057744116
 31
0.0
  0
LINE
  5
99D
330
2
100
AcDbEntity
  8
0
100
AcDbLine
 10
642.3131569446138
 20
364.9700957744116
 30
0.0
 11
642.3131569446138
 21
331.6741057744116
 31
0.0
  0
LINE
  5
99E
330
2
100
AcDbEntity
  8
0
100
AcDbLine
 10
633.3386699446139
 20
367.1741057744116
 30
0.0
 11
633.3386699446139
 21
331.6741057744116
 31
0.0
  0
LINE
  5
99F
330
2
100
AcDbEntity
  8
0
100
AcDbLine
 10
582.6036839446139
 20
367.1741057744116
 30
0.0
 11
582.6036839446139
 21
331.6741057744116
 31
0.0
  0
LINE
  5
9A0
330
2
100
AcDbEntity
  8
0
100
AcDbLine
 10
573.6291969446138
 20
364.9700957744116
 30
0.0
 11
573.6291969446138
 21
331.6741057744116
 31
0.0
  0
LINE
  5
9A1
330
2
100
AcDbEntity
  8
0
100
AcDbLine
 10
557.9711769446139
 20
372.1741057744115
 30
0.0
 11
558.6780859446139
 21
331.6741057744116
 31
0.0
  0
LINE
  5
9A2
330
2
100
AcDbEntity
  8
CENTER
100
AcDbLine
 10
564.9711769446139
 20
328.3151887744115
 30
0.0
 11
564.9711769446139
 21
415.9902067744115
 31
0.0
  0
LINE
  5
9A4
330
2
100
AcDbEntity
  8
0
100
AcDbLine
 10
465.4711769446138
 20
148.8849751742065
 30
0.0
 11
443.9711769446138
 21
148.8849751742065
 31
0.0
  0
LINE
  5
9A5
330
2
100
AcDbEntity
  8
0
100
AcDbLine
 10
465.4711769446138
 20
153.8849751742065
 30
0.0
 11
443.9711769446138
 21
153.8849751742065
 31
0.0
  0
LINE
  5
9A6
330
2
100
AcDbEntity
  8
0
100
AcDbLine
 10
465.4711769446138
 20
143.8849751742065
 30
0.0
 11
438.4711769446139
 21
143.8849751742065
 31
0.0
  0
LINE
  5
9A7
330
2
100
AcDbEntity
  8
0
100
AcDbLine
 10
465.4711769446138
 20
158.8849751742065
 30
0.0
 11
438.4711769446139
 21
158.8849751742065
 31
0.0
  0
ARC
  5
9A8
330
2
100
AcDbEntity
  8
HIDS
100
AcDbCircle
 10
433.9711769446139
 20
174.3849751742065
 30
0.0
 40
3.0
100
AcDbArc
 50
0.0
 51
90.0
  0
LINE
  5
9A9
330
2
100
AcDbEntity
  8
0
100
AcDbLine
 10
406.2691809446138
 20
162.3403281742065
 30
0.0
 11
437.4711769446139
 21
162.8849751742065
 31
0.0
  0
LINE
  5
9AA
330
2
100
AcDbEntity
  8
0
100
AcDbLine
 10
403.9362649446138
 20
166.2996171742065
 30
0.0
 11
437.4711769446139
 21
166.8849751742065
 31
0.0
  0
LINE
  5
9AB
330
2
100
AcDbEntity
  8
0
100
AcDbLine
 10
406.2691809446138
 20
140.4296221742065
 30
0.0
 11
437.4711769446139
 21
139.8849751742065
 31
0.0
  0
LINE
  5
9AC
330
2
100
AcDbEntity
  8
0
100
AcDbLine
 10
403.9362649446138
 20
136.4703331742065
 30
0.0
 11
437.4711769446139
 21
135.8849751742065
 31
0.0
  0
LINE
  5
9AD
330
2
100
AcDbEntity
  8
0
100
AcDbLine
 10
404.3040929446139
 20
160.3406331742065
 30
0.0
 11
404.3040929446139
 21
142.4293171742065
 31
0.0
  0
LINE
  5
9AE
330
2
100
AcDbEntity
  8
0
100
AcDbLine
 10
401.9711769446138
 20
164.2999231742065
 30
0.0
 11
401.9711769446138
 21
138.4700271742065
 31
0.0
  0
ARC
  5
9AF
330
2
100
AcDbEntity
  8
0
100
AcDbCircle
 10
406.3040929446138
 20
142.4293171742065
 30
0.0
 40
2.0
100
AcDbArc
 50
180.0
 51
268.9999999999998
  0
LINE
  5
9B0
330
2
100
AcDbEntity
  8
0
100
AcDbLine
 10
404.7329569446138
 20
141.1917681742065
 30
0.0
 11
402.4000409446139
 21
137.2324791742065
 31
0.0
  0
ARC
  5
9B1
330
2
100
AcDbEntity
  8
0
100
AcDbCircle
 10
403.9711769446139
 20
138.4700271742065
 30
0.0
 40
2.0
100
AcDbArc
 50
180.0
 51
268.9999999999998
  0
ARC
  5
9B2
330
2
100
AcDbEntity
  8
0
100
AcDbCircle
 10
403.9711769446139
 20
164.2999231742065
 30
0.0
 40
2.0
100
AcDbArc
 50
91.00000000000013
 51
180.0
  0
LINE
  5
9B3
330
2
100
AcDbEntity
  8
0
100
AcDbLine
 10
404.7329569446138
 20
161.5782121742065
 30
0.0
 11
402.4000409446139
 21
165.5374711742065
 31
0.0
  0
ARC
  5
9B4
330
2
100
AcDbEntity
  8
0
100
AcDbCircle
 10
406.3040929446138
 20
160.3406331742065
 30
0.0
 40
2.0
100
AcDbArc
 50
91.00000000000013
 51
180.0
  0
LINE
  5
9B5
330
2
100
AcDbEntity
  8
0
100
AcDbLine
 10
438.4711769446139
 20
143.5736351742065
 30
0.0
 11
438.4711769446139
 21
159.1963151742065
 31
0.0
  0
ARC
  5
9B6
330
2
100
AcDbEntity
  8
0
100
AcDbCircle
 10
443.9711769446138
 20
151.3849751742065
 30
0.0
 40
2.5
100
AcDbArc
 50
90.0
 51
270.0
  0
ARC
  5
9B7
330
2
100
AcDbEntity
  8
0
100
AcDbCircle
 10
437.9711769446139
 20
143.5736351742065
 30
0.0
 40
0.5
100
AcDbArc
 50
299.9999999999995
 51
0.0
  0
LINE
  5
9B8
330
2
100
AcDbEntity
  8
0
100
AcDbLine
 10
437.6937419446139
 20
142.8849751742065
 30
0.0
 11
437.4711769446139
 21
142.8849751742065
 31
0.0
  0
ARC
  5
9B9
330
2
100
AcDbEntity
  8
0
100
AcDbCircle
 10
437.0692599446138
 20
144.7849691742065
 30
0.0
 40
2.0
100
AcDbArc
 50
288.1948699999997
 51
299.9999999999995
  0
LINE
  5
9BA
330
2
100
AcDbEntity
  8
0
100
AcDbLine
 10
438.2211769446138
 20
143.1406511742065
 30
0.0
 11
438.0692599446139
 21
143.0529131742065
 31
0.0
  0
LINE
  5
9BB
330
2
100
AcDbEntity
  8
0
100
AcDbLine
 10
437.6937419446139
 20
159.8849751742065
 30
0.0
 11
437.4711769446139
 21
159.8849751742065
 31
0.0
  0
ARC
  5
9BC
330
2
100
AcDbEntity
  8
0
100
AcDbCircle
 10
437.0692599446138
 20
157.9849811742065
 30
0.0
 40
2.0
100
AcDbArc
 50
60.00000000000042
 51
71.8051300000003
  0
ARC
  5
9BD
330
2
100
AcDbEntity
  8
0
100
AcDbCircle
 10
437.9711769446139
 20
159.1963151742065
 30
0.0
 40
0.5
100
AcDbArc
 50
0.0
 51
60.00000000000042
  0
LINE
  5
9BE
330
2
100
AcDbEntity
  8
0
100
AcDbLine
 10
438.2211769446138
 20
159.6292991742065
 30
0.0
 11
438.0692599446139
 21
159.7170371742065
 31
0.0
  0
LINE
  5
9C0
330
2
100
AcDbEntity
  8
HIDS
100
AcDbLine
 10
404.9711769446139
 20
180.8849751742065
 30
0.0
 11
437.4711769446139
 21
180.8849751742065
 31
0.0
  0
LINE
  5
9C1
330
2
100
AcDbEntity
  8
HIDS
100
AcDbLine
 10
404.9711769446139
 20
188.8849751742065
 30
0.0
 11
437.4711769446139
 21
188.8849751742065
 31
0.0
  0
LINE
  5
9C2
330
2
100
AcDbEntity
  8
HIDS
100
AcDbLine
 10
422.9711769446138
 20
184.7819481742065
 30
0.0
 11
430.3681499446139
 21
177.3849751742065
 31
0.0
  0
LINE
  5
9C3
330
2
100
AcDbEntity
  8
0
100
AcDbLine
 10
396.9711769446139
 20
191.8849751742065
 30
0.0
 11
437.4711769446139
 21
191.1780351742065
 31
0.0
  0
LINE
  5
9C5
330
2
100
AcDbEntity
  8
HIDS
100
AcDbLine
 10
418.0060889446139
 20
189.0178181742065
 30
0.0
 11
396.9711769446139
 21
189.3849751742065
 31
0.0
  0
LINE
  5
9C6
330
2
100
AcDbEntity
  8
HIDS
100
AcDbLine
 10
404.9711769446139
 20
188.8849751742065
 30
0.0
 11
404.9711769446139
 21
180.8849751742065
 31
0.0
  0
LINE
  5
9C9
330
2
100
AcDbEntity
  8
HIDS
100
AcDbLine
 10
422.9711769446138
 20
188.3849751742065
 30
0.0
 11
422.9711769446138
 21
184.7819481742065
 31
0.0
  0
LINE
  5
9CA
330
2
100
AcDbEntity
  8
HIDS
100
AcDbLine
 10
419.9711769446138
 20
187.0181231742065
 30
0.0
 11
419.9711769446138
 21
183.0866961742065
 31
0.0
  0
ARC
  5
9CE
330
2
100
AcDbEntity
  8
HIDS
100
AcDbCircle
 10
422.9711769446138
 20
183.0866961742065
 30
0.0
 40
3.0
100
AcDbArc
 50
180.0
 51
230.6432949999996
  0
ARC
  5
9CF
330
2
100
AcDbEntity
  8
HIDS
100
AcDbCircle
 10
417.9711769446138
 20
187.0181231742065
 30
0.0
 40
2.0
100
AcDbArc
 50
0.0
 51
88.99999999999986
  0
ARC
  5
9D0
330
2
100
AcDbEntity
  8
HIDS
100
AcDbCircle
 10
419.9711769446138
 20
188.3849751742065
 30
0.0
 40
3.0
100
AcDbArc
 50
0.0
 51
90.0
  0
LINE
  5
9D3
330
2
100
AcDbEntity
  8
HIDS
100
AcDbLine
 10
433.9711769446139
 20
177.3849751742065
 30
0.0
 11
430.3681499446139
 21
177.3849751742065
 31
0.0
  0
LINE
  5
9D4
330
2
100
AcDbEntity
  8
0
100
AcDbLine
 10
465.4711769446138
 20
158.8849751742065
 30
0.0
 11
465.4711769446138
 21
143.8849751742065
 31
0.0
  0
CIRCLE
  5
9D5
330
2
100
AcDbEntity
  8
0
100
AcDbCircle
 10
596.9711769446139
 20
151.3849751742065
 30
0.0
 40
15.0
  0
ARC
  5
9D6
330
2
100
AcDbEntity
  8
0
100
AcDbCircle
 10
583.9711769446139
 20
184.2499041742065
 30
0.0
 40
2.0
100
AcDbArc
 50
104.4775089999999
 51
180.0
  0
ARC
  5
9D7
330
2
100
AcDbEntity
  8
0
100
AcDbCircle
 10
588.9711769446139
 20
164.8849751742065
 30
0.0
 40
22.0
100
AcDbArc
 50
90.0
 51
110.4873119999995
  0
ARC
  5
9D8
330
2
100
AcDbEntity
  8
0
100
AcDbCircle
 10
584.3718119446139
 20
181.8849751742065
 30
0.0
 40
10.0
100
AcDbArc
 50
90.0
 51
112.3316420000003
  0
LINE
  5
9D9
330
2
100
AcDbEntity
  8
0
100
AcDbLine
 10
572.4896709446138
 20
170.5834001742065
 30
0.0
 11
581.4896709446138
 21
181.0834001742065
 31
0.0
  0
LINE
  5
9DA
330
2
100
AcDbEntity
  8
0
100
AcDbLine
 10
571.5698099446139
 20
172.5834001742065
 30
0.0
 11
579.4896709446138
 21
181.8232381742065
 31
0.0
  0
LINE
  5
9DB
330
2
100
AcDbEntity
  8
0
100
AcDbLine
 10
566.9711769446139
 20
164.8849751742065
 30
0.0
 11
566.9711769446139
 21
137.8849751742065
 31
0.0
  0
LINE
  5
9DC
330
2
100
AcDbEntity
  8
0
100
AcDbLine
 10
561.9711769446139
 20
140.7134051742065
 30
0.0
 11
561.9711769446139
 21
162.0565451742065
 31
0.0
  0
LINE
  5
9DD
330
2
100
AcDbEntity
  8
0
100
AcDbLine
 10
561.3853619446138
 20
139.2991901742065
 30
0.0
 11
558.5569919446138
 21
136.4707601742065
 31
0.0
  0
ARC
  5
9DE
330
2
100
AcDbEntity
  8
0
100
AcDbCircle
 10
559.9711769446139
 20
135.0565451742065
 30
0.0
 40
2.0
100
AcDbArc
 50
134.9999999999997
 51
180.0
  0
ARC
  5
9DF
330
2
100
AcDbEntity
  8
0
100
AcDbCircle
 10
559.9711769446139
 20
140.7134051742065
 30
0.0
 40
2.0
100
AcDbArc
 50
314.9999999999997
 51
0.0
  0
LINE
  5
9E0
330
2
100
AcDbEntity
  8
0
100
AcDbLine
 10
570.9711769446139
 20
132.8849751742065
 30
0.0
 11
569.1974339446139
 21
132.8849751742065
 31
0.0
  0
ARC
  5
9E1
330
2
100
AcDbEntity
  8
0
100
AcDbCircle
 10
569.6062479446139
 20
169.8849751742065
 30
0.0
 40
2.0
100
AcDbArc
 50
90.0
 51
165.5224909999996
  0
ARC
  5
9E2
330
2
100
AcDbEntity
  8
0
100
AcDbCircle
 10
569.1974339446139
 20
167.8849751742065
 30
0.0
 40
2.0
100
AcDbArc
 50
90.0
 51
171.373077
  0
LINE
  5
9E3
330
2
100
AcDbEntity
  8
0
100
AcDbLine
 10
561.3853619446138
 20
163.4707601742065
 30
0.0
 11
558.5569919446138
 21
166.2991901742065
 31
0.0
  0
ARC
  5
9E4
330
2
100
AcDbEntity
  8
0
100
AcDbCircle
 10
559.9711769446139
 20
162.0565451742065
 30
0.0
 40
2.0
100
AcDbArc
 50
0.0
 51
45.00000000000029
  0
ARC
  5
9E5
330
2
100
AcDbEntity
  8
0
100
AcDbCircle
 10
559.9711769446139
 20
167.7134051742065
 30
0.0
 40
2.0
100
AcDbArc
 50
180.0
 51
225.0000000000003
  0
ARC
  5
9E6
330
2
100
AcDbEntity
  8
0
100
AcDbCircle
 10
588.9711769446139
 20
164.8849751742065
 30
0.0
 40
22.0
100
AcDbArc
 50
165.5224909999996
 51
180.0
  0
LINE
  5
9E7
330
2
100
AcDbEntity
  8
0
100
AcDbLine
 10
570.0513159446138
 20
171.8849751742065
 30
0.0
 11
569.6062479446139
 21
171.8849751742065
 31
0.0
  0
LINE
  5
9E8
330
2
100
AcDbEntity
  8
0
100
AcDbLine
 10
570.9711769446139
 20
169.8849751742065
 30
0.0
 11
569.1974339446139
 21
169.8849751742065
 31
0.0
  0
LINE
  5
9E9
330
2
100
AcDbEntity
  8
0
100
AcDbLine
 10
571.8068699446139
 20
170.0679581742065
 30
0.0
 11
570.8870099446139
 21
172.0679581742065
 31
0.0
  0
ARC
  5
9EA
330
2
100
AcDbEntity
  8
0
100
AcDbCircle
 10
570.9711769446139
 20
171.8849751742065
 30
0.0
 40
2.0
100
AcDbArc
 50
270.0
 51
319.3987050000003
  0
ARC
  5
9EB
330
2
100
AcDbEntity
  8
0
100
AcDbCircle
 10
570.0513159446138
 20
173.8849751742065
 30
0.0
 40
2.0
100
AcDbArc
 50
270.0
 51
319.3987050000003
  0
CIRCLE
  5
9EC
330
2
100
AcDbEntity
  8
HOJO
100
AcDbCircle
 10
564.9711769446139
 20
184.8849751742065
 30
0.0
 40
4.0
  0
CIRCLE
  5
9ED
330
2
100
AcDbEntity
  8
0
100
AcDbCircle
 10
564.9711769446139
 20
184.8849751742065
 30
0.0
 40
3.399999999999999
  0
ARC
  5
9EE
330
2
100
AcDbEntity
  8
0
100
AcDbCircle
 10
564.9711769446139
 20
184.8849751742065
 30
0.0
 40
7.0
100
AcDbArc
 50
47.3640670000003
 51
180.0
  0
ARC
  5
9F1
330
2
100
AcDbEntity
  8
0
100
AcDbCircle
 10
581.9711769446139
 20
183.6199601742065
 30
0.0
 40
2.0
100
AcDbArc
 50
110.4873119999995
 51
180.0
  0
LINE
  5
9F2
330
2
100
AcDbEntity
  8
0
100
AcDbLine
 10
581.8469699446138
 20
181.6910971742065
 30
0.0
 11
579.8469699446139
 21
182.4309341742065
 31
0.0
  0
ARC
  5
9F3
330
2
100
AcDbEntity
  8
0
100
AcDbCircle
 10
577.9711769446139
 20
183.1248131742064
 30
0.0
 40
2.0
100
AcDbArc
 50
319.3987050000003
 51
0.0
  0
ARC
  5
9F4
330
2
100
AcDbEntity
  8
0
100
AcDbCircle
 10
579.9711769446139
 20
182.3849751742065
 30
0.0
 40
2.0
100
AcDbArc
 50
319.3987050000003
 51
0.0
  0
LINE
  5
9F5
330
2
100
AcDbEntity
  8
0
100
AcDbLine
 10
581.9711769446139
 20
182.3849751742065
 30
0.0
 11
581.9711769446139
 21
184.2499041742065
 31
0.0
  0
LINE
  5
9F6
330
2
100
AcDbEntity
  8
0
100
AcDbLine
 10
579.9711769446139
 20
183.1248131742064
 30
0.0
 11
579.9711769446139
 21
183.6199601742065
 31
0.0
  0
ARC
  5
9F7
330
2
100
AcDbEntity
  8
0
100
AcDbCircle
 10
573.7765359446139
 20
194.4487261742065
 30
0.0
 40
6.0
100
AcDbArc
 50
227.364075
 51
300.3583070000004
  0
ARC
  5
9F8
330
2
100
AcDbEntity
  8
0
100
AcDbCircle
 10
591.9711769446139
 20
163.3849751742065
 30
0.0
 40
30.0
100
AcDbArc
 50
112.3316420000003
 51
120.3582990000006
  0
LINE
  5
9F9
330
2
100
AcDbEntity
  8
0
100
AcDbLine
 10
643.4526829446138
 20
170.5834001742065
 30
0.0
 11
634.4526829446138
 21
181.0834001742065
 31
0.0
  0
LINE
  5
9FA
330
2
100
AcDbEntity
  8
0
100
AcDbLine
 10
644.3725439446138
 20
172.5834001742065
 30
0.0
 11
636.4526829446138
 21
181.8232381742065
 31
0.0
  0
ARC
  5
9FB
330
2
100
AcDbEntity
  8
0
100
AcDbCircle
 10
596.9711769446139
 20
151.3849751742065
 30
0.0
 40
7.5
100
AcDbArc
 50
199.4712219999996
 51
160.5287780000002
  0
LINE
  5
9FC
330
2
100
AcDbEntity
  8
0
100
AcDbLine
 10
592.4711769446139
 20
153.8849751742065
 30
0.0
 11
592.4711769446139
 21
148.8849751742065
 31
0.0
  0
LINE
  5
9FD
330
2
100
AcDbEntity
  8
0
100
AcDbLine
 10
587.4711769446139
 20
153.8849751742065
 30
0.0
 11
587.4711769446139
 21
148.8849751742065
 31
0.0
  0
ARC
  5
9FE
330
2
100
AcDbEntity
  8
0
100
AcDbCircle
 10
596.9711769446139
 20
151.3849751742065
 30
0.0
 40
8.5
100
AcDbArc
 50
197.1046299999992
 51
162.8953700000008
  0
LINE
  5
9FF
330
2
100
AcDbEntity
  8
0
100
AcDbLine
 10
592.4711769446139
 20
148.8849751742065
 30
0.0
 11
587.4711769446139
 21
148.8849751742065
 31
0.0
  0
LINE
  5
A00
330
2
100
AcDbEntity
  8
0
100
AcDbLine
 10
592.4711769446139
 20
153.8849751742065
 30
0.0
 11
587.4711769446139
 21
153.8849751742065
 31
0.0
  0
LINE
  5
A01
330
2
100
AcDbEntity
  8
0
100
AcDbLine
 10
644.1354839446139
 20
170.0679581742065
 30
0.0
 11
645.0553439446139
 21
172.0679581742065
 31
0.0
  0
ARC
  5
A02
330
2
100
AcDbEntity
  8
0
100
AcDbCircle
 10
644.9711769446139
 20
171.8849751742065
 30
0.0
 40
2.0
100
AcDbArc
 50
220.6012879999994
 51
270.0
  0
LINE
  5
A03
330
2
100
AcDbEntity
  8
0
100
AcDbLine
 10
588.9711769446139
 20
186.8849751742065
 30
0.0
 11
626.9711769446139
 21
186.8849751742065
 31
0.0
  0
ARC
  5
A04
330
2
100
AcDbEntity
  8
0
100
AcDbCircle
 10
626.9711769446139
 20
164.8849751742065
 30
0.0
 40
22.0
100
AcDbArc
 50
69.51268800000041
 51
90.0
  0
ARC
  5
A05
330
2
100
AcDbEntity
  8
0
100
AcDbCircle
 10
633.971176944614
 20
183.6199601742065
 30
0.0
 40
2.0
100
AcDbArc
 50
0.0
 51
69.51268800000041
  0
ARC
  5
A06
330
2
100
AcDbEntity
  8
0
100
AcDbCircle
 10
631.9711769446139
 20
184.2499041742065
 30
0.0
 40
2.0
100
AcDbArc
 50
0.0
 51
75.52249100000008
  0
LINE
  5
A07
330
2
100
AcDbEntity
  8
0
100
AcDbLine
 10
634.0953839446139
 20
181.6910971742065
 30
0.0
 11
636.095383944614
 21
182.4309341742065
 31
0.0
  0
ARC
  5
A08
330
2
100
AcDbEntity
  8
0
100
AcDbCircle
 10
637.9711769446139
 20
183.1248131742064
 30
0.0
 40
2.0
100
AcDbArc
 50
180.0
 51
220.6012879999994
  0
ARC
  5
A09
330
2
100
AcDbEntity
  8
0
100
AcDbCircle
 10
635.9711769446139
 20
182.3849751742065
 30
0.0
 40
2.0
100
AcDbArc
 50
180.0
 51
220.6012879999994
  0
LINE
  5
A0A
330
2
100
AcDbEntity
  8
0
100
AcDbLine
 10
633.971176944614
 20
182.3849751742065
 30
0.0
 11
633.971176944614
 21
184.2499041742065
 31
0.0
  0
LINE
  5
A0B
330
2
100
AcDbEntity
  8
0
100
AcDbLine
 10
635.9711769446139
 20
183.1248131742064
 30
0.0
 11
635.9711769446139
 21
183.6199601742065
 31
0.0
  0
ARC
  5
A0C
330
2
100
AcDbEntity
  8
0
100
AcDbCircle
 10
623.9711769446139
 20
163.3849751742065
 30
0.0
 40
30.0
100
AcDbArc
 50
59.64169699999963
 51
67.66835799999966
  0
ARC
  5
A0D
330
2
100
AcDbEntity
  8
0
100
AcDbCircle
 10
631.5705419446139
 20
181.8849751742065
 30
0.0
 40
10.0
100
AcDbArc
 50
67.66835799999966
 51
90.0
  0
LINE
  5
A0E
330
2
100
AcDbEntity
  8
0
100
AcDbLine
 10
589.9001319446138
 20
303.6741057744116
 30
0.0
 11
589.9001319446138
 21
325.1741057744116
 31
0.0
  0
LINE
  5
A0F
330
2
100
AcDbEntity
  8
0
100
AcDbLine
 10
587.4711769446139
 20
303.6741057744116
 30
0.0
 11
587.4711769446139
 21
327.6741057744116
 31
0.0
  0
LINE
  5
A10
330
2
100
AcDbEntity
  8
0
100
AcDbLine
 10
604.4711769446139
 20
330.6741057744115
 30
0.0
 11
604.4711769446139
 21
303.6741057744116
 31
0.0
  0
LINE
  5
A11
330
2
100
AcDbEntity
  8
0
100
AcDbLine
 10
587.4711769446139
 20
303.6741057744116
 30
0.0
 11
604.4711769446139
 21
303.6741057744116
 31
0.0
  0
LINE
  5
A12
330
2
100
AcDbEntity
  8
0
100
AcDbLine
 10
589.1598369446137
 20
330.6741057744115
 30
0.0
 11
604.7825169446139
 21
330.6741057744115
 31
0.0
  0
LINE
  5
A13
330
2
100
AcDbEntity
  8
0
100
AcDbLine
 10
588.4711769446139
 20
331.4515407744115
 30
0.0
 11
588.4711769446139
 21
331.6741057744116
 31
0.0
  0
ARC
  5
A14
330
2
100
AcDbEntity
  8
0
100
AcDbCircle
 10
590.3712009446139
 20
332.0760227744115
 30
0.0
 40
2.0
100
AcDbArc
 50
198.1948700000005
 51
209.9999999999999
  0
ARC
  5
A15
330
2
100
AcDbEntity
  8
0
100
AcDbCircle
 10
589.1598369446137
 20
331.1741057744116
 30
0.0
 40
0.5
100
AcDbArc
 50
209.9999999999999
 51
270.0
  0
LINE
  5
A16
330
2
100
AcDbEntity
  8
0
100
AcDbLine
 10
588.7268529446139
 20
330.9241057744116
 30
0.0
 11
588.639145944614
 21
331.0760227744115
 31
0.0
  0
ARC
  5
A17
330
2
100
AcDbEntity
  8
0
100
AcDbCircle
 10
582.4001319446137
 20
325.1741057744116
 30
0.0
 40
7.500003999999999
100
AcDbArc
 50
0.0
 51
19.47121200000039
  0
LINE
  5
A18
330
2
100
AcDbEntity
  8
0
100
AcDbLine
 10
589.4711769446139
 20
327.6741057744116
 30
0.0
 11
589.4711769446139
 21
330.6741057744115
 31
0.0
  0
LINE
  5
A19
330
2
100
AcDbEntity
  8
0
100
AcDbLine
 10
587.4711769446139
 20
327.6741057744116
 30
0.0
 11
589.4711769446139
 21
327.6741057744116
 31
0.0
  0
LINE
  5
A1A
330
2
100
AcDbEntity
  8
0
100
AcDbLine
 10
605.4711769446139
 20
331.4515407744115
 30
0.0
 11
605.4711769446139
 21
331.6741057744116
 31
0.0
  0
ARC
  5
A1B
330
2
100
AcDbEntity
  8
0
100
AcDbCircle
 10
603.5711529446139
 20
332.0760227744115
 30
0.0
 40
2.0
100
AcDbArc
 50
330.0
 51
341.8051279999994
  0
ARC
  5
A1C
330
2
100
AcDbEntity
  8
0
100
AcDbCircle
 10
604.7825169446139
 20
331.1741057744116
 30
0.0
 40
0.5
100
AcDbArc
 50
270.0
 51
330.0
  0
LINE
  5
A1D
330
2
100
AcDbEntity
  8
0
100
AcDbLine
 10
605.2155009446139
 20
330.9241057744116
 30
0.0
 11
605.3032079446138
 21
331.0760227744115
 31
0.0
  0
LINE
  5
A1E
330
2
100
AcDbEntity
  8
0
100
AcDbLine
 10
589.9001319446138
 20
440.6741057744116
 30
0.0
 11
589.9001319446138
 21
419.1741057744115
 31
0.0
  0
LINE
  5
A1F
330
2
100
AcDbEntity
  8
0
100
AcDbLine
 10
587.4711769446139
 20
440.6741057744116
 30
0.0
 11
587.4711769446139
 21
416.6741057744116
 31
0.0
  0
LINE
  5
A20
330
2
100
AcDbEntity
  8
0
100
AcDbLine
 10
604.4711769446139
 20
413.6741057744115
 30
0.0
 11
604.4711769446139
 21
440.6741057744116
 31
0.0
  0
LINE
  5
A21
330
2
100
AcDbEntity
  8
HIDS
100
AcDbLine
 10
560.9711769446139
 20
400.1741057744116
 30
0.0
 11
560.9711769446139
 21
380.1741057744115
 31
0.0
  0
LINE
  5
A22
330
2
100
AcDbEntity
  8
HIDS
100
AcDbLine
 10
568.9711769446139
 20
400.1741057744116
 30
0.0
 11
568.9711769446139
 21
380.1741057744115
 31
0.0
  0
LINE
  5
A23
330
2
100
AcDbEntity
  8
0
100
AcDbLine
 10
573.6291969446138
 20
412.6741057744116
 30
0.0
 11
573.6291969446138
 21
379.3781157744116
 31
0.0
  0
LINE
  5
A24
330
2
100
AcDbEntity
  8
0
100
AcDbLine
 10
582.6036839446139
 20
412.6741057744116
 30
0.0
 11
582.6036839446139
 21
377.1741057744116
 31
0.0
  0
LINE
  5
A25
330
2
100
AcDbEntity
  8
0
100
AcDbLine
 10
557.9711769446139
 20
372.1741057744115
 30
0.0
 11
558.6780859446139
 21
412.6741057744116
 31
0.0
  0
LINE
  5
A26
330
2
100
AcDbEntity
  8
HIDS
100
AcDbLine
 10
560.9711769446139
 20
364.1741057744116
 30
0.0
 11
568.9711769446139
 21
364.1741057744116
 31
0.0
  0
LINE
  5
A27
330
2
100
AcDbEntity
  8
HIDS
100
AcDbLine
 10
560.9711769446139
 20
380.1741057744115
 30
0.0
 11
568.9711769446139
 21
380.1741057744115
 31
0.0
  0
ARC
  5
A28
330
2
100
AcDbEntity
  8
0
100
AcDbCircle
 10
565.0584569446139
 20
360.6741057744116
 30
0.0
 40
6.5
100
AcDbArc
 50
64.28227200000016
 51
90.0
  0
LINE
  5
A29
330
2
100
AcDbEntity
  8
0
100
AcDbLine
 10
582.6036839446139
 20
367.1741057744116
 30
0.0
 11
565.0584569446139
 21
367.1741057744116
 31
0.0
  0
ARC
  5
A2A
330
2
100
AcDbEntity
  8
0
100
AcDbCircle
 10
565.0584569446139
 20
383.6741057744116
 30
0.0
 40
6.5
100
AcDbArc
 50
270.0
 51
295.7177279999998
  0
LINE
  5
A2B
330
2
100
AcDbEntity
  8
0
100
AcDbLine
 10
582.6036839446139
 20
377.1741057744116
 30
0.0
 11
565.0584569446139
 21
377.1741057744116
 31
0.0
  0
ARC
  5
A2C
330
2
100
AcDbEntity
  8
0
100
AcDbCircle
 10
573.6291969446138
 20
375.9700957744116
 30
0.0
 40
11.0
100
AcDbArc
 50
244.2822720000001
 51
291.0753169999998
  0
LINE
  5
A2D
330
2
100
AcDbEntity
  8
0
100
AcDbLine
 10
568.8558819446138
 20
366.0597257744116
 30
0.0
 11
567.8790749446139
 21
366.5302457744116
 31
0.0
  0
ARC
  5
A2E
330
2
100
AcDbEntity
  8
0
100
AcDbCircle
 10
582.6036839446139
 20
360.6741057744116
 30
0.0
 40
6.5
100
AcDbArc
 50
90.0
 51
111.0753330000002
  0
LINE
  5
A2F
330
2
100
AcDbEntity
  8
0
100
AcDbLine
 10
580.2662819446139
 20
366.7393217744116
 30
0.0
 11
577.5847629446139
 21
365.7059047744116
 31
0.0
  0
ARC
  5
A30
330
2
100
AcDbEntity
  8
0
100
AcDbCircle
 10
573.6291969446138
 20
368.3781157744115
 30
0.0
 40
11.0
100
AcDbArc
 50
68.92466699999977
 51
115.7177279999998
  0
LINE
  5
A31
330
2
100
AcDbEntity
  8
0
100
AcDbLine
 10
568.8558819446138
 20
378.2884857744115
 30
0.0
 11
567.8790749446139
 21
377.8179657744115
 31
0.0
  0
ARC
  5
A32
330
2
100
AcDbEntity
  8
0
100
AcDbCircle
 10
582.6036839446139
 20
383.6741057744116
 30
0.0
 40
6.5
100
AcDbArc
 50
248.9246669999997
 51
270.0
  0
LINE
  5
A33
330
2
100
AcDbEntity
  8
0
100
AcDbLine
 10
580.2662819446139
 20
377.6088897744116
 30
0.0
 11
577.5847629446139
 21
378.6423067744115
 31
0.0
  0
LINE
  5
A34
330
2
100
AcDbEntity
  8
HIDS
100
AcDbLine
 10
569.2211769446139
 20
400.1741057744116
 30
0.0
 11
569.2211769446139
 21
412.6741057744116
 31
0.0
  0
LINE
  5
A35
330
2
100
AcDbEntity
  8
HIDS
100
AcDbLine
 10
560.7211769446139
 20
400.1741057744116
 30
0.0
 11
560.7211769446139
 21
412.6741057744116
 31
0.0
  0
LINE
  5
A36
330
2
100
AcDbEntity
  8
0
100
AcDbLine
 10
642.3131569446138
 20
412.6741057744116
 30
0.0
 11
642.3131569446138
 21
379.3781157744116
 31
0.0
  0
LINE
  5
A37
330
2
100
AcDbEntity
  8
0
100
AcDbLine
 10
633.3386699446139
 20
412.6741057744116
 30
0.0
 11
633.3386699446139
 21
377.1741057744116
 31
0.0
  0
LINE
  5
A38
330
2
100
AcDbEntity
  8
0
100
AcDbLine
 10
635.6760109446138
 20
366.7393217744116
 30
0.0
 11
638.3575909446137
 21
365.7059047744116
 31
0.0
  0
ARC
  5
A39
330
2
100
AcDbEntity
  8
0
100
AcDbCircle
 10
633.3386699446139
 20
360.6741057744116
 30
0.0
 40
6.5
100
AcDbArc
 50
68.92466699999977
 51
90.0
  0
LINE
  5
A3A
330
2
100
AcDbEntity
  8
0
100
AcDbLine
 10
635.6760109446138
 20
377.6088897744116
 30
0.0
 11
638.3575909446137
 21
378.6423067744115
 31
0.0
  0
ARC
  5
A3B
330
2
100
AcDbEntity
  8
0
100
AcDbCircle
 10
633.3386699446139
 20
383.6741057744116
 30
0.0
 40
6.5
100
AcDbArc
 50
270.0
 51
291.0753169999998
  0
LINE
  5
A3C
330
2
100
AcDbEntity
  8
0
100
AcDbLine
 10
604.7825169446139
 20
413.6741057744115
 30
0.0
 11
589.1598369446137
 21
413.6741057744115
 31
0.0
  0
ARC
  5
A3D
330
2
100
AcDbEntity
  8
0
100
AcDbCircle
 10
582.4001319446137
 20
419.1741057744115
 30
0.0
 40
7.500003999999999
100
AcDbArc
 50
340.5287879999996
 51
0.0
  0
LINE
  5
A3E
330
2
100
AcDbEntity
  8
0
100
AcDbLine
 10
588.4711769446139
 20
412.6741057744116
 30
0.0
 11
588.4711769446139
 21
412.8966707744116
 31
0.0
  0
ARC
  5
A3F
330
2
100
AcDbEntity
  8
0
100
AcDbCircle
 10
589.1598369446137
 20
413.1741057744116
 30
0.0
 40
0.5
100
AcDbArc
 50
90.0
 51
150.0
  0
LINE
  5
A40
330
2
100
AcDbEntity
  8
0
100
AcDbLine
 10
588.7268529446139
 20
413.4241057744116
 30
0.0
 11
588.639145944614
 21
413.2721887744116
 31
0.0
  0
ARC
  5
A41
330
2
100
AcDbEntity
  8
0
100
AcDbCircle
 10
590.3712009446139
 20
412.2721887744116
 30
0.0
 40
2.0
100
AcDbArc
 50
150.0
 51
161.8051299999994
  0
LINE
  5
A42
330
2
100
AcDbEntity
  8
0
100
AcDbLine
 10
589.4711769446139
 20
416.6741057744116
 30
0.0
 11
589.4711769446139
 21
413.6741057744115
 31
0.0
  0
LINE
  5
A43
330
2
100
AcDbEntity
  8
0
100
AcDbLine
 10
587.4711769446139
 20
416.6741057744116
 30
0.0
 11
589.4711769446139
 21
416.6741057744116
 31
0.0
  0
LINE
  5
A44
330
2
100
AcDbEntity
  8
0
100
AcDbLine
 10
605.4711769446139
 20
412.6741057744116
 30
0.0
 11
605.4711769446139
 21
412.8966707744116
 31
0.0
  0
ARC
  5
A45
330
2
100
AcDbEntity
  8
0
100
AcDbCircle
 10
603.5711529446139
 20
412.2721887744116
 30
0.0
 40
2.0
100
AcDbArc
 50
18.19487200000065
 51
29.99999999999993
  0
LINE
  5
A46
330
2
100
AcDbEntity
  8
0
100
AcDbLine
 10
605.2155009446139
 20
413.4241057744116
 30
0.0
 11
605.3032079446138
 21
413.2721887744116
 31
0.0
  0
ARC
  5
A47
330
2
100
AcDbEntity
  8
0
100
AcDbCircle
 10
604.7825169446139
 20
413.1741057744116
 30
0.0
 40
0.5
100
AcDbArc
 50
29.99999999999993
 51
90.0
  0
LINE
  5
A48
330
2
100
AcDbEntity
  8
0
100
AcDbLine
 10
587.4711769446139
 20
440.6741057744116
 30
0.0
 11
604.4711769446139
 21
440.6741057744116
 31
0.0
  0
LINE
  5
A49
330
2
100
AcDbEntity
  8
HIDS
100
AcDbLine
 10
654.9711769446139
 20
331.6741057744116
 30
0.0
 11
654.9711769446139
 21
364.1741057744116
 31
0.0
  0
LINE
  5
A4A
330
2
100
AcDbEntity
  8
HIDS
100
AcDbLine
 10
646.9711769446139
 20
331.6741057744116
 30
0.0
 11
646.9711769446139
 21
364.1741057744116
 31
0.0
  0
LINE
  5
A4B
330
2
100
AcDbEntity
  8
HIDS
100
AcDbLine
 10
654.371200944614
 20
400.1741057744116
 30
0.0
 11
654.371200944614
 21
331.6741057744116
 31
0.0
  0
LINE
  5
A4C
330
2
100
AcDbEntity
  8
HIDS
100
AcDbLine
 10
647.5711529446138
 20
400.1741057744116
 30
0.0
 11
647.5711529446138
 21
331.6741057744116
 31
0.0
  0
LINE
  5
A4D
330
2
100
AcDbEntity
  8
0
100
AcDbLine
 10
789.5266579446138
 20
407.1741057744116
 30
0.0
 11
789.5266579446138
 21
337.1741057744116
 31
0.0
  0
LINE
  5
A4E
330
2
100
AcDbEntity
  8
0
100
AcDbLine
 10
740.5266579446138
 20
412.1741057744116
 30
0.0
 11
740.5266579446138
 21
332.1741057744115
 31
0.0
  0
LINE
  5
A4F
330
2
100
AcDbEntity
  8
0
100
AcDbLine
 10
731.0266579446138
 20
334.1741057744116
 30
0.0
 11
731.0266579446138
 21
341.1741057744117
 31
0.0
  0
LINE
  5
A50
330
2
100
AcDbEntity
  8
0
100
AcDbLine
 10
657.2642679446139
 20
331.6741057744116
 30
0.0
 11
657.5696879446138
 21
349.1741057744115
 31
0.0
  0
LINE
  5
A51
330
2
100
AcDbEntity
  8
CENTER
100
AcDbLine
 10
650.9711769446139
 20
328.3151887744115
 30
0.0
 11
650.9711769446139
 21
415.9902067744115
 31
0.0
  0
LINE
  5
A52
330
2
100
AcDbEntity
  8
0
100
AcDbLine
 10
784.5266579446138
 20
332.1741057744115
 30
0.0
 11
740.5266579446138
 21
332.1741057744115
 31
0.0
  0
LINE
  5
A53
330
2
100
AcDbEntity
  8
0
100
AcDbLine
 10
786.7766579446138
 20
175.3849751742065
 30
0.0
 11
740.5266579446138
 21
175.3849751742065
 31
0.0
  0
LINE
  5
A54
330
2
100
AcDbEntity
  8
0
100
AcDbLine
 10
784.5266579446138
 20
191.3849751742065
 30
0.0
 11
740.5266579446138
 21
191.3849751742065
 31
0.0
  0
LINE
  5
A55
330
2
100
AcDbEntity
  8
0
100
AcDbLine
 10
731.0266579446138
 20
181.6339371742065
 30
0.0
 11
657.9711769446139
 21
181.6339371742065
 31
0.0
  0
LINE
  5
A56
330
2
100
AcDbEntity
  8
0
100
AcDbLine
 10
731.0266579446138
 20
189.3849751742065
 30
0.0
 11
659.3299419446139
 21
189.3849751742065
 31
0.0
  0
LINE
  5
A57
330
2
100
AcDbEntity
  8
0
100
AcDbLine
 10
657.9711769446139
 20
184.8849751742065
 30
0.0
 11
657.9711769446139
 21
167.7134051742065
 31
0.0
  0
LINE
  5
A58
330
2
100
AcDbEntity
  8
0
100
AcDbLine
 10
648.9711769446139
 20
164.8849751742065
 30
0.0
 11
648.9711769446139
 21
137.8849751742065
 31
0.0
  0
LINE
  5
A59
330
2
100
AcDbEntity
  8
0
100
AcDbLine
 10
653.9711769446139
 20
140.7134051742065
 30
0.0
 11
653.9711769446139
 21
162.0565451742065
 31
0.0
  0
ARC
  5
A5A
330
2
100
AcDbEntity
  8
0
100
AcDbCircle
 10
655.9711769446139
 20
140.7134051742065
 30
0.0
 40
2.0
100
AcDbArc
 50
180.0
 51
225.0000000000003
  0
ARC
  5
A5B
330
2
100
AcDbEntity
  8
0
100
AcDbCircle
 10
655.9711769446139
 20
135.0565451742065
 30
0.0
 40
2.0
100
AcDbArc
 50
0.0
 51
45.00000000000029
  0
LINE
  5
A5C
330
2
100
AcDbEntity
  8
0
100
AcDbLine
 10
654.5569919446138
 20
139.2991901742065
 30
0.0
 11
657.3853619446138
 21
136.4707601742065
 31
0.0
  0
LINE
  5
A5D
330
2
100
AcDbEntity
  8
0
100
AcDbLine
 10
654.5569919446138
 20
163.4707601742065
 30
0.0
 11
657.3853619446138
 21
166.2991901742065
 31
0.0
  0
ARC
  5
A5E
330
2
100
AcDbEntity
  8
0
100
AcDbCircle
 10
655.9711769446139
 20
162.0565451742065
 30
0.0
 40
2.0
100
AcDbArc
 50
134.9999999999997
 51
180.0
  0
ARC
  5
A5F
330
2
100
AcDbEntity
  8
0
100
AcDbCircle
 10
626.9711769446139
 20
164.8849751742065
 30
0.0
 40
22.0
100
AcDbArc
 50
0.0
 51
14.47751199999975
  0
ARC
  5
A60
330
2
100
AcDbEntity
  8
0
100
AcDbCircle
 10
646.3361059446137
 20
169.8849751742065
 30
0.0
 40
2.0
100
AcDbArc
 50
14.47751199999975
 51
90.0
  0
ARC
  5
A61
330
2
100
AcDbEntity
  8
0
100
AcDbCircle
 10
646.7449199446138
 20
167.8849751742065
 30
0.0
 40
2.0
100
AcDbArc
 50
8.626927000000625
 51
90.0
  0
LINE
  5
A62
330
2
100
AcDbEntity
  8
0
100
AcDbLine
 10
645.891037944614
 20
171.8849751742065
 30
0.0
 11
646.3361059446137
 21
171.8849751742065
 31
0.0
  0
ARC
  5
A63
330
2
100
AcDbEntity
  8
0
100
AcDbCircle
 10
655.9711769446139
 20
167.7134051742065
 30
0.0
 40
2.0
100
AcDbArc
 50
314.9999999999997
 51
0.0
  0
CIRCLE
  5
A64
330
2
100
AcDbEntity
  8
HOJO
100
AcDbCircle
 10
650.9711769446139
 20
184.8849751742065
 30
0.0
 40
4.0
  0
CIRCLE
  5
A65
330
2
100
AcDbEntity
  8
0
100
AcDbCircle
 10
650.9711769446139
 20
184.8849751742065
 30
0.0
 40
3.399999999999999
  0
ARC
  5
A66
330
2
100
AcDbEntity
  8
0
100
AcDbCircle
 10
650.9711769446139
 20
184.8849751742065
 30
0.0
 40
7.0
100
AcDbArc
 50
0.0
 51
132.6359249999996
  0
LINE
  5
A68
330
2
100
AcDbEntity
  8
0
100
AcDbLine
 10
658.6348119446138
 20
189.5096701742065
 30
0.0
 11
653.4041599446139
 21
191.4485431742065
 31
0.0
  0
ARC
  5
A69
330
2
100
AcDbEntity
  8
0
100
AcDbCircle
 10
659.3299419446139
 20
191.3849751742065
 30
0.0
 40
2.0
100
AcDbArc
 50
249.6612700000001
 51
270.0
  0
LINE
  5
A72
330
2
100
AcDbEntity
  8
0
100
AcDbLine
 10
740.5266579446138
 20
181.6339681742065
 30
0.0
 11
731.0266579446138
 21
181.6339681742065
 31
0.0
  0
LINE
  5
A73
330
2
100
AcDbEntity
  8
0
100
AcDbLine
 10
740.5266579446138
 20
189.3849751742065
 30
0.0
 11
731.0266579446138
 21
189.3849751742065
 31
0.0
  0
LINE
  5
A7F
330
2
100
AcDbEntity
  8
0
100
AcDbLine
 10
659.2733009446139
 20
334.1741057744116
 30
0.0
 11
731.0266579446138
 21
334.1741057744116
 31
0.0
  0
ARC
  5
A80
330
2
100
AcDbEntity
  8
0
100
AcDbCircle
 10
659.2733009446139
 20
332.1741057744115
 30
0.0
 40
2.0
100
AcDbArc
 50
90.0
 51
178.9999999999998
  0
LINE
  5
A81
330
2
100
AcDbEntity
  8
0
100
AcDbLine
 10
740.5266579446138
 20
334.1741057744116
 30
0.0
 11
731.0266579446138
 21
334.1741057744116
 31
0.0
  0
ARC
  5
A82
330
2
100
AcDbEntity
  8
0
100
AcDbCircle
 10
784.5266579446138
 20
186.3849751742065
 30
0.0
 40
5.0
100
AcDbArc
 50
0.0
 51
90.0
  0
ARC
  5
A83
330
2
100
AcDbEntity
  8
0
100
AcDbCircle
 10
784.5266579446138
 20
337.1741057744116
 30
0.0
 40
5.0
100
AcDbArc
 50
270.0
 51
0.0
  0
LINE
  5
A84
330
2
100
AcDbEntity
  8
0
100
AcDbLine
 10
787.2766579446138
 20
348.1741057744116
 30
0.0
 11
740.5266579446138
 21
348.1741057744116
 31
0.0
  0
LINE
  5
A85
330
2
100
AcDbEntity
  8
0
100
AcDbLine
 10
787.2766579446138
 20
396.1741057744116
 30
0.0
 11
740.5266579446138
 21
396.1741057744116
 31
0.0
  0
LINE
  5
A86
330
2
100
AcDbEntity
  8
0
100
AcDbLine
 10
784.5266579446138
 20
412.1741057744116
 30
0.0
 11
740.5266579446138
 21
412.1741057744116
 31
0.0
  0
LINE
  5
A87
330
2
100
AcDbEntity
  8
0
100
AcDbLine
 10
678.0266587112803
 20
349.1741057744115
 30
0.0
 11
654.9680639446139
 21
349.1741057744115
 31
0.0
  0
LINE
  5
A88
330
2
100
AcDbEntity
  8
0
100
AcDbLine
 10
678.0265651779471
 20
395.1741057744115
 30
0.0
 11
654.9680639446139
 21
395.1741057744115
 31
0.0
  0
LINE
  5
A89
330
2
100
AcDbEntity
  8
0
100
AcDbLine
 10
660.4194799446138
 20
410.1741057744115
 30
0.0
 11
731.0266579446138
 21
410.1741057744115
 31
0.0
  0
LINE
  5
A8A
330
2
100
AcDbEntity
  8
HIDS
100
AcDbLine
 10
646.9711769446139
 20
400.1741057744116
 30
0.0
 11
646.9711769446139
 21
380.1741057744115
 31
0.0
  0
LINE
  5
A8B
330
2
100
AcDbEntity
  8
HIDS
100
AcDbLine
 10
654.9711769446139
 20
400.1741057744116
 30
0.0
 11
654.9711769446139
 21
380.1741057744115
 31
0.0
  0
LINE
  5
A8C
330
2
100
AcDbEntity
  8
0
100
AcDbLine
 10
653.4041599446139
 20
372.1741057744115
 30
0.0
 11
652.9683689446139
 21
397.1391937744115
 31
0.0
  0
LINE
  5
A8D
330
2
100
AcDbEntity
  8
0
100
AcDbLine
 10
658.971176944614
 20
395.1741057744115
 30
0.0
 11
658.971176944614
 21
349.1741057744115
 31
0.0
  0
LINE
  5
A8E
330
2
100
AcDbEntity
  8
0
100
AcDbLine
 10
653.4041599446139
 20
372.1741057744115
 30
0.0
 11
652.9683689446139
 21
347.2090177744116
 31
0.0
  0
ARC
  5
A8F
330
2
100
AcDbEntity
  8
0
100
AcDbCircle
 10
654.9680639446139
 20
347.1741057744115
 30
0.0
 40
2.0
100
AcDbArc
 50
90.0
 51
178.9999999999998
  0
LINE
  5
A90
330
2
100
AcDbEntity
  8
HIDS
100
AcDbLine
 10
646.9711769446139
 20
364.1741057744116
 30
0.0
 11
654.9711769446139
 21
364.1741057744116
 31
0.0
  0
LINE
  5
A91
330
2
100
AcDbEntity
  8
0
100
AcDbLine
 10
647.086471944614
 20
366.0597257744116
 30
0.0
 11
648.0632789446137
 21
366.5302457744116
 31
0.0
  0
ARC
  5
A92
330
2
100
AcDbEntity
  8
0
100
AcDbCircle
 10
650.883896944614
 20
360.6741057744116
 30
0.0
 40
6.5
100
AcDbArc
 50
90.0
 51
115.7177279999998
  0
LINE
  5
A93
330
2
100
AcDbEntity
  8
HIDS
100
AcDbLine
 10
646.9711769446139
 20
380.1741057744115
 30
0.0
 11
654.9711769446139
 21
380.1741057744115
 31
0.0
  0
LINE
  5
A94
330
2
100
AcDbEntity
  8
0
100
AcDbLine
 10
647.086471944614
 20
378.2884857744115
 30
0.0
 11
648.0632789446137
 21
377.8179657744115
 31
0.0
  0
ARC
  5
A95
330
2
100
AcDbEntity
  8
0
100
AcDbCircle
 10
650.883896944614
 20
383.6741057744116
 30
0.0
 40
6.5
100
AcDbArc
 50
244.2822720000001
 51
270.0
  0
LINE
  5
A96
330
2
100
AcDbEntity
  8
HIDS
100
AcDbLine
 10
655.2211769446139
 20
400.1741057744116
 30
0.0
 11
655.2211769446139
 21
412.6741057744116
 31
0.0
  0
LINE
  5
A97
330
2
100
AcDbEntity
  8
HIDS
100
AcDbLine
 10
646.7211769446139
 20
400.1741057744116
 30
0.0
 11
646.7211769446139
 21
412.6741057744116
 31
0.0
  0
LINE
  5
A98
330
2
100
AcDbEntity
  8
0
100
AcDbLine
 10
657.2642679446139
 20
412.6741057744116
 30
0.0
 11
657.5696879446138
 21
395.1741057744115
 31
0.0
  0
LINE
  5
A99
330
2
100
AcDbEntity
  8
0
100
AcDbLine
 10
658.971176944614
 20
409.5533777744115
 30
0.0
 11
658.971176944614
 21
400.1741057744116
 31
0.0
  0
ARC
  5
A9A
330
2
100
AcDbEntity
  8
0
100
AcDbCircle
 10
654.9680639446139
 20
397.1741057744115
 30
0.0
 40
2.0
100
AcDbArc
 50
181.0000000000001
 51
270.0
  0
ARC
  5
A9B
330
2
100
AcDbEntity
  8
0
100
AcDbCircle
 10
660.4194799446138
 20
408.1741057744116
 30
0.0
 40
2.0
100
AcDbArc
 50
90.0
 51
136.3987580000003
  0
LINE
  5
A9C
330
2
100
AcDbEntity
  8
0
100
AcDbLine
 10
731.0266579446138
 20
403.1741057744114
 30
0.0
 11
731.0266579446138
 21
410.1741057744115
 31
0.0
  0
LINE
  5
A9D
330
2
100
AcDbEntity
  8
0
100
AcDbLine
 10
740.5266579446138
 20
349.1741057744115
 30
0.0
 11
740.0266499446138
 21
349.1741057744116
 31
0.0
  0
LINE
  5
AAD
330
2
100
AcDbEntity
  8
0
100
AcDbLine
 10
740.5266579446138
 20
410.1741057744115
 30
0.0
 11
731.0266579446138
 21
410.1741057744115
 31
0.0
  0
LINE
  5
AAE
330
2
100
AcDbEntity
  8
0
100
AcDbLine
 10
740.5266579446138
 20
395.1741057744115
 30
0.0
 11
740.0266499446138
 21
395.1741057744115
 31
0.0
  0
ARC
  5
AB4
330
2
100
AcDbEntity
  8
0
100
AcDbCircle
 10
784.5266579446138
 20
407.1741367744115
 30
0.0
 40
5.0
100
AcDbArc
 50
0.0
 51
90.0
  0
TEXT
  5
1784
330
2
100
AcDbEntity
  8
TITLE
100
AcDbText
 10
154.0061856861201
 20
71.85468741727851
 30
0.0
 40
5.0
  1
F2FB-15T-10～240-S15WC
100
AcDbText
  0
TEXT
  5
1785
330
2
100
AcDbEntity
  8
TITLE
100
AcDbText
 10
154.0061856861201
 20
62.85468741727851
 30
0.0
 40
5.0
  1
F2FB-15T-10～240-S25C
100
AcDbText
  0
TEXT
  5
1786
330
2
100
AcDbEntity
  8
TITLE
100
AcDbText
 10
154.0061856861201
 20
53.85468741727851
 30
0.0
 40
5.0
  1
F2FB-15T-10～240-S25WC
100
AcDbText
  0
TEXT
  5
1787
330
2
100
AcDbEntity
  8
TITLE
100
AcDbText
 10
154.0061856861201
 20
80.85468741727851
 30
0.0
 40
5.0
  1
F2FB-15T-10～240-S15C
100
AcDbText
  0
TEXT
  5
1788
330
2
100
AcDbEntity
  8
TITLE
100
AcDbText
 10
32.76932711878782
 20
71.88247792693272
 30
0.0
 40
5.0
  1
F2FB-15T-10～240-T15WC
100
AcDbText
  0
TEXT
  5
1789
330
2
100
AcDbEntity
  8
TITLE
100
AcDbText
 10
32.76932711878782
 20
62.88247792693272
 30
0.0
 40
5.0
  1
F2FB-15T-10～240-T25C
100
AcDbText
  0
TEXT
  5
178A
330
2
100
AcDbEntity
  8
TITLE
100
AcDbText
 10
32.76932711878782
 20
53.88247792693272
 30
0.0
 40
5.0
  1
F2FB-15T-10～240-T25WC
100
AcDbText
  0
TEXT
  5
178B
330
2
100
AcDbEntity
  8
TITLE
100
AcDbText
 10
32.76932711878782
 20
44.88247792693272
 30
0.0
 40
5.0
  1
F2FB-15T-10～120-T40C
100
AcDbText
  0
TEXT
  5
178C
330
2
100
AcDbEntity
  8
TITLE
100
AcDbText
 10
32.76932711878782
 20
80.88247792693271
 30
0.0
 40
5.0
  1
F2FB-15T-10～240-T15C
100
AcDbText
  0
TEXT
  5
178D
330
2
100
AcDbEntity
  8
TITLE
100
AcDbText
 10
32.76932711878782
 20
26.88247792693272
 30
0.0
 40
5.0
  1
F2FB-15T-10～60-T60C
100
AcDbText
  0
TEXT
  5
178E
330
2
100
AcDbEntity
  8
TITLE
100
AcDbText
 10
32.76932711878782
 20
35.88247792693272
 30
0.0
 40
5.0
  1
F2FB-15T-10～120-T40WC
100
AcDbText
  0
TEXT
  5
178F
330
2
100
AcDbEntity
  8
TITLE
100
AcDbText
 10
154.0061856861201
 20
44.85468741727851
 30
0.0
 40
5.0
  1
F2FB-15T-10～120-S40C
100
AcDbText
  0
TEXT
  5
1790
330
2
100
AcDbEntity
  8
TITLE
100
AcDbText
 10
154.0061856861201
 20
35.85468741727851
 30
0.0
 40
5.0
  1
F2FB-15T-10～120-S40WC
100
AcDbText
  0
LINE
  5
1793
330
2
100
AcDbEntity
  8
CENTER
100
AcDbLine
 10
169.322634419117
 20
125.8636131742065
 30
0.0
 11
169.322634419117
 21
109.9063371742065
 31
0.0
  0
LINE
  5
1794
330
2
100
AcDbEntity
  8
CENTER
100
AcDbLine
 10
161.2502924191171
 20
127.8849751742065
 30
0.0
 11
172.394976419117
 21
127.8849751742065
 31
0.0
  0
LINE
  5
1795
330
2
100
AcDbEntity
  8
CENTER
100
AcDbLine
 10
177.3012724191171
 20
117.8849751742065
 30
0.0
 11
161.343996419117
 21
117.8849751742065
 31
0.0
  0
LINE
  5
1796
330
2
100
AcDbEntity
  8
CENTER
100
AcDbLine
 10
166.822634419117
 20
122.3126331742065
 30
0.0
 11
166.822634419117
 21
133.4573171742065
 31
0.0
  0
LINE
  5
1797
330
2
100
AcDbEntity
  8
CENTER
100
AcDbLine
 10
169.322634419117
 20
192.8636131742065
 30
0.0
 11
169.322634419117
 21
176.9063371742065
 31
0.0
  0
LINE
  5
1798
330
2
100
AcDbEntity
  8
CENTER
100
AcDbLine
 10
161.2502924191171
 20
174.8849751742065
 30
0.0
 11
172.394976419117
 21
174.8849751742065
 31
0.0
  0
LINE
  5
1799
330
2
100
AcDbEntity
  8
CENTER
100
AcDbLine
 10
166.822634419117
 20
169.3126331742065
 30
0.0
 11
166.822634419117
 21
180.4573171742065
 31
0.0
  0
LINE
  5
179A
330
2
100
AcDbEntity
  8
CENTER
100
AcDbLine
 10
177.3012724191171
 20
184.8849751742065
 30
0.0
 11
161.343996419117
 21
184.8849751742065
 31
0.0
  0
LINE
  5
179B
330
2
100
AcDbEntity
  8
CENTER
100
AcDbLine
 10
223.322634419117
 20
121.2781021742065
 30
0.0
 11
223.322634419117
 21
181.4918481742065
 31
0.0
  0
LINE
  5
179C
330
2
100
AcDbEntity
  8
CENTER
100
AcDbLine
 10
255.3226344191171
 20
125.8636131742065
 30
0.0
 11
255.3226344191171
 21
109.9063371742065
 31
0.0
  0
LINE
  5
179D
330
2
100
AcDbEntity
  8
CENTER
100
AcDbLine
 10
252.2502924191171
 20
127.8849751742065
 30
0.0
 11
263.394976419117
 21
127.8849751742065
 31
0.0
  0
LINE
  5
179E
330
2
100
AcDbEntity
  8
CENTER
100
AcDbLine
 10
263.3012724191171
 20
117.8849751742065
 30
0.0
 11
247.343996419117
 21
117.8849751742065
 31
0.0
  0
LINE
  5
179F
330
2
100
AcDbEntity
  8
CENTER
100
AcDbLine
 10
257.8226344191171
 20
122.3126331742065
 30
0.0
 11
257.8226344191171
 21
133.4573171742065
 31
0.0
  0
LINE
  5
17A0
330
2
100
AcDbEntity
  8
CENTER
100
AcDbLine
 10
255.3226344191171
 20
192.8636131742065
 30
0.0
 11
255.3226344191171
 21
176.9063371742065
 31
0.0
  0
LINE
  5
17A1
330
2
100
AcDbEntity
  8
CENTER
100
AcDbLine
 10
252.2502924191171
 20
174.8849751742065
 30
0.0
 11
263.394976419117
 21
174.8849751742065
 31
0.0
  0
LINE
  5
17A2
330
2
100
AcDbEntity
  8
CENTER
100
AcDbLine
 10
257.8226344191171
 20
169.3126331742065
 30
0.0
 11
257.8226344191171
 21
180.4573171742065
 31
0.0
  0
LINE
  5
17A3
330
2
100
AcDbEntity
  8
CENTER
100
AcDbLine
 10
263.3012724191171
 20
184.8849751742065
 30
0.0
 11
247.343996419117
 21
184.8849751742065
 31
0.0
  0
LINE
  5
17A4
330
2
100
AcDbEntity
  8
CENTER
100
AcDbLine
 10
596.9711769446139
 20
121.1784626742065
 30
0.0
 11
596.9711769446139
 21
181.5914876742065
 31
0.0
  0
LINE
  5
17A5
330
2
100
AcDbEntity
  8
CENTER
100
AcDbLine
 10
564.9711769446139
 20
125.8636131742065
 30
0.0
 11
564.9711769446139
 21
109.9063371742065
 31
0.0
  0
LINE
  5
17A6
330
2
100
AcDbEntity
  8
CENTER
100
AcDbLine
 10
572.949814944614
 20
117.8849751742065
 30
0.0
 11
556.9925389446138
 21
117.8849751742065
 31
0.0
  0
LINE
  5
17A7
330
2
100
AcDbEntity
  8
CENTER
100
AcDbLine
 10
650.9711769446139
 20
125.8636131742065
 30
0.0
 11
650.9711769446139
 21
109.9063371742065
 31
0.0
  0
LINE
  5
17A8
330
2
100
AcDbEntity
  8
CENTER
100
AcDbLine
 10
658.9498149446139
 20
117.8849751742065
 30
0.0
 11
642.9925389446139
 21
117.8849751742065
 31
0.0
  0
LINE
  5
17A9
330
2
100
AcDbEntity
  8
CENTER
100
AcDbLine
 10
564.9711769446139
 20
192.8636131742065
 30
0.0
 11
564.9711769446139
 21
176.9063371742065
 31
0.0
  0
LINE
  5
17AA
330
2
100
AcDbEntity
  8
CENTER
100
AcDbLine
 10
572.949814944614
 20
184.8849751742065
 30
0.0
 11
556.9925389446138
 21
184.8849751742065
 31
0.0
  0
LINE
  5
17AB
330
2
100
AcDbEntity
  8
CENTER
100
AcDbLine
 10
650.9711769446139
 20
192.8636131742065
 30
0.0
 11
650.9711769446139
 21
176.9063371742065
 31
0.0
  0
LINE
  5
17AC
330
2
100
AcDbEntity
  8
CENTER
100
AcDbLine
 10
658.9498149446139
 20
184.8849751742065
 30
0.0
 11
642.9925389446139
 21
184.8849751742065
 31
0.0
  0
SPLINE
  5
17AD
330
2
100
AcDbEntity
  8
HOJO
100
AcDbSpline
210
0.0
220
0.0
230
1.0
 70
     8
 71
     3
 72
    27
 73
    23
 74
    21
 42
0.0000000001
 43
0.0000000001
 44
0.0000000001
 40
0.0
 40
0.0
 40
0.0
 40
0.0
 40
3.539268772771754
 40
7.287513562995795
 40
11.09046033223702
 40
14.62599423816976
 40
18.69227008921793
 40
22.26802890950275
 40
26.82672101949673
 40
31.55579532198596
 40
36.28066624743832
 40
40.14414690074357
 40
45.4800328401602
 40
49.44095400921195
 40
54.14226030623293
 40
58.62868909724451
 40
62.78426171223562
 40
66.26314687902698
 40
70.60953379849483
 40
74.30511416613953
 40
78.24621988074818
 40
82.00437648752254
 40
82.00437648752254
 40
82.00437648752254
 40
82.00437648752254
 10
356.4711769446139
 20
126.0029879762537
 30
0.0
 10
357.6502433103633
 20
125.8372889546753
 30
0.0
 10
360.0779939797031
 20
125.4961072178098
 30
0.0
 10
363.733874465614
 20
126.6420624624444
 30
0.0
 10
367.4203115601851
 20
125.3824871198141
 30
0.0
 10
371.1727818681805
 20
126.8324681453606
 30
0.0
 10
374.8791353099168
 20
125.2733388999271
 30
0.0
 10
378.8795531259897
 20
126.8998753874678
 30
0.0
 10
383.1604905246448
 20
125.2508388042988
 30
0.0
 10
387.7761845227799
 20
127.1187307950181
 30
0.0
 10
392.1977822392882
 20
125.3106464660805
 30
0.0
 10
396.7533528441192
 20
127.1446011253383
 30
0.0
 10
401.1574536230242
 20
125.3359540182421
 30
0.0
 10
405.7440742529704
 20
127.3749569286518
 30
0.0
 10
410.0587955075686
 20
124.9565673112757
 30
0.0
 10
414.426622845674
 20
127.5472150729326
 30
0.0
 10
418.3882786100752
 20
125.0019467349666
 30
0.0
 10
422.2338550772546
 20
127.4401466326174
 30
0.0
 10
426.0492572103085
 20
125.1318100544307
 30
0.0
 10
429.9543712974077
 20
127.2585006639862
 30
0.0
 10
433.6869544693779
 20
125.4123393380141
 30
0.0
 10
436.2299112820779
 20
126.0971122656423
 30
0.0
 10
437.4711769446139
 20
126.4313629762538
 30
0.0
 11
356.4711769446139
 21
126.0029879762537
 31
0.0
 11
360.002365944614
 21
125.7639739762538
 31
0.0
 11
363.7211769446139
 21
126.2327849762537
 31
0.0
 11
367.5023659446139
 21
125.8265659762537
 31
0.0
 11
371.0023659446139
 21
126.3265659762538
 31
0.0
 11
375.0337689446139
 21
125.7951629762538
 31
0.0
 11
378.5649879446139
 21
126.3577849762537
 31
0.0
 11
383.0961769446139
 21
125.8577849762537
 31
0.0
 11
387.7837689446139
 21
126.4827849762537
 31
0.0
 11
392.4711769446139
 21
125.8889739762538
 31
0.0
 11
396.2837689446139
 21
126.5139739762537
 31
0.0
 11
401.5961769446139
 21
126.0139739762538
 31
0.0
 11
405.5023659446139
 21
126.6701629762538
 31
0.0
 11
410.127365944614
 21
125.8265659762537
 31
0.0
 11
414.5337689446139
 21
126.6701629762538
 31
0.0
 11
418.5961769446139
 21
125.7951629762538
 31
0.0
 11
421.9711769446139
 21
126.6389739762537
 31
0.0
 11
426.252365944614
 21
125.8889739762538
 31
0.0
 11
429.877365944614
 21
126.6077849762537
 31
0.0
 11
433.752365944614
 21
125.8889739762538
 31
0.0
 11
437.4711769446139
 21
126.4313629762538
 31
0.0
  0
LINE
  5
17B0
330
2
100
AcDbEntity
  8
CENTER
100
AcDbLine
 10
324.0996249446141
 20
151.3849751742065
 30
0.0
 11
469.842728944614
 21
151.3849751742065
 31
0.0
  0
LINE
  5
17B1
330
2
100
AcDbEntity
  8
CENTER
100
AcDbLine
 10
396.9711769446139
 20
246.2724751742065
 30
0.0
 11
396.9711769446139
 21
103.8368491742065
 31
0.0
  0
LINE
  5
17B2
330
2
100
AcDbEntity
  8
CENTER
100
AcDbLine
 10
596.9711769446139
 20
445.0456577744116
 30
0.0
 11
596.9711769446139
 21
299.3025537744116
 31
0.0
  0
LINE
  5
17B3
330
2
100
AcDbEntity
  8
CENTER
100
AcDbLine
 10
550.4304059446139
 20
372.1741057744115
 30
0.0
 11
798.0471879128481
 21
372.1741057744115
 31
0.0
  0
LINE
  5
1FA7
330
2
100
AcDbEntity
  8
0
100
AcDbLine
 10
372.9161543342343
 20
239.8849751742065
 30
0.0
 11
421.0261995549936
 21
239.8849751742065
 31
0.0
  0
LINE
  5
1FA9
330
2
100
AcDbEntity
  8
0
100
AcDbLine
 10
366.971176944614
 20
240.8849751742065
 30
0.0
 11
426.9711769446139
 21
240.8849751742065
 31
0.0
  0
LINE
  5
1FAB
330
2
100
AcDbEntity
  8
0
100
AcDbLine
 10
365.971176944614
 20
192.8849751742065
 30
0.0
 11
427.971176944614
 21
192.8849751742065
 31
0.0
  0
LINE
  5
1FAC
330
2
100
AcDbEntity
  8
0
100
AcDbLine
 10
365.971176944614
 20
202.8849751742065
 30
0.0
 11
427.971176944614
 21
202.8849751742065
 31
0.0
  0
LINE
  5
1FAD
330
2
100
AcDbEntity
  8
0
100
AcDbLine
 10
365.971176944614
 20
203.8849751742065
 30
0.0
 11
427.971176944614
 21
203.8849751742065
 31
0.0
  0
LINE
  5
1FAE
330
2
100
AcDbEntity
  8
CENTER
100
AcDbLine
 10
360.2883904576429
 20
223.8849751742065
 30
0.0
 11
433.653963431585
 21
223.8849751742065
 31
0.0
  0
LINE
  5
1FCD
330
2
100
AcDbEntity
  8
0
100
AcDbLine
 10
81.26713041911704
 20
240.8849751742065
 30
0.0
 11
141.267138419117
 21
240.8849751742065
 31
0.0
  0
LINE
  5
1FCE
330
2
100
AcDbEntity
  8
0
100
AcDbLine
 10
87.2121158087374
 20
239.8849751742065
 30
0.0
 11
135.3221610294968
 21
239.8849751742066
 31
0.0
  0
LINE
  5
1FCF
330
2
100
AcDbEntity
  8
0
100
AcDbLine
 10
81.76713041911705
 20
190.8849751742065
 30
0.0
 11
140.267138419117
 21
190.8849751742065
 31
0.0
  0
LINE
  5
1FD0
330
2
100
AcDbEntity
  8
0
100
AcDbLine
 10
80.26713041911705
 20
192.8849751742065
 30
0.0
 11
142.267138419117
 21
192.8849751742065
 31
0.0
  0
LINE
  5
1FD1
330
2
100
AcDbEntity
  8
0
100
AcDbLine
 10
80.26713041911705
 20
202.8849751742065
 30
0.0
 11
142.267138419117
 21
202.8849751742065
 31
0.0
  0
LINE
  5
1FD2
330
2
100
AcDbEntity
  8
0
100
AcDbLine
 10
80.26713041911705
 20
203.8849751742065
 30
0.0
 11
142.267138419117
 21
203.8849751742065
 31
0.0
  0
LINE
  5
1FD3
330
2
100
AcDbEntity
  8
CENTER
100
AcDbLine
 10
74.58435193214601
 20
223.8849751742065
 30
0.0
 11
147.9499249060881
 21
223.8849751742065
 31
0.0
  0
LINE
  5
1FE8
330
2
100
AcDbEntity
  8
CENTER
100
AcDbLine
 10
111.267138419117
 20
246.2724751742065
 30
0.0
 11
111.267138419117
 21
186.2909811742065
 31
0.0
  0
LINE
  5
1FEA
330
2
100
AcDbEntity
  8
0
100
AcDbLine
 10
80.26713041911705
 20
239.8849751742065
 30
0.0
 11
80.26713041911705
 21
192.8849751742065
 31
0.0
  0
LINE
  5
1FEB
330
2
100
AcDbEntity
  8
0
100
AcDbLine
 10
80.26713041911705
 20
192.8849751742065
 30
0.0
 11
82.26713041911706
 21
190.8849751742065
 31
0.0
  0
LINE
  5
1FEC
330
2
100
AcDbEntity
  8
0
100
AcDbLine
 10
81.76713041911705
 20
190.8849751742065
 30
0.0
 11
81.76713041911705
 21
189.3849751742065
 31
0.0
  0
LINE
  5
1FED
330
2
100
AcDbEntity
  8
0
100
AcDbLine
 10
79.14213041911705
 20
213.3849751742065
 30
0.0
 11
82.26713041911706
 21
213.3849751742065
 31
0.0
  0
SPLINE
  5
1FEE
330
2
100
AcDbEntity
  8
0
100
AcDbSpline
210
0.0
220
0.0
230
1.0
 70
     8
 71
     3
 72
    11
 73
     7
 74
     0
 42
0.0000000001
 43
0.0000000001
 40
0.0
 40
0.0
 40
0.0
 40
0.0
 40
0.4601364636755307
 40
1.04988694485363
 40
1.713742833862792
 40
2.320347933405154
 40
2.320347933405154
 40
2.320347933405154
 40
2.320347933405179
 10
84.55463841957202
 20
238.9679751742065
 30
0.0
 10
84.57705607667987
 20
239.1229986138864
 30
0.0
 10
84.62820613191315
 20
239.476713431804
 30
0.0
 10
85.06409129344673
 20
239.9014411034056
 30
0.0
 10
85.66914200845417
 20
240.1206282833715
 30
0.0
 10
86.09432663262998
 20
240.0516369837608
 30
0.0
 10
86.29687824228108
 20
240.0374167115841
 30
0.0
  0
ARC
  5
1FEF
330
2
100
AcDbEntity
  8
0
100
AcDbCircle
 10
84.26713841911697
 20
231.4849751742065
 30
0.0
 40
9.0
100
AcDbArc
 50
74.11914999171883
 51
105.8808500082811
  0
LINE
  5
1FF0
330
2
100
AcDbEntity
  8
0
100
AcDbLine
 10
88.26713841911706
 20
237.8849751742065
 30
0.0
 11
80.26713841911705
 21
237.8849751742066
 31
0.0
  0
LINE
  5
1FF1
330
2
100
AcDbEntity
  8
0
100
AcDbLine
 10
79.14213041911705
 20
234.3849751742065
 30
0.0
 11
82.26713041911706
 21
234.3849751742065
 31
0.0
  0
LINE
  5
1FF2
330
2
100
AcDbEntity
  8
0
100
AcDbLine
 10
81.26713841911707
 20
240.8849751742065
 30
0.0
 11
80.26713841911705
 21
239.8849751742065
 31
0.0
  0
LINE
  5
1FF3
330
2
100
AcDbEntity
  8
0
100
AcDbLine
 10
81.32216102949687
 20
239.8849751742066
 30
0.0
 11
80.26713841911705
 21
239.8849751742065
 31
0.0
  0
ARC
  5
1FF4
330
2
100
AcDbEntity
  8
0
100
AcDbCircle
 10
82.16012766552415
 20
238.8910878984528
 30
0.0
 40
1.3
100
AcDbArc
 50
105.8808500082811
 51
175.0000000000001
  0
LINE
  5
1FF5
330
2
100
AcDbEntity
  8
0
100
AcDbLine
 10
80.76713841911709
 20
237.8849751742066
 30
0.0
 11
80.86507455800489
 21
239.0043903640248
 31
0.0
  0
SPLINE
  5
1FF6
330
2
100
AcDbEntity
  8
0
100
AcDbSpline
210
0.0
220
0.0
230
1.0
 70
     8
 71
     3
 72
    11
 73
     7
 74
     0
 42
0.0000000001
 43
0.0000000001
 40
0.0
 40
0.0
 40
0.0
 40
0.0
 40
0.4601364636755307
 40
1.04988694485363
 40
1.713742833862792
 40
2.320347933405154
 40
2.320347933405154
 40
2.320347933405154
 40
2.320347933405179
 10
83.97963841866191
 20
238.9679751742065
 30
0.0
 10
83.95722076155408
 20
239.1229986138864
 30
0.0
 10
83.9060707063208
 20
239.476713431804
 30
0.0
 10
83.47018554478722
 20
239.9014411034056
 30
0.0
 10
82.86513482977978
 20
240.1206282833715
 30
0.0
 10
82.43995020560396
 20
240.0516369837608
 30
0.0
 10
82.23739859595287
 20
240.0374167115841
 30
0.0
  0
LINE
  5
1FF7
330
2
100
AcDbEntity
  8
0
100
AcDbLine
 10
83.97963841866191
 20
238.9679751742065
 30
0.0
 11
84.55463841957202
 21
238.9679751742065
 31
0.0
  0
LINE
  5
1FF8
330
2
100
AcDbEntity
  8
0
100
AcDbLine
 10
82.23739859595287
 20
240.0374167115841
 30
0.0
 11
82.21713841911697
 21
240.2483934570457
 31
0.0
  0
LINE
  5
1FF9
330
2
100
AcDbEntity
  8
0
100
AcDbLine
 10
89.26713841911706
 20
240.8849751742065
 30
0.0
 11
88.26713841911706
 21
239.8849751742065
 31
0.0
  0
LINE
  5
1FFA
330
2
100
AcDbEntity
  8
0
100
AcDbLine
 10
88.26713841911706
 20
239.8849751742065
 30
0.0
 11
88.26713841911706
 21
237.8849751742065
 31
0.0
  0
ARC
  5
1FFB
330
2
100
AcDbEntity
  8
0
100
AcDbCircle
 10
86.37414917271001
 20
238.8910878984528
 30
0.0
 40
1.3
100
AcDbArc
 50
4.999999999999778
 51
74.11914999171883
  0
LINE
  5
1FFC
330
2
100
AcDbEntity
  8
0
100
AcDbLine
 10
87.76713841911698
 20
237.8849751742066
 30
0.0
 11
87.66920228022916
 21
239.0043903640248
 31
0.0
  0
LINE
  5
1FFD
330
2
100
AcDbEntity
  8
0
100
AcDbLine
 10
86.29687824228108
 20
240.0374167115841
 30
0.0
 11
86.31713841911698
 21
240.2483934570457
 31
0.0
  0
LINE
  5
1FFE
330
2
100
AcDbEntity
  8
0
100
AcDbLine
 10
142.267138419117
 20
239.8849751742065
 30
0.0
 11
142.267138419117
 21
192.8849751742065
 31
0.0
  0
LINE
  5
1FFF
330
2
100
AcDbEntity
  8
0
100
AcDbLine
 10
127.767138419117
 20
190.8849751742065
 30
0.0
 11
127.767138419117
 21
189.3849751742065
 31
0.0
  0
LINE
  5
2000
330
2
100
AcDbEntity
  8
0
100
AcDbLine
 10
142.267138419117
 20
192.8849751742065
 30
0.0
 11
140.267138419117
 21
190.8849751742065
 31
0.0
  0
ARC
  5
2001
330
2
100
AcDbEntity
  8
0
100
AcDbCircle
 10
138.2671384191171
 20
231.4849751742065
 30
0.0
 40
9.0
100
AcDbArc
 50
74.11914999171883
 51
105.8808500082811
  0
SPLINE
  5
2002
330
2
100
AcDbEntity
  8
0
100
AcDbSpline
210
0.0
220
0.0
230
1.0
 70
     8
 71
     3
 72
    11
 73
     7
 74
     0
 42
0.0000000001
 43
0.0000000001
 40
0.0
 40
0.0
 40
0.0
 40
0.0
 40
0.4601364636755307
 40
1.04988694485363
 40
1.713742833862792
 40
2.320347933405154
 40
2.320347933405154
 40
2.320347933405154
 40
2.320347933405179
 10
137.979638418662
 20
238.9679751742065
 30
0.0
 10
137.9572207615542
 20
239.1229986138864
 30
0.0
 10
137.9060707063209
 20
239.476713431804
 30
0.0
 10
137.4701855447874
 20
239.9014411034056
 30
0.0
 10
136.8651348297799
 20
240.1206282833715
 30
0.0
 10
136.4399502056041
 20
240.0516369837608
 30
0.0
 10
136.237398595953
 20
240.0374167115841
 30
0.0
  0
LINE
  5
2003
330
2
100
AcDbEntity
  8
0
100
AcDbLine
 10
134.267138419117
 20
237.8849751742065
 30
0.0
 11
142.267138419117
 21
237.8849751742066
 31
0.0
  0
LINE
  5
2004
330
2
100
AcDbEntity
  8
0
100
AcDbLine
 10
136.237398595953
 20
240.0374167115841
 30
0.0
 11
136.2171384191171
 21
240.2483934570457
 31
0.0
  0
LINE
  5
2005
330
2
100
AcDbEntity
  8
0
100
AcDbLine
 10
134.7671384191171
 20
237.8849751742066
 30
0.0
 11
134.8650745580049
 21
239.0043903640248
 31
0.0
  0
ARC
  5
2006
330
2
100
AcDbEntity
  8
0
100
AcDbCircle
 10
136.160127665524
 20
238.8910878984528
 30
0.0
 40
1.3
100
AcDbArc
 50
105.8808500082811
 51
175.0000000000001
  0
LINE
  5
2007
330
2
100
AcDbEntity
  8
0
100
AcDbLine
 10
133.267138419117
 20
240.8849751742065
 30
0.0
 11
134.267138419117
 21
239.8849751742065
 31
0.0
  0
LINE
  5
2008
330
2
100
AcDbEntity
  8
0
100
AcDbLine
 10
134.267138419117
 20
239.8849751742065
 30
0.0
 11
134.267138419117
 21
237.8849751742065
 31
0.0
  0
LINE
  5
2009
330
2
100
AcDbEntity
  8
0
100
AcDbLine
 10
141.2121158087372
 20
239.8849751742066
 30
0.0
 11
142.267138419117
 21
239.8849751742065
 31
0.0
  0
LINE
  5
200A
330
2
100
AcDbEntity
  8
0
100
AcDbLine
 10
141.767138419117
 20
237.8849751742066
 30
0.0
 11
141.6692022802292
 21
239.0043903640248
 31
0.0
  0
ARC
  5
200B
330
2
100
AcDbEntity
  8
0
100
AcDbCircle
 10
140.3741491727099
 20
238.8910878984528
 30
0.0
 40
1.3
100
AcDbArc
 50
4.999999999999778
 51
74.11914999171883
  0
LINE
  5
200C
330
2
100
AcDbEntity
  8
0
100
AcDbLine
 10
140.2968782422812
 20
240.0374167115841
 30
0.0
 11
140.3171384191171
 21
240.2483934570457
 31
0.0
  0
LINE
  5
200D
330
2
100
AcDbEntity
  8
0
100
AcDbLine
 10
138.5546384195722
 20
238.9679751742065
 30
0.0
 11
137.979638418662
 21
238.9679751742065
 31
0.0
  0
SPLINE
  5
200E
330
2
100
AcDbEntity
  8
0
100
AcDbSpline
210
0.0
220
0.0
230
1.0
 70
     8
 71
     3
 72
    11
 73
     7
 74
     0
 42
0.0000000001
 43
0.0000000001
 40
0.0
 40
0.0
 40
0.0
 40
0.0
 40
0.4601364636755307
 40
1.04988694485363
 40
1.713742833862792
 40
2.320347933405154
 40
2.320347933405154
 40
2.320347933405154
 40
2.320347933405179
 10
138.5546384195722
 20
238.9679751742065
 30
0.0
 10
138.57705607668
 20
239.1229986138864
 30
0.0
 10
138.6282061319133
 20
239.476713431804
 30
0.0
 10
139.0640912934469
 20
239.9014411034056
 30
0.0
 10
139.6691420084543
 20
240.1206282833715
 30
0.0
 10
140.0943266326301
 20
240.0516369837608
 30
0.0
 10
140.2968782422812
 20
240.0374167115841
 30
0.0
  0
LINE
  5
200F
330
2
100
AcDbEntity
  8
0
100
AcDbLine
 10
141.267138419117
 20
240.8849751742065
 30
0.0
 11
142.267138419117
 21
239.8849751742065
 31
0.0
  0
LINE
  5
2010
330
2
100
AcDbEntity
  8
0
100
AcDbLine
 10
365.971176944614
 20
239.8849751742065
 30
0.0
 11
365.971176944614
 21
192.8849751742065
 31
0.0
  0
LINE
  5
2011
330
2
100
AcDbEntity
  8
0
100
AcDbLine
 10
365.971176944614
 20
192.8849751742065
 30
0.0
 11
367.4858523852072
 21
191.3702997336132
 31
0.0
  0
SPLINE
  5
2013
330
2
100
AcDbEntity
  8
0
100
AcDbSpline
210
0.0
220
0.0
230
1.0
 70
     8
 71
     3
 72
    11
 73
     7
 74
     0
 42
0.0000000001
 43
0.0000000001
 40
0.0
 40
0.0
 40
0.0
 40
0.0
 40
0.4601364636755307
 40
1.04988694485363
 40
1.713742833862792
 40
2.320347933405154
 40
2.320347933405154
 40
2.320347933405154
 40
2.320347933405179
 10
370.2586769450689
 20
238.9679751742065
 30
0.0
 10
370.2810946021767
 20
239.1229986138864
 30
0.0
 10
370.33224465741
 20
239.476713431804
 30
0.0
 10
370.7681298189437
 20
239.9014411034056
 30
0.0
 10
371.3731805339511
 20
240.1206282833715
 30
0.0
 10
371.7983651581269
 20
240.0516369837608
 30
0.0
 10
372.000916767778
 20
240.0374167115841
 30
0.0
  0
LINE
  5
2014
330
2
100
AcDbEntity
  8
0
100
AcDbLine
 10
373.9711769446139
 20
237.8849751742065
 30
0.0
 11
365.971176944614
 21
237.8849751742066
 31
0.0
  0
ARC
  5
2015
330
2
100
AcDbEntity
  8
0
100
AcDbCircle
 10
369.9711769446138
 20
231.4849751742065
 30
0.0
 40
9.0
100
AcDbArc
 50
74.11914999171883
 51
105.8808500082811
  0
ARC
  5
2016
330
2
100
AcDbEntity
  8
0
100
AcDbCircle
 10
367.864166191021
 20
238.8910878984528
 30
0.0
 40
1.3
100
AcDbArc
 50
105.8808500082811
 51
175.0000000000001
  0
LINE
  5
2017
330
2
100
AcDbEntity
  8
0
100
AcDbLine
 10
367.0261995549938
 20
239.8849751742066
 30
0.0
 11
365.971176944614
 21
239.8849751742065
 31
0.0
  0
LINE
  5
2018
330
2
100
AcDbEntity
  8
0
100
AcDbLine
 10
366.471176944614
 20
237.8849751742066
 30
0.0
 11
366.5691130835018
 21
239.0043903640248
 31
0.0
  0
LINE
  5
2019
330
2
100
AcDbEntity
  8
0
100
AcDbLine
 10
366.971176944614
 20
240.8849751742065
 30
0.0
 11
365.971176944614
 21
239.8849751742065
 31
0.0
  0
LINE
  5
201A
330
2
100
AcDbEntity
  8
0
100
AcDbLine
 10
365.971176944614
 20
239.8849751742065
 30
0.0
 11
367.0261995549937
 21
239.8849751742065
 31
0.0
  0
LINE
  5
201B
330
2
100
AcDbEntity
  8
0
100
AcDbLine
 10
369.6836769441588
 20
238.9679751742065
 30
0.0
 11
370.2586769450689
 21
238.9679751742065
 31
0.0
  0
LINE
  5
201C
330
2
100
AcDbEntity
  8
0
100
AcDbLine
 10
367.9414371214498
 20
240.0374167115841
 30
0.0
 11
367.9211769446139
 21
240.2483934570457
 31
0.0
  0
SPLINE
  5
201D
330
2
100
AcDbEntity
  8
0
100
AcDbSpline
210
0.0
220
0.0
230
1.0
 70
     8
 71
     3
 72
    11
 73
     7
 74
     0
 42
0.0000000001
 43
0.0000000001
 40
0.0
 40
0.0
 40
0.0
 40
0.0
 40
0.4601364636755307
 40
1.04988694485363
 40
1.713742833862792
 40
2.320347933405154
 40
2.320347933405154
 40
2.320347933405154
 40
2.320347933405179
 10
369.6836769441588
 20
238.9679751742065
 30
0.0
 10
369.661259287051
 20
239.1229986138864
 30
0.0
 10
369.6101092318177
 20
239.476713431804
 30
0.0
 10
369.1742240702842
 20
239.9014411034056
 30
0.0
 10
368.5691733552767
 20
240.1206282833715
 30
0.0
 10
368.1439887311009
 20
240.0516369837608
 30
0.0
 10
367.9414371214498
 20
240.0374167115841
 30
0.0
  0
LINE
  5
201E
330
2
100
AcDbEntity
  8
0
100
AcDbLine
 10
372.000916767778
 20
240.0374167115841
 30
0.0
 11
372.0211769446139
 21
240.2483934570457
 31
0.0
  0
LINE
  5
201F
330
2
100
AcDbEntity
  8
0
100
AcDbLine
 10
373.4711769446139
 20
237.8849751742066
 30
0.0
 11
373.373240805726
 21
239.0043903640248
 31
0.0
  0
ARC
  5
2020
330
2
100
AcDbEntity
  8
0
100
AcDbCircle
 10
372.0781876982069
 20
238.8910878984528
 30
0.0
 40
1.3
100
AcDbArc
 50
4.999999999999778
 51
74.11914999171883
  0
LINE
  5
2021
330
2
100
AcDbEntity
  8
0
100
AcDbLine
 10
373.9711769446139
 20
239.8849751742065
 30
0.0
 11
373.9711769446139
 21
237.8849751742065
 31
0.0
  0
LINE
  5
2022
330
2
100
AcDbEntity
  8
0
100
AcDbLine
 10
374.971176944614
 20
240.8849751742065
 30
0.0
 11
373.9711769446139
 21
239.8849751742065
 31
0.0
  0
LINE
  5
2027
330
2
100
AcDbEntity
  8
0
100
AcDbLine
 10
418.9711769446139
 20
240.8849751742065
 30
0.0
 11
419.971176944614
 21
239.8849751742065
 31
0.0
  0
LINE
  5
2029
330
2
100
AcDbEntity
  8
0
100
AcDbLine
 10
427.971176944614
 20
239.8849751742065
 30
0.0
 11
427.971176944614
 21
192.8849751742065
 31
0.0
  0
LINE
  5
202B
330
2
100
AcDbEntity
  8
0
100
AcDbLine
 10
427.971176944614
 20
192.8849751742065
 30
0.0
 11
426.4565015040207
 21
191.3702997336132
 31
0.0
  0
LINE
  5
202C
330
2
100
AcDbEntity
  8
0
100
AcDbLine
 10
424.258676945069
 20
238.9679751742065
 30
0.0
 11
423.6836769441589
 21
238.9679751742065
 31
0.0
  0
ARC
  5
202D
330
2
100
AcDbEntity
  8
0
100
AcDbCircle
 10
423.9711769446141
 20
231.4849751742065
 30
0.0
 40
9.0
100
AcDbArc
 50
74.11914999171883
 51
105.8808500082811
  0
LINE
  5
202E
330
2
100
AcDbEntity
  8
0
100
AcDbLine
 10
419.971176944614
 20
237.8849751742065
 30
0.0
 11
427.971176944614
 21
237.8849751742066
 31
0.0
  0
LINE
  5
202F
330
2
100
AcDbEntity
  8
0
100
AcDbLine
 10
419.971176944614
 20
239.8849751742065
 30
0.0
 11
419.971176944614
 21
237.8849751742065
 31
0.0
  0
ARC
  5
2030
330
2
100
AcDbEntity
  8
0
100
AcDbCircle
 10
421.864166191021
 20
238.8910878984528
 30
0.0
 40
1.3
100
AcDbArc
 50
105.8808500082811
 51
175.0000000000001
  0
LINE
  5
2031
330
2
100
AcDbEntity
  8
0
100
AcDbLine
 10
420.4711769446141
 20
237.8849751742066
 30
0.0
 11
420.5691130835019
 21
239.0043903640248
 31
0.0
  0
SPLINE
  5
2032
330
2
100
AcDbEntity
  8
0
100
AcDbSpline
210
0.0
220
0.0
230
1.0
 70
     8
 71
     3
 72
    11
 73
     7
 74
     0
 42
0.0000000001
 43
0.0000000001
 40
0.0
 40
0.0
 40
0.0
 40
0.0
 40
0.4601364636755307
 40
1.04988694485363
 40
1.713742833862792
 40
2.320347933405154
 40
2.320347933405154
 40
2.320347933405154
 40
2.320347933405179
 10
423.6836769441589
 20
238.9679751742065
 30
0.0
 10
423.6612592870512
 20
239.1229986138864
 30
0.0
 10
423.6101092318179
 20
239.476713431804
 30
0.0
 10
423.1742240702843
 20
239.9014411034056
 30
0.0
 10
422.5691733552769
 20
240.1206282833715
 30
0.0
 10
422.143988731101
 20
240.0516369837608
 30
0.0
 10
421.9414371214499
 20
240.0374167115841
 30
0.0
  0
LINE
  5
2033
330
2
100
AcDbEntity
  8
0
100
AcDbLine
 10
421.9414371214499
 20
240.0374167115841
 30
0.0
 11
421.921176944614
 21
240.2483934570457
 31
0.0
  0
LINE
  5
2034
330
2
100
AcDbEntity
  8
0
100
AcDbLine
 10
426.9161543342343
 20
239.8849751742065
 30
0.0
 11
427.971176944614
 21
239.8849751742065
 31
0.0
  0
LINE
  5
2035
330
2
100
AcDbEntity
  8
0
100
AcDbLine
 10
426.9711769446139
 20
240.8849751742065
 30
0.0
 11
427.971176944614
 21
239.8849751742065
 31
0.0
  0
LINE
  5
2036
330
2
100
AcDbEntity
  8
0
100
AcDbLine
 10
427.471176944614
 20
237.8849751742066
 30
0.0
 11
427.3732408057262
 21
239.0043903640248
 31
0.0
  0
SPLINE
  5
2037
330
2
100
AcDbEntity
  8
0
100
AcDbSpline
210
0.0
220
0.0
230
1.0
 70
     8
 71
     3
 72
    11
 73
     7
 74
     0
 42
0.0000000001
 43
0.0000000001
 40
0.0
 40
0.0
 40
0.0
 40
0.0
 40
0.4601364636755307
 40
1.04988694485363
 40
1.713742833862792
 40
2.320347933405154
 40
2.320347933405154
 40
2.320347933405154
 40
2.320347933405179
 10
424.258676945069
 20
238.9679751742065
 30
0.0
 10
424.2810946021769
 20
239.1229986138864
 30
0.0
 10
424.3322446574103
 20
239.476713431804
 30
0.0
 10
424.7681298189438
 20
239.9014411034056
 30
0.0
 10
425.3731805339512
 20
240.1206282833715
 30
0.0
 10
425.7983651581271
 20
240.0516369837608
 30
0.0
 10
426.0009167677782
 20
240.0374167115841
 30
0.0
  0
LINE
  5
2038
330
2
100
AcDbEntity
  8
0
100
AcDbLine
 10
426.0009167677782
 20
240.0374167115841
 30
0.0
 11
426.021176944614
 21
240.2483934570457
 31
0.0
  0
ARC
  5
2039
330
2
100
AcDbEntity
  8
0
100
AcDbCircle
 10
426.0781876982069
 20
238.8910878984528
 30
0.0
 40
1.3
100
AcDbArc
 50
4.999999999999778
 51
74.11914999171883
  0
LINE
  5
203A
330
2
100
AcDbEntity
  8
0
100
AcDbLine
 10
426.9161543342342
 20
239.8849751742066
 30
0.0
 11
427.971176944614
 21
239.8849751742065
 31
0.0
  0
LINE
  5
203B
330
2
100
AcDbEntity
  8
0
100
AcDbLine
 10
733.0816725549935
 20
239.8849751742065
 30
0.0
 11
684.971627334234
 21
239.8849751742066
 31
0.0
  0
LINE
  5
203D
330
2
100
AcDbEntity
  8
CENTER
100
AcDbLine
 10
745.7094364315849
 20
223.8849751742065
 30
0.0
 11
672.3438634576427
 21
223.8849751742065
 31
0.0
  0
LINE
  5
203E
330
2
100
AcDbEntity
  8
0
100
AcDbLine
 10
740.0266579446138
 20
203.8849751742065
 30
0.0
 11
678.0266499446138
 21
203.8849751742065
 31
0.0
  0
LINE
  5
203F
330
2
100
AcDbEntity
  8
0
100
AcDbLine
 10
740.0266579446138
 20
202.8849751742065
 30
0.0
 11
678.0266499446138
 21
202.8849751742065
 31
0.0
  0
LINE
  5
2040
330
2
100
AcDbEntity
  8
0
100
AcDbLine
 10
740.0266579446138
 20
192.8849751742065
 30
0.0
 11
678.0266499446138
 21
192.8849751742065
 31
0.0
  0
LINE
  5
2041
330
2
100
AcDbEntity
  8
0
100
AcDbLine
 10
738.5266579446138
 20
190.8849751742065
 30
0.0
 11
680.0266499446138
 21
190.8849751742065
 31
0.0
  0
LINE
  5
2042
330
2
100
AcDbEntity
  8
0
100
AcDbLine
 10
739.0266579446138
 20
240.8849751742065
 30
0.0
 11
679.0266499446138
 21
240.8849751742065
 31
0.0
  0
LINE
  5
2043
330
2
100
AcDbEntity
  8
0
100
AcDbLine
 10
678.0266499446138
 20
239.8849751742065
 30
0.0
 11
678.0266499446138
 21
192.8849751742065
 31
0.0
  0
LINE
  5
2044
330
2
100
AcDbEntity
  8
CENTER
100
AcDbLine
 10
709.0266499446138
 20
246.2724751742065
 30
0.0
 11
709.0266499446138
 21
186.2909811742065
 31
0.0
  0
LINE
  5
2045
330
2
100
AcDbEntity
  8
0
100
AcDbLine
 10
678.0266499446138
 20
192.8849751742065
 30
0.0
 11
680.0266499446138
 21
190.8849751742065
 31
0.0
  0
LINE
  5
2046
330
2
100
AcDbEntity
  8
0
100
AcDbLine
 10
692.5266499446138
 20
190.8849751742065
 30
0.0
 11
692.5266499446138
 21
189.3849751742065
 31
0.0
  0
SPLINE
  5
2047
330
2
100
AcDbEntity
  8
0
100
AcDbSpline
210
0.0
220
0.0
230
1.0
 70
     8
 71
     3
 72
    11
 73
     7
 74
     0
 42
0.0000000001
 43
0.0000000001
 40
0.0
 40
0.0
 40
0.0
 40
0.0
 40
0.4601364636755307
 40
1.04988694485363
 40
1.713742833862792
 40
2.320347933405154
 40
2.320347933405154
 40
2.320347933405154
 40
2.320347933405179
 10
681.7391499441587
 20
238.9679751742065
 30
0.0
 10
681.7167322870508
 20
239.1229986138864
 30
0.0
 10
681.6655822318175
 20
239.476713431804
 30
0.0
 10
681.2296970702838
 20
239.9014411034056
 30
0.0
 10
680.6246463552765
 20
240.1206282833715
 30
0.0
 10
680.1994617311006
 20
240.0516369837608
 30
0.0
 10
679.9969101214497
 20
240.0374167115841
 30
0.0
  0
LINE
  5
2048
330
2
100
AcDbEntity
  8
0
100
AcDbLine
 10
686.0266499446138
 20
237.8849751742065
 30
0.0
 11
678.0266499446138
 21
237.8849751742066
 31
0.0
  0
ARC
  5
2049
330
2
100
AcDbEntity
  8
0
100
AcDbCircle
 10
682.0266499446137
 20
231.4849751742065
 30
0.0
 40
9.0
100
AcDbArc
 50
74.11914999171883
 51
105.8808500082811
  0
LINE
  5
204A
330
2
100
AcDbEntity
  8
0
100
AcDbLine
 10
679.0266499446138
 20
240.8849751742065
 30
0.0
 11
678.0266499446138
 21
239.8849751742065
 31
0.0
  0
LINE
  5
204B
330
2
100
AcDbEntity
  8
0
100
AcDbLine
 10
679.9969101214497
 20
240.0374167115841
 30
0.0
 11
679.9766499446136
 21
240.2483934570457
 31
0.0
  0
ARC
  5
204C
330
2
100
AcDbEntity
  8
0
100
AcDbCircle
 10
679.9196391910209
 20
238.8910878984528
 30
0.0
 40
1.3
100
AcDbArc
 50
105.8808500082811
 51
175.0000000000001
  0
LINE
  5
204D
330
2
100
AcDbEntity
  8
0
100
AcDbLine
 10
678.5266499446138
 20
237.8849751742066
 30
0.0
 11
678.6245860835016
 21
239.0043903640248
 31
0.0
  0
LINE
  5
204E
330
2
100
AcDbEntity
  8
0
100
AcDbLine
 10
679.0816725549936
 20
239.8849751742066
 30
0.0
 11
678.0266499446138
 21
239.8849751742065
 31
0.0
  0
LINE
  5
204F
330
2
100
AcDbEntity
  8
0
100
AcDbLine
 10
687.0266499446138
 20
240.8849751742065
 30
0.0
 11
686.0266499446138
 21
239.8849751742065
 31
0.0
  0
LINE
  5
2050
330
2
100
AcDbEntity
  8
0
100
AcDbLine
 10
681.7391499441587
 20
238.9679751742065
 30
0.0
 11
682.3141499450687
 21
238.9679751742065
 31
0.0
  0
LINE
  5
2051
330
2
100
AcDbEntity
  8
0
100
AcDbLine
 10
684.0563897677777
 20
240.0374167115841
 30
0.0
 11
684.0766499446138
 21
240.2483934570457
 31
0.0
  0
LINE
  5
2052
330
2
100
AcDbEntity
  8
0
100
AcDbLine
 10
686.0266499446138
 20
239.8849751742065
 30
0.0
 11
686.0266499446138
 21
237.8849751742065
 31
0.0
  0
LINE
  5
2053
330
2
100
AcDbEntity
  8
0
100
AcDbLine
 10
685.5266499446137
 20
237.8849751742066
 30
0.0
 11
685.4287138057259
 21
239.0043903640248
 31
0.0
  0
ARC
  5
2054
330
2
100
AcDbEntity
  8
0
100
AcDbCircle
 10
684.1336606982068
 20
238.8910878984528
 30
0.0
 40
1.3
100
AcDbArc
 50
4.999999999999778
 51
74.11914999171883
  0
SPLINE
  5
2055
330
2
100
AcDbEntity
  8
0
100
AcDbSpline
210
0.0
220
0.0
230
1.0
 70
     8
 71
     3
 72
    11
 73
     7
 74
     0
 42
0.0000000001
 43
0.0000000001
 40
0.0
 40
0.0
 40
0.0
 40
0.0
 40
0.4601364636755307
 40
1.04988694485363
 40
1.713742833862792
 40
2.320347933405154
 40
2.320347933405154
 40
2.320347933405154
 40
2.320347933405179
 10
682.3141499450687
 20
238.9679751742065
 30
0.0
 10
682.3365676021766
 20
239.1229986138864
 30
0.0
 10
682.3877176574098
 20
239.476713431804
 30
0.0
 10
682.8236028189435
 20
239.9014411034056
 30
0.0
 10
683.4286535339508
 20
240.1206282833715
 30
0.0
 10
683.8538381581267
 20
240.0516369837608
 30
0.0
 10
684.0563897677777
 20
240.0374167115841
 30
0.0
  0
LINE
  5
2057
330
2
100
AcDbEntity
  8
0
100
AcDbLine
 10
740.0266579446138
 20
239.8849751742065
 30
0.0
 11
740.0266579446138
 21
192.8849751742065
 31
0.0
  0
LINE
  5
2058
330
2
100
AcDbEntity
  8
0
100
AcDbLine
 10
740.0266579446138
 20
192.8849751742065
 30
0.0
 11
738.0266579446137
 21
190.8849751742065
 31
0.0
  0
LINE
  5
2059
330
2
100
AcDbEntity
  8
0
100
AcDbLine
 10
738.5266579446138
 20
190.8849751742065
 30
0.0
 11
738.5266579446138
 21
189.3849751742065
 31
0.0
  0
LINE
  5
205A
330
2
100
AcDbEntity
  8
0
100
AcDbLine
 10
741.1516579446137
 20
213.3849751742065
 30
0.0
 11
738.0266579446137
 21
213.3849751742065
 31
0.0
  0
ARC
  5
205B
330
2
100
AcDbEntity
  8
0
100
AcDbCircle
 10
738.1336606982067
 20
238.8910878984528
 30
0.0
 40
1.3
100
AcDbArc
 50
4.999999999999778
 51
74.11914999171883
  0
LINE
  5
205C
330
2
100
AcDbEntity
  8
0
100
AcDbLine
 10
741.1516579446137
 20
234.3849751742065
 30
0.0
 11
738.0266579446137
 21
234.3849751742065
 31
0.0
  0
LINE
  5
205D
330
2
100
AcDbEntity
  8
0
100
AcDbLine
 10
732.0266499446138
 20
237.8849751742065
 30
0.0
 11
740.0266499446138
 21
237.8849751742066
 31
0.0
  0
ARC
  5
205E
330
2
100
AcDbEntity
  8
0
100
AcDbCircle
 10
736.0266499446138
 20
231.4849751742065
 30
0.0
 40
9.0
100
AcDbArc
 50
74.11914999171883
 51
105.8808500082811
  0
ARC
  5
205F
330
2
100
AcDbEntity
  8
0
100
AcDbCircle
 10
733.9196391910209
 20
238.8910878984528
 30
0.0
 40
1.3
100
AcDbArc
 50
105.8808500082811
 51
175.0000000000001
  0
LINE
  5
2060
330
2
100
AcDbEntity
  8
0
100
AcDbLine
 10
732.0266499446138
 20
239.8849751742065
 30
0.0
 11
732.0266499446138
 21
237.8849751742065
 31
0.0
  0
LINE
  5
2061
330
2
100
AcDbEntity
  8
0
100
AcDbLine
 10
731.0266499446138
 20
240.8849751742065
 30
0.0
 11
732.0266499446138
 21
239.8849751742065
 31
0.0
  0
LINE
  5
2062
330
2
100
AcDbEntity
  8
0
100
AcDbLine
 10
732.5266499446138
 20
237.8849751742066
 30
0.0
 11
732.6245860835017
 21
239.0043903640248
 31
0.0
  0
LINE
  5
2063
330
2
100
AcDbEntity
  8
0
100
AcDbLine
 10
733.9969101214498
 20
240.0374167115841
 30
0.0
 11
733.9766499446138
 21
240.2483934570457
 31
0.0
  0
LINE
  5
2064
330
2
100
AcDbEntity
  8
0
100
AcDbLine
 10
736.3141499450689
 20
238.9679751742065
 30
0.0
 11
735.7391499441588
 21
238.9679751742065
 31
0.0
  0
LINE
  5
2065
330
2
100
AcDbEntity
  8
0
100
AcDbLine
 10
738.056389767778
 20
240.0374167115841
 30
0.0
 11
738.0766499446139
 21
240.2483934570457
 31
0.0
  0
SPLINE
  5
2066
330
2
100
AcDbEntity
  8
0
100
AcDbSpline
210
0.0
220
0.0
230
1.0
 70
     8
 71
     3
 72
    11
 73
     7
 74
     0
 42
0.0000000001
 43
0.0000000001
 40
0.0
 40
0.0
 40
0.0
 40
0.0
 40
0.4601364636755307
 40
1.04988694485363
 40
1.713742833862792
 40
2.320347933405154
 40
2.320347933405154
 40
2.320347933405154
 40
2.320347933405179
 10
736.3141499450689
 20
238.9679751742065
 30
0.0
 10
736.3365676021767
 20
239.1229986138864
 30
0.0
 10
736.3877176574101
 20
239.476713431804
 30
0.0
 10
736.8236028189436
 20
239.9014411034056
 30
0.0
 10
737.4286535339511
 20
240.1206282833715
 30
0.0
 10
737.8538381581269
 20
240.0516369837608
 30
0.0
 10
738.056389767778
 20
240.0374167115841
 30
0.0
  0
SPLINE
  5
2067
330
2
100
AcDbEntity
  8
0
100
AcDbSpline
210
0.0
220
0.0
230
1.0
 70
     8
 71
     3
 72
    11
 73
     7
 74
     0
 42
0.0000000001
 43
0.0000000001
 40
0.0
 40
0.0
 40
0.0
 40
0.0
 40
0.4601364636755307
 40
1.04988694485363
 40
1.713742833862792
 40
2.320347933405154
 40
2.320347933405154
 40
2.320347933405154
 40
2.320347933405179
 10
735.7391499441588
 20
238.9679751742065
 30
0.0
 10
735.7167322870509
 20
239.1229986138864
 30
0.0
 10
735.6655822318177
 20
239.476713431804
 30
0.0
 10
735.2296970702841
 20
239.9014411034056
 30
0.0
 10
734.6246463552766
 20
240.1206282833715
 30
0.0
 10
734.1994617311009
 20
240.0516369837608
 30
0.0
 10
733.9969101214498
 20
240.0374167115841
 30
0.0
  0
LINE
  5
2068
330
2
100
AcDbEntity
  8
0
100
AcDbLine
 10
739.5266499446138
 20
237.8849751742066
 30
0.0
 11
739.4287138057259
 21
239.0043903640248
 31
0.0
  0
LINE
  5
2069
330
2
100
AcDbEntity
  8
0
100
AcDbLine
 10
738.9716273342339
 20
239.8849751742066
 30
0.0
 11
740.0266499446138
 21
239.8849751742065
 31
0.0
  0
LINE
  5
206A
330
2
100
AcDbEntity
  8
0
100
AcDbLine
 10
739.0266499446138
 20
240.8849751742065
 30
0.0
 11
740.0266499446138
 21
239.8849751742065
 31
0.0
  0
LINE
  5
206B
330
2
100
AcDbEntity
  8
CENTER
100
AcDbLine
 10
709.0266499446138
 20
408.8568922613826
 30
0.0
 11
709.0266499446138
 21
335.4913192874405
 31
0.0
  0
LINE
  5
206C
330
2
100
AcDbEntity
  8
0
100
AcDbLine
 10
686.0266579446138
 20
401.1741057744115
 30
0.0
 11
732.0266499446138
 21
401.1741057744115
 31
0.0
  0
LINE
  5
206D
330
2
100
AcDbEntity
  8
0
100
AcDbLine
 10
739.0266499446138
 20
403.1741057744114
 30
0.0
 11
679.0265489112805
 21
403.1741057744116
 31
0.0
  0
LINE
  5
206F
330
2
100
AcDbEntity
  8
0
100
AcDbLine
 10
732.0266499446138
 20
343.1741057744115
 30
0.0
 11
686.0266579446138
 21
343.1741057744115
 31
0.0
  0
LINE
  5
2070
330
2
100
AcDbEntity
  8
0
100
AcDbLine
 10
679.0266749779471
 20
341.1741057744114
 30
0.0
 11
739.0266499446138
 21
341.1741057744117
 31
0.0
  0
LINE
  5
2071
330
2
100
AcDbEntity
  8
0
100
AcDbLine
 10
680.0266119446138
 20
349.1741057744115
 30
0.0
 11
680.0266119446139
 21
395.1741057744115
 31
0.0
  0
LINE
  5
2072
330
2
100
AcDbEntity
  8
0
100
AcDbLine
 10
678.0265509446138
 20
402.1741057744136
 30
0.0
 11
678.0266729446138
 21
342.1741057744094
 31
0.0
  0
ARC
  5
2073
330
2
100
AcDbEntity
  8
0
100
AcDbCircle
 10
679.9969269446137
 20
343.1444057744116
 30
0.0
 40
1.742199999999999
100
AcDbArc
 50
359.9986903345002
 51
90.00130966549649
  0
ARC
  5
2074
330
2
100
AcDbEntity
  8
0
100
AcDbCircle
 10
679.9969269446137
 20
347.2038057744116
 30
0.0
 40
1.742199999999999
100
AcDbArc
 50
269.9986903345035
 51
0.0013096654997424
  0
CIRCLE
  5
2075
330
2
100
AcDbEntity
  8
0
100
AcDbCircle
 10
682.0266269446139
 20
345.1741057744115
 30
0.0
 40
3.500000000000028
  0
LINE
  5
2076
330
2
100
AcDbEntity
  8
0
100
AcDbLine
 10
683.0266269446138
 20
349.1741057744115
 30
0.0
 11
678.0266729446138
 21
349.1741057744115
 31
0.0
  0
LINE
  5
2077
330
2
100
AcDbEntity
  8
0
100
AcDbLine
 10
679.0266749779471
 20
341.1741057744114
 30
0.0
 11
678.0266729446138
 21
342.1741057744094
 31
0.0
  0
ARC
  5
2078
330
2
100
AcDbEntity
  8
0
100
AcDbCircle
 10
682.0266269446139
 20
345.1741057744115
 30
0.0
 40
2.049999999999998
100
AcDbArc
 50
171.9380399160181
 51
180.0
  0
ARC
  5
2079
330
2
100
AcDbEntity
  8
0
100
AcDbCircle
 10
682.0266269446139
 20
345.1741057744115
 30
0.0
 40
2.049999999999998
100
AcDbArc
 50
180.0
 51
188.0619600839818
  0
ARC
  5
207A
330
2
100
AcDbEntity
  8
0
100
AcDbCircle
 10
684.0563269446138
 20
343.1444057744116
 30
0.0
 40
1.742199999999999
100
AcDbArc
 50
89.99869033450025
 51
180.0013096654997
  0
LINE
  5
207B
330
2
100
AcDbEntity
  8
0
100
AcDbLine
 10
686.0266579446138
 20
346.1741057744116
 30
0.0
 11
686.0266579446138
 21
341.1741057744116
 31
0.0
  0
ARC
  5
207C
330
2
100
AcDbEntity
  8
0
100
AcDbCircle
 10
682.0266269446139
 20
345.1741057744115
 30
0.0
 40
2.049999999999998
100
AcDbArc
 50
261.9380399160174
 51
270.0
  0
ARC
  5
207D
330
2
100
AcDbEntity
  8
0
100
AcDbCircle
 10
682.0266269446139
 20
345.1741057744115
 30
0.0
 40
2.049999999999998
100
AcDbArc
 50
270.0
 51
278.061960083982
  0
ARC
  5
207E
330
2
100
AcDbEntity
  8
0
100
AcDbCircle
 10
683.0266729446138
 20
346.1741057744116
 30
0.0
 40
3.0
100
AcDbArc
 50
0.0
 51
90.0
  0
ARC
  5
207F
330
2
100
AcDbEntity
  8
0
100
AcDbCircle
 10
684.0563269446138
 20
347.2038057744116
 30
0.0
 40
1.742199999999999
100
AcDbArc
 50
179.9986903345002
 51
270.0013096654964
  0
ARC
  5
2080
330
2
100
AcDbEntity
  8
0
100
AcDbCircle
 10
682.0266269446139
 20
345.1741057744115
 30
0.0
 40
2.049999999999998
100
AcDbArc
 50
0.0
 51
8.061960083981876
  0
ARC
  5
2081
330
2
100
AcDbEntity
  8
0
100
AcDbCircle
 10
682.0266269446139
 20
345.1741057744115
 30
0.0
 40
2.049999999999998
100
AcDbArc
 50
351.9380399160181
 51
0.0
  0
ARC
  5
2082
330
2
100
AcDbEntity
  8
0
100
AcDbCircle
 10
682.0266269446139
 20
345.1741057744115
 30
0.0
 40
2.049999999999998
100
AcDbArc
 50
90.0
 51
98.06196008398211
  0
ARC
  5
2083
330
2
100
AcDbEntity
  8
0
100
AcDbCircle
 10
682.0266269446139
 20
345.1741057744115
 30
0.0
 40
2.049999999999998
100
AcDbArc
 50
81.93803991601789
 51
90.0
  0
ARC
  5
2084
330
2
100
AcDbEntity
  8
0
100
AcDbCircle
 10
679.9969269446137
 20
397.1444057744116
 30
0.0
 40
1.742199999999999
100
AcDbArc
 50
359.9986903345002
 51
90.00130966549649
  0
ARC
  5
2085
330
2
100
AcDbEntity
  8
0
100
AcDbCircle
 10
679.9969269446137
 20
401.2038057744116
 30
0.0
 40
1.742199999999999
100
AcDbArc
 50
269.9986903345035
 51
0.0013096654997424
  0
CIRCLE
  5
2086
330
2
100
AcDbEntity
  8
0
100
AcDbCircle
 10
682.0266269446139
 20
399.1741057744116
 30
0.0
 40
3.500000000000028
  0
LINE
  5
2087
330
2
100
AcDbEntity
  8
0
100
AcDbLine
 10
683.0266269446138
 20
395.1741057744115
 30
0.0
 11
678.0266729446138
 21
395.1741057744115
 31
0.0
  0
LINE
  5
2088
330
2
100
AcDbEntity
  8
0
100
AcDbLine
 10
678.0265509446138
 20
402.1741057744136
 30
0.0
 11
679.0265489112805
 21
403.1741057744116
 31
0.0
  0
ARC
  5
2089
330
2
100
AcDbEntity
  8
0
100
AcDbCircle
 10
682.0266269446139
 20
399.1741057744116
 30
0.0
 40
2.049999999999998
100
AcDbArc
 50
171.9380399160181
 51
180.0
  0
ARC
  5
208A
330
2
100
AcDbEntity
  8
0
100
AcDbCircle
 10
682.0266269446139
 20
399.1741057744116
 30
0.0
 40
2.049999999999998
100
AcDbArc
 50
180.0
 51
188.0619600839818
  0
ARC
  5
208B
330
2
100
AcDbEntity
  8
0
100
AcDbCircle
 10
683.0266729446138
 20
398.1741057744116
 30
0.0
 40
3.0
100
AcDbArc
 50
270.0
 51
0.0
  0
ARC
  5
208C
330
2
100
AcDbEntity
  8
0
100
AcDbCircle
 10
684.0563269446138
 20
397.1444057744116
 30
0.0
 40
1.742199999999999
100
AcDbArc
 50
89.99869033450025
 51
180.0013096654997
  0
ARC
  5
208D
330
2
100
AcDbEntity
  8
0
100
AcDbCircle
 10
684.0563269446138
 20
401.2038057744116
 30
0.0
 40
1.742199999999999
100
AcDbArc
 50
179.9986903345002
 51
270.0013096654964
  0
ARC
  5
208E
330
2
100
AcDbEntity
  8
0
100
AcDbCircle
 10
682.0266269446139
 20
399.1741057744116
 30
0.0
 40
2.049999999999998
100
AcDbArc
 50
0.0
 51
8.061960083981876
  0
ARC
  5
208F
330
2
100
AcDbEntity
  8
0
100
AcDbCircle
 10
682.0266269446139
 20
399.1741057744116
 30
0.0
 40
2.049999999999998
100
AcDbArc
 50
261.9380399160174
 51
270.0
  0
ARC
  5
2090
330
2
100
AcDbEntity
  8
0
100
AcDbCircle
 10
682.0266269446139
 20
399.1741057744116
 30
0.0
 40
2.049999999999998
100
AcDbArc
 50
270.0
 51
278.061960083982
  0
ARC
  5
2091
330
2
100
AcDbEntity
  8
0
100
AcDbCircle
 10
682.0266269446139
 20
399.1741057744116
 30
0.0
 40
2.049999999999998
100
AcDbArc
 50
351.9380399160181
 51
0.0
  0
ARC
  5
2092
330
2
100
AcDbEntity
  8
0
100
AcDbCircle
 10
682.0266269446139
 20
399.1741057744116
 30
0.0
 40
2.049999999999998
100
AcDbArc
 50
90.0
 51
98.06196008398211
  0
ARC
  5
2093
330
2
100
AcDbEntity
  8
0
100
AcDbCircle
 10
682.0266269446139
 20
399.1741057744116
 30
0.0
 40
2.049999999999998
100
AcDbArc
 50
81.93803991601789
 51
90.0
  0
LINE
  5
2094
330
2
100
AcDbEntity
  8
0
100
AcDbLine
 10
686.0266579446138
 20
398.1741057744116
 30
0.0
 11
686.0266579446138
 21
403.1741057744116
 31
0.0
  0
LINE
  5
2095
330
2
100
AcDbEntity
  8
0
100
AcDbLine
 10
740.0266499446138
 20
342.1741057744117
 30
0.0
 11
740.0266499446138
 21
402.1741057744114
 31
0.0
  0
LINE
  5
2096
330
2
100
AcDbEntity
  8
0
100
AcDbLine
 10
738.0266499446138
 20
395.1741057744115
 30
0.0
 11
738.0266499446138
 21
349.1741057744115
 31
0.0
  0
CIRCLE
  5
2097
330
2
100
AcDbEntity
  8
0
100
AcDbCircle
 10
736.0266729446139
 20
345.1741057744115
 30
0.0
 40
3.500000000000028
  0
LINE
  5
2098
330
2
100
AcDbEntity
  8
0
100
AcDbLine
 10
735.0266499446138
 20
349.1741057744115
 30
0.0
 11
740.0266499446138
 21
349.1741057744115
 31
0.0
  0
ARC
  5
2099
330
2
100
AcDbEntity
  8
0
100
AcDbCircle
 10
738.0563729446138
 20
343.1444057744116
 30
0.0
 40
1.742199999999999
100
AcDbArc
 50
89.99869033450025
 51
180.0013096654997
  0
ARC
  5
209A
330
2
100
AcDbEntity
  8
0
100
AcDbCircle
 10
733.9969729446137
 20
343.1444057744116
 30
0.0
 40
1.742199999999999
100
AcDbArc
 50
359.9986903345002
 51
90.00130966549649
  0
LINE
  5
209B
330
2
100
AcDbEntity
  8
0
100
AcDbLine
 10
732.0266499446138
 20
346.1741057744116
 30
0.0
 11
732.0266499446138
 21
341.1741057744116
 31
0.0
  0
ARC
  5
209C
330
2
100
AcDbEntity
  8
0
100
AcDbCircle
 10
736.0266729446139
 20
345.1741057744115
 30
0.0
 40
2.049999999999998
100
AcDbArc
 50
261.9380399160174
 51
270.0
  0
ARC
  5
209D
330
2
100
AcDbEntity
  8
0
100
AcDbCircle
 10
736.0266729446139
 20
345.1741057744115
 30
0.0
 40
2.049999999999998
100
AcDbArc
 50
270.0
 51
278.061960083982
  0
ARC
  5
209E
330
2
100
AcDbEntity
  8
0
100
AcDbCircle
 10
735.0266499446138
 20
346.1741057744116
 30
0.0
 40
3.0
100
AcDbArc
 50
90.0
 51
180.0
  0
ARC
  5
209F
330
2
100
AcDbEntity
  8
0
100
AcDbCircle
 10
738.0563729446138
 20
347.2038057744116
 30
0.0
 40
1.742199999999999
100
AcDbArc
 50
179.9986903345002
 51
270.0013096654964
  0
ARC
  5
20A0
330
2
100
AcDbEntity
  8
0
100
AcDbCircle
 10
736.0266729446139
 20
345.1741057744115
 30
0.0
 40
2.049999999999998
100
AcDbArc
 50
171.9380399160181
 51
180.0
  0
ARC
  5
20A1
330
2
100
AcDbEntity
  8
0
100
AcDbCircle
 10
733.9969729446137
 20
347.2038057744116
 30
0.0
 40
1.742199999999999
100
AcDbArc
 50
269.9986903345035
 51
0.0013096654997424
  0
ARC
  5
20A2
330
2
100
AcDbEntity
  8
0
100
AcDbCircle
 10
736.0266729446139
 20
345.1741057744115
 30
0.0
 40
2.049999999999998
100
AcDbArc
 50
0.0
 51
8.061960083981876
  0
ARC
  5
20A3
330
2
100
AcDbEntity
  8
0
100
AcDbCircle
 10
736.0266729446139
 20
345.1741057744115
 30
0.0
 40
2.049999999999998
100
AcDbArc
 50
180.0
 51
188.0619600839818
  0
ARC
  5
20A4
330
2
100
AcDbEntity
  8
0
100
AcDbCircle
 10
736.0266729446139
 20
345.1741057744115
 30
0.0
 40
2.049999999999998
100
AcDbArc
 50
351.9380399160181
 51
0.0
  0
ARC
  5
20A5
330
2
100
AcDbEntity
  8
0
100
AcDbCircle
 10
736.0266729446139
 20
345.1741057744115
 30
0.0
 40
2.049999999999998
100
AcDbArc
 50
90.0
 51
98.06196008398211
  0
ARC
  5
20A6
330
2
100
AcDbEntity
  8
0
100
AcDbCircle
 10
736.0266729446139
 20
345.1741057744115
 30
0.0
 40
2.049999999999998
100
AcDbArc
 50
81.93803991601789
 51
90.0
  0
LINE
  5
20A7
330
2
100
AcDbEntity
  8
0
100
AcDbLine
 10
740.0266499446138
 20
342.1741057744117
 30
0.0
 11
739.0266499446138
 21
341.1741057744117
 31
0.0
  0
CIRCLE
  5
20A8
330
2
100
AcDbEntity
  8
0
100
AcDbCircle
 10
736.0266729446139
 20
399.1741057744116
 30
0.0
 40
3.500000000000028
  0
LINE
  5
20A9
330
2
100
AcDbEntity
  8
0
100
AcDbLine
 10
735.0266499446138
 20
395.1741057744115
 30
0.0
 11
740.0266499446138
 21
395.1741057744115
 31
0.0
  0
ARC
  5
20AA
330
2
100
AcDbEntity
  8
0
100
AcDbCircle
 10
735.0266499446138
 20
398.1741057744116
 30
0.0
 40
3.0
100
AcDbArc
 50
180.0
 51
270.0
  0
LINE
  5
20AB
330
2
100
AcDbEntity
  8
0
100
AcDbLine
 10
732.0266499446138
 20
398.1741057744116
 30
0.0
 11
732.0266499446138
 21
403.1741057744116
 31
0.0
  0
ARC
  5
20AC
330
2
100
AcDbEntity
  8
0
100
AcDbCircle
 10
738.0563729446138
 20
397.1444057744116
 30
0.0
 40
1.742199999999999
100
AcDbArc
 50
89.99869033450025
 51
180.0013096654997
  0
ARC
  5
20AD
330
2
100
AcDbEntity
  8
0
100
AcDbCircle
 10
738.0563729446138
 20
401.2038057744116
 30
0.0
 40
1.742199999999999
100
AcDbArc
 50
179.9986903345002
 51
270.0013096654964
  0
ARC
  5
20AE
330
2
100
AcDbEntity
  8
0
100
AcDbCircle
 10
733.9969729446137
 20
397.1444057744116
 30
0.0
 40
1.742199999999999
100
AcDbArc
 50
359.9986903345002
 51
90.00130966549649
  0
ARC
  5
20AF
330
2
100
AcDbEntity
  8
0
100
AcDbCircle
 10
736.0266729446139
 20
399.1741057744116
 30
0.0
 40
2.049999999999998
100
AcDbArc
 50
171.9380399160181
 51
180.0
  0
ARC
  5
20B0
330
2
100
AcDbEntity
  8
0
100
AcDbCircle
 10
733.9969729446137
 20
401.2038057744116
 30
0.0
 40
1.742199999999999
100
AcDbArc
 50
269.9986903345035
 51
0.0013096654997424
  0
ARC
  5
20B1
330
2
100
AcDbEntity
  8
0
100
AcDbCircle
 10
736.0266729446139
 20
399.1741057744116
 30
0.0
 40
2.049999999999998
100
AcDbArc
 50
0.0
 51
8.061960083981876
  0
ARC
  5
20B2
330
2
100
AcDbEntity
  8
0
100
AcDbCircle
 10
736.0266729446139
 20
399.1741057744116
 30
0.0
 40
2.049999999999998
100
AcDbArc
 50
261.9380399160174
 51
270.0
  0
ARC
  5
20B3
330
2
100
AcDbEntity
  8
0
100
AcDbCircle
 10
736.0266729446139
 20
399.1741057744116
 30
0.0
 40
2.049999999999998
100
AcDbArc
 50
180.0
 51
188.0619600839818
  0
ARC
  5
20B4
330
2
100
AcDbEntity
  8
0
100
AcDbCircle
 10
736.0266729446139
 20
399.1741057744116
 30
0.0
 40
2.049999999999998
100
AcDbArc
 50
270.0
 51
278.061960083982
  0
ARC
  5
20B5
330
2
100
AcDbEntity
  8
0
100
AcDbCircle
 10
736.0266729446139
 20
399.1741057744116
 30
0.0
 40
2.049999999999998
100
AcDbArc
 50
351.9380399160181
 51
0.0
  0
ARC
  5
20B6
330
2
100
AcDbEntity
  8
0
100
AcDbCircle
 10
736.0266729446139
 20
399.1741057744116
 30
0.0
 40
2.049999999999998
100
AcDbArc
 50
90.0
 51
98.06196008398211
  0
ARC
  5
20B7
330
2
100
AcDbEntity
  8
0
100
AcDbCircle
 10
736.0266729446139
 20
399.1741057744116
 30
0.0
 40
2.049999999999998
100
AcDbArc
 50
81.93803991601789
 51
90.0
  0
LINE
  5
20B8
330
2
100
AcDbEntity
  8
0
100
AcDbLine
 10
739.0266499446138
 20
403.1741057744114
 30
0.0
 11
740.0266499446138
 21
402.1741057744114
 31
0.0
  0
VIEWPORT
  5
19CD
330
19CC
100
AcDbEntity
 67
     1
  8
0
100
AcDbViewport
 10
149.4048644132379
 20
97.9037363560891
 30
0.0
 40
337.1427393952468
 41
215.1558229003691
 68
     1
 69
     1
1001
ACAD
1000
MVIEW
1002
{
1070
    16
1010
0.0
1020
0.0
1030
0.0
1010
0.0
1020
0.0
1030
1.0
1040
0.0
1040
215.1558229003691
1040
149.4048644132379
1040
97.9037363560891
1040
50.0
1040
0.0
1040
0.0
1070
     0
1070
   100
1070
     1
1070
     1
1070
     0
1070
     0
1070
     0
1070
     0
1040
0.0
1040
0.0
1040
0.0
1040
10.0
1040
10.0
1040
10.0
1040
10.0
1070
     0
1002
{
1002
}
1002
}
  0
TEXT
  5
19CE
330
19CC
100
AcDbEntity
 67
     1
  8
TEXT
100
AcDbText
 10
266.4665517915716
 20
9.492177985111482
 30
0.0
 40
2.0
  1
2005.07.13
 41
0.7
100
AcDbText
  0
TEXT
  5
19CF
330
19CC
100
AcDbEntity
 67
     1
  8
TEXT
100
AcDbText
 10
221.2876186247744
 20
25.81289445791026
 30
0.0
 40
2.0
  1
F2FB15T-S15WC
100
AcDbText
  0
INSERT
  5
19D0
330
19CC
100
AcDbEntity
 67
     1
  8
0
100
AcDbBlockReference
 66
     1
  2
外寸枠A4テンプレート
 10
0.0
 20
0.0
 30
0.0
  0
ATTRIB
  5
19D1
330
19D0
100
AcDbEntity
 67
     1
  8
TEXT
100
AcDbText
 10
216.5070761904761
 20
34.33735183158626
 30
0.0
 40
2.500000000000001
  1
F2FB-15T-10～240-S15WC
 72
     4
 11
241.8165999999999
 21
35.58735183158626
 31
0.0
100
AcDbAttribute
  2
T　I　T　L　E
 70
     0
  0
ATTRIB
  5
19D2
330
19D0
100
AcDbEntity
 67
     1
  8
TEXT
100
AcDbText
 10
231.4275923057046
 20
7.13444951887557
 30
0.0
 40
2.0
  1
1：2
 72
     4
 11
234.056163734276
 21
8.13444951887557
 31
0.0
100
AcDbAttribute
  2
FREE
 70
     0
  0
ATTRIB
  5
19D3
330
19D0
100
AcDbEntity
 67
     1
  8
TEXT
100
AcDbText
 10
205.1985180173093
 20
6.884449518875568
 30
0.0
 40
2.500000000000004
  1
海野
 72
     4
 11
207.865184683976
 21
8.13444951887557
 31
0.0
100
AcDbAttribute
  2
海野
 70
     0
  0
ATTRIB
  5
19D4
330
19D0
100
AcDbEntity
 67
     1
  8
TEXT
100
AcDbText
 10
222.6686227589094
 20
6.884449518875568
 30
0.0
 40
2.500000000000004
  1
川上
 72
     4
 11
225.3352894255761
 21
8.13444951887557
 31
0.0
100
AcDbAttribute
  2
鳥居
 70
     0
  0
ATTRIB
  5
19D5
330
19D0
100
AcDbEntity
 67
     1
  8
TEXT
100
AcDbText
 10
213.9476826899094
 20
6.884449518875567
 30
0.0
 40
2.500000000000004
  1
永坂
 72
     4
 11
216.6143493565761
 21
8.13444951887557
 31
0.0
100
AcDbAttribute
  2
永坂
 70
     0
  0
SEQEND
  5
19D6
330
19D0
100
AcDbEntity
 67
     1
  8
0
  0
VIEWPORT
  5
19D7
330
19CC
100
AcDbEntity
 67
     1
  8
DEFPOINTS
100
AcDbViewport
 10
141.5
 20
119.6386424612529
 30
0.0
 40
277.0
 41
124.7227150774941
 68
    -1
 69
     2
1001
ACAD
1000
MVIEW
1002
{
1070
    16
1010
0.0
1020
0.0
1030
0.0
1010
0.0
1020
0.0
1030
1.0
1040
0.0
1040
249.4454296051935
1040
557.7233474441461
1040
166.793826211173
1040
50.0
1040
0.0
1040
0.0
1070
     0
1070
   100
1070
     1
1070
     3
1070
     0
1070
     0
1070
     0
1070
     0
1040
0.0
1040
0.0
1040
0.0
1040
10.0
1040
10.0
1040
10.0
1040
10.0
1070
     0
1002
{
1003
TITLE
1002
}
1002
}
  0
INSERT
  5
19D8
330
19CC
100
AcDbEntity
 67
     1
  8
TEXT
100
AcDbBlockReference
  2
1
 10
202.0
 20
40.0
 30
0.0
  0
INSERT
  5
1AC2
330
19CC
100
AcDbEntity
 67
     1
  8
TEXT
100
AcDbBlockReference
  2
BSPEC_90-90-0038
 10
3.0
 20
4.0
 30
0.0
  0
INSERT
  5
1B3A
330
19CC
100
AcDbEntity
 67
     1
  8
TEXT
100
AcDbBlockReference
  2
GSPEC_F2F-15T-10-240
 10
3.0
 20
4.0
 30
0.0
  0
INSERT
  5
1CD9
330
19CC
100
AcDbEntity
 67
     1
  8
TEXT
100
AcDbBlockReference
  2
MSPEC_S15WF-75
 10
3.0
 20
4.0
 30
0.0
  0
INSERT
  5
1E11
330
19CC
100
AcDbEntity
 67
     1
  8
TEXT
100
AcDbBlockReference
  2
18
 10
202.0
 20
43.5
 30
0.0
  0
INSERT
  5
1E12
330
19CC
100
AcDbEntity
 67
     1
  8
TEXT
100
AcDbBlockReference
  2
19
 10
202.0
 20
50.5
 30
0.0
  0
ENDSEC
  0
SECTION
  2
OBJECTS
  0
DICTIONARY
  5
7
330
0
100
AcDbDictionary
  3
ACAD_GROUP
350
75
  3
ACAD_LAYOUT
350
61
  3
ACAD_MLINESTYLE
350
76
  3
ACAD_PLOTSETTINGS
350
77
  3
ACAD_PLOTSTYLENAME
350
6
  3
ACADDIM
350
480
  3
ACDBHEADERROUNDTRIPXREC
350
223C
  3
ACDBVARIABLEDICTIONARY
350
102
  3
DWGPROPS
350
3D2
  0
DICTIONARY
  5
225D
330
2
100
AcDbDictionary
280
     1
  3
ACAD_LAYOUTSELFREF
360
225E
  0
DICTIONARY
  5
2270
330
19CC
100
AcDbDictionary
280
     1
  3
ACAD_LAYOUTSELFREF
360
2271
  0
DICTIONARY
  5
75
102
{ACAD_REACTORS
330
7
102
}
330
7
100
AcDbDictionary
  0
DICTIONARY
  5
61
102
{ACAD_REACTORS
330
7
102
}
330
7
100
AcDbDictionary
  0
DICTIONARY
  5
76
102
{ACAD_REACTORS
330
7
102
}
330
7
100
AcDbDictionary
  3
STANDARD
350
78
  0
DICTIONARY
  5
77
102
{ACAD_REACTORS
330
7
102
}
330
7
100
AcDbDictionary
  0
ACDBDICTIONARYWDFLT
  5
6
102
{ACAD_REACTORS
330
7
102
}
330
7
100
AcDbDictionary
281
     1
  3
Normal
350
5
100
AcDbDictionaryWithDefault
340
5
  0
XRECORD
  5
480
102
{ACAD_REACTORS
330
7
102
}
330
7
100
AcDbXrecord
 90
   990106
  3

 60
     0
 61
     0
 62
     1
 63
     3
 64
     1
 65
     0
 66
     0
 67
     3
 68
     1
 69
     0
 70
     0
 71
     0
 72
     0
 40
0.0
170
     2
340
0
  0
DICTIONARY
  5
223C
102
{ACAD_REACTORS
330
7
102
}
330
7
100
AcDbDictionary
  3
CEPSNTYPE
350
2246
  3
DIMSTYLEDATA
350
224A
  3
FINGERPRINTGUID
350
2247
  3
HYPERLINKBASE
350
223F
  3
INSUNITS
350
2245
  3
LAYOUTDICT
350
2241
  3
LWETCUNION
350
2244
  3
PLOTSETDICT
350
2242
  3
PLOTSTYLNAMDICT
350
2243
  3
PSVPSCALE
350
2249
  3
PUCSBASE
350
224D
  3
PUCSORGBACK
350
2253
  3
PUCSORGBOTTOM
350
224F
  3
PUCSORGFRONT
350
2252
  3
PUCSORGLEFT
350
2250
  3
PUCSORGRIGHT
350
2251
  3
PUCSORGTOP
350
224E
  3
PUCSORTHOREF
350
224B
  3
PUCSORTHOVIEW
350
224C
  3
STYLESHEET
350
2240
  3
TSTACKALIGN
350
223D
  3
TSTACKSIZE
350
223E
  3
UCSBASE
350
2256
  3
UCSORGBACK
350
225C
  3
UCSORGBOTTOM
350
2258
  3
UCSORGFRONT
350
225B
  3
UCSORGLEFT
350
2259
  3
UCSORGRIGHT
350
225A
  3
UCSORGTOP
350
2257
  3
UCSORTHOREF
350
2254
  3
UCSORTHOVIEW
350
2255
  3
VERSIONGUID
350
2248
  0
DICTIONARY
  5
102
102
{ACAD_REACTORS
330
7
102
}
330
7
100
AcDbDictionary
  3
DIMASSOC
350
103
  0
XRECORD
  5
3D2
102
{ACAD_REACTORS
330
7
102
}
330
7
100
AcDbXrecord
  1
DWGPROPS COOKIE
  2

  3

  4

  6

  7

  8

  9

300
=
301
=
302
=
303
=
304
=
305
=
306
=
307
=
308
=
309
=
 40
0.5353330671296296
 41
2452052.431989363
 42
2453406.550756377
  1

 90
        0
  0
XRECORD
  5
225E
102
{ACAD_REACTORS
330
225D
102
}
330
225D
100
AcDbXrecord
340
2
  0
XRECORD
  5
2271
102
{ACAD_REACTORS
330
2270
102
}
330
2270
100
AcDbXrecord
340
19CC
  0
MLINESTYLE
  5
78
102
{ACAD_REACTORS
330
76
102
}
330
76
100
AcDbMlineStyle
  2
STANDARD
 70
     0
  3

 62
     0
 51
90.0
 52
90.0
 71
     2
 49
0.5
 62
   256
  6
BYLAYER
 49
-0.5
 62
   256
  6
BYLAYER
  0
ACDBPLACEHOLDER
  5
5
102
{ACAD_REACTORS
330
6
102
}
330
6
100
AcDbPlaceHolder
280
     0
  0
XRECORD
  5
2246
102
{ACAD_REACTORS
330
223C
102
}
330
223C
100
AcDbXrecord
 90
        0
  0
XRECORD
  5
224A
102
{ACAD_REACTORS
330
223C
102
}
330
223C
100
AcDbXrecord
1000
DSTYLE
1002
{
1070
   179
 70
     2
1070
   277
 70
     6
1002
}
  0
XRECORD
  5
2247
102
{ACAD_REACTORS
330
223C
102
}
330
223C
100
AcDbXrecord
  1
{6385560B-F4B1-4644-A7C2-A3E32AC3D232}
  0
XRECORD
  5
223F
102
{ACAD_REACTORS
330
223C
102
}
330
223C
100
AcDbXrecord
  1

  0
XRECORD
  5
2245
102
{ACAD_REACTORS
330
223C
102
}
330
223C
100
AcDbXrecord
 90
        0
  0
XRECORD
  5
2241
102
{ACAD_REACTORS
330
223C
102
}
330
223C
100
AcDbXrecord
340
61
  0
XRECORD
  5
2244
102
{ACAD_REACTORS
330
223C
102
}
330
223C
100
AcDbXrecord
 90
    10781
  0
XRECORD
  5
2242
102
{ACAD_REACTORS
330
223C
102
}
330
223C
100
AcDbXrecord
340
77
  0
XRECORD
  5
2243
102
{ACAD_REACTORS
330
223C
102
}
330
223C
100
AcDbXrecord
340
6
  0
XRECORD
  5
2249
102
{ACAD_REACTORS
330
223C
102
}
330
223C
100
AcDbXrecord
 40
0.0
  0
XRECORD
  5
224D
102
{ACAD_REACTORS
330
223C
102
}
330
223C
100
AcDbXrecord
340
0
  0
XRECORD
  5
2253
102
{ACAD_REACTORS
330
223C
102
}
330
223C
100
AcDbXrecord
 10
0.0
 20
0.0
 30
0.0
  0
XRECORD
  5
224F
102
{ACAD_REACTORS
330
223C
102
}
330
223C
100
AcDbXrecord
 10
0.0
 20
0.0
 30
0.0
  0
XRECORD
  5
2252
102
{ACAD_REACTORS
330
223C
102
}
330
223C
100
AcDbXrecord
 10
0.0
 20
0.0
 30
0.0
  0
XRECORD
  5
2250
102
{ACAD_REACTORS
330
223C
102
}
330
223C
100
AcDbXrecord
 10
0.0
 20
0.0
 30
0.0
  0
XRECORD
  5
2251
102
{ACAD_REACTORS
330
223C
102
}
330
223C
100
AcDbXrecord
 10
0.0
 20
0.0
 30
0.0
  0
XRECORD
  5
224E
102
{ACAD_REACTORS
330
223C
102
}
330
223C
100
AcDbXrecord
 10
0.0
 20
0.0
 30
0.0
  0
XRECORD
  5
224B
102
{ACAD_REACTORS
330
223C
102
}
330
223C
100
AcDbXrecord
340
0
  0
XRECORD
  5
224C
102
{ACAD_REACTORS
330
223C
102
}
330
223C
100
AcDbXrecord
 70
     0
  0
XRECORD
  5
2240
102
{ACAD_REACTORS
330
223C
102
}
330
223C
100
AcDbXrecord
  1
Sekkei.ctb
  0
XRECORD
  5
223D
102
{ACAD_REACTORS
330
223C
102
}
330
223C
100
AcDbXrecord
 90
        1
  0
XRECORD
  5
223E
102
{ACAD_REACTORS
330
223C
102
}
330
223C
100
AcDbXrecord
 90
       70
  0
XRECORD
  5
2256
102
{ACAD_REACTORS
330
223C
102
}
330
223C
100
AcDbXrecord
340
0
  0
XRECORD
  5
225C
102
{ACAD_REACTORS
330
223C
102
}
330
223C
100
AcDbXrecord
 10
0.0
 20
0.0
 30
0.0
  0
XRECORD
  5
2258
102
{ACAD_REACTORS
330
223C
102
}
330
223C
100
AcDbXrecord
 10
0.0
 20
0.0
 30
0.0
  0
XRECORD
  5
225B
102
{ACAD_REACTORS
330
223C
102
}
330
223C
100
AcDbXrecord
 10
0.0
 20
0.0
 30
0.0
  0
XRECORD
  5
2259
102
{ACAD_REACTORS
330
223C
102
}
330
223C
100
AcDbXrecord
 10
0.0
 20
0.0
 30
0.0
  0
XRECORD
  5
225A
102
{ACAD_REACTORS
330
223C
102
}
330
223C
100
AcDbXrecord
 10
0.0
 20
0.0
 30
0.0
  0
XRECORD
  5
2257
102
{ACAD_REACTORS
330
223C
102
}
330
223C
100
AcDbXrecord
 10
0.0
 20
0.0
 30
0.0
  0
XRECORD
  5
2254
102
{ACAD_REACTORS
330
223C
102
}
330
223C
100
AcDbXrecord
340
0
  0
XRECORD
  5
2255
102
{ACAD_REACTORS
330
223C
102
}
330
223C
100
AcDbXrecord
 70
     0
  0
XRECORD
  5
2248
102
{ACAD_REACTORS
330
223C
102
}
330
223C
100
AcDbXrecord
  1
{0A309B51-349D-4BFD-B88E-7BF29E1DCB38}
  0
DICTIONARYVAR
  5
103
102
{ACAD_REACTORS
330
102
102
}
330
102
100
DictionaryVariables
280
     0
  1
1
  0
ENDSEC
  0
EOF
