  0
SECTION
  2
HEADER
  9
$ACADVER
  1
AC1014
  9
$ACADMAINTVER
 70
     9
  9
$DWGCODEPAGE
  3
ANSI_932
  9
$INSBASE
 10
0.0
 20
0.0
 30
0.0
  9
$EXTMIN
 10
32.50345627288834
 20
28.6358858519577
 30
0.0
  9
$EXTMAX
 10
783.6373490000162
 20
387.3324931272992
 30
0.0
  9
$LIMMIN
 10
0.0
 20
0.0
  9
$LIMMAX
 10
297.0
 20
210.0
  9
$ORTHOMODE
 70
     1
  9
$REGENMODE
 70
     1
  9
$FILLMODE
 70
     1
  9
$QTEXTMODE
 70
     0
  9
$MIRRTEXT
 70
     0
  9
$DRAGMODE
 70
     2
  9
$LTSCALE
 40
2.0
  9
$OSMODE
 70
    37
  9
$ATTMODE
 70
     1
  9
$TEXTSIZE
 40
2.0
  9
$TRACEWID
 40
1.0
  9
$TEXTSTYLE
  7
STANDARD
  9
$CLAYER
  8
0
  9
$CELTYPE
  6
BYLAYER
  9
$CECOLOR
 62
   256
  9
$CELTSCALE
 40
1.0
  9
$DELOBJ
 70
     1
  9
$DISPSILH
 70
     0
  9
$DIMSCALE
 40
2.0
  9
$DIMASZ
 40
1.8
  9
$DIMEXO
 40
0.625
  9
$DIMDLI
 40
3.75
  9
$DIMRND
 40
0.0
  9
$DIMDLE
 40
0.0
  9
$DIMEXE
 40
0.8
  9
$DIMTP
 40
0.0
  9
$DIMTM
 40
0.0
  9
$DIMTXT
 40
1.8
  9
$DIMCEN
 40
2.5
  9
$DIMTSZ
 40
0.0
  9
$DIMTOL
 70
     0
  9
$DIMLIM
 70
     0
  9
$DIMTIH
 70
     0
  9
$DIMTOH
 70
     0
  9
$DIMSE1
 70
     0
  9
$DIMSE2
 70
     0
  9
$DIMTAD
 70
     1
  9
$DIMZIN
 70
     8
  9
$DIMBLK
  1

  9
$DIMASO
 70
     1
  9
$DIMSHO
 70
     1
  9
$DIMPOST
  1

  9
$DIMAPOST
  1

  9
$DIMALT
 70
     0
  9
$DIMALTD
 70
     4
  9
$DIMALTF
 40
0.0394
  9
$DIMLFAC
 40
1.0
  9
$DIMTOFL
 70
     1
  9
$DIMTVP
 40
0.0
  9
$DIMTIX
 70
     0
  9
$DIMSOXD
 70
     0
  9
$DIMSAH
 70
     0
  9
$DIMBLK1
  1

  9
$DIMBLK2
  1

  9
$DIMSTYLE
  2
STANDARD
  9
$DIMCLRD
 70
     0
  9
$DIMCLRE
 70
     0
  9
$DIMCLRT
 70
     0
  9
$DIMTFAC
 40
1.0
  9
$DIMGAP
 40
0.75
  9
$DIMJUST
 70
     0
  9
$DIMSD1
 70
     0
  9
$DIMSD2
 70
     0
  9
$DIMTOLJ
 70
     1
  9
$DIMTZIN
 70
     0
  9
$DIMALTZ
 70
     0
  9
$DIMALTTZ
 70
     0
  9
$DIMFIT
 70
     3
  9
$DIMUPT
 70
     0
  9
$DIMUNIT
 70
     8
  9
$DIMDEC
 70
     2
  9
$DIMTDEC
 70
     2
  9
$DIMALTU
 70
     8
  9
$DIMALTTD
 70
     4
  9
$DIMTXSTY
  7
STANDARD
  9
$DIMAUNIT
 70
     0
  9
$LUNITS
 70
     2
  9
$LUPREC
 70
     3
  9
$SKETCHINC
 40
1.0
  9
$FILLETRAD
 40
10.0
  9
$AUNITS
 70
     0
  9
$AUPREC
 70
     2
  9
$MENU
  1
.
  9
$ELEVATION
 40
0.0
  9
$PELEVATION
 40
0.0
  9
$THICKNESS
 40
0.0
  9
$LIMCHECK
 70
     0
  9
$BLIPMODE
 70
     0
  9
$CHAMFERA
 40
0.0
  9
$CHAMFERB
 40
0.0
  9
$CHAMFERC
 40
20.0
  9
$CHAMFERD
 40
0.0
  9
$SKPOLY
 70
     0
  9
$TDCREATE
 40
2453557.748873877
  9
$TDUPDATE
 40
2453615.573205647
  9
$TDINDWG
 40
0.2481354977
  9
$TDUSRTIMER
 40
0.2481354977
  9
$USRTIMER
 70
     1
  9
$ANGBASE
 50
0.0
  9
$ANGDIR
 70
     0
  9
$PDMODE
 70
     0
  9
$PDSIZE
 40
-10.0
  9
$PLINEWID
 40
0.0
  9
$COORDS
 70
     2
  9
$SPLFRAME
 70
     0
  9
$SPLINETYPE
 70
     6
  9
$SPLINESEGS
 70
     8
  9
$ATTDIA
 70
     0
  9
$ATTREQ
 70
     1
  9
$HANDLING
 70
-16383
  9
$HANDSEED
  5
21A8
  9
$SURFTAB1
 70
     6
  9
$SURFTAB2
 70
     6
  9
$SURFTYPE
 70
     6
  9
$SURFU
 70
     6
  9
$SURFV
 70
     6
  9
$UCSNAME
  2

  9
$UCSORG
 10
0.0
 20
0.0
 30
0.0
  9
$UCSXDIR
 10
1.0
 20
0.0
 30
0.0
  9
$UCSYDIR
 10
0.0
 20
1.0
 30
0.0
  9
$PUCSNAME
  2

  9
$PUCSORG
 10
0.0
 20
0.0
 30
0.0
  9
$PUCSXDIR
 10
1.0
 20
0.0
 30
0.0
  9
$PUCSYDIR
 10
0.0
 20
1.0
 30
0.0
  9
$USERI1
 70
     0
  9
$USERI2
 70
     0
  9
$USERI3
 70
     0
  9
$USERI4
 70
     0
  9
$USERI5
 70
     0
  9
$USERR1
 40
0.0
  9
$USERR2
 40
0.0
  9
$USERR3
 40
0.0
  9
$USERR4
 40
0.0
  9
$USERR5
 40
0.0
  9
$WORLDVIEW
 70
     1
  9
$SHADEDGE
 70
     3
  9
$SHADEDIF
 70
    70
  9
$TILEMODE
 70
     1
  9
$MAXACTVP
 70
    48
  9
$PINSBASE
 10
0.0
 20
0.0
 30
0.0
  9
$PLIMCHECK
 70
     0
  9
$PEXTMIN
 10
0.0
 20
0.0
 30
0.0
  9
$PEXTMAX
 10
0.0
 20
0.0
 30
0.0
  9
$PLIMMIN
 10
0.0
 20
0.0
  9
$PLIMMAX
 10
12.0
 20
9.0
  9
$UNITMODE
 70
     0
  9
$VISRETAIN
 70
     1
  9
$PLINEGEN
 70
     0
  9
$PSLTSCALE
 70
     1
  9
$TREEDEPTH
 70
  3020
  9
$PICKSTYLE
 70
     1
  9
$CMLSTYLE
  2
STANDARD
  9
$CMLJUST
 70
     0
  9
$CMLSCALE
 40
1.0
  9
$PROXYGRAPHICS
 70
     1
  9
$MEASUREMENT
 70
     0
  0
ENDSEC
  0
SECTION
  2
CLASSES
  0
CLASS
  1
DICTIONARYVAR
  2
AcDbDictionaryVar
  3
AutoCAD 2000
 90
        0
280
     0
281
     0
  0
CLASS
  1
ACDBDICTIONARYWDFLT
  2
AcDbDictionaryWithDefault
  3
AutoCAD 2000
 90
        0
280
     0
281
     0
  0
CLASS
  1
ACDBPLACEHOLDER
  2
AcDbPlaceHolder
  3
AutoCAD 2000
 90
        0
280
     0
281
     0
  0
CLASS
  1
LAYOUT
  2
AcDbLayout
  3
AutoCAD 2000
 90
        0
280
     0
281
     0
  0
CLASS
  1
LONG_TRANSACTION
  2
AcDbLongTransaction
  3
AutoCAD 2000
 90
        0
280
     0
281
     0
  0
CLASS
  1
LWPOLYLINE
  2
AcDbPolyline
  3
AutoCAD 2000
 90
        0
280
     0
281
     1
  0
CLASS
  1
HATCH
  2
AcDbHatch
  3
AutoCAD 2000
 90
        0
280
     0
281
     1
  0
CLASS
  1
XRECORD
  2
AcDbXrecord
  3
AutoCAD 2000
 90
        0
280
     0
281
     0
  0
ENDSEC
  0
SECTION
  2
TABLES
  0
TABLE
  2
VPORT
  5
6E
330
0
100
AcDbSymbolTable
 70
     2
  0
VPORT
  5
2182
330
6E
100
AcDbSymbolTableRecord
100
AcDbViewportTableRecord
  2
*ACTIVE
 70
     0
 10
0.0
 20
0.0
 11
1.0
 21
1.0
 12
413.7875038947101
 22
207.9837670835999
 13
0.0
 23
0.0
 14
10.0
 24
10.0
 15
10.0
 25
10.0
 16
0.0
 26
0.0
 36
1.0
 17
0.0
 27
0.0
 37
0.0
 40
489.0903410933405
 41
1.566970091027308
 42
50.0
 43
0.0
 44
0.0
 50
0.0
 51
0.0
 71
     0
 72
   100
 73
     1
 74
     3
 75
     0
 76
     0
 77
     0
 78
     0
  0
ENDTAB
  0
TABLE
  2
LTYPE
  5
69
330
0
100
AcDbSymbolTable
 70
     3
  0
LTYPE
  5
6A
330
69
100
AcDbSymbolTableRecord
100
AcDbLinetypeTableRecord
  2
BYBLOCK
 70
     0
  3

 72
    65
 73
     0
 40
0.0
  0
LTYPE
  5
6B
330
69
100
AcDbSymbolTableRecord
100
AcDbLinetypeTableRecord
  2
BYLAYER
 70
     0
  3

 72
    65
 73
     0
 40
0.0
  0
LTYPE
  5
8
330
69
100
AcDbSymbolTableRecord
100
AcDbLinetypeTableRecord
  2
CONTINUOUS
 70
     0
  3
Solid line
 72
    65
 73
     0
 40
0.0
  0
LTYPE
  5
27C
330
69
100
AcDbSymbolTableRecord
100
AcDbLinetypeTableRecord
  2
SEKKEI_A2_
 70
     0
  3
center(A2)  ____ _ ____ _ ____ _ ____ _ ____ _ 
 72
    65
 73
     4
 40
14.28749999999999
 49
9.525
 74
     0
 49
-1.587499999999999
 74
     0
 49
1.587499999999999
 74
     0
 49
-1.587499999999999
 74
     0
  0
LTYPE
  5
2B4
330
69
100
AcDbSymbolTableRecord
100
AcDbLinetypeTableRecord
  2
HIDDEN2
 70
     0
  3
Hidden (.5x) _ _ _ _ _ _ _ _ _ _ _ _ _ _ _ _ _
 72
    65
 73
     2
 40
4.762499999999999
 49
3.174999999999999
 74
     0
 49
-1.587499999999999
 74
     0
  0
ENDTAB
  0
TABLE
  2
LAYER
  5
66
330
0
100
AcDbSymbolTable
 70
     9
  0
LAYER
  5
5E
330
66
100
AcDbSymbolTableRecord
100
AcDbLayerTableRecord
  2
0
 70
     0
 62
     7
  6
CONTINUOUS
  0
LAYER
  5
3E
330
66
100
AcDbSymbolTableRecord
100
AcDbLayerTableRecord
  2
CENTER
 70
     0
 62
     3
  6
SEKKEI_A2_
  0
LAYER
  5
2B5
330
66
100
AcDbSymbolTableRecord
100
AcDbLayerTableRecord
  2
HIDS
 70
     0
 62
     1
  6
HIDDEN2
  0
LAYER
  5
2BA
330
66
100
AcDbSymbolTableRecord
100
AcDbLayerTableRecord
  2
HOJO
 70
     0
 62
     4
  6
CONTINUOUS
  0
LAYER
  5
3FA
330
66
100
AcDbSymbolTableRecord
100
AcDbLayerTableRecord
  2
TITLE
 70
     0
 62
     4
  6
CONTINUOUS
  0
ENDTAB
  0
TABLE
  2
STYLE
  5
67
330
0
100
AcDbSymbolTable
 70
     1
  0
STYLE
  5
16
330
67
100
AcDbSymbolTableRecord
100
AcDbTextStyleTableRecord
  2
STANDARD
 70
     0
 40
0.0
 41
1.0
 50
0.0
 71
     0
 42
2.0
  3
simplex.shx
  4
extfont.shx
  0
ENDTAB
  0
TABLE
  2
VIEW
  5
6C
330
0
100
AcDbSymbolTable
 70
     0
  0
ENDTAB
  0
TABLE
  2
UCS
  5
6D
330
0
100
AcDbSymbolTable
 70
     0
  0
ENDTAB
  0
TABLE
  2
APPID
  5
70
330
0
100
AcDbSymbolTable
 70
     1
  0
APPID
  5
71
330
70
100
AcDbSymbolTableRecord
100
AcDbRegAppTableRecord
  2
ACAD
 70
     0
  0
ENDTAB
  0
TABLE
  2
DIMSTYLE
  5
72
330
0
100
AcDbSymbolTable
 70
     1
  0
DIMSTYLE
105
73
102
{ACAD_REACTORS
330
EFA
330
EFE
330
F7D
330
FD6
102
}
330
72
100
AcDbSymbolTableRecord
100
AcDbDimStyleTableRecord
  2
STANDARD
 70
     0
  3

  4

  5

  6

  7

 40
2.0
 41
1.8
 42
0.625
 43
3.75
 44
0.8
 45
0.0
 46
0.0
 47
0.0
 48
0.0
140
1.8
141
2.5
142
0.0
143
0.0394
144
1.0
145
0.0
146
1.0
147
0.75
 71
     0
 72
     0
 73
     0
 74
     0
 75
     0
 76
     0
 77
     1
 78
     8
170
     0
171
     4
172
     1
173
     0
174
     0
175
     0
176
     0
177
     0
178
     0
270
     8
271
     2
272
     2
273
     8
274
     4
340
16
275
     0
280
     0
281
     0
282
     0
283
     1
284
     0
285
     0
286
     0
287
     3
288
     0
  0
ENDTAB
  0
TABLE
  2
BLOCK_RECORD
  5
1
330
0
100
AcDbSymbolTable
 70
    44
  0
BLOCK_RECORD
  5
2
102
{ACAD_XDICTIONARY
360
21A4
102
}
330
1
100
AcDbSymbolTableRecord
100
AcDbBlockTableRecord
  2
*MODEL_SPACE
  0
BLOCK_RECORD
  5
217D
102
{ACAD_XDICTIONARY
360
21A6
102
}
330
1
100
AcDbSymbolTableRecord
100
AcDbBlockTableRecord
  2
*PAPER_SPACE
  0
ENDTAB
  0
ENDSEC
  0
SECTION
  2
BLOCKS
  0
BLOCK
  5
5D
330
2
100
AcDbEntity
  8
0
100
AcDbBlockBegin
  2
*MODEL_SPACE
 70
     0
 10
0.0
 20
0.0
 30
0.0
  3
*MODEL_SPACE
  1

  0
ENDBLK
  5
5F
330
2
100
AcDbEntity
  8
0
100
AcDbBlockEnd
  0
BLOCK
  5
217F
330
217D
100
AcDbEntity
 67
     1
  8
0
100
AcDbBlockBegin
  2
*PAPER_SPACE
 70
     0
 10
0.0
 20
0.0
 30
0.0
  3
*PAPER_SPACE
  1

  0
ENDBLK
  5
2180
330
217D
100
AcDbEntity
 67
     1
  8
0
100
AcDbBlockEnd
  0
ENDSEC
  0
SECTION
  2
ENTITIES
  0
LINE
  5
788
330
2
100
AcDbEntity
  8
0
100
AcDbLine
 10
355.0560837166813
 20
99.37344125049264
 30
0.0
 11
423.5560837166813
 21
99.37344125049264
 31
0.0
  0
LINE
  5
789
330
2
100
AcDbEntity
  8
0
100
AcDbLine
 10
355.0560837166813
 20
92.57345325049266
 30
0.0
 11
423.5560837166813
 21
92.57345325049266
 31
0.0
  0
LINE
  5
78A
330
2
100
AcDbEntity
  8
HIDS
100
AcDbLine
 10
355.0560837166813
 20
159.5734532504926
 30
0.0
 11
423.5560837166813
 21
159.5734532504926
 31
0.0
  0
LINE
  5
78B
330
2
100
AcDbEntity
  8
HIDS
100
AcDbLine
 10
355.0560837166813
 20
166.3734412504926
 30
0.0
 11
423.5560837166813
 21
166.3734412504926
 31
0.0
  0
LINE
  5
78C
330
2
100
AcDbEntity
  8
HIDS
100
AcDbLine
 10
360.0560837166813
 20
89.47344725049266
 30
0.0
 11
404.6246257166813
 21
89.47344725049266
 31
0.0
  0
LINE
  5
78D
330
2
100
AcDbEntity
  8
HIDS
100
AcDbLine
 10
406.0560837166813
 20
169.4734472504926
 30
0.0
 11
361.4875417166814
 21
169.4734472504926
 31
0.0
  0
LINE
  5
78E
330
2
100
AcDbEntity
  8
CENTER
100
AcDbLine
 10
340.0511097166813
 20
162.9734472504926
 30
0.0
 11
427.0998457166813
 21
162.9734472504926
 31
0.0
  0
LINE
  5
78F
330
2
100
AcDbEntity
  8
CENTER
100
AcDbLine
 10
340.0511097166813
 20
95.97344725049266
 30
0.0
 11
427.0998457166813
 21
95.97344725049266
 31
0.0
  0
ARC
  5
790
330
2
100
AcDbEntity
  8
0
100
AcDbCircle
 10
390.0560837166813
 20
142.3883952504926
 30
0.0
 40
2.0
100
AcDbArc
 50
91.00000000000013
 51
180.0
  0
ARC
  5
791
330
2
100
AcDbEntity
  8
0
100
AcDbCircle
 10
390.0560837166813
 20
116.5584992504926
 30
0.0
 40
2.0
100
AcDbArc
 50
180.0
 51
268.9999999999998
  0
LINE
  5
792
330
2
100
AcDbEntity
  8
0
100
AcDbLine
 10
390.8178637166813
 20
119.2802402504926
 30
0.0
 11
388.4849477166813
 21
115.3209512504926
 31
0.0
  0
LINE
  5
793
330
2
100
AcDbEntity
  8
0
100
AcDbLine
 10
390.8178637166813
 20
139.6666842504926
 30
0.0
 11
388.4849477166813
 21
143.6259432504926
 31
0.0
  0
LINE
  5
794
330
2
100
AcDbEntity
  8
HIDS
100
AcDbLine
 10
404.0909957166814
 20
91.84061925049263
 30
0.0
 11
383.0560837166813
 21
91.47344725049265
 31
0.0
  0
LINE
  5
795
330
2
100
AcDbEntity
  8
HIDS
100
AcDbLine
 10
404.0909957166814
 20
167.1062902504927
 30
0.0
 11
383.0560837166813
 21
167.4734472504926
 31
0.0
  0
LINE
  5
796
330
2
100
AcDbEntity
  8
0
100
AcDbLine
 10
383.0560837166813
 20
88.97344725049265
 30
0.0
 11
423.5560837166813
 21
89.68037125049267
 31
0.0
  0
LINE
  5
797
330
2
100
AcDbEntity
  8
0
100
AcDbLine
 10
383.0560837166813
 20
169.9734472504926
 30
0.0
 11
423.5560837166813
 21
169.2665072504926
 31
0.0
  0
LINE
  5
798
330
2
100
AcDbEntity
  8
CENTER
100
AcDbLine
 10
336.5153127166813
 20
129.4734472504926
 30
0.0
 11
458.6931782705214
 21
129.4734472504926
 31
0.0
  0
CIRCLE
  5
799
330
2
100
AcDbEntity
  8
HOJO
100
AcDbCircle
 10
179.5794782411221
 20
95.97344725049266
 30
0.0
 40
4.0
  0
CIRCLE
  5
79A
330
2
100
AcDbEntity
  8
0
100
AcDbCircle
 10
179.5794782411221
 20
95.97344725049266
 30
0.0
 40
4.25
  0
CIRCLE
  5
79B
330
2
100
AcDbEntity
  8
HOJO
100
AcDbCircle
 10
265.5794782411221
 20
95.97344725049266
 30
0.0
 40
4.0
  0
CIRCLE
  5
79C
330
2
100
AcDbEntity
  8
0
100
AcDbCircle
 10
265.5794782411221
 20
95.97344725049266
 30
0.0
 40
4.25
  0
LINE
  5
79D
330
2
100
AcDbEntity
  8
HOJO
100
AcDbLine
 10
375.0560837166813
 20
99.97344725049266
 30
0.0
 11
375.0560837166813
 21
91.97344725049266
 31
0.0
  0
CIRCLE
  5
79E
330
2
100
AcDbEntity
  8
0
100
AcDbCircle
 10
265.5794782411221
 20
95.97344725049266
 30
0.0
 40
3.399999999999999
  0
CIRCLE
  5
79F
330
2
100
AcDbEntity
  8
0
100
AcDbCircle
 10
179.5794782411221
 20
95.97344725049266
 30
0.0
 40
3.399999999999999
  0
LINE
  5
7A0
330
2
100
AcDbEntity
  8
HIDS
100
AcDbLine
 10
349.6591107166813
 20
103.4734472504926
 30
0.0
 11
357.0560837166813
 21
96.07647425049265
 31
0.0
  0
LINE
  5
7A1
330
2
100
AcDbEntity
  8
0
100
AcDbLine
 10
41.0239862411222
 20
164.4734472504926
 30
0.0
 11
41.0239862411222
 21
94.47344725049266
 31
0.0
  0
LINE
  5
7A2
330
2
100
AcDbEntity
  8
0
100
AcDbLine
 10
90.02397424112222
 20
89.47344725049266
 30
0.0
 11
90.02397424112222
 21
169.4734472504926
 31
0.0
  0
LINE
  5
7A3
330
2
100
AcDbEntity
  8
0
100
AcDbLine
 10
99.52397424112223
 20
167.4734472504926
 30
0.0
 11
99.52397424112223
 21
91.47344725049265
 31
0.0
  0
LINE
  5
7A4
330
2
100
AcDbEntity
  8
0
100
AcDbLine
 10
196.5794782411221
 20
98.47344725049266
 30
0.0
 11
196.5794782411221
 21
96.60851825049263
 31
0.0
  0
LINE
  5
7A5
330
2
100
AcDbEntity
  8
0
100
AcDbLine
 10
194.5794782411221
 20
97.73360925049269
 30
0.0
 11
194.5794782411221
 21
97.23846225049266
 31
0.0
  0
LINE
  5
7A6
330
2
100
AcDbEntity
  8
0
100
AcDbLine
 10
248.5794782411221
 20
98.47344725049266
 30
0.0
 11
248.5794782411221
 21
96.60851825049263
 31
0.0
  0
LINE
  5
7A7
330
2
100
AcDbEntity
  8
0
100
AcDbLine
 10
250.5794782411221
 20
97.73360925049269
 30
0.0
 11
250.5794782411221
 21
97.23846225049266
 31
0.0
  0
LINE
  5
7A8
330
2
100
AcDbEntity
  8
0
100
AcDbLine
 10
172.5794782411221
 20
113.1450172504926
 30
0.0
 11
172.5794782411221
 21
95.97344725049266
 31
0.0
  0
LINE
  5
7A9
330
2
100
AcDbEntity
  8
0
100
AcDbLine
 10
272.5794782411221
 20
95.97344725049266
 30
0.0
 11
272.5794782411221
 21
162.9734472504926
 31
0.0
  0
LINE
  5
7AC
330
2
100
AcDbEntity
  8
0
100
AcDbLine
 10
342.5560837166813
 20
169.2665072504926
 30
0.0
 11
342.5560837166813
 21
89.68037125049267
 31
0.0
  0
LINE
  5
7AD
330
2
100
AcDbEntity
  8
HIDS
100
AcDbLine
 10
360.0560837166813
 20
93.84031425049261
 30
0.0
 11
360.0560837166813
 21
97.77172625049264
 31
0.0
  0
LINE
  5
7AE
330
2
100
AcDbEntity
  8
0
100
AcDbLine
 10
355.0560837166813
 20
169.4847082504926
 30
0.0
 11
355.0560837166813
 21
89.46218625049267
 31
0.0
  0
LINE
  5
7AF
330
2
100
AcDbEntity
  8
CENTER
100
AcDbLine
 10
383.0560837166813
 20
205.3609452504926
 30
0.0
 11
383.0560837166814
 21
79.97830025049267
 31
0.0
  0
LINE
  5
7B0
330
2
100
AcDbEntity
  8
0
100
AcDbLine
 10
99.52397424112223
 20
91.47344725049265
 30
0.0
 11
171.2207292411221
 21
91.47344725049265
 31
0.0
  0
LINE
  5
7B2
330
2
100
AcDbEntity
  8
0
100
AcDbLine
 10
46.0239862411222
 20
89.47344725049266
 30
0.0
 11
90.02397424112222
 21
89.47344725049266
 31
0.0
  0
ARC
  5
7B3
330
2
100
AcDbEntity
  8
0
100
AcDbCircle
 10
46.02399324112218
 20
94.47344725049266
 30
0.0
 40
5.0
100
AcDbArc
 50
180.0
 51
270.0
  0
LINE
  5
7B4
330
2
100
AcDbEntity
  8
0
100
AcDbLine
 10
90.02397424112222
 20
91.47344725049265
 30
0.0
 11
99.52397424112223
 21
91.47344725049265
 31
0.0
  0
ARC
  5
7B5
330
2
100
AcDbEntity
  8
0
100
AcDbCircle
 10
256.7740892411222
 20
86.4097112504927
 30
0.0
 40
6.0
100
AcDbArc
 50
47.3640670000003
 51
120.3582990000005
  0
LINE
  5
7B6
330
2
100
AcDbEntity
  8
0
100
AcDbLine
 10
179.5794782411221
 20
88.97344725049265
 30
0.0
 11
265.5794782411221
 21
88.97344725049265
 31
0.0
  0
ARC
  5
7B7
330
2
100
AcDbEntity
  8
0
100
AcDbCircle
 10
198.5794782411221
 20
96.60851825049263
 30
0.0
 40
2.0
100
AcDbArc
 50
180.0
 51
255.5224909999997
  0
ARC
  5
7B8
330
2
100
AcDbEntity
  8
0
100
AcDbCircle
 10
203.5794782411221
 20
115.9734472504926
 30
0.0
 40
22.0
100
AcDbArc
 50
249.5126880000004
 51
270.0
  0
ARC
  5
7B9
330
2
100
AcDbEntity
  8
0
100
AcDbCircle
 10
198.9801432411222
 20
98.97344725049265
 30
0.0
 40
10.0
100
AcDbArc
 50
247.6683579999997
 51
270.0
  0
ARC
  5
7BA
330
2
100
AcDbEntity
  8
0
100
AcDbCircle
 10
179.5794782411221
 20
95.97344725049266
 30
0.0
 40
7.0
100
AcDbArc
 50
180.0
 51
312.6359249999997
  0
LINE
  5
7BC
330
2
100
AcDbEntity
  8
0
100
AcDbLine
 10
171.9158582411222
 20
91.34875225049261
 30
0.0
 11
177.1464952411222
 21
89.40986425049265
 31
0.0
  0
ARC
  5
7BD
330
2
100
AcDbEntity
  8
0
100
AcDbCircle
 10
171.2207292411221
 20
89.47344725049266
 30
0.0
 40
2.0
100
AcDbArc
 50
69.66127000000027
 51
90.0
  0
ARC
  5
7BE
330
2
100
AcDbEntity
  8
0
100
AcDbCircle
 10
188.3848672411222
 20
86.4097112504927
 30
0.0
 40
6.0
100
AcDbArc
 50
59.64169699999986
 51
132.6359249999996
  0
ARC
  5
7BF
330
2
100
AcDbEntity
  8
0
100
AcDbCircle
 10
196.5794782411221
 20
97.23846225049266
 30
0.0
 40
2.0
100
AcDbArc
 50
180.0
 51
249.5126800000003
  0
ARC
  5
7C0
330
2
100
AcDbEntity
  8
0
100
AcDbCircle
 10
206.5794782411221
 20
117.4734472504926
 30
0.0
 40
30.0
100
AcDbArc
 50
239.6417009999995
 51
247.6683579999997
  0
LINE
  5
7C1
330
2
100
AcDbEntity
  8
0
100
AcDbLine
 10
241.5794782411221
 20
93.97344725049265
 30
0.0
 11
203.5794782411221
 21
93.97344725049265
 31
0.0
  0
ARC
  5
7C2
330
2
100
AcDbEntity
  8
0
100
AcDbCircle
 10
241.5794782411221
 20
115.9734472504926
 30
0.0
 40
22.0
100
AcDbArc
 50
270.0
 51
290.4873049999995
  0
ARC
  5
7C3
330
2
100
AcDbEntity
  8
0
100
AcDbCircle
 10
248.5794782411221
 20
97.23846225049266
 30
0.0
 40
2.0
100
AcDbArc
 50
290.4873119999995
 51
0.0
  0
ARC
  5
7C4
330
2
100
AcDbEntity
  8
0
100
AcDbCircle
 10
238.5794782411221
 20
117.4734472504926
 30
0.0
 40
30.0
100
AcDbArc
 50
292.3316420000002
 51
300.3583030000001
  0
ARC
  5
7C5
330
2
100
AcDbEntity
  8
0
100
AcDbCircle
 10
246.5794782411221
 20
96.60851825049263
 30
0.0
 40
2.0
100
AcDbArc
 50
284.4775090000002
 51
0.0
  0
ARC
  5
7C6
330
2
100
AcDbEntity
  8
0
100
AcDbCircle
 10
246.1788132411222
 20
98.97344725049265
 30
0.0
 40
10.0
100
AcDbArc
 50
270.0
 51
292.3316420000002
  0
ARC
  5
7C7
330
2
100
AcDbEntity
  8
0
100
AcDbCircle
 10
265.5794782411221
 20
95.97344725049266
 30
0.0
 40
7.0
100
AcDbArc
 50
227.3640750000003
 51
0.0
  0
LINE
  5
7C9
330
2
100
AcDbEntity
  8
HOJO
100
AcDbLine
 10
355.0560837166813
 20
91.97344725049266
 30
0.0
 11
375.0560837166813
 21
91.97344725049266
 31
0.0
  0
ARC
  5
7CA
330
2
100
AcDbEntity
  8
HIDS
100
AcDbCircle
 10
360.0560837166813
 20
92.47344725049265
 30
0.0
 40
3.0
100
AcDbArc
 50
180.0
 51
270.0
  0
LINE
  5
7CB
330
2
100
AcDbEntity
  8
0
100
AcDbLine
 10
383.0560837166813
 20
88.97344725049265
 30
0.0
 11
342.5560837166813
 21
89.68037125049267
 31
0.0
  0
LINE
  5
7CC
330
2
100
AcDbEntity
  8
0
100
AcDbLine
 10
342.5560837166813
 20
91.72344725049265
 30
0.0
 11
355.0560837166813
 21
91.72344725049265
 31
0.0
  0
LINE
  5
7CD
330
2
100
AcDbEntity
  8
HIDS
100
AcDbLine
 10
357.0560837166813
 20
92.47344725049265
 30
0.0
 11
357.0560837166813
 21
96.07647425049265
 31
0.0
  0
LINE
  5
7CE
330
2
100
AcDbEntity
  8
HIDS
100
AcDbLine
 10
362.0211717166813
 20
91.84061925049263
 30
0.0
 11
383.0560837166813
 21
91.47344725049265
 31
0.0
  0
ARC
  5
7CF
330
2
100
AcDbEntity
  8
HIDS
100
AcDbCircle
 10
362.0560837166813
 20
93.84031425049261
 30
0.0
 40
2.0
100
AcDbArc
 50
180.0
 51
268.9999999999998
  0
LINE
  5
7D0
330
2
100
AcDbEntity
  8
0
100
AcDbLine
 10
99.52397424112223
 20
159.7224092504926
 30
0.0
 11
172.5794782411221
 21
159.7224092504926
 31
0.0
  0
LINE
  5
7D1
330
2
100
AcDbEntity
  8
0
100
AcDbLine
 10
99.52397424112223
 20
99.22448525049265
 30
0.0
 11
172.5794782411221
 21
99.22448525049265
 31
0.0
  0
LINE
  5
7D2
330
2
100
AcDbEntity
  8
0
100
AcDbLine
 10
99.52397424112223
 20
167.4734472504926
 30
0.0
 11
171.2207292411221
 21
167.4734472504926
 31
0.0
  0
LINE
  5
7D3
330
2
100
AcDbEntity
  8
CENTER
100
AcDbLine
 10
280.1202492411222
 20
129.4734472504926
 30
0.0
 11
32.50345627288834
 21
129.4734472504926
 31
0.0
  0
LINE
  5
7D8
330
2
100
AcDbEntity
  8
0
100
AcDbLine
 10
43.7739862411222
 20
153.4734472504926
 30
0.0
 11
90.02397424112222
 21
153.4734472504926
 31
0.0
  0
LINE
  5
7D9
330
2
100
AcDbEntity
  8
0
100
AcDbLine
 10
43.7739862411222
 20
103.4734472504926
 30
0.0
 11
90.02397424112222
 21
103.4734472504926
 31
0.0
  0
LINE
  5
7DA
330
2
100
AcDbEntity
  8
0
100
AcDbLine
 10
46.0239862411222
 20
169.4734472504926
 30
0.0
 11
90.02397424112222
 21
169.4734472504926
 31
0.0
  0
ARC
  5
7DB
330
2
100
AcDbEntity
  8
0
100
AcDbCircle
 10
46.0239862411222
 20
164.4734472504926
 30
0.0
 40
5.0
100
AcDbArc
 50
90.0
 51
180.0
  0
LINE
  5
7DC
330
2
100
AcDbEntity
  8
0
100
AcDbLine
 10
90.02397424112222
 20
99.22445425049261
 30
0.0
 11
99.52397424112223
 21
99.22445425049261
 31
0.0
  0
LINE
  5
7DD
330
2
100
AcDbEntity
  8
0
100
AcDbLine
 10
90.02397424112222
 20
159.7224402504926
 30
0.0
 11
99.52397424112223
 21
159.7224402504926
 31
0.0
  0
LINE
  5
7DE
330
2
100
AcDbEntity
  8
0
100
AcDbLine
 10
90.02397424112222
 20
167.4734472504926
 30
0.0
 11
99.52397424112223
 21
167.4734472504926
 31
0.0
  0
CIRCLE
  5
7E6
330
2
100
AcDbEntity
  8
0
100
AcDbCircle
 10
233.5794782411221
 20
129.4734472504926
 30
0.0
 40
25.002001
  0
ARC
  5
7E7
330
2
100
AcDbEntity
  8
0
100
AcDbCircle
 10
256.7740892411222
 20
172.5371982504926
 30
0.0
 40
6.0
100
AcDbArc
 50
239.6417009999995
 51
312.6359329999997
  0
LINE
  5
7E8
330
2
100
AcDbEntity
  8
0
100
AcDbLine
 10
258.0609542411222
 20
110.2750222504926
 30
0.0
 11
249.0609692411221
 21
99.77502225049267
 31
0.0
  0
LINE
  5
7E9
330
2
100
AcDbEntity
  8
0
100
AcDbLine
 10
258.9808452411222
 20
108.2750222504926
 30
0.0
 11
251.0609542411222
 21
99.03518425049265
 31
0.0
  0
LINE
  5
7EA
330
2
100
AcDbEntity
  8
0
100
AcDbLine
 10
258.0609542411222
 20
148.6718722504926
 30
0.0
 11
249.0609692411221
 21
159.1718722504926
 31
0.0
  0
LINE
  5
7EB
330
2
100
AcDbEntity
  8
0
100
AcDbLine
 10
258.9808452411222
 20
150.6718722504926
 30
0.0
 11
251.0609542411222
 21
159.9117102504926
 31
0.0
  0
LINE
  5
7EC
330
2
100
AcDbEntity
  8
0
100
AcDbLine
 10
179.5794782411221
 20
169.9734472504926
 30
0.0
 11
265.5794782411221
 21
169.9734472504926
 31
0.0
  0
ARC
  5
7ED
330
2
100
AcDbEntity
  8
0
100
AcDbCircle
 10
198.5794782411221
 20
162.3383762504926
 30
0.0
 40
2.0
100
AcDbArc
 50
104.4775090000001
 51
180.0
  0
ARC
  5
7EE
330
2
100
AcDbEntity
  8
0
100
AcDbCircle
 10
203.5794782411221
 20
142.9734472504926
 30
0.0
 40
22.0
100
AcDbArc
 50
90.0
 51
110.4873119999995
  0
ARC
  5
7EF
330
2
100
AcDbEntity
  8
0
100
AcDbCircle
 10
198.9801432411222
 20
159.9734472504926
 30
0.0
 40
10.0
100
AcDbArc
 50
90.0
 51
112.3316420000001
  0
LINE
  5
7F0
330
2
100
AcDbEntity
  8
0
100
AcDbLine
 10
181.5794782411221
 20
142.9734472504926
 30
0.0
 11
181.5794782411221
 21
115.9734472504926
 31
0.0
  0
LINE
  5
7F1
330
2
100
AcDbEntity
  8
0
100
AcDbLine
 10
176.5794782411221
 20
118.8018772504926
 30
0.0
 11
176.5794782411221
 21
140.1450172504926
 31
0.0
  0
LINE
  5
7F2
330
2
100
AcDbEntity
  8
0
100
AcDbLine
 10
172.0794782411221
 20
155.1639072504926
 30
0.0
 11
172.0794782411221
 21
103.7829872504926
 31
0.0
  0
ARC
  5
7F3
330
2
100
AcDbEntity
  8
0
100
AcDbCircle
 10
174.5794782411221
 20
118.8018772504926
 30
0.0
 40
2.0
100
AcDbArc
 50
314.9999999999994
 51
0.0
  0
ARC
  5
7F4
330
2
100
AcDbEntity
  8
0
100
AcDbCircle
 10
184.2145642411221
 20
110.9734472504926
 30
0.0
 40
2.0
100
AcDbArc
 50
194.4775090000004
 51
270.0
  0
ARC
  5
7F5
330
2
100
AcDbEntity
  8
0
100
AcDbCircle
 10
183.8057512411221
 20
112.9734472504926
 30
0.0
 40
2.0
100
AcDbArc
 50
188.626923
 51
270.0
  0
CIRCLE
  5
7F7
330
2
100
AcDbEntity
  8
0
100
AcDbCircle
 10
177.0794782411221
 20
105.9734472504926
 30
0.0
 40
3.5
  0
CIRCLE
  5
7F8
330
2
100
AcDbEntity
  8
0
100
AcDbCircle
 10
177.0794782411221
 20
105.9734472504926
 30
0.0
 40
3.799999999999999
  0
ARC
  5
7F9
330
2
100
AcDbEntity
  8
0
100
AcDbCircle
 10
177.0794782411221
 20
105.9734472504926
 30
0.0
 40
4.5
100
AcDbArc
 50
270.0
 51
90.0
  0
LINE
  5
7FB
330
2
100
AcDbEntity
  8
0
100
AcDbLine
 10
174.5794782411221
 20
101.4734472504926
 30
0.0
 11
177.0794782411221
 21
101.4734472504926
 31
0.0
  0
ARC
  5
7FC
330
2
100
AcDbEntity
  8
0
100
AcDbCircle
 10
174.5794782411221
 20
99.47344725049266
 30
0.0
 40
2.0
100
AcDbArc
 50
90.0
 51
180.0
  0
LINE
  5
7FD
330
2
100
AcDbEntity
  8
0
100
AcDbLine
 10
172.0794782411221
 20
103.7829872504926
 30
0.0
 11
172.5794782411221
 21
103.7829872504926
 31
0.0
  0
LINE
  5
7FE
330
2
100
AcDbEntity
  8
0
100
AcDbLine
 10
177.0794782411221
 20
104.1734592504926
 30
0.0
 11
178.5794782411221
 21
105.0394872504926
 31
0.0
  0
LINE
  5
7FF
330
2
100
AcDbEntity
  8
0
100
AcDbLine
 10
178.5794782411221
 20
106.9074372504926
 30
0.0
 11
178.5794782411221
 21
105.0394872504926
 31
0.0
  0
LINE
  5
800
330
2
100
AcDbEntity
  8
0
100
AcDbLine
 10
177.0794782411221
 20
107.7734652504926
 30
0.0
 11
178.5794782411221
 21
106.9074372504926
 31
0.0
  0
LINE
  5
801
330
2
100
AcDbEntity
  8
0
100
AcDbLine
 10
177.0794782411221
 20
107.7734652504926
 30
0.0
 11
175.5794782411221
 21
106.9074372504926
 31
0.0
  0
LINE
  5
802
330
2
100
AcDbEntity
  8
0
100
AcDbLine
 10
175.5794782411221
 20
106.9074372504926
 30
0.0
 11
175.5794782411221
 21
105.0394872504926
 31
0.0
  0
LINE
  5
803
330
2
100
AcDbEntity
  8
0
100
AcDbLine
 10
177.0794782411221
 20
104.1734592504926
 30
0.0
 11
175.5794782411221
 21
105.0394872504926
 31
0.0
  0
LINE
  5
804
330
2
100
AcDbEntity
  8
0
100
AcDbLine
 10
174.5794782411221
 20
110.4734472504926
 30
0.0
 11
177.0794782411221
 21
110.4734472504926
 31
0.0
  0
LINE
  5
805
330
2
100
AcDbEntity
  8
0
100
AcDbLine
 10
175.9936932411221
 20
117.3876622504926
 30
0.0
 11
173.1652632411222
 21
114.5592322504926
 31
0.0
  0
ARC
  5
806
330
2
100
AcDbEntity
  8
0
100
AcDbCircle
 10
174.5794782411221
 20
112.4734472504926
 30
0.0
 40
2.0
100
AcDbArc
 50
180.0
 51
270.0
  0
ARC
  5
807
330
2
100
AcDbEntity
  8
0
100
AcDbCircle
 10
174.5794782411221
 20
113.1450172504926
 30
0.0
 40
2.0
100
AcDbArc
 50
134.9999999999994
 51
180.0
  0
ARC
  5
808
330
2
100
AcDbEntity
  8
0
100
AcDbCircle
 10
203.5794782411221
 20
115.9734472504926
 30
0.0
 40
22.0
100
AcDbArc
 50
180.0
 51
194.4775090000004
  0
LINE
  5
809
330
2
100
AcDbEntity
  8
0
100
AcDbLine
 10
187.0979872411221
 20
110.2750222504926
 30
0.0
 11
196.0979872411221
 21
99.77502225049267
 31
0.0
  0
LINE
  5
80A
330
2
100
AcDbEntity
  8
0
100
AcDbLine
 10
186.1781262411222
 20
108.2750222504926
 30
0.0
 11
194.0979872411221
 21
99.03518425049265
 31
0.0
  0
LINE
  5
80B
330
2
100
AcDbEntity
  8
0
100
AcDbLine
 10
196.4552412411221
 20
99.16732525049264
 30
0.0
 11
194.4552412411221
 21
98.42748825049268
 31
0.0
  0
ARC
  5
80C
330
2
100
AcDbEntity
  8
0
100
AcDbCircle
 10
192.5794782411221
 20
97.73360925049269
 30
0.0
 40
2.0
100
AcDbArc
 50
0.0
 51
40.60129499999965
  0
ARC
  5
80D
330
2
100
AcDbEntity
  8
0
100
AcDbCircle
 10
194.5794782411221
 20
98.47344725049266
 30
0.0
 40
2.0
100
AcDbArc
 50
0.0
 51
40.60129499999965
  0
LINE
  5
80E
330
2
100
AcDbEntity
  8
0
100
AcDbLine
 10
184.6596022411222
 20
108.9734472504926
 30
0.0
 11
184.2145642411221
 21
108.9734472504926
 31
0.0
  0
LINE
  5
80F
330
2
100
AcDbEntity
  8
0
100
AcDbLine
 10
185.5794782411221
 20
110.9734472504926
 30
0.0
 11
183.8057512411221
 21
110.9734472504926
 31
0.0
  0
LINE
  5
810
330
2
100
AcDbEntity
  8
0
100
AcDbLine
 10
186.4151872411222
 20
110.7904642504926
 30
0.0
 11
185.4953262411222
 21
108.7904642504926
 31
0.0
  0
ARC
  5
811
330
2
100
AcDbEntity
  8
0
100
AcDbCircle
 10
185.5794782411221
 20
108.9734472504926
 30
0.0
 40
2.0
100
AcDbArc
 50
40.60129499999965
 51
90.0
  0
ARC
  5
812
330
2
100
AcDbEntity
  8
0
100
AcDbCircle
 10
184.6596022411222
 20
106.9734472504926
 30
0.0
 40
2.0
100
AcDbArc
 50
40.60129499999965
 51
90.0
  0
ARC
  5
813
330
2
100
AcDbEntity
  8
0
100
AcDbCircle
 10
174.5794782411221
 20
159.4734472504926
 30
0.0
 40
2.0
100
AcDbArc
 50
180.0
 51
270.0
  0
LINE
  5
815
330
2
100
AcDbEntity
  8
0
100
AcDbLine
 10
187.0979872411221
 20
148.6718722504926
 30
0.0
 11
196.0979872411221
 21
159.1718722504926
 31
0.0
  0
LINE
  5
816
330
2
100
AcDbEntity
  8
0
100
AcDbLine
 10
186.1781262411222
 20
150.6718722504926
 30
0.0
 11
194.0979872411221
 21
159.9117102504926
 31
0.0
  0
LINE
  5
818
330
2
100
AcDbEntity
  8
0
100
AcDbLine
 10
172.5794782411221
 20
162.9734472504926
 30
0.0
 11
172.5794782411221
 21
145.8018772504926
 31
0.0
  0
ARC
  5
819
330
2
100
AcDbEntity
  8
0
100
AcDbCircle
 10
184.2145642411221
 20
147.9734472504926
 30
0.0
 40
2.0
100
AcDbArc
 50
90.0
 51
165.5224909999995
  0
ARC
  5
81A
330
2
100
AcDbEntity
  8
0
100
AcDbCircle
 10
183.8057512411221
 20
145.9734472504926
 30
0.0
 40
2.0
100
AcDbArc
 50
90.0
 51
171.3730769999999
  0
ARC
  5
81B
330
2
100
AcDbEntity
  8
0
100
AcDbCircle
 10
174.5794782411221
 20
146.4734472504926
 30
0.0
 40
2.0
100
AcDbArc
 50
90.0
 51
180.0
  0
ARC
  5
81C
330
2
100
AcDbEntity
  8
0
100
AcDbCircle
 10
203.5794782411221
 20
142.9734472504926
 30
0.0
 40
22.0
100
AcDbArc
 50
165.5224909999995
 51
180.0
  0
LINE
  5
81D
330
2
100
AcDbEntity
  8
0
100
AcDbLine
 10
175.9936932411221
 20
141.5592322504926
 30
0.0
 11
173.1652632411222
 21
144.3876622504926
 31
0.0
  0
ARC
  5
81E
330
2
100
AcDbEntity
  8
0
100
AcDbCircle
 10
174.5794782411221
 20
145.8018772504926
 30
0.0
 40
2.0
100
AcDbArc
 50
180.0
 51
225.0000000000006
  0
ARC
  5
81F
330
2
100
AcDbEntity
  8
0
100
AcDbCircle
 10
174.5794782411221
 20
140.1450172504926
 30
0.0
 40
2.0
100
AcDbArc
 50
0.0
 51
45.00000000000057
  0
LINE
  5
821
330
2
100
AcDbEntity
  8
0
100
AcDbLine
 10
174.5794782411221
 20
148.4734472504926
 30
0.0
 11
177.0794782411221
 21
148.4734472504926
 31
0.0
  0
LINE
  5
822
330
2
100
AcDbEntity
  8
0
100
AcDbLine
 10
174.5794782411221
 20
157.4734472504926
 30
0.0
 11
177.0794782411221
 21
157.4734472504926
 31
0.0
  0
CIRCLE
  5
823
330
2
100
AcDbEntity
  8
0
100
AcDbCircle
 10
177.0794782411221
 20
152.9734472504926
 30
0.0
 40
3.5
  0
CIRCLE
  5
824
330
2
100
AcDbEntity
  8
0
100
AcDbCircle
 10
177.0794782411221
 20
152.9734472504926
 30
0.0
 40
3.799999999999999
  0
LINE
  5
825
330
2
100
AcDbEntity
  8
0
100
AcDbLine
 10
172.0794782411221
 20
155.1639072504926
 30
0.0
 11
172.5794782411221
 21
155.1639072504926
 31
0.0
  0
ARC
  5
826
330
2
100
AcDbEntity
  8
0
100
AcDbCircle
 10
177.0794782411221
 20
152.9734472504926
 30
0.0
 40
4.5
100
AcDbArc
 50
270.0
 51
90.0
  0
LINE
  5
827
330
2
100
AcDbEntity
  8
0
100
AcDbLine
 10
177.0794782411221
 20
151.1734292504926
 30
0.0
 11
178.5794782411221
 21
152.0394572504926
 31
0.0
  0
LINE
  5
828
330
2
100
AcDbEntity
  8
0
100
AcDbLine
 10
177.0794782411221
 20
151.1734292504926
 30
0.0
 11
175.5794782411221
 21
152.0394572504926
 31
0.0
  0
LINE
  5
829
330
2
100
AcDbEntity
  8
0
100
AcDbLine
 10
177.0794782411221
 20
154.7734352504926
 30
0.0
 11
175.5794782411221
 21
153.9074072504926
 31
0.0
  0
LINE
  5
82A
330
2
100
AcDbEntity
  8
0
100
AcDbLine
 10
177.0794782411221
 20
154.7734352504926
 30
0.0
 11
178.5794782411221
 21
153.9074072504926
 31
0.0
  0
LINE
  5
82B
330
2
100
AcDbEntity
  8
0
100
AcDbLine
 10
175.5794782411221
 20
152.0394572504926
 30
0.0
 11
175.5794782411221
 21
153.9074072504926
 31
0.0
  0
LINE
  5
82C
330
2
100
AcDbEntity
  8
0
100
AcDbLine
 10
178.5794782411221
 20
152.0394572504926
 30
0.0
 11
178.5794782411221
 21
153.9074072504926
 31
0.0
  0
LINE
  5
82D
330
2
100
AcDbEntity
  8
0
100
AcDbLine
 10
186.4151872411222
 20
148.1564302504926
 30
0.0
 11
185.4953262411222
 21
150.1564302504927
 31
0.0
  0
ARC
  5
82E
330
2
100
AcDbEntity
  8
0
100
AcDbCircle
 10
185.5794782411221
 20
149.9734472504926
 30
0.0
 40
2.0
100
AcDbArc
 50
270.0
 51
319.3987050000003
  0
LINE
  5
82F
330
2
100
AcDbEntity
  8
0
100
AcDbLine
 10
185.5794782411221
 20
147.9734472504926
 30
0.0
 11
183.8057512411221
 21
147.9734472504926
 31
0.0
  0
LINE
  5
830
330
2
100
AcDbEntity
  8
0
100
AcDbLine
 10
184.6596022411222
 20
149.9734472504926
 30
0.0
 11
184.2145642411221
 21
149.9734472504926
 31
0.0
  0
ARC
  5
831
330
2
100
AcDbEntity
  8
0
100
AcDbCircle
 10
184.6596022411222
 20
151.9734472504926
 30
0.0
 40
2.0
100
AcDbArc
 50
270.0
 51
319.3987050000003
  0
CIRCLE
  5
832
330
2
100
AcDbEntity
  8
HOJO
100
AcDbCircle
 10
179.5794782411221
 20
162.9734472504926
 30
0.0
 40
4.0
  0
CIRCLE
  5
833
330
2
100
AcDbEntity
  8
0
100
AcDbCircle
 10
179.5794782411221
 20
162.9734472504926
 30
0.0
 40
4.25
  0
CIRCLE
  5
834
330
2
100
AcDbEntity
  8
0
100
AcDbCircle
 10
179.5794782411221
 20
162.9734472504926
 30
0.0
 40
3.399999999999999
  0
ARC
  5
835
330
2
100
AcDbEntity
  8
0
100
AcDbCircle
 10
179.5794782411221
 20
162.9734472504926
 30
0.0
 40
7.0
100
AcDbArc
 50
47.3640670000003
 51
180.0
  0
LINE
  5
837
330
2
100
AcDbEntity
  8
0
100
AcDbLine
 10
171.9158582411222
 20
167.5981422504927
 30
0.0
 11
177.1464952411222
 21
169.5370152504926
 31
0.0
  0
ARC
  5
838
330
2
100
AcDbEntity
  8
0
100
AcDbCircle
 10
171.2207292411221
 20
169.4734472504926
 30
0.0
 40
2.0
100
AcDbArc
 50
270.0
 51
290.3387299999997
  0
ARC
  5
839
330
2
100
AcDbEntity
  8
0
100
AcDbCircle
 10
206.5794782411221
 20
141.4734472504926
 30
0.0
 40
30.0
100
AcDbArc
 50
112.3316420000001
 51
120.3582990000005
  0
ARC
  5
83A
330
2
100
AcDbEntity
  8
0
100
AcDbCircle
 10
188.3848672411222
 20
172.5371982504926
 30
0.0
 40
6.0
100
AcDbArc
 50
227.3640750000003
 51
300.3583030000001
  0
ARC
  5
83B
330
2
100
AcDbEntity
  8
0
100
AcDbCircle
 10
196.5794782411221
 20
161.7084322504926
 30
0.0
 40
2.0
100
AcDbArc
 50
110.4873119999995
 51
180.0
  0
LINE
  5
83C
330
2
100
AcDbEntity
  8
0
100
AcDbLine
 10
196.4552412411221
 20
159.7795692504926
 30
0.0
 11
194.4552412411221
 21
160.5194062504926
 31
0.0
  0
ARC
  5
83D
330
2
100
AcDbEntity
  8
0
100
AcDbCircle
 10
192.5794782411221
 20
161.2132852504926
 30
0.0
 40
2.0
100
AcDbArc
 50
319.3987050000003
 51
0.0
  0
ARC
  5
83E
330
2
100
AcDbEntity
  8
0
100
AcDbCircle
 10
194.5794782411221
 20
160.4734472504926
 30
0.0
 40
2.0
100
AcDbArc
 50
319.3987050000003
 51
0.0
  0
LINE
  5
83F
330
2
100
AcDbEntity
  8
0
100
AcDbLine
 10
196.5794782411221
 20
160.4734472504926
 30
0.0
 11
196.5794782411221
 21
162.3383762504926
 31
0.0
  0
LINE
  5
840
330
2
100
AcDbEntity
  8
0
100
AcDbLine
 10
194.5794782411221
 20
161.2132852504926
 30
0.0
 11
194.5794782411221
 21
161.7084322504926
 31
0.0
  0
CIRCLE
  5
841
330
2
100
AcDbEntity
  8
0
100
AcDbCircle
 10
233.5794782411221
 20
129.4734472504926
 30
0.0
 40
23.0
  0
CIRCLE
  5
842
330
2
100
AcDbEntity
  8
0
100
AcDbCircle
 10
233.5794782411221
 20
129.4734472504926
 30
0.0
 40
15.0
  0
CIRCLE
  5
843
330
2
100
AcDbEntity
  8
0
100
AcDbCircle
 10
233.5794782411221
 20
129.4734472504926
 30
0.0
 40
19.0
  0
LINE
  5
845
330
2
100
AcDbEntity
  8
0
100
AcDbLine
 10
248.7037152411222
 20
99.16732525049264
 30
0.0
 11
250.7037152411221
 21
98.42748825049268
 31
0.0
  0
ARC
  5
846
330
2
100
AcDbEntity
  8
0
100
AcDbCircle
 10
250.5794782411221
 20
98.47344725049266
 30
0.0
 40
2.0
100
AcDbArc
 50
139.3987120000005
 51
180.0
  0
ARC
  5
847
330
2
100
AcDbEntity
  8
0
100
AcDbCircle
 10
252.5794782411221
 20
97.73360925049269
 30
0.0
 40
2.0
100
AcDbArc
 50
139.3987120000005
 51
180.0
  0
LINE
  5
848
330
2
100
AcDbEntity
  8
0
100
AcDbLine
 10
241.5794782411221
 20
164.9734472504926
 30
0.0
 11
203.5794782411221
 21
164.9734472504926
 31
0.0
  0
ARC
  5
849
330
2
100
AcDbEntity
  8
0
100
AcDbCircle
 10
241.5794782411221
 20
142.9734472504926
 30
0.0
 40
22.0
100
AcDbArc
 50
69.51268800000041
 51
90.0
  0
ARC
  5
84A
330
2
100
AcDbEntity
  8
0
100
AcDbCircle
 10
238.5794782411221
 20
141.4734472504926
 30
0.0
 40
30.0
100
AcDbArc
 50
59.64169699999986
 51
67.66835799999981
  0
ARC
  5
84B
330
2
100
AcDbEntity
  8
0
100
AcDbCircle
 10
248.5794782411221
 20
161.7084322504926
 30
0.0
 40
2.0
100
AcDbArc
 50
0.0
 51
69.51268800000041
  0
LINE
  5
84C
330
2
100
AcDbEntity
  8
0
100
AcDbLine
 10
248.7037152411222
 20
159.7795692504926
 30
0.0
 11
250.7037152411221
 21
160.5194062504926
 31
0.0
  0
ARC
  5
84D
330
2
100
AcDbEntity
  8
0
100
AcDbCircle
 10
246.5794782411221
 20
162.3383762504926
 30
0.0
 40
2.0
100
AcDbArc
 50
0.0
 51
75.52249099999979
  0
ARC
  5
84E
330
2
100
AcDbEntity
  8
0
100
AcDbCircle
 10
250.5794782411221
 20
160.4734472504926
 30
0.0
 40
2.0
100
AcDbArc
 50
180.0
 51
220.6012879999994
  0
LINE
  5
84F
330
2
100
AcDbEntity
  8
0
100
AcDbLine
 10
248.5794782411221
 20
160.4734472504926
 30
0.0
 11
248.5794782411221
 21
162.3383762504926
 31
0.0
  0
ARC
  5
850
330
2
100
AcDbEntity
  8
0
100
AcDbCircle
 10
252.5794782411221
 20
161.2132852504926
 30
0.0
 40
2.0
100
AcDbArc
 50
180.0
 51
220.6012879999994
  0
LINE
  5
851
330
2
100
AcDbEntity
  8
0
100
AcDbLine
 10
250.5794782411221
 20
161.2132852504926
 30
0.0
 11
250.5794782411221
 21
161.7084322504926
 31
0.0
  0
ARC
  5
852
330
2
100
AcDbEntity
  8
0
100
AcDbCircle
 10
246.1788132411222
 20
159.9734472504926
 30
0.0
 40
10.0
100
AcDbArc
 50
67.66835799999981
 51
90.0
  0
LINE
  5
853
330
2
100
AcDbEntity
  8
0
100
AcDbLine
 10
263.5794782411221
 20
142.9734472504926
 30
0.0
 11
263.5794782411221
 21
115.9734472504926
 31
0.0
  0
LINE
  5
854
330
2
100
AcDbEntity
  8
0
100
AcDbLine
 10
268.5794782411221
 20
118.8018772504926
 30
0.0
 11
268.5794782411221
 21
140.1450172504926
 31
0.0
  0
ARC
  5
855
330
2
100
AcDbEntity
  8
0
100
AcDbCircle
 10
270.5794782411221
 20
118.8018772504926
 30
0.0
 40
2.0
100
AcDbArc
 50
180.0
 51
225.0000000000006
  0
ARC
  5
856
330
2
100
AcDbEntity
  8
0
100
AcDbCircle
 10
270.5794782411221
 20
112.4734472504926
 30
0.0
 40
2.0
100
AcDbArc
 50
270.0
 51
0.0
  0
ARC
  5
857
330
2
100
AcDbEntity
  8
0
100
AcDbCircle
 10
270.5794782411221
 20
99.47344725049266
 30
0.0
 40
2.0
100
AcDbArc
 50
0.0
 51
90.0
  0
ARC
  5
859
330
2
100
AcDbEntity
  8
0
100
AcDbCircle
 10
268.0794782411221
 20
105.9734472504926
 30
0.0
 40
4.5
100
AcDbArc
 50
90.0
 51
270.0
  0
CIRCLE
  5
85B
330
2
100
AcDbEntity
  8
0
100
AcDbCircle
 10
268.0794782411221
 20
105.9734472504926
 30
0.0
 40
3.5
  0
CIRCLE
  5
85C
330
2
100
AcDbEntity
  8
0
100
AcDbCircle
 10
268.0794782411221
 20
105.9734472504926
 30
0.0
 40
3.799999999999999
  0
LINE
  5
85D
330
2
100
AcDbEntity
  8
0
100
AcDbLine
 10
270.5794782411221
 20
101.4734472504926
 30
0.0
 11
268.0794782411221
 21
101.4734472504926
 31
0.0
  0
LINE
  5
85E
330
2
100
AcDbEntity
  8
0
100
AcDbLine
 10
268.0794782411221
 20
107.7734652504926
 30
0.0
 11
266.5794782411221
 21
106.9074372504926
 31
0.0
  0
LINE
  5
85F
330
2
100
AcDbEntity
  8
0
100
AcDbLine
 10
268.0794782411221
 20
107.7734652504926
 30
0.0
 11
269.5794782411221
 21
106.9074372504926
 31
0.0
  0
LINE
  5
860
330
2
100
AcDbEntity
  8
0
100
AcDbLine
 10
268.0794782411221
 20
104.1734592504926
 30
0.0
 11
269.5794782411221
 21
105.0394872504926
 31
0.0
  0
LINE
  5
861
330
2
100
AcDbEntity
  8
0
100
AcDbLine
 10
268.0794782411221
 20
104.1734592504926
 30
0.0
 11
266.5794782411221
 21
105.0394872504926
 31
0.0
  0
LINE
  5
862
330
2
100
AcDbEntity
  8
0
100
AcDbLine
 10
269.5794782411221
 20
106.9074372504926
 30
0.0
 11
269.5794782411221
 21
105.0394872504926
 31
0.0
  0
LINE
  5
863
330
2
100
AcDbEntity
  8
0
100
AcDbLine
 10
266.5794782411221
 20
106.9074372504926
 30
0.0
 11
266.5794782411221
 21
105.0394872504926
 31
0.0
  0
ARC
  5
864
330
2
100
AcDbEntity
  8
0
100
AcDbCircle
 10
241.5794782411221
 20
115.9734472504926
 30
0.0
 40
22.0
100
AcDbArc
 50
345.5224880000002
 51
0.0
  0
ARC
  5
865
330
2
100
AcDbEntity
  8
0
100
AcDbCircle
 10
260.9444072411222
 20
110.9734472504926
 30
0.0
 40
2.0
100
AcDbArc
 50
270.0
 51
345.5224909999996
  0
ARC
  5
866
330
2
100
AcDbEntity
  8
0
100
AcDbCircle
 10
261.3531902411222
 20
112.9734472504926
 30
0.0
 40
2.0
100
AcDbArc
 50
270.0
 51
351.373077
  0
LINE
  5
867
330
2
100
AcDbEntity
  8
0
100
AcDbLine
 10
260.4993392411222
 20
108.9734472504926
 30
0.0
 11
260.9444072411222
 21
108.9734472504926
 31
0.0
  0
LINE
  5
868
330
2
100
AcDbEntity
  8
0
100
AcDbLine
 10
259.5794782411221
 20
110.9734472504926
 30
0.0
 11
261.3531902411222
 21
110.9734472504926
 31
0.0
  0
LINE
  5
869
330
2
100
AcDbEntity
  8
0
100
AcDbLine
 10
258.7437542411221
 20
110.7904642504926
 30
0.0
 11
259.6636452411221
 21
108.7904642504926
 31
0.0
  0
ARC
  5
86A
330
2
100
AcDbEntity
  8
0
100
AcDbCircle
 10
259.5794782411221
 20
108.9734472504926
 30
0.0
 40
2.0
100
AcDbArc
 50
90.0
 51
139.3987120000005
  0
ARC
  5
86B
330
2
100
AcDbEntity
  8
0
100
AcDbCircle
 10
260.4993392411222
 20
106.9734472504926
 30
0.0
 40
2.0
100
AcDbArc
 50
90.0
 51
139.3987120000005
  0
LINE
  5
86C
330
2
100
AcDbEntity
  8
0
100
AcDbLine
 10
270.5794782411221
 20
110.4734472504926
 30
0.0
 11
268.0794782411221
 21
110.4734472504926
 31
0.0
  0
ARC
  5
86D
330
2
100
AcDbEntity
  8
0
100
AcDbCircle
 10
270.5794782411221
 20
113.1450172504926
 30
0.0
 40
2.0
100
AcDbArc
 50
0.0
 51
45.00000000000057
  0
LINE
  5
86E
330
2
100
AcDbEntity
  8
0
100
AcDbLine
 10
269.1652632411221
 20
117.3876622504926
 30
0.0
 11
271.9936932411221
 21
114.5592322504926
 31
0.0
  0
ARC
  5
86F
330
2
100
AcDbEntity
  8
0
100
AcDbCircle
 10
270.5794782411221
 20
159.4734472504926
 30
0.0
 40
2.0
100
AcDbArc
 50
270.0
 51
0.0
  0
ARC
  5
872
330
2
100
AcDbEntity
  8
0
100
AcDbCircle
 10
270.5794782411221
 20
146.4734472504926
 30
0.0
 40
2.0
100
AcDbArc
 50
0.0
 51
90.0
  0
ARC
  5
874
330
2
100
AcDbEntity
  8
0
100
AcDbCircle
 10
241.5794782411221
 20
142.9734472504926
 30
0.0
 40
22.0
100
AcDbArc
 50
0.0
 51
14.47751199999975
  0
ARC
  5
875
330
2
100
AcDbEntity
  8
0
100
AcDbCircle
 10
261.3531902411222
 20
145.9734472504926
 30
0.0
 40
2.0
100
AcDbArc
 50
8.626927000000565
 51
90.0
  0
LINE
  5
876
330
2
100
AcDbEntity
  8
0
100
AcDbLine
 10
258.7437542411221
 20
148.1564302504926
 30
0.0
 11
259.6636452411221
 21
150.1564302504927
 31
0.0
  0
ARC
  5
877
330
2
100
AcDbEntity
  8
0
100
AcDbCircle
 10
259.5794782411221
 20
149.9734472504926
 30
0.0
 40
2.0
100
AcDbArc
 50
220.6012879999994
 51
270.0
  0
LINE
  5
878
330
2
100
AcDbEntity
  8
0
100
AcDbLine
 10
259.5794782411221
 20
147.9734472504926
 30
0.0
 11
261.3531902411222
 21
147.9734472504926
 31
0.0
  0
ARC
  5
879
330
2
100
AcDbEntity
  8
0
100
AcDbCircle
 10
270.5794782411221
 20
140.1450172504926
 30
0.0
 40
2.0
100
AcDbArc
 50
134.9999999999994
 51
180.0
  0
ARC
  5
87A
330
2
100
AcDbEntity
  8
0
100
AcDbCircle
 10
270.5794782411221
 20
145.8018772504926
 30
0.0
 40
2.0
100
AcDbArc
 50
314.9999999999994
 51
0.0
  0
LINE
  5
87B
330
2
100
AcDbEntity
  8
0
100
AcDbLine
 10
269.1652632411221
 20
141.5592322504926
 30
0.0
 11
271.9936932411221
 21
144.3876622504926
 31
0.0
  0
ARC
  5
87C
330
2
100
AcDbEntity
  8
0
100
AcDbCircle
 10
268.0794782411221
 20
152.9734472504926
 30
0.0
 40
4.5
100
AcDbArc
 50
90.0
 51
270.0
  0
CIRCLE
  5
87D
330
2
100
AcDbEntity
  8
0
100
AcDbCircle
 10
268.0794782411221
 20
152.9734472504926
 30
0.0
 40
3.5
  0
CIRCLE
  5
87E
330
2
100
AcDbEntity
  8
0
100
AcDbCircle
 10
268.0794782411221
 20
152.9734472504926
 30
0.0
 40
3.799999999999999
  0
ARC
  5
87F
330
2
100
AcDbEntity
  8
0
100
AcDbCircle
 10
260.9444072411222
 20
147.9734472504926
 30
0.0
 40
2.0
100
AcDbArc
 50
14.47751199999975
 51
90.0
  0
LINE
  5
880
330
2
100
AcDbEntity
  8
0
100
AcDbLine
 10
260.4993392411222
 20
149.9734472504926
 30
0.0
 11
260.9444072411222
 21
149.9734472504926
 31
0.0
  0
ARC
  5
881
330
2
100
AcDbEntity
  8
0
100
AcDbCircle
 10
260.4993392411222
 20
151.9734472504926
 30
0.0
 40
2.0
100
AcDbArc
 50
220.6012879999994
 51
270.0
  0
LINE
  5
882
330
2
100
AcDbEntity
  8
0
100
AcDbLine
 10
270.5794782411221
 20
148.4734472504926
 30
0.0
 11
268.0794782411221
 21
148.4734472504926
 31
0.0
  0
LINE
  5
883
330
2
100
AcDbEntity
  8
0
100
AcDbLine
 10
270.5794782411221
 20
157.4734472504926
 30
0.0
 11
268.0794782411221
 21
157.4734472504926
 31
0.0
  0
LINE
  5
884
330
2
100
AcDbEntity
  8
0
100
AcDbLine
 10
268.0794782411221
 20
151.1734292504926
 30
0.0
 11
266.5794782411221
 21
152.0394572504926
 31
0.0
  0
LINE
  5
885
330
2
100
AcDbEntity
  8
0
100
AcDbLine
 10
268.0794782411221
 20
151.1734292504926
 30
0.0
 11
269.5794782411221
 21
152.0394572504926
 31
0.0
  0
LINE
  5
886
330
2
100
AcDbEntity
  8
0
100
AcDbLine
 10
268.0794782411221
 20
154.7734352504926
 30
0.0
 11
269.5794782411221
 21
153.9074072504926
 31
0.0
  0
LINE
  5
887
330
2
100
AcDbEntity
  8
0
100
AcDbLine
 10
268.0794782411221
 20
154.7734352504926
 30
0.0
 11
266.5794782411221
 21
153.9074072504926
 31
0.0
  0
LINE
  5
888
330
2
100
AcDbEntity
  8
0
100
AcDbLine
 10
269.5794782411221
 20
152.0394572504926
 30
0.0
 11
269.5794782411221
 21
153.9074072504926
 31
0.0
  0
LINE
  5
889
330
2
100
AcDbEntity
  8
0
100
AcDbLine
 10
266.5794782411221
 20
152.0394572504926
 30
0.0
 11
266.5794782411221
 21
153.9074072504926
 31
0.0
  0
ARC
  5
88A
330
2
100
AcDbEntity
  8
0
100
AcDbCircle
 10
265.5794782411221
 20
162.9734472504926
 30
0.0
 40
7.0
100
AcDbArc
 50
0.0
 51
132.6359249999996
  0
CIRCLE
  5
88C
330
2
100
AcDbEntity
  8
HOJO
100
AcDbCircle
 10
265.5794782411221
 20
162.9734472504926
 30
0.0
 40
4.0
  0
CIRCLE
  5
88D
330
2
100
AcDbEntity
  8
0
100
AcDbCircle
 10
265.5794782411221
 20
162.9734472504926
 30
0.0
 40
4.25
  0
CIRCLE
  5
88E
330
2
100
AcDbEntity
  8
0
100
AcDbCircle
 10
265.5794782411221
 20
162.9734472504926
 30
0.0
 40
3.399999999999999
  0
LINE
  5
88F
330
2
100
AcDbEntity
  8
HIDS
100
AcDbLine
 10
343.0560837166813
 20
151.0419892504926
 30
0.0
 11
343.0560837166813
 21
106.4734472504926
 31
0.0
  0
LINE
  5
890
330
2
100
AcDbEntity
  8
0
100
AcDbLine
 10
375.7231677166813
 20
138.6473062504926
 30
0.0
 11
375.7231677166813
 21
120.2995882504926
 31
0.0
  0
LINE
  5
891
330
2
100
AcDbEntity
  8
0
100
AcDbLine
 10
378.0560837166813
 20
116.3402992504926
 30
0.0
 11
378.0560837166813
 21
142.6065952504926
 31
0.0
  0
LINE
  5
892
330
2
100
AcDbEntity
  8
0
100
AcDbLine
 10
388.0560837166813
 20
142.3883952504926
 30
0.0
 11
388.0560837166813
 21
116.5584992504926
 31
0.0
  0
ARC
  5
893
330
2
100
AcDbEntity
  8
HIDS
100
AcDbCircle
 10
383.0560837166813
 20
129.4734472504926
 30
0.0
 40
38.0
100
AcDbArc
 50
129.356705
 51
230.6432949999999
  0
LINE
  5
895
330
2
100
AcDbEntity
  8
HOJO
100
AcDbLine
 10
355.0560837166813
 20
99.97344725049266
 30
0.0
 11
375.0560837166813
 21
99.97344725049266
 31
0.0
  0
LINE
  5
896
330
2
100
AcDbEntity
  8
0
100
AcDbLine
 10
373.7580797166813
 20
118.2998942504926
 30
0.0
 11
355.0560837166813
 21
117.9734472504926
 31
0.0
  0
LINE
  5
897
330
2
100
AcDbEntity
  8
0
100
AcDbLine
 10
376.0909957166814
 20
114.3406042504926
 30
0.0
 11
355.0560837166813
 21
113.9734472504926
 31
0.0
  0
ARC
  5
898
330
2
100
AcDbEntity
  8
HIDS
100
AcDbCircle
 10
357.0560837166813
 20
97.77172625049264
 30
0.0
 40
3.0
100
AcDbArc
 50
0.0
 51
50.64329900000029
  0
LINE
  5
89A
330
2
100
AcDbEntity
  8
0
100
AcDbLine
 10
342.5560837166813
 20
100.2234472504926
 30
0.0
 11
355.0560837166813
 21
100.2234472504926
 31
0.0
  0
ARC
  5
89B
330
2
100
AcDbEntity
  8
HIDS
100
AcDbCircle
 10
346.0560837166813
 20
106.4734472504926
 30
0.0
 40
3.0
100
AcDbArc
 50
180.0
 51
270.0
  0
LINE
  5
89C
330
2
100
AcDbEntity
  8
0
100
AcDbLine
 10
355.0560837166813
 20
113.9734472504926
 30
0.0
 11
342.5560837166813
 21
113.9734472504926
 31
0.0
  0
LINE
  5
89D
330
2
100
AcDbEntity
  8
0
100
AcDbLine
 10
342.5560837166813
 20
110.6436442504926
 30
0.0
 11
349.0560837166813
 21
110.4734472504926
 31
0.0
  0
LINE
  5
89E
330
2
100
AcDbEntity
  8
0
100
AcDbLine
 10
344.0560527166813
 20
109.4734472504926
 30
0.0
 11
348.0560527166813
 21
109.4734782504926
 31
0.0
  0
LINE
  5
89F
330
2
100
AcDbEntity
  8
CENTER
100
AcDbLine
 10
342.1163867166813
 20
105.9734472504926
 30
0.0
 11
350.1010967166813
 21
105.9734472504926
 31
0.0
  0
LINE
  5
8A2
330
2
100
AcDbEntity
  8
0
100
AcDbLine
 10
344.0560527166813
 20
103.900296990377
 30
0.0
 11
344.0560527166813
 21
109.4734472504926
 31
0.0
  0
LINE
  5
8A3
330
2
100
AcDbEntity
  8
0
100
AcDbLine
 10
349.0560837166813
 20
104.2875925718295
 30
0.0
 11
349.0560837166813
 21
110.4734472504926
 31
0.0
  0
LINE
  5
8A4
330
2
100
AcDbEntity
  8
0
100
AcDbLine
 10
348.0560527166813
 20
104.1483080628057
 30
0.0
 11
348.0560527166813
 21
109.7734352504926
 31
0.0
  0
LINE
  5
8A7
330
2
100
AcDbEntity
  8
HIDS
100
AcDbLine
 10
346.0560837166813
 20
103.4734472504926
 30
0.0
 11
349.6591107166813
 21
103.4734472504926
 31
0.0
  0
LINE
  5
8AA
330
2
100
AcDbEntity
  8
0
100
AcDbLine
 10
348.0560527166813
 20
109.7734352504926
 30
0.0
 11
349.0560837166813
 21
109.7734352504926
 31
0.0
  0
LINE
  5
8AB
330
2
100
AcDbEntity
  8
0
100
AcDbLine
 10
355.0560837166813
 20
117.9734472504926
 30
0.0
 11
342.5560837166813
 21
117.9734472504926
 31
0.0
  0
ARC
  5
8AC
330
2
100
AcDbEntity
  8
0
100
AcDbCircle
 10
373.7231677166813
 20
120.2995882504926
 30
0.0
 40
2.0
100
AcDbArc
 50
271.0000000000001
 51
0.0
  0
LINE
  5
8AD
330
2
100
AcDbEntity
  8
0
100
AcDbLine
 10
377.6272197166813
 20
115.1027502504926
 30
0.0
 11
375.2943037166813
 21
119.0620402504926
 31
0.0
  0
ARC
  5
8B4
330
2
100
AcDbEntity
  8
0
100
AcDbCircle
 10
376.0560837166813
 20
116.3402992504926
 30
0.0
 40
2.0
100
AcDbArc
 50
271.0000000000001
 51
0.0
  0
LINE
  5
8B6
330
2
100
AcDbEntity
  8
HIDS
100
AcDbLine
 10
355.0560837166813
 20
158.9734472504926
 30
0.0
 11
375.0560837166813
 21
158.9734472504926
 31
0.0
  0
LINE
  5
8B7
330
2
100
AcDbEntity
  8
HIDS
100
AcDbLine
 10
355.0560837166813
 20
166.9734472504926
 30
0.0
 11
375.0560837166813
 21
166.9734472504926
 31
0.0
  0
ARC
  5
8B8
330
2
100
AcDbEntity
  8
HIDS
100
AcDbCircle
 10
361.4875417166814
 20
164.4734472504926
 30
0.0
 40
5.0
100
AcDbArc
 50
90.0
 51
134.9999999999994
  0
LINE
  5
8B9
330
2
100
AcDbEntity
  8
0
100
AcDbLine
 10
373.7580797166813
 20
140.6470002504926
 30
0.0
 11
355.0560837166813
 21
140.9734472504926
 31
0.0
  0
LINE
  5
8BA
330
2
100
AcDbEntity
  8
0
100
AcDbLine
 10
376.0909957166814
 20
144.6062902504927
 30
0.0
 11
355.0560837166813
 21
144.9734472504926
 31
0.0
  0
ARC
  5
8BB
330
2
100
AcDbEntity
  8
HIDS
100
AcDbCircle
 10
357.0560837166813
 20
161.1751682504926
 30
0.0
 40
3.0
100
AcDbArc
 50
309.3567009999997
 51
0.0
  0
LINE
  5
8BC
330
2
100
AcDbEntity
  8
0
100
AcDbLine
 10
383.0560837166813
 20
169.9734472504926
 30
0.0
 11
342.5560837166813
 21
169.2665072504926
 31
0.0
  0
LINE
  5
8BD
330
2
100
AcDbEntity
  8
HIDS
100
AcDbLine
 10
344.5205617166813
 20
154.5775122504926
 30
0.0
 11
357.9520187166814
 21
168.0089692504926
 31
0.0
  0
ARC
  5
8BF
330
2
100
AcDbEntity
  8
HIDS
100
AcDbCircle
 10
348.0560837166813
 20
151.0419892504926
 30
0.0
 40
5.0
100
AcDbArc
 50
134.9999999999994
 51
180.0
  0
LINE
  5
8C0
330
2
100
AcDbEntity
  8
0
100
AcDbLine
 10
355.0560837166813
 20
140.9734472504926
 30
0.0
 11
342.5560837166813
 21
140.9734472504926
 31
0.0
  0
LINE
  5
8C1
330
2
100
AcDbEntity
  8
0
100
AcDbLine
 10
355.0560837166813
 20
144.9734472504926
 30
0.0
 11
342.5560837166813
 21
144.9734472504926
 31
0.0
  0
LINE
  5
8C2
330
2
100
AcDbEntity
  8
0
100
AcDbLine
 10
342.5560837166813
 20
148.3032502504926
 30
0.0
 11
349.0560837166813
 21
148.4734472504926
 31
0.0
  0
LINE
  5
8C3
330
2
100
AcDbEntity
  8
0
100
AcDbLine
 10
344.0560527166813
 20
149.4734472504926
 30
0.0
 11
348.0560527166813
 21
149.4734162504926
 31
0.0
  0
LINE
  5
8C4
330
2
100
AcDbEntity
  8
CENTER
100
AcDbLine
 10
342.1163867166813
 20
152.9734472504926
 30
0.0
 11
350.1010967166813
 21
152.9734472504926
 31
0.0
  0
LINE
  5
8C5
330
2
100
AcDbEntity
  8
0
100
AcDbLine
 10
342.5560837166813
 20
157.6436442504926
 30
0.0
 11
349.0560837166813
 21
157.4734472504926
 31
0.0
  0
LINE
  5
8C6
330
2
100
AcDbEntity
  8
0
100
AcDbLine
 10
344.0560527166813
 20
156.4734472504926
 30
0.0
 11
348.0560527166813
 21
156.4734782504926
 31
0.0
  0
LINE
  5
8C7
330
2
100
AcDbEntity
  8
0
100
AcDbLine
 10
344.0560527166813
 20
156.4734472504926
 30
0.0
 11
344.0560527166813
 21
149.4734472504926
 31
0.0
  0
LINE
  5
8CA
330
2
100
AcDbEntity
  8
0
100
AcDbLine
 10
348.0560527166813
 20
149.1734592504926
 30
0.0
 11
349.0560837166813
 21
149.1734592504926
 31
0.0
  0
LINE
  5
8CB
330
2
100
AcDbEntity
  8
0
100
AcDbLine
 10
349.0560837166813
 20
157.4734472504926
 30
0.0
 11
349.0560837166813
 21
148.4734472504926
 31
0.0
  0
LINE
  5
8CC
330
2
100
AcDbEntity
  8
0
100
AcDbLine
 10
348.0560527166813
 20
156.7734352504926
 30
0.0
 11
349.0560837166813
 21
156.7734352504926
 31
0.0
  0
LINE
  5
8CD
330
2
100
AcDbEntity
  8
0
100
AcDbLine
 10
348.0560527166813
 20
156.7734352504926
 30
0.0
 11
348.0560527166813
 21
149.1734592504926
 31
0.0
  0
LINE
  5
8CF
330
2
100
AcDbEntity
  8
HIDS
100
AcDbLine
 10
342.5560837166813
 20
158.7234472504926
 30
0.0
 11
355.0560837166813
 21
158.7234472504926
 31
0.0
  0
LINE
  5
8D0
330
2
100
AcDbEntity
  8
HIDS
100
AcDbLine
 10
342.5560837166813
 20
167.2234472504926
 30
0.0
 11
355.0560837166813
 21
167.2234472504926
 31
0.0
  0
ARC
  5
8D2
330
2
100
AcDbEntity
  8
0
100
AcDbCircle
 10
373.7231677166813
 20
138.6473062504926
 30
0.0
 40
2.0
100
AcDbArc
 50
0.0
 51
88.99999999999986
  0
ARC
  5
8D6
330
2
100
AcDbEntity
  8
0
100
AcDbCircle
 10
376.0560837166813
 20
142.6065952504926
 30
0.0
 40
2.0
100
AcDbArc
 50
0.0
 51
88.99999999999986
  0
LINE
  5
8D7
330
2
100
AcDbEntity
  8
0
100
AcDbLine
 10
375.2943037166813
 20
139.8848542504926
 30
0.0
 11
377.6272197166813
 21
143.8441442504926
 31
0.0
  0
LINE
  5
8DA
330
2
100
AcDbEntity
  8
HIDS
100
AcDbLine
 10
362.0211717166813
 20
167.1062902504927
 30
0.0
 11
383.0560837166813
 21
167.4734472504926
 31
0.0
  0
LINE
  5
8DB
330
2
100
AcDbEntity
  8
HIDS
100
AcDbLine
 10
360.0560837166813
 20
165.1065952504926
 30
0.0
 11
360.0560837166813
 21
161.1751682504926
 31
0.0
  0
ARC
  5
8DC
330
2
100
AcDbEntity
  8
HIDS
100
AcDbCircle
 10
362.0560837166813
 20
165.1065952504926
 30
0.0
 40
2.0
100
AcDbArc
 50
91.00000000000013
 51
180.0
  0
LINE
  5
8DD
330
2
100
AcDbEntity
  8
HIDS
100
AcDbLine
 10
375.0560837166813
 20
166.9734472504926
 30
0.0
 11
375.0560837166813
 21
158.9734472504926
 31
0.0
  0
CIRCLE
  5
8DE
330
2
100
AcDbEntity
  8
HOJO
100
AcDbCircle
 10
636.5613380317823
 20
95.97344725049266
 30
0.0
 40
4.0
  0
CIRCLE
  5
8DF
330
2
100
AcDbEntity
  8
HOJO
100
AcDbCircle
 10
550.5613380317822
 20
95.97344725049266
 30
0.0
 40
4.0
  0
LINE
  5
8E0
330
2
100
AcDbEntity
  8
HOJO
100
AcDbLine
 10
391.0560837166813
 20
99.97344725049266
 30
0.0
 11
391.0560837166813
 21
91.97344725049266
 31
0.0
  0
CIRCLE
  5
8E1
330
2
100
AcDbEntity
  8
0
100
AcDbCircle
 10
550.5613380317822
 20
95.97344725049266
 30
0.0
 40
3.399999999999999
  0
CIRCLE
  5
8E2
330
2
100
AcDbEntity
  8
0
100
AcDbCircle
 10
636.5613380317823
 20
95.97344725049266
 30
0.0
 40
3.399999999999999
  0
LINE
  5
8E3
330
2
100
AcDbEntity
  8
HIDS
100
AcDbLine
 10
421.5916057166814
 20
104.3693822504926
 30
0.0
 11
408.1601487166813
 21
90.93790925049267
 31
0.0
  0
LINE
  5
8E4
330
2
100
AcDbEntity
  8
0
100
AcDbLine
 10
775.1168190317823
 20
164.4734472504926
 30
0.0
 11
775.1168190317823
 21
94.47344725049266
 31
0.0
  0
LINE
  5
8E5
330
2
100
AcDbEntity
  8
0
100
AcDbLine
 10
726.1168190317824
 20
89.47344725049266
 30
0.0
 11
726.1168190317824
 21
169.4734472504926
 31
0.0
  0
LINE
  5
8E6
330
2
100
AcDbEntity
  8
0
100
AcDbLine
 10
716.6168190317823
 20
167.4734472504926
 30
0.0
 11
716.6168190317823
 21
91.47344725049265
 31
0.0
  0
LINE
  5
8E7
330
2
100
AcDbEntity
  8
0
100
AcDbLine
 10
619.5613380317823
 20
98.47344725049266
 30
0.0
 11
619.5613380317823
 21
96.60851825049258
 31
0.0
  0
LINE
  5
8E8
330
2
100
AcDbEntity
  8
0
100
AcDbLine
 10
621.5613380317822
 20
97.73360925049269
 30
0.0
 11
621.5613380317822
 21
97.2384622504926
 31
0.0
  0
LINE
  5
8E9
330
2
100
AcDbEntity
  8
0
100
AcDbLine
 10
567.5613380317822
 20
98.47344725049266
 30
0.0
 11
567.5613380317822
 21
96.60851825049258
 31
0.0
  0
LINE
  5
8EA
330
2
100
AcDbEntity
  8
0
100
AcDbLine
 10
565.5613380317823
 20
97.73360925049269
 30
0.0
 11
565.5613380317823
 21
97.2384622504926
 31
0.0
  0
LINE
  5
8EB
330
2
100
AcDbEntity
  8
0
100
AcDbLine
 10
643.5613380317822
 20
113.1450172504926
 30
0.0
 11
643.5613380317822
 21
95.97344725049266
 31
0.0
  0
LINE
  5
8EC
330
2
100
AcDbEntity
  8
0
100
AcDbLine
 10
543.5613380317822
 20
95.97344725049266
 30
0.0
 11
543.5613380317822
 21
162.9734472504926
 31
0.0
  0
LINE
  5
8EF
330
2
100
AcDbEntity
  8
HIDS
100
AcDbLine
 10
406.0560837166813
 20
93.84031425049261
 30
0.0
 11
406.0560837166813
 21
97.77172625049264
 31
0.0
  0
LINE
  5
8F0
330
2
100
AcDbEntity
  8
0
100
AcDbLine
 10
423.5560837166813
 20
169.2665072504926
 30
0.0
 11
423.5560837166813
 21
89.68037125049267
 31
0.0
  0
ARC
  5
8F1
330
2
100
AcDbEntity
  8
0
100
AcDbCircle
 10
636.5613380317823
 20
95.97344725049266
 30
0.0
 40
7.0
100
AcDbArc
 50
227.3640750000003
 51
0.0
  0
LINE
  5
8F3
330
2
100
AcDbEntity
  8
HOJO
100
AcDbLine
 10
391.0560837166813
 20
91.97344725049266
 30
0.0
 11
423.5560837166813
 21
91.97344725049266
 31
0.0
  0
ARC
  5
8F4
330
2
100
AcDbEntity
  8
HIDS
100
AcDbCircle
 10
404.0560837166813
 20
93.84031425049261
 30
0.0
 40
2.0
100
AcDbArc
 50
271.0000000000001
 51
0.0
  0
ARC
  5
8F5
330
2
100
AcDbEntity
  8
HIDS
100
AcDbCircle
 10
404.6246257166813
 20
94.47344725049266
 30
0.0
 40
5.0
100
AcDbArc
 50
270.0
 51
314.9999999999994
  0
LINE
  5
8F6
330
2
100
AcDbEntity
  8
0
100
AcDbLine
 10
574.5613380317823
 20
93.97344725049265
 30
0.0
 11
612.5613380317822
 21
93.97344725049265
 31
0.0
  0
LINE
  5
8F7
330
2
100
AcDbEntity
  8
0
100
AcDbLine
 10
636.5613380317823
 20
88.97344725049265
 30
0.0
 11
550.5613380317822
 21
88.97344725049265
 31
0.0
  0
ARC
  5
8F8
330
2
100
AcDbEntity
  8
0
100
AcDbCircle
 10
550.5613380317822
 20
95.97344725049266
 30
0.0
 40
7.0
100
AcDbArc
 50
180.0
 51
312.6359249999997
  0
ARC
  5
8FA
330
2
100
AcDbEntity
  8
0
100
AcDbCircle
 10
559.3666970317822
 20
86.4097112504927
 30
0.0
 40
6.0
100
AcDbArc
 50
59.64169699999986
 51
132.6359249999996
  0
ARC
  5
8FB
330
2
100
AcDbEntity
  8
0
100
AcDbCircle
 10
574.5613380317823
 20
115.9734472504926
 30
0.0
 40
22.0
100
AcDbArc
 50
249.5126880000004
 51
270.0
  0
ARC
  5
8FC
330
2
100
AcDbEntity
  8
0
100
AcDbCircle
 10
569.9619730317822
 20
98.97344725049265
 30
0.0
 40
10.0
100
AcDbArc
 50
247.6683499999999
 51
270.0
  0
ARC
  5
8FD
330
2
100
AcDbEntity
  8
0
100
AcDbCircle
 10
567.5613380317822
 20
97.2384622504926
 30
0.0
 40
2.0
100
AcDbArc
 50
180.0
 51
249.5126800000003
  0
ARC
  5
8FE
330
2
100
AcDbEntity
  8
0
100
AcDbCircle
 10
569.5613380317822
 20
96.60851825049258
 30
0.0
 40
2.0
100
AcDbArc
 50
180.0
 51
255.5224909999997
  0
ARC
  5
8FF
330
2
100
AcDbEntity
  8
0
100
AcDbCircle
 10
577.5613380317822
 20
117.4734472504926
 30
0.0
 40
30.0
100
AcDbArc
 50
239.6416929999994
 51
247.6683499999999
  0
ARC
  5
900
330
2
100
AcDbEntity
  8
0
100
AcDbCircle
 10
609.5613380317822
 20
117.4734472504926
 30
0.0
 40
30.0
100
AcDbArc
 50
292.3316349999993
 51
300.3583070000006
  0
ARC
  5
901
330
2
100
AcDbEntity
  8
0
100
AcDbCircle
 10
612.5613380317822
 20
115.9734472504926
 30
0.0
 40
22.0
100
AcDbArc
 50
270.0
 51
290.4873049999995
  0
ARC
  5
902
330
2
100
AcDbEntity
  8
0
100
AcDbCircle
 10
619.5613380317823
 20
97.2384622504926
 30
0.0
 40
2.0
100
AcDbArc
 50
290.4873119999995
 51
0.0
  0
ARC
  5
903
330
2
100
AcDbEntity
  8
0
100
AcDbCircle
 10
617.5613380317822
 20
96.60851825049258
 30
0.0
 40
2.0
100
AcDbArc
 50
284.4775090000002
 51
0.0
  0
ARC
  5
904
330
2
100
AcDbEntity
  8
0
100
AcDbCircle
 10
617.1607030317822
 20
98.97344725049265
 30
0.0
 40
10.0
100
AcDbArc
 50
270.0
 51
292.3316349999993
  0
ARC
  5
905
330
2
100
AcDbEntity
  8
0
100
AcDbCircle
 10
627.7559790317823
 20
86.4097112504927
 30
0.0
 40
6.0
100
AcDbArc
 50
47.3640670000003
 51
120.3582990000005
  0
LINE
  5
906
330
2
100
AcDbEntity
  8
0
100
AcDbLine
 10
770.1168190317823
 20
89.47344725049266
 30
0.0
 11
726.1168190317824
 21
89.47344725049266
 31
0.0
  0
LINE
  5
907
330
2
100
AcDbEntity
  8
0
100
AcDbLine
 10
716.6168190317823
 20
91.47344725049265
 30
0.0
 11
644.9201030317824
 21
91.47344725049265
 31
0.0
  0
ARC
  5
908
330
2
100
AcDbEntity
  8
0
100
AcDbCircle
 10
644.9201030317824
 20
89.47344725049266
 30
0.0
 40
2.0
100
AcDbArc
 50
90.0
 51
110.3387299999997
  0
LINE
  5
909
330
2
100
AcDbEntity
  8
0
100
AcDbLine
 10
644.2249730317824
 20
91.34875225049269
 30
0.0
 11
638.9943210317824
 21
89.40986425049265
 31
0.0
  0
LINE
  5
90A
330
2
100
AcDbEntity
  8
0
100
AcDbLine
 10
726.1168190317824
 20
91.47344725049265
 30
0.0
 11
716.6168190317823
 21
91.47344725049265
 31
0.0
  0
ARC
  5
90B
330
2
100
AcDbEntity
  8
0
100
AcDbCircle
 10
770.1168190317823
 20
94.47344725049266
 30
0.0
 40
5.0
100
AcDbArc
 50
270.0
 51
0.0
  0
LINE
  5
90C
330
2
100
AcDbEntity
  8
HIDS
100
AcDbLine
 10
632.5613380317823
 20
329.8373461272992
 30
0.0
 11
640.5613380317823
 21
329.8373461272992
 31
0.0
  0
LINE
  5
90D
330
2
100
AcDbEntity
  8
HIDS
100
AcDbLine
 10
632.5613380317823
 20
345.8373461272992
 30
0.0
 11
640.5613380317823
 21
345.8373461272992
 31
0.0
  0
CIRCLE
  5
90E
330
2
100
AcDbEntity
  8
HOJO
100
AcDbCircle
 10
636.5613380317823
 20
162.9734472504926
 30
0.0
 40
4.0
  0
CIRCLE
  5
90F
330
2
100
AcDbEntity
  8
0
100
AcDbCircle
 10
636.5613380317823
 20
162.9734472504926
 30
0.0
 40
3.399999999999999
  0
LINE
  5
910
330
2
100
AcDbEntity
  8
0
100
AcDbLine
 10
544.2682470317822
 20
378.3373461272992
 30
0.0
 11
642.8544290317822
 21
378.3373461272992
 31
0.0
  0
LINE
  5
911
330
2
100
AcDbEntity
  8
0
100
AcDbLine
 10
644.5613380317823
 20
365.8373461272992
 30
0.0
 11
544.0501080317824
 21
365.8373461272992
 31
0.0
  0
LINE
  5
912
330
2
100
AcDbEntity
  8
0
100
AcDbLine
 10
642.8544290317822
 20
297.3373461272992
 30
0.0
 11
544.2682470317822
 21
297.3373461272992
 31
0.0
  0
LINE
  5
913
330
2
100
AcDbEntity
  8
CENTER
100
AcDbLine
 10
536.0205670317823
 20
337.8373461272992
 30
0.0
 11
783.6373490000162
 21
337.8373461272992
 31
0.0
  0
ARC
  5
914
330
2
100
AcDbEntity
  8
0
100
AcDbCircle
 10
636.5613380317823
 20
162.9734472504926
 30
0.0
 40
7.0
100
AcDbArc
 50
0.0
 51
132.6359249999996
  0
LINE
  5
916
330
2
100
AcDbEntity
  8
CENTER
100
AcDbLine
 10
536.0205670317823
 20
129.4734472504926
 30
0.0
 11
783.6373490000162
 21
129.4734472504926
 31
0.0
  0
LINE
  5
917
330
2
100
AcDbEntity
  8
0
100
AcDbLine
 10
575.4902930317824
 20
269.3373461272992
 30
0.0
 11
575.4902930317824
 21
290.8373461272992
 31
0.0
  0
LINE
  5
918
330
2
100
AcDbEntity
  8
0
100
AcDbLine
 10
573.0613380317822
 20
269.3373461272992
 30
0.0
 11
573.0613380317822
 21
293.3373461272992
 31
0.0
  0
LINE
  5
919
330
2
100
AcDbEntity
  8
0
100
AcDbLine
 10
590.0613380317822
 20
296.3373461272992
 30
0.0
 11
590.0613380317822
 21
269.3373461272992
 31
0.0
  0
LINE
  5
91A
330
2
100
AcDbEntity
  8
CENTER
100
AcDbLine
 10
582.5613380317823
 20
387.3324931272992
 30
0.0
 11
582.5613380317823
 21
264.9657941272991
 31
0.0
  0
LINE
  5
91B
330
2
100
AcDbEntity
  8
0
100
AcDbLine
 10
451.5560837166813
 20
126.9734472504926
 30
0.0
 11
430.0560837166813
 21
126.9734472504926
 31
0.0
  0
LINE
  5
91C
330
2
100
AcDbEntity
  8
0
100
AcDbLine
 10
451.5560837166813
 20
131.9734472504926
 30
0.0
 11
430.0560837166813
 21
131.9734472504926
 31
0.0
  0
LINE
  5
91D
330
2
100
AcDbEntity
  8
0
100
AcDbLine
 10
451.5560837166813
 20
121.9734472504926
 30
0.0
 11
424.5560837166813
 21
121.9734472504926
 31
0.0
  0
LINE
  5
91E
330
2
100
AcDbEntity
  8
0
100
AcDbLine
 10
451.5560837166813
 20
136.9734472504926
 30
0.0
 11
424.5560837166813
 21
136.9734472504926
 31
0.0
  0
LINE
  5
91F
330
2
100
AcDbEntity
  8
HIDS
100
AcDbLine
 10
423.0560837166812
 20
152.4734472504926
 30
0.0
 11
423.0560837166812
 21
107.9049052504926
 31
0.0
  0
LINE
  5
920
330
2
100
AcDbEntity
  8
0
100
AcDbLine
 10
390.3889997166814
 20
138.4291052504926
 30
0.0
 11
390.3889997166814
 21
120.5177892504926
 31
0.0
  0
ARC
  5
921
330
2
100
AcDbEntity
  8
HIDS
100
AcDbCircle
 10
383.0560837166813
 20
129.4734472504926
 30
0.0
 40
38.0
100
AcDbArc
 50
309.3567009999997
 51
50.64329900000029
  0
LINE
  5
923
330
2
100
AcDbEntity
  8
HOJO
100
AcDbLine
 10
391.0560837166813
 20
99.97344725049266
 30
0.0
 11
423.5560837166813
 21
99.97344725049266
 31
0.0
  0
LINE
  5
924
330
2
100
AcDbEntity
  8
0
100
AcDbLine
 10
392.3540877166813
 20
118.5180942504926
 30
0.0
 11
423.5560837166813
 21
117.9734472504926
 31
0.0
  0
LINE
  5
925
330
2
100
AcDbEntity
  8
0
100
AcDbLine
 10
390.0211717166813
 20
114.5588052504926
 30
0.0
 11
423.5560837166813
 21
113.9734472504926
 31
0.0
  0
ARC
  5
92B
330
2
100
AcDbEntity
  8
HIDS
100
AcDbCircle
 10
409.0560837166814
 20
97.77172625049264
 30
0.0
 40
3.0
100
AcDbArc
 50
129.356705
 51
180.0
  0
ARC
  5
92D
330
2
100
AcDbEntity
  8
0
100
AcDbCircle
 10
392.3889997166813
 20
120.5177892504926
 30
0.0
 40
2.0
100
AcDbArc
 50
180.0
 51
268.9999999999998
  0
ARC
  5
92E
330
2
100
AcDbEntity
  8
HIDS
100
AcDbCircle
 10
418.0560837166813
 20
107.9049052504926
 30
0.0
 40
5.0
100
AcDbArc
 50
314.9999999999994
 51
0.0
  0
LINE
  5
930
330
2
100
AcDbEntity
  8
0
100
AcDbLine
 10
424.5560837166813
 20
121.6621072504926
 30
0.0
 11
424.5560837166813
 21
137.2847872504926
 31
0.0
  0
ARC
  5
931
330
2
100
AcDbEntity
  8
0
100
AcDbCircle
 10
430.0560837166813
 20
129.4734472504926
 30
0.0
 40
2.5
100
AcDbArc
 50
90.0
 51
270.0
  0
LINE
  5
932
330
2
100
AcDbEntity
  8
0
100
AcDbLine
 10
423.7786487166813
 20
120.9734472504926
 30
0.0
 11
423.5560837166813
 21
120.9734472504926
 31
0.0
  0
ARC
  5
933
330
2
100
AcDbEntity
  8
0
100
AcDbCircle
 10
423.1541667166814
 20
122.8734412504926
 30
0.0
 40
2.0
100
AcDbArc
 50
288.1948699999997
 51
299.9999999999997
  0
ARC
  5
934
330
2
100
AcDbEntity
  8
0
100
AcDbCircle
 10
424.0560837166813
 20
121.6621072504926
 30
0.0
 40
0.5
100
AcDbArc
 50
299.9999999999997
 51
0.0
  0
LINE
  5
935
330
2
100
AcDbEntity
  8
0
100
AcDbLine
 10
424.3060837166813
 20
121.2291232504926
 30
0.0
 11
424.1541667166814
 21
121.1413852504926
 31
0.0
  0
LINE
  5
936
330
2
100
AcDbEntity
  8
0
100
AcDbLine
 10
423.7786487166813
 20
137.9734472504926
 30
0.0
 11
423.5560837166813
 21
137.9734472504926
 31
0.0
  0
ARC
  5
937
330
2
100
AcDbEntity
  8
0
100
AcDbCircle
 10
423.1541667166814
 20
136.0734532504926
 30
0.0
 40
2.0
100
AcDbArc
 50
60.00000000000028
 51
71.8051300000003
  0
ARC
  5
938
330
2
100
AcDbEntity
  8
0
100
AcDbCircle
 10
424.0560837166813
 20
137.2847872504926
 30
0.0
 40
0.5
100
AcDbArc
 50
0.0
 51
60.00000000000028
  0
LINE
  5
939
330
2
100
AcDbEntity
  8
0
100
AcDbLine
 10
424.3060837166813
 20
137.7177712504926
 30
0.0
 11
424.1541667166814
 21
137.8055092504926
 31
0.0
  0
LINE
  5
93B
330
2
100
AcDbEntity
  8
HIDS
100
AcDbLine
 10
391.0560837166813
 20
158.9734472504926
 30
0.0
 11
423.5560837166813
 21
158.9734472504926
 31
0.0
  0
LINE
  5
93C
330
2
100
AcDbEntity
  8
HIDS
100
AcDbLine
 10
391.0560837166813
 20
166.9734472504926
 30
0.0
 11
423.5560837166813
 21
166.9734472504926
 31
0.0
  0
LINE
  5
93D
330
2
100
AcDbEntity
  8
HIDS
100
AcDbLine
 10
420.0560837166813
 20
155.4734472504926
 30
0.0
 11
416.4530567166814
 21
155.4734472504926
 31
0.0
  0
LINE
  5
93E
330
2
100
AcDbEntity
  8
0
100
AcDbLine
 10
392.3540877166813
 20
140.4288002504926
 30
0.0
 11
423.5560837166813
 21
140.9734472504926
 31
0.0
  0
LINE
  5
93F
330
2
100
AcDbEntity
  8
0
100
AcDbLine
 10
390.0211717166813
 20
144.3880892504926
 30
0.0
 11
423.5560837166813
 21
144.9734472504926
 31
0.0
  0
LINE
  5
940
330
2
100
AcDbEntity
  8
HIDS
100
AcDbLine
 10
409.0560837166814
 20
162.8704202504926
 30
0.0
 11
416.4530567166814
 21
155.4734472504926
 31
0.0
  0
ARC
  5
942
330
2
100
AcDbEntity
  8
0
100
AcDbCircle
 10
392.3889997166813
 20
138.4291052504926
 30
0.0
 40
2.0
100
AcDbArc
 50
91.00000000000013
 51
180.0
  0
ARC
  5
948
330
2
100
AcDbEntity
  8
HIDS
100
AcDbCircle
 10
404.0560837166813
 20
165.1065952504926
 30
0.0
 40
2.0
100
AcDbArc
 50
0.0
 51
88.99999999999986
  0
LINE
  5
949
330
2
100
AcDbEntity
  8
HIDS
100
AcDbLine
 10
391.0560837166813
 20
166.9734472504926
 30
0.0
 11
391.0560837166813
 21
158.9734472504926
 31
0.0
  0
ARC
  5
94A
330
2
100
AcDbEntity
  8
HIDS
100
AcDbCircle
 10
406.0560837166813
 20
166.4734472504926
 30
0.0
 40
3.0
100
AcDbArc
 50
0.0
 51
90.0
  0
LINE
  5
94B
330
2
100
AcDbEntity
  8
HIDS
100
AcDbLine
 10
409.0560837166814
 20
166.4734472504926
 30
0.0
 11
409.0560837166814
 21
162.8704202504926
 31
0.0
  0
LINE
  5
94C
330
2
100
AcDbEntity
  8
HIDS
100
AcDbLine
 10
406.0560837166813
 20
165.1065952504926
 30
0.0
 11
406.0560837166813
 21
161.1751682504926
 31
0.0
  0
ARC
  5
94D
330
2
100
AcDbEntity
  8
HIDS
100
AcDbCircle
 10
409.0560837166814
 20
161.1751682504926
 30
0.0
 40
3.0
100
AcDbArc
 50
180.0
 51
230.6432949999999
  0
ARC
  5
94F
330
2
100
AcDbEntity
  8
HIDS
100
AcDbCircle
 10
420.0560837166813
 20
152.4734472504926
 30
0.0
 40
3.0
100
AcDbArc
 50
0.0
 51
90.0
  0
LINE
  5
950
330
2
100
AcDbEntity
  8
0
100
AcDbLine
 10
451.5560837166813
 20
136.9734472504926
 30
0.0
 11
451.5560837166813
 21
121.9734472504926
 31
0.0
  0
ARC
  5
951
330
2
100
AcDbEntity
  8
0
100
AcDbCircle
 10
582.5613380317823
 20
129.4734472504926
 30
0.0
 40
7.5
100
AcDbArc
 50
199.4712219999995
 51
160.5287780000004
  0
LINE
  5
952
330
2
100
AcDbEntity
  8
0
100
AcDbLine
 10
578.0613380317823
 20
126.9734472504926
 30
0.0
 11
573.0613380317822
 21
126.9734472504926
 31
0.0
  0
LINE
  5
953
330
2
100
AcDbEntity
  8
0
100
AcDbLine
 10
578.0613380317823
 20
131.9734472504926
 30
0.0
 11
573.0613380317822
 21
131.9734472504926
 31
0.0
  0
ARC
  5
954
330
2
100
AcDbEntity
  8
0
100
AcDbCircle
 10
582.5613380317823
 20
129.4734472504926
 30
0.0
 40
8.5
100
AcDbArc
 50
197.1046299999993
 51
162.8953700000006
  0
CIRCLE
  5
955
330
2
100
AcDbEntity
  8
0
100
AcDbCircle
 10
582.5613380317823
 20
129.4734472504926
 30
0.0
 40
25.002001
  0
CIRCLE
  5
956
330
2
100
AcDbEntity
  8
0
100
AcDbCircle
 10
582.5613380317823
 20
129.4734472504926
 30
0.0
 40
23.0
  0
CIRCLE
  5
957
330
2
100
AcDbEntity
  8
0
100
AcDbCircle
 10
582.5613380317823
 20
129.4734472504926
 30
0.0
 40
15.0
  0
CIRCLE
  5
958
330
2
100
AcDbEntity
  8
0
100
AcDbCircle
 10
582.5613380317823
 20
129.4734472504926
 30
0.0
 40
19.0
  0
LINE
  5
959
330
2
100
AcDbEntity
  8
0
100
AcDbLine
 10
574.5613380317823
 20
164.9734472504926
 30
0.0
 11
612.5613380317822
 21
164.9734472504926
 31
0.0
  0
LINE
  5
95A
330
2
100
AcDbEntity
  8
0
100
AcDbLine
 10
636.5613380317823
 20
169.9734472504926
 30
0.0
 11
550.5613380317822
 21
169.9734472504926
 31
0.0
  0
LINE
  5
95B
330
2
100
AcDbEntity
  8
0
100
AcDbLine
 10
552.5613380317822
 20
142.9734472504926
 30
0.0
 11
552.5613380317822
 21
115.9734472504926
 31
0.0
  0
LINE
  5
95C
330
2
100
AcDbEntity
  8
0
100
AcDbLine
 10
547.5613380317822
 20
118.8018772504926
 30
0.0
 11
547.5613380317822
 21
140.1450172504926
 31
0.0
  0
ARC
  5
95D
330
2
100
AcDbEntity
  8
0
100
AcDbCircle
 10
545.5613380317823
 20
118.8018772504926
 30
0.0
 40
2.0
100
AcDbArc
 50
314.9999999999994
 51
0.0
  0
ARC
  5
95E
330
2
100
AcDbEntity
  8
0
100
AcDbCircle
 10
545.5613380317823
 20
113.1450172504926
 30
0.0
 40
2.0
100
AcDbArc
 50
134.9999999999994
 51
180.0
  0
LINE
  5
95F
330
2
100
AcDbEntity
  8
0
100
AcDbLine
 10
546.9755230317823
 20
117.3876622504926
 30
0.0
 11
544.1471530317824
 21
114.5592322504926
 31
0.0
  0
LINE
  5
960
330
2
100
AcDbEntity
  8
0
100
AcDbLine
 10
558.0798320317824
 20
110.2750222504926
 30
0.0
 11
567.0798320317824
 21
99.77502225049262
 31
0.0
  0
LINE
  5
961
330
2
100
AcDbEntity
  8
0
100
AcDbLine
 10
557.1599710317823
 20
108.2750222504926
 30
0.0
 11
565.0798320317824
 21
99.03518425049265
 31
0.0
  0
ARC
  5
962
330
2
100
AcDbEntity
  8
0
100
AcDbCircle
 10
555.1964090317824
 20
110.9734472504926
 30
0.0
 40
2.0
100
AcDbArc
 50
194.4775090000004
 51
270.0
  0
ARC
  5
963
330
2
100
AcDbEntity
  8
0
100
AcDbCircle
 10
554.7875950317822
 20
112.9734472504926
 30
0.0
 40
2.0
100
AcDbArc
 50
188.626923
 51
270.0
  0
ARC
  5
964
330
2
100
AcDbEntity
  8
0
100
AcDbCircle
 10
574.5613380317823
 20
115.9734472504926
 30
0.0
 40
22.0
100
AcDbArc
 50
180.0
 51
194.4775090000004
  0
LINE
  5
965
330
2
100
AcDbEntity
  8
0
100
AcDbLine
 10
555.6414770317822
 20
108.9734472504926
 30
0.0
 11
555.1964090317824
 21
108.9734472504926
 31
0.0
  0
LINE
  5
966
330
2
100
AcDbEntity
  8
0
100
AcDbLine
 10
556.5613380317822
 20
110.9734472504926
 30
0.0
 11
554.7875950317822
 21
110.9734472504926
 31
0.0
  0
LINE
  5
967
330
2
100
AcDbEntity
  8
0
100
AcDbLine
 10
557.3970310317823
 20
110.7904642504926
 30
0.0
 11
556.4771710317822
 21
108.7904642504926
 31
0.0
  0
ARC
  5
968
330
2
100
AcDbEntity
  8
0
100
AcDbCircle
 10
556.5613380317822
 20
108.9734472504926
 30
0.0
 40
2.0
100
AcDbArc
 50
40.60129499999965
 51
90.0
  0
ARC
  5
969
330
2
100
AcDbEntity
  8
0
100
AcDbCircle
 10
555.6414770317822
 20
106.9734472504926
 30
0.0
 40
2.0
100
AcDbArc
 50
40.60129499999965
 51
90.0
  0
LINE
  5
96A
330
2
100
AcDbEntity
  8
0
100
AcDbLine
 10
567.4371310317821
 20
99.16732525049269
 30
0.0
 11
565.4371310317822
 21
98.42748825049262
 31
0.0
  0
ARC
  5
96B
330
2
100
AcDbEntity
  8
0
100
AcDbCircle
 10
563.5613380317822
 20
97.73360925049269
 30
0.0
 40
2.0
100
AcDbArc
 50
0.0
 51
40.60129499999965
  0
ARC
  5
96C
330
2
100
AcDbEntity
  8
0
100
AcDbCircle
 10
565.5613380317823
 20
98.47344725049266
 30
0.0
 40
2.0
100
AcDbArc
 50
0.0
 51
40.60129499999965
  0
LINE
  5
96D
330
2
100
AcDbEntity
  8
0
100
AcDbLine
 10
573.0613380317822
 20
131.9734472504926
 30
0.0
 11
573.0613380317822
 21
126.9734472504926
 31
0.0
  0
CIRCLE
  5
96E
330
2
100
AcDbEntity
  8
HOJO
100
AcDbCircle
 10
550.5613380317822
 20
162.9734472504926
 30
0.0
 40
4.0
  0
ARC
  5
96F
330
2
100
AcDbEntity
  8
0
100
AcDbCircle
 10
545.5613380317823
 20
140.1450172504926
 30
0.0
 40
2.0
100
AcDbArc
 50
0.0
 51
45.00000000000057
  0
ARC
  5
970
330
2
100
AcDbEntity
  8
0
100
AcDbCircle
 10
550.5613380317822
 20
162.9734472504926
 30
0.0
 40
7.0
100
AcDbArc
 50
47.3640670000003
 51
180.0
  0
ARC
  5
972
330
2
100
AcDbEntity
  8
0
100
AcDbCircle
 10
545.5613380317823
 20
145.8018772504926
 30
0.0
 40
2.0
100
AcDbArc
 50
180.0
 51
225.0000000000006
  0
LINE
  5
973
330
2
100
AcDbEntity
  8
0
100
AcDbLine
 10
546.9755230317823
 20
141.5592322504926
 30
0.0
 11
544.1471530317824
 21
144.3876622504926
 31
0.0
  0
LINE
  5
974
330
2
100
AcDbEntity
  8
0
100
AcDbLine
 10
558.0798320317824
 20
148.6718722504926
 30
0.0
 11
567.0798320317824
 21
159.1718722504927
 31
0.0
  0
LINE
  5
975
330
2
100
AcDbEntity
  8
0
100
AcDbLine
 10
557.1599710317823
 20
150.6718722504927
 30
0.0
 11
565.0798320317824
 21
159.9117102504926
 31
0.0
  0
ARC
  5
977
330
2
100
AcDbEntity
  8
0
100
AcDbCircle
 10
574.5613380317823
 20
142.9734472504926
 30
0.0
 40
22.0
100
AcDbArc
 50
165.5224909999995
 51
180.0
  0
ARC
  5
978
330
2
100
AcDbEntity
  8
0
100
AcDbCircle
 10
554.7875950317822
 20
145.9734472504926
 30
0.0
 40
2.0
100
AcDbArc
 50
90.0
 51
171.3730769999999
  0
LINE
  5
979
330
2
100
AcDbEntity
  8
0
100
AcDbLine
 10
557.3970310317823
 20
148.1564302504926
 30
0.0
 11
556.4771710317822
 21
150.1564302504927
 31
0.0
  0
ARC
  5
97A
330
2
100
AcDbEntity
  8
0
100
AcDbCircle
 10
556.5613380317822
 20
149.9734472504926
 30
0.0
 40
2.0
100
AcDbArc
 50
270.0
 51
319.3987050000003
  0
LINE
  5
97B
330
2
100
AcDbEntity
  8
0
100
AcDbLine
 10
556.5613380317822
 20
147.9734472504926
 30
0.0
 11
554.7875950317822
 21
147.9734472504926
 31
0.0
  0
ARC
  5
97C
330
2
100
AcDbEntity
  8
0
100
AcDbCircle
 10
555.1964090317824
 20
147.9734472504926
 30
0.0
 40
2.0
100
AcDbArc
 50
90.0
 51
165.5224909999995
  0
LINE
  5
97D
330
2
100
AcDbEntity
  8
0
100
AcDbLine
 10
555.6414770317822
 20
149.9734472504926
 30
0.0
 11
555.1964090317824
 21
149.9734472504926
 31
0.0
  0
ARC
  5
97E
330
2
100
AcDbEntity
  8
0
100
AcDbCircle
 10
555.6414770317822
 20
151.9734472504926
 30
0.0
 40
2.0
100
AcDbArc
 50
270.0
 51
319.3987050000003
  0
ARC
  5
97F
330
2
100
AcDbEntity
  8
0
100
AcDbCircle
 10
559.3666970317822
 20
172.5371982504925
 30
0.0
 40
6.0
100
AcDbArc
 50
227.3640750000003
 51
300.3583070000006
  0
CIRCLE
  5
980
330
2
100
AcDbEntity
  8
0
100
AcDbCircle
 10
550.5613380317822
 20
162.9734472504926
 30
0.0
 40
3.399999999999999
  0
ARC
  5
981
330
2
100
AcDbEntity
  8
0
100
AcDbCircle
 10
577.5613380317822
 20
141.4734472504926
 30
0.0
 40
30.0
100
AcDbArc
 50
112.3316420000001
 51
120.3582990000005
  0
ARC
  5
982
330
2
100
AcDbEntity
  8
0
100
AcDbCircle
 10
574.5613380317823
 20
142.9734472504926
 30
0.0
 40
22.0
100
AcDbArc
 50
90.0
 51
110.4873119999995
  0
ARC
  5
983
330
2
100
AcDbEntity
  8
0
100
AcDbCircle
 10
567.5613380317822
 20
161.7084322504927
 30
0.0
 40
2.0
100
AcDbArc
 50
110.4873119999995
 51
180.0
  0
ARC
  5
984
330
2
100
AcDbEntity
  8
0
100
AcDbCircle
 10
569.5613380317822
 20
162.3383762504927
 30
0.0
 40
2.0
100
AcDbArc
 50
104.4775090000001
 51
180.0
  0
LINE
  5
985
330
2
100
AcDbEntity
  8
0
100
AcDbLine
 10
567.4371310317821
 20
159.7795692504926
 30
0.0
 11
565.4371310317822
 21
160.5194062504927
 31
0.0
  0
ARC
  5
986
330
2
100
AcDbEntity
  8
0
100
AcDbCircle
 10
563.5613380317822
 20
161.2132852504926
 30
0.0
 40
2.0
100
AcDbArc
 50
319.3987050000003
 51
0.0
  0
ARC
  5
987
330
2
100
AcDbEntity
  8
0
100
AcDbCircle
 10
565.5613380317823
 20
160.4734472504926
 30
0.0
 40
2.0
100
AcDbArc
 50
319.3987050000003
 51
0.0
  0
LINE
  5
988
330
2
100
AcDbEntity
  8
0
100
AcDbLine
 10
567.5613380317822
 20
160.4734472504926
 30
0.0
 11
567.5613380317822
 21
162.3383762504927
 31
0.0
  0
LINE
  5
989
330
2
100
AcDbEntity
  8
0
100
AcDbLine
 10
565.5613380317823
 20
161.2132852504926
 30
0.0
 11
565.5613380317823
 21
161.7084322504927
 31
0.0
  0
ARC
  5
98A
330
2
100
AcDbEntity
  8
0
100
AcDbCircle
 10
569.9619730317822
 20
159.9734472504926
 30
0.0
 40
10.0
100
AcDbArc
 50
90.0
 51
112.3316420000001
  0
LINE
  5
98B
330
2
100
AcDbEntity
  8
0
100
AcDbLine
 10
634.5613380317822
 20
142.9734472504926
 30
0.0
 11
634.5613380317822
 21
115.9734472504926
 31
0.0
  0
LINE
  5
98D
330
2
100
AcDbEntity
  8
0
100
AcDbLine
 10
578.0613380317823
 20
131.9734472504926
 30
0.0
 11
578.0613380317823
 21
126.9734472504926
 31
0.0
  0
LINE
  5
98E
330
2
100
AcDbEntity
  8
0
100
AcDbLine
 10
629.0428440317823
 20
110.2750222504926
 30
0.0
 11
620.0428440317823
 21
99.77502225049262
 31
0.0
  0
LINE
  5
98F
330
2
100
AcDbEntity
  8
0
100
AcDbLine
 10
629.9627050317821
 20
108.2750222504926
 30
0.0
 11
622.0428440317824
 21
99.03518425049265
 31
0.0
  0
LINE
  5
990
330
2
100
AcDbEntity
  8
0
100
AcDbLine
 10
619.6855450317823
 20
99.16732525049269
 30
0.0
 11
621.6855450317823
 21
98.42748825049262
 31
0.0
  0
ARC
  5
991
330
2
100
AcDbEntity
  8
0
100
AcDbCircle
 10
623.5613380317822
 20
97.73360925049269
 30
0.0
 40
2.0
100
AcDbArc
 50
139.3987120000005
 51
180.0
  0
ARC
  5
992
330
2
100
AcDbEntity
  8
0
100
AcDbCircle
 10
621.5613380317822
 20
98.47344725049266
 30
0.0
 40
2.0
100
AcDbArc
 50
139.3987120000005
 51
180.0
  0
ARC
  5
993
330
2
100
AcDbEntity
  8
0
100
AcDbCircle
 10
630.5613380317822
 20
108.9734472504926
 30
0.0
 40
2.0
100
AcDbArc
 50
90.0
 51
139.3987120000005
  0
ARC
  5
994
330
2
100
AcDbEntity
  8
0
100
AcDbCircle
 10
612.5613380317822
 20
115.9734472504926
 30
0.0
 40
22.0
100
AcDbArc
 50
345.5224880000002
 51
0.0
  0
ARC
  5
995
330
2
100
AcDbEntity
  8
0
100
AcDbCircle
 10
631.9262670317823
 20
110.9734472504926
 30
0.0
 40
2.0
100
AcDbArc
 50
270.0
 51
345.5224909999996
  0
ARC
  5
996
330
2
100
AcDbEntity
  8
0
100
AcDbCircle
 10
632.3350810317822
 20
112.9734472504926
 30
0.0
 40
2.0
100
AcDbArc
 50
270.0
 51
351.373077
  0
LINE
  5
997
330
2
100
AcDbEntity
  8
0
100
AcDbLine
 10
631.4811990317823
 20
108.9734472504926
 30
0.0
 11
631.9262670317823
 21
108.9734472504926
 31
0.0
  0
LINE
  5
998
330
2
100
AcDbEntity
  8
0
100
AcDbLine
 10
630.5613380317822
 20
110.9734472504926
 30
0.0
 11
632.3350810317822
 21
110.9734472504926
 31
0.0
  0
LINE
  5
999
330
2
100
AcDbEntity
  8
0
100
AcDbLine
 10
629.7256450317822
 20
110.7904642504926
 30
0.0
 11
630.6455050317822
 21
108.7904642504926
 31
0.0
  0
ARC
  5
99A
330
2
100
AcDbEntity
  8
0
100
AcDbCircle
 10
631.4811990317823
 20
106.9734472504926
 30
0.0
 40
2.0
100
AcDbArc
 50
90.0
 51
139.3987120000005
  0
LINE
  5
99B
330
2
100
AcDbEntity
  8
0
100
AcDbLine
 10
629.0428440317823
 20
148.6718722504926
 30
0.0
 11
620.0428440317823
 21
159.1718722504927
 31
0.0
  0
LINE
  5
99C
330
2
100
AcDbEntity
  8
0
100
AcDbLine
 10
629.9627050317821
 20
150.6718722504927
 30
0.0
 11
622.0428440317824
 21
159.9117102504926
 31
0.0
  0
ARC
  5
99E
330
2
100
AcDbEntity
  8
0
100
AcDbCircle
 10
612.5613380317822
 20
142.9734472504926
 30
0.0
 40
22.0
100
AcDbArc
 50
0.0
 51
14.47751199999975
  0
ARC
  5
99F
330
2
100
AcDbEntity
  8
0
100
AcDbCircle
 10
632.3350810317822
 20
145.9734472504926
 30
0.0
 40
2.0
100
AcDbArc
 50
8.626927000000565
 51
90.0
  0
LINE
  5
9A0
330
2
100
AcDbEntity
  8
0
100
AcDbLine
 10
629.7256450317822
 20
148.1564302504926
 30
0.0
 11
630.6455050317822
 21
150.1564302504927
 31
0.0
  0
ARC
  5
9A1
330
2
100
AcDbEntity
  8
0
100
AcDbCircle
 10
630.5613380317822
 20
149.9734472504926
 30
0.0
 40
2.0
100
AcDbArc
 50
220.6012879999994
 51
270.0
  0
LINE
  5
9A2
330
2
100
AcDbEntity
  8
0
100
AcDbLine
 10
630.5613380317822
 20
147.9734472504926
 30
0.0
 11
632.3350810317822
 21
147.9734472504926
 31
0.0
  0
ARC
  5
9A3
330
2
100
AcDbEntity
  8
0
100
AcDbCircle
 10
631.9262670317823
 20
147.9734472504926
 30
0.0
 40
2.0
100
AcDbArc
 50
14.47751199999975
 51
90.0
  0
LINE
  5
9A4
330
2
100
AcDbEntity
  8
0
100
AcDbLine
 10
631.4811990317823
 20
149.9734472504926
 30
0.0
 11
631.9262670317823
 21
149.9734472504926
 31
0.0
  0
ARC
  5
9A5
330
2
100
AcDbEntity
  8
0
100
AcDbCircle
 10
631.4811990317823
 20
151.9734472504926
 30
0.0
 40
2.0
100
AcDbArc
 50
220.6012879999994
 51
270.0
  0
ARC
  5
9A6
330
2
100
AcDbEntity
  8
0
100
AcDbCircle
 10
609.5613380317822
 20
141.4734472504926
 30
0.0
 40
30.0
100
AcDbArc
 50
59.64169699999986
 51
67.66835799999981
  0
ARC
  5
9A7
330
2
100
AcDbEntity
  8
0
100
AcDbCircle
 10
612.5613380317822
 20
142.9734472504926
 30
0.0
 40
22.0
100
AcDbArc
 50
69.51268800000041
 51
90.0
  0
ARC
  5
9A8
330
2
100
AcDbEntity
  8
0
100
AcDbCircle
 10
619.5613380317823
 20
161.7084322504927
 30
0.0
 40
2.0
100
AcDbArc
 50
0.0
 51
69.51268800000041
  0
ARC
  5
9A9
330
2
100
AcDbEntity
  8
0
100
AcDbCircle
 10
617.5613380317822
 20
162.3383762504927
 30
0.0
 40
2.0
100
AcDbArc
 50
0.0
 51
75.52249099999979
  0
LINE
  5
9AA
330
2
100
AcDbEntity
  8
0
100
AcDbLine
 10
619.6855450317823
 20
159.7795692504926
 30
0.0
 11
621.6855450317823
 21
160.5194062504927
 31
0.0
  0
ARC
  5
9AB
330
2
100
AcDbEntity
  8
0
100
AcDbCircle
 10
623.5613380317822
 20
161.2132852504926
 30
0.0
 40
2.0
100
AcDbArc
 50
180.0
 51
220.6012879999994
  0
ARC
  5
9AC
330
2
100
AcDbEntity
  8
0
100
AcDbCircle
 10
621.5613380317822
 20
160.4734472504926
 30
0.0
 40
2.0
100
AcDbArc
 50
180.0
 51
220.6012879999994
  0
LINE
  5
9AD
330
2
100
AcDbEntity
  8
0
100
AcDbLine
 10
619.5613380317823
 20
160.4734472504926
 30
0.0
 11
619.5613380317823
 21
162.3383762504927
 31
0.0
  0
LINE
  5
9AE
330
2
100
AcDbEntity
  8
0
100
AcDbLine
 10
621.5613380317822
 20
161.2132852504926
 30
0.0
 11
621.5613380317822
 21
161.7084322504927
 31
0.0
  0
ARC
  5
9AF
330
2
100
AcDbEntity
  8
0
100
AcDbCircle
 10
617.1607030317822
 20
159.9734472504926
 30
0.0
 40
10.0
100
AcDbArc
 50
67.66835799999981
 51
90.0
  0
ARC
  5
9B0
330
2
100
AcDbEntity
  8
0
100
AcDbCircle
 10
627.7559790317823
 20
172.5371982504925
 30
0.0
 40
6.0
100
AcDbArc
 50
239.6416929999994
 51
312.6359249999997
  0
LINE
  5
9B1
330
2
100
AcDbEntity
  8
0
100
AcDbLine
 10
573.0613380317822
 20
269.3373461272992
 30
0.0
 11
590.0613380317822
 21
269.3373461272992
 31
0.0
  0
LINE
  5
9B2
330
2
100
AcDbEntity
  8
HIDS
100
AcDbLine
 10
632.3113380317822
 20
365.8373461272992
 30
0.0
 11
632.3113380317822
 21
378.3373461272992
 31
0.0
  0
LINE
  5
9B3
330
2
100
AcDbEntity
  8
HIDS
100
AcDbLine
 10
554.8113380317822
 20
365.8373461272992
 30
0.0
 11
554.8113380317822
 21
378.3373461272992
 31
0.0
  0
LINE
  5
9B4
330
2
100
AcDbEntity
  8
HIDS
100
AcDbLine
 10
546.3113380317822
 20
365.8373461272992
 30
0.0
 11
546.3113380317822
 21
378.3373461272992
 31
0.0
  0
LINE
  5
9B5
330
2
100
AcDbEntity
  8
0
100
AcDbLine
 10
627.9033180317824
 20
378.3373461272992
 30
0.0
 11
627.9033180317824
 21
345.0413561272991
 31
0.0
  0
LINE
  5
9B6
330
2
100
AcDbEntity
  8
0
100
AcDbLine
 10
618.9288310317822
 20
378.3373461272992
 30
0.0
 11
618.9288310317822
 21
342.8373461272992
 31
0.0
  0
LINE
  5
9B7
330
2
100
AcDbEntity
  8
0
100
AcDbLine
 10
559.2193580317823
 20
378.3373461272992
 30
0.0
 11
559.2193580317823
 21
345.0413561272991
 31
0.0
  0
LINE
  5
9B8
330
2
100
AcDbEntity
  8
0
100
AcDbLine
 10
568.1938450317822
 20
378.3373461272992
 30
0.0
 11
568.1938450317822
 21
342.8373461272992
 31
0.0
  0
LINE
  5
9B9
330
2
100
AcDbEntity
  8
0
100
AcDbLine
 10
543.5613380317822
 20
337.8373461272992
 30
0.0
 11
544.2682470317822
 21
378.3373461272992
 31
0.0
  0
LINE
  5
9BA
330
2
100
AcDbEntity
  8
CENTER
100
AcDbLine
 10
550.5613380317822
 20
293.9784291272992
 30
0.0
 11
550.5613380317822
 21
381.6534471272992
 31
0.0
  0
LINE
  5
9BB
330
2
100
AcDbEntity
  8
CENTER
100
AcDbLine
 10
636.5613380317823
 20
293.9784291272992
 30
0.0
 11
636.5613380317823
 21
381.6534471272992
 31
0.0
  0
LINE
  5
9BC
330
2
100
AcDbEntity
  8
0
100
AcDbLine
 10
574.7499980317822
 20
296.3373461272992
 30
0.0
 11
590.3726780317824
 21
296.3373461272992
 31
0.0
  0
LINE
  5
9BD
330
2
100
AcDbEntity
  8
HIDS
100
AcDbLine
 10
554.5613380317822
 20
297.3373461272992
 30
0.0
 11
554.5613380317822
 21
329.8373461272992
 31
0.0
  0
LINE
  5
9BE
330
2
100
AcDbEntity
  8
HIDS
100
AcDbLine
 10
546.5613380317822
 20
297.3373461272992
 30
0.0
 11
546.5613380317822
 21
329.8373461272992
 31
0.0
  0
LINE
  5
9BF
330
2
100
AcDbEntity
  8
HIDS
100
AcDbLine
 10
553.9613620317823
 20
365.8373461272992
 30
0.0
 11
553.9613620317823
 21
297.3373461272992
 31
0.0
  0
LINE
  5
9C0
330
2
100
AcDbEntity
  8
HIDS
100
AcDbLine
 10
547.1613140317822
 20
365.8373461272992
 30
0.0
 11
547.1613140317822
 21
297.3373461272992
 31
0.0
  0
LINE
  5
9C1
330
2
100
AcDbEntity
  8
0
100
AcDbLine
 10
568.1938450317822
 20
332.8373461272992
 30
0.0
 11
568.1938450317822
 21
297.3373461272992
 31
0.0
  0
LINE
  5
9C2
330
2
100
AcDbEntity
  8
0
100
AcDbLine
 10
559.2193580317823
 20
330.6333361272993
 30
0.0
 11
559.2193580317823
 21
297.3373461272992
 31
0.0
  0
LINE
  5
9C3
330
2
100
AcDbEntity
  8
0
100
AcDbLine
 10
543.5613380317822
 20
337.8373461272992
 30
0.0
 11
544.2682470317822
 21
297.3373461272992
 31
0.0
  0
LINE
  5
9C4
330
2
100
AcDbEntity
  8
0
100
AcDbLine
 10
574.0613380317823
 20
297.1147811272992
 30
0.0
 11
574.0613380317823
 21
297.3373461272992
 31
0.0
  0
ARC
  5
9C5
330
2
100
AcDbEntity
  8
0
100
AcDbCircle
 10
575.9613620317822
 20
297.7392631272991
 30
0.0
 40
2.0
100
AcDbArc
 50
198.1948700000007
 51
210.0000000000001
  0
ARC
  5
9C6
330
2
100
AcDbEntity
  8
0
100
AcDbCircle
 10
574.7499980317822
 20
296.8373461272992
 30
0.0
 40
0.5
100
AcDbArc
 50
210.0000000000001
 51
270.0
  0
LINE
  5
9C7
330
2
100
AcDbEntity
  8
0
100
AcDbLine
 10
574.3170140317822
 20
296.5873461272992
 30
0.0
 11
574.2293070317823
 21
296.7392631272991
 31
0.0
  0
ARC
  5
9C8
330
2
100
AcDbEntity
  8
0
100
AcDbCircle
 10
567.9902930317823
 20
290.8373461272992
 30
0.0
 40
7.500003999999999
100
AcDbArc
 50
0.0
 51
19.47121200000053
  0
LINE
  5
9C9
330
2
100
AcDbEntity
  8
0
100
AcDbLine
 10
575.0613380317822
 20
293.3373461272992
 30
0.0
 11
575.0613380317822
 21
296.3373461272992
 31
0.0
  0
LINE
  5
9CA
330
2
100
AcDbEntity
  8
0
100
AcDbLine
 10
573.0613380317822
 20
293.3373461272992
 30
0.0
 11
575.0613380317822
 21
293.3373461272992
 31
0.0
  0
LINE
  5
9CB
330
2
100
AcDbEntity
  8
HIDS
100
AcDbLine
 10
546.5613380317822
 20
329.8373461272992
 30
0.0
 11
554.5613380317822
 21
329.8373461272992
 31
0.0
  0
LINE
  5
9CC
330
2
100
AcDbEntity
  8
HIDS
100
AcDbLine
 10
546.5613380317822
 20
345.8373461272992
 30
0.0
 11
554.5613380317822
 21
345.8373461272992
 31
0.0
  0
LINE
  5
9CD
330
2
100
AcDbEntity
  8
HIDS
100
AcDbLine
 10
546.5613380317822
 20
365.8373461272992
 30
0.0
 11
546.5613380317822
 21
345.8373461272992
 31
0.0
  0
LINE
  5
9CE
330
2
100
AcDbEntity
  8
HIDS
100
AcDbLine
 10
554.5613380317822
 20
365.8373461272992
 30
0.0
 11
554.5613380317822
 21
345.8373461272992
 31
0.0
  0
ARC
  5
9CF
330
2
100
AcDbEntity
  8
0
100
AcDbCircle
 10
559.2193580317823
 20
341.6333361272993
 30
0.0
 40
11.0
100
AcDbArc
 50
244.2822720000002
 51
291.0753169999998
  0
LINE
  5
9D0
330
2
100
AcDbEntity
  8
0
100
AcDbLine
 10
568.1938450317822
 20
332.8373461272992
 30
0.0
 11
550.6486180317822
 21
332.8373461272992
 31
0.0
  0
ARC
  5
9D1
330
2
100
AcDbEntity
  8
0
100
AcDbCircle
 10
559.2193580317823
 20
334.0413561272991
 30
0.0
 40
11.0
100
AcDbArc
 50
68.92466700000015
 51
115.7177279999996
  0
LINE
  5
9D2
330
2
100
AcDbEntity
  8
0
100
AcDbLine
 10
568.1938450317822
 20
342.8373461272992
 30
0.0
 11
550.6486180317822
 21
342.8373461272992
 31
0.0
  0
LINE
  5
9D3
330
2
100
AcDbEntity
  8
0
100
AcDbLine
 10
554.4460430317822
 20
331.7229661272993
 30
0.0
 11
553.4692360317824
 21
332.1934861272993
 31
0.0
  0
ARC
  5
9D4
330
2
100
AcDbEntity
  8
0
100
AcDbCircle
 10
550.6486180317822
 20
326.3373461272992
 30
0.0
 40
6.5
100
AcDbArc
 50
64.28227200000034
 51
90.0
  0
LINE
  5
9D5
330
2
100
AcDbEntity
  8
0
100
AcDbLine
 10
554.4460430317822
 20
343.9517261272992
 30
0.0
 11
553.4692360317824
 21
343.4812061272991
 31
0.0
  0
ARC
  5
9D6
330
2
100
AcDbEntity
  8
0
100
AcDbCircle
 10
550.6486180317822
 20
349.3373461272992
 30
0.0
 40
6.5
100
AcDbArc
 50
270.0
 51
295.7177279999996
  0
ARC
  5
9D7
330
2
100
AcDbEntity
  8
0
100
AcDbCircle
 10
568.1938450317822
 20
326.3373461272992
 30
0.0
 40
6.5
100
AcDbArc
 50
90.0
 51
111.0753329999998
  0
LINE
  5
9D8
330
2
100
AcDbEntity
  8
0
100
AcDbLine
 10
565.8564430317824
 20
332.4025621272992
 30
0.0
 11
563.1749240317824
 21
331.3691451272993
 31
0.0
  0
ARC
  5
9D9
330
2
100
AcDbEntity
  8
0
100
AcDbCircle
 10
568.1938450317822
 20
349.3373461272992
 30
0.0
 40
6.5
100
AcDbArc
 50
248.9246670000001
 51
270.0
  0
LINE
  5
9DA
330
2
100
AcDbEntity
  8
0
100
AcDbLine
 10
565.8564430317824
 20
343.2721301272993
 30
0.0
 11
563.1749240317824
 21
344.3055471272991
 31
0.0
  0
LINE
  5
9DB
330
2
100
AcDbEntity
  8
HIDS
100
AcDbLine
 10
632.5613380317823
 20
297.3373461272992
 30
0.0
 11
632.5613380317823
 21
329.8373461272992
 31
0.0
  0
LINE
  5
9DC
330
2
100
AcDbEntity
  8
HIDS
100
AcDbLine
 10
633.1613140317822
 20
365.8373461272992
 30
0.0
 11
633.1613140317822
 21
297.3373461272992
 31
0.0
  0
LINE
  5
9DD
330
2
100
AcDbEntity
  8
0
100
AcDbLine
 10
627.9033180317824
 20
330.6333361272993
 30
0.0
 11
627.9033180317824
 21
297.3373461272992
 31
0.0
  0
LINE
  5
9DE
330
2
100
AcDbEntity
  8
0
100
AcDbLine
 10
618.9288310317822
 20
332.8373461272992
 30
0.0
 11
618.9288310317822
 21
297.3373461272992
 31
0.0
  0
LINE
  5
9DF
330
2
100
AcDbEntity
  8
0
100
AcDbLine
 10
591.0613380317823
 20
297.1147811272992
 30
0.0
 11
591.0613380317823
 21
297.3373461272992
 31
0.0
  0
ARC
  5
9E0
330
2
100
AcDbEntity
  8
0
100
AcDbCircle
 10
589.1613140317822
 20
297.7392631272991
 30
0.0
 40
2.0
100
AcDbArc
 50
329.9999999999998
 51
341.8051279999994
  0
ARC
  5
9E1
330
2
100
AcDbEntity
  8
0
100
AcDbCircle
 10
590.3726780317824
 20
296.8373461272992
 30
0.0
 40
0.5
100
AcDbArc
 50
270.0
 51
329.9999999999998
  0
LINE
  5
9E2
330
2
100
AcDbEntity
  8
0
100
AcDbLine
 10
590.8056620317823
 20
296.5873461272992
 30
0.0
 11
590.8933690317821
 21
296.7392631272991
 31
0.0
  0
LINE
  5
9E3
330
2
100
AcDbEntity
  8
HIDS
100
AcDbLine
 10
632.5613380317823
 20
365.8373461272992
 30
0.0
 11
632.5613380317823
 21
345.8373461272992
 31
0.0
  0
LINE
  5
9E4
330
2
100
AcDbEntity
  8
0
100
AcDbLine
 10
621.2661720317823
 20
332.4025621272992
 30
0.0
 11
623.9477520317823
 21
331.3691451272993
 31
0.0
  0
LINE
  5
9E5
330
2
100
AcDbEntity
  8
0
100
AcDbLine
 10
618.9288310317822
 20
332.8373461272992
 30
0.0
 11
636.4740580317823
 21
332.8373461272992
 31
0.0
  0
LINE
  5
9E6
330
2
100
AcDbEntity
  8
0
100
AcDbLine
 10
621.2661720317823
 20
343.2721301272993
 30
0.0
 11
623.9477520317823
 21
344.3055471272991
 31
0.0
  0
LINE
  5
9E7
330
2
100
AcDbEntity
  8
0
100
AcDbLine
 10
618.9288310317822
 20
342.8373461272992
 30
0.0
 11
636.4740580317823
 21
342.8373461272992
 31
0.0
  0
ARC
  5
9E8
330
2
100
AcDbEntity
  8
0
100
AcDbCircle
 10
618.9288310317822
 20
326.3373461272992
 30
0.0
 40
6.5
100
AcDbArc
 50
68.92466700000015
 51
90.0
  0
ARC
  5
9E9
330
2
100
AcDbEntity
  8
0
100
AcDbCircle
 10
618.9288310317822
 20
349.3373461272992
 30
0.0
 40
6.5
100
AcDbArc
 50
270.0
 51
291.0753169999998
  0
ARC
  5
9EA
330
2
100
AcDbEntity
  8
0
100
AcDbCircle
 10
627.9033180317824
 20
341.6333361272993
 30
0.0
 40
11.0
100
AcDbArc
 50
248.9246670000001
 51
295.7177279999996
  0
LINE
  5
9EB
330
2
100
AcDbEntity
  8
0
100
AcDbLine
 10
632.6766330317823
 20
331.7229661272993
 30
0.0
 11
633.6534400317823
 21
332.1934861272993
 31
0.0
  0
ARC
  5
9EC
330
2
100
AcDbEntity
  8
0
100
AcDbCircle
 10
636.4740580317823
 20
326.3373461272992
 30
0.0
 40
6.5
100
AcDbArc
 50
90.0
 51
115.7177279999996
  0
ARC
  5
9ED
330
2
100
AcDbEntity
  8
0
100
AcDbCircle
 10
627.9033180317824
 20
334.0413561272991
 30
0.0
 40
11.0
100
AcDbArc
 50
64.28227200000034
 51
111.0753329999998
  0
LINE
  5
9EE
330
2
100
AcDbEntity
  8
0
100
AcDbLine
 10
632.6766330317823
 20
343.9517261272992
 30
0.0
 11
633.6534400317823
 21
343.4812061272991
 31
0.0
  0
ARC
  5
9EF
330
2
100
AcDbEntity
  8
0
100
AcDbCircle
 10
636.4740580317823
 20
349.3373461272992
 30
0.0
 40
6.5
100
AcDbArc
 50
244.2822720000002
 51
270.0
  0
LINE
  5
9F0
330
2
100
AcDbEntity
  8
0
100
AcDbLine
 10
772.3668190317823
 20
153.4734472504926
 30
0.0
 11
726.1168190317824
 21
153.4734472504926
 31
0.0
  0
LINE
  5
9F1
330
2
100
AcDbEntity
  8
0
100
AcDbLine
 10
772.3668190317823
 20
103.4734472504926
 30
0.0
 11
726.1168190317824
 21
103.4734472504926
 31
0.0
  0
LINE
  5
9F2
330
2
100
AcDbEntity
  8
0
100
AcDbLine
 10
770.1168190317823
 20
169.4734472504926
 30
0.0
 11
726.1168190317824
 21
169.4734472504926
 31
0.0
  0
LINE
  5
9F7
330
2
100
AcDbEntity
  8
0
100
AcDbLine
 10
716.6168190317823
 20
159.7224092504926
 30
0.0
 11
643.5613380317822
 21
159.7224092504926
 31
0.0
  0
LINE
  5
9F8
330
2
100
AcDbEntity
  8
0
100
AcDbLine
 10
716.6168190317823
 20
99.22448525049265
 30
0.0
 11
643.5613380317822
 21
99.22448525049265
 31
0.0
  0
LINE
  5
9F9
330
2
100
AcDbEntity
  8
0
100
AcDbLine
 10
716.6168190317823
 20
167.4734472504926
 30
0.0
 11
644.9201030317824
 21
167.4734472504926
 31
0.0
  0
LINE
  5
9FA
330
2
100
AcDbEntity
  8
0
100
AcDbLine
 10
639.5613380317822
 20
118.8018772504926
 30
0.0
 11
639.5613380317822
 21
140.1450172504926
 31
0.0
  0
ARC
  5
9FB
330
2
100
AcDbEntity
  8
0
100
AcDbCircle
 10
641.5613380317823
 20
118.8018772504926
 30
0.0
 40
2.0
100
AcDbArc
 50
180.0
 51
225.0000000000006
  0
ARC
  5
9FC
330
2
100
AcDbEntity
  8
0
100
AcDbCircle
 10
641.5613380317823
 20
113.1450172504926
 30
0.0
 40
2.0
100
AcDbArc
 50
0.0
 51
45.00000000000057
  0
LINE
  5
9FD
330
2
100
AcDbEntity
  8
0
100
AcDbLine
 10
640.1471530317824
 20
117.3876622504926
 30
0.0
 11
642.9755230317823
 21
114.5592322504926
 31
0.0
  0
LINE
  5
9FE
330
2
100
AcDbEntity
  8
0
100
AcDbLine
 10
643.5613380317822
 20
162.9734472504926
 30
0.0
 11
643.5613380317822
 21
145.8018772504926
 31
0.0
  0
ARC
  5
9FF
330
2
100
AcDbEntity
  8
0
100
AcDbCircle
 10
641.5613380317823
 20
140.1450172504926
 30
0.0
 40
2.0
100
AcDbArc
 50
134.9999999999994
 51
180.0
  0
ARC
  5
A00
330
2
100
AcDbEntity
  8
0
100
AcDbCircle
 10
641.5613380317823
 20
145.8018772504926
 30
0.0
 40
2.0
100
AcDbArc
 50
314.9999999999994
 51
0.0
  0
LINE
  5
A01
330
2
100
AcDbEntity
  8
0
100
AcDbLine
 10
640.1471530317824
 20
141.5592322504926
 30
0.0
 11
642.9755230317823
 21
144.3876622504926
 31
0.0
  0
LINE
  5
A02
330
2
100
AcDbEntity
  8
0
100
AcDbLine
 10
644.2249730317824
 20
167.5981422504926
 30
0.0
 11
638.9943210317824
 21
169.5370152504926
 31
0.0
  0
ARC
  5
A03
330
2
100
AcDbEntity
  8
0
100
AcDbCircle
 10
644.9201030317824
 20
169.4734472504926
 30
0.0
 40
2.0
100
AcDbArc
 50
249.6612700000003
 51
270.0
  0
LINE
  5
A04
330
2
100
AcDbEntity
  8
0
100
AcDbLine
 10
726.1168190317824
 20
99.22445425049261
 30
0.0
 11
716.6168190317823
 21
99.22445425049261
 31
0.0
  0
LINE
  5
A07
330
2
100
AcDbEntity
  8
0
100
AcDbLine
 10
726.1168190317824
 20
159.7224402504926
 30
0.0
 11
716.6168190317823
 21
159.7224402504926
 31
0.0
  0
LINE
  5
A08
330
2
100
AcDbEntity
  8
0
100
AcDbLine
 10
726.1168190317824
 20
167.4734472504926
 30
0.0
 11
716.6168190317823
 21
167.4734472504926
 31
0.0
  0
ARC
  5
A0E
330
2
100
AcDbEntity
  8
0
100
AcDbCircle
 10
770.1168190317823
 20
164.4734472504926
 30
0.0
 40
5.0
100
AcDbArc
 50
0.0
 51
90.0
  0
LINE
  5
A0F
330
2
100
AcDbEntity
  8
0
100
AcDbLine
 10
772.8668190317823
 20
313.8373461272992
 30
0.0
 11
726.1168190317824
 21
313.8373461272992
 31
0.0
  0
LINE
  5
A10
330
2
100
AcDbEntity
  8
0
100
AcDbLine
 10
772.8668190317823
 20
361.8373461272992
 30
0.0
 11
726.1168190317824
 21
361.8373461272992
 31
0.0
  0
LINE
  5
A11
330
2
100
AcDbEntity
  8
0
100
AcDbLine
 10
770.1168190317823
 20
297.8373461272992
 30
0.0
 11
726.1168190317824
 21
297.8373461272992
 31
0.0
  0
LINE
  5
A12
330
2
100
AcDbEntity
  8
0
100
AcDbLine
 10
770.1168190317823
 20
377.8373461272992
 30
0.0
 11
726.1168190317824
 21
377.8373461272992
 31
0.0
  0
LINE
  5
A13
330
2
100
AcDbEntity
  8
HIDS
100
AcDbLine
 10
640.8113380317822
 20
365.8373461272992
 30
0.0
 11
640.8113380317822
 21
378.3373461272992
 31
0.0
  0
LINE
  5
A14
330
2
100
AcDbEntity
  8
0
100
AcDbLine
 10
726.1168190317824
 20
377.8373461272992
 30
0.0
 11
726.1168190317824
 21
345.3373461272992
 31
0.0
  0
LINE
  5
A15
330
2
100
AcDbEntity
  8
0
100
AcDbLine
 10
716.6168190317823
 20
362.8373461272992
 30
0.0
 11
716.6168190317823
 21
375.8373461272992
 31
0.0
  0
LINE
  5
A16
330
2
100
AcDbEntity
  8
0
100
AcDbLine
 10
642.8544290317822
 20
378.3373461272992
 30
0.0
 11
643.1598490317824
 21
360.8373461272992
 31
0.0
  0
LINE
  5
A17
330
2
100
AcDbEntity
  8
0
100
AcDbLine
 10
644.5613380317823
 20
375.2166181272991
 30
0.0
 11
644.5613380317823
 21
365.8373461272992
 31
0.0
  0
LINE
  5
A18
330
2
100
AcDbEntity
  8
0
100
AcDbLine
 10
675.6169190317824
 20
314.8373461272993
 30
0.0
 11
640.5582250317823
 21
314.8373461272992
 31
0.0
  0
LINE
  5
A19
330
2
100
AcDbEntity
  8
0
100
AcDbLine
 10
675.6169190317824
 20
360.8373461272992
 30
0.0
 11
640.5582250317823
 21
360.8373461272992
 31
0.0
  0
LINE
  5
A1A
330
2
100
AcDbEntity
  8
0
100
AcDbLine
 10
644.8634620317823
 20
299.8373461272992
 30
0.0
 11
716.6168190317823
 21
299.8373461272992
 31
0.0
  0
LINE
  5
A1B
330
2
100
AcDbEntity
  8
HIDS
100
AcDbLine
 10
640.5613380317823
 20
297.3373461272992
 30
0.0
 11
640.5613380317823
 21
329.8373461272992
 31
0.0
  0
LINE
  5
A1C
330
2
100
AcDbEntity
  8
HIDS
100
AcDbLine
 10
639.9613620317823
 20
365.8373461272992
 30
0.0
 11
639.9613620317823
 21
297.3373461272992
 31
0.0
  0
LINE
  5
A1D
330
2
100
AcDbEntity
  8
0
100
AcDbLine
 10
638.9943210317824
 20
337.8373461272992
 30
0.0
 11
638.5585300317822
 21
312.8722581272993
 31
0.0
  0
LINE
  5
A1E
330
2
100
AcDbEntity
  8
0
100
AcDbLine
 10
644.5613380317823
 20
360.8373461272992
 30
0.0
 11
644.5613380317823
 21
314.8373461272992
 31
0.0
  0
LINE
  5
A1F
330
2
100
AcDbEntity
  8
0
100
AcDbLine
 10
642.8544290317822
 20
297.3373461272992
 30
0.0
 11
643.1598490317824
 21
314.8373461272992
 31
0.0
  0
ARC
  5
A20
330
2
100
AcDbEntity
  8
0
100
AcDbCircle
 10
644.8634620317823
 20
297.8373461272992
 30
0.0
 40
2.0
100
AcDbArc
 50
90.0
 51
178.9999999999998
  0
ARC
  5
A21
330
2
100
AcDbEntity
  8
0
100
AcDbCircle
 10
640.5582250317823
 20
312.8373461272992
 30
0.0
 40
2.0
100
AcDbArc
 50
90.0
 51
178.9999999999998
  0
LINE
  5
A22
330
2
100
AcDbEntity
  8
HIDS
100
AcDbLine
 10
640.5613380317823
 20
365.8373461272992
 30
0.0
 11
640.5613380317823
 21
345.8373461272992
 31
0.0
  0
LINE
  5
A23
330
2
100
AcDbEntity
  8
0
100
AcDbLine
 10
638.9943210317824
 20
337.8373461272992
 30
0.0
 11
638.5585300317822
 21
362.8024341272992
 31
0.0
  0
ARC
  5
A24
330
2
100
AcDbEntity
  8
0
100
AcDbCircle
 10
640.5582250317823
 20
362.8373461272992
 30
0.0
 40
2.0
100
AcDbArc
 50
181.0000000000001
 51
270.0
  0
LINE
  5
A25
330
2
100
AcDbEntity
  8
0
100
AcDbLine
 10
716.6168190317823
 20
299.8373461272992
 30
0.0
 11
716.6168190317823
 21
312.8373461272992
 31
0.0
  0
LINE
  5
A26
330
2
100
AcDbEntity
  8
0
100
AcDbLine
 10
726.1168190317824
 20
299.8373461272992
 30
0.0
 11
716.6168190317823
 21
299.8373461272992
 31
0.0
  0
LINE
  5
A27
330
2
100
AcDbEntity
  8
0
100
AcDbLine
 10
726.1168190317824
 20
314.8373461272992
 30
0.0
 11
725.6168190317821
 21
314.8373461272992
 31
0.0
  0
LINE
  5
A34
330
2
100
AcDbEntity
  8
0
100
AcDbLine
 10
726.1168190317824
 20
360.8373461272992
 30
0.0
 11
725.6168190317821
 21
360.8373461272992
 31
0.0
  0
LINE
  5
A35
330
2
100
AcDbEntity
  8
0
100
AcDbLine
 10
646.0096410317824
 20
375.8373461272992
 30
0.0
 11
716.6168190317823
 21
375.8373461272992
 31
0.0
  0
ARC
  5
A36
330
2
100
AcDbEntity
  8
0
100
AcDbCircle
 10
646.0096410317824
 20
373.8373461272992
 30
0.0
 40
2.0
100
AcDbArc
 50
90.0
 51
136.3987580000003
  0
LINE
  5
A37
330
2
100
AcDbEntity
  8
0
100
AcDbLine
 10
726.1168190317824
 20
375.8373461272992
 30
0.0
 11
716.6168190317823
 21
375.8373461272992
 31
0.0
  0
LINE
  5
A38
330
2
100
AcDbEntity
  8
0
100
AcDbLine
 10
775.1168190317823
 20
372.8373461272992
 30
0.0
 11
775.1168190317823
 21
302.8373461272992
 31
0.0
  0
ARC
  5
A39
330
2
100
AcDbEntity
  8
0
100
AcDbCircle
 10
770.1168190317823
 20
302.8373461272992
 30
0.0
 40
5.0
100
AcDbArc
 50
270.0
 51
0.0
  0
ARC
  5
A3A
330
2
100
AcDbEntity
  8
0
100
AcDbCircle
 10
770.1168190317823
 20
372.8373771272992
 30
0.0
 40
5.0
100
AcDbArc
 50
0.0
 51
90.0
  0
TEXT
  5
E5F
330
2
100
AcDbEntity
  8
TITLE
100
AcDbText
 10
45.43274665786862
 20
55.63588585195771
 30
0.0
 40
5.0
  1
F2FM-15L-10～120-T40WT
100
AcDbText
  0
TEXT
  5
E60
330
2
100
AcDbEntity
  8
TITLE
100
AcDbText
 10
45.43274665786862
 20
46.6358858519577
 30
0.0
 40
5.0
  1
F2FM-15L-10～60-T60T
100
AcDbText
  0
TEXT
  5
E61
330
2
100
AcDbEntity
  8
TITLE
100
AcDbText
 10
45.43274665786862
 20
28.6358858519577
 30
0.0
 40
5.0
  1
F2FM-15L-10～120-S40WT
100
AcDbText
  0
TEXT
  5
E62
330
2
100
AcDbEntity
  8
TITLE
100
AcDbText
 10
45.43274665786862
 20
37.63588585195771
 30
0.0
 40
5.0
  1
F2FM-15L-10～120-S40T
100
AcDbText
  0
SPLINE
  5
F06
330
2
100
AcDbEntity
  8
HOJO
100
AcDbSpline
210
0.0
220
0.0
230
1.0
 70
     8
 71
     3
 72
    27
 73
    23
 74
    21
 42
0.0000000001
 43
0.0000000001
 44
0.0000000001
 40
0.0
 40
0.0
 40
0.0
 40
0.0
 40
3.539268772771754
 40
7.287513562995795
 40
11.09046033223702
 40
14.62599423816976
 40
18.69227008921793
 40
22.26802890950275
 40
26.82672101949673
 40
31.55579532198596
 40
36.28066624743832
 40
40.14414690074357
 40
45.4800328401602
 40
49.44095400921195
 40
54.14226030623293
 40
58.62868909724451
 40
62.78426171223562
 40
66.26314687902698
 40
70.60953379849483
 40
74.30511416613953
 40
78.24621988074818
 40
82.00437648752254
 40
82.00437648752254
 40
82.00437648752254
 40
82.00437648752254
 10
342.5560837166813
 20
104.0914600525399
 30
0.0
 10
343.7351500824306
 20
103.9257610309614
 30
0.0
 10
346.1629007517705
 20
103.5845792940959
 30
0.0
 10
349.8187812376814
 20
104.7305345387306
 30
0.0
 10
353.5052183322524
 20
103.4709591961002
 30
0.0
 10
357.257688640248
 20
104.9209402216467
 30
0.0
 10
360.9640420819842
 20
103.3618109762132
 30
0.0
 10
364.9644598980571
 20
104.9883474637539
 30
0.0
 10
369.2453972967122
 20
103.3393108805849
 30
0.0
 10
373.8610912948474
 20
105.2072028713042
 30
0.0
 10
378.2826890113556
 20
103.3991185423666
 30
0.0
 10
382.8382596161866
 20
105.2330732016244
 30
0.0
 10
387.2423603950916
 20
103.4244260945282
 30
0.0
 10
391.8289810250378
 20
105.4634290049379
 30
0.0
 10
396.1437022796361
 20
103.0450393875618
 30
0.0
 10
400.5115296177413
 20
105.6356871492187
 30
0.0
 10
404.4731853821426
 20
103.0904188112527
 30
0.0
 10
408.3187618493219
 20
105.5286187089035
 30
0.0
 10
412.1341639823759
 20
103.2202821307168
 30
0.0
 10
416.039278069475
 20
105.3469727402723
 30
0.0
 10
419.7718612414453
 20
103.5008114143002
 30
0.0
 10
422.3148180541453
 20
104.1855843419284
 30
0.0
 10
423.5560837166813
 20
104.5198350525399
 30
0.0
 11
342.5560837166813
 21
104.0914600525399
 31
0.0
 11
346.0872727166813
 21
103.8524460525399
 31
0.0
 11
349.8060837166813
 21
104.3212570525398
 31
0.0
 11
353.5872727166813
 21
103.9150380525398
 31
0.0
 11
357.0872727166813
 21
104.4150380525399
 31
0.0
 11
361.1186757166813
 21
103.8836350525399
 31
0.0
 11
364.6498947166812
 21
104.4462570525398
 31
0.0
 11
369.1810837166813
 21
103.9462570525398
 31
0.0
 11
373.8686757166813
 21
104.5712570525398
 31
0.0
 11
378.5560837166813
 21
103.9774460525399
 31
0.0
 11
382.3686757166813
 21
104.6024460525398
 31
0.0
 11
387.6810837166813
 21
104.1024460525399
 31
0.0
 11
391.5872727166813
 21
104.7586350525399
 31
0.0
 11
396.2122727166813
 21
103.9150380525398
 31
0.0
 11
400.6186757166813
 21
104.7586350525399
 31
0.0
 11
404.6810837166813
 21
103.8836350525399
 31
0.0
 11
408.0560837166813
 21
104.7274460525398
 31
0.0
 11
412.3372727166813
 21
103.9774460525399
 31
0.0
 11
415.9622727166813
 21
104.6962570525398
 31
0.0
 11
419.8372727166813
 21
103.9774460525399
 31
0.0
 11
423.5560837166813
 21
104.5198350525399
 31
0.0
  0
LINE
  5
144E
330
2
100
AcDbEntity
  8
CENTER
100
AcDbLine
 10
179.5794782411221
 20
103.9520852504926
 30
0.0
 11
179.5794782411221
 21
87.99480925049266
 31
0.0
  0
LINE
  5
144F
330
2
100
AcDbEntity
  8
CENTER
100
AcDbLine
 10
187.5581162411222
 20
95.97344725049266
 30
0.0
 11
171.6008402411221
 21
95.97344725049266
 31
0.0
  0
LINE
  5
1450
330
2
100
AcDbEntity
  8
CENTER
100
AcDbLine
 10
171.5071362411222
 20
105.9734472504926
 30
0.0
 11
182.6518202411221
 21
105.9734472504926
 31
0.0
  0
LINE
  5
1451
330
2
100
AcDbEntity
  8
CENTER
100
AcDbLine
 10
177.0794782411221
 20
100.4011052504926
 30
0.0
 11
177.0794782411221
 21
111.5457892504926
 31
0.0
  0
LINE
  5
1452
330
2
100
AcDbEntity
  8
CENTER
100
AcDbLine
 10
179.5794782411221
 20
170.9520852504926
 30
0.0
 11
179.5794782411221
 21
154.9948092504926
 31
0.0
  0
LINE
  5
1453
330
2
100
AcDbEntity
  8
CENTER
100
AcDbLine
 10
171.5071362411222
 20
152.9734472504926
 30
0.0
 11
182.6518202411221
 21
152.9734472504926
 31
0.0
  0
LINE
  5
1454
330
2
100
AcDbEntity
  8
CENTER
100
AcDbLine
 10
177.0794782411221
 20
147.4011052504926
 30
0.0
 11
177.0794782411221
 21
158.5457892504926
 31
0.0
  0
LINE
  5
1455
330
2
100
AcDbEntity
  8
CENTER
100
AcDbLine
 10
187.5581162411222
 20
162.9734472504926
 30
0.0
 11
171.6008402411221
 21
162.9734472504926
 31
0.0
  0
LINE
  5
1456
330
2
100
AcDbEntity
  8
CENTER
100
AcDbLine
 10
233.5794782411221
 20
99.36657425049265
 30
0.0
 11
233.5794782411221
 21
159.5803202504926
 31
0.0
  0
LINE
  5
1457
330
2
100
AcDbEntity
  8
CENTER
100
AcDbLine
 10
265.5794782411221
 20
103.9520852504926
 30
0.0
 11
265.5794782411221
 21
87.99480925049266
 31
0.0
  0
LINE
  5
1458
330
2
100
AcDbEntity
  8
CENTER
100
AcDbLine
 10
273.5581162411222
 20
95.97344725049266
 30
0.0
 11
257.6008402411221
 21
95.97344725049266
 31
0.0
  0
LINE
  5
1459
330
2
100
AcDbEntity
  8
CENTER
100
AcDbLine
 10
262.5071362411222
 20
105.9734472504926
 30
0.0
 11
273.651820241122
 21
105.9734472504926
 31
0.0
  0
LINE
  5
145A
330
2
100
AcDbEntity
  8
CENTER
100
AcDbLine
 10
268.0794782411221
 20
100.4011052504926
 30
0.0
 11
268.0794782411221
 21
111.5457892504926
 31
0.0
  0
LINE
  5
145B
330
2
100
AcDbEntity
  8
CENTER
100
AcDbLine
 10
265.5794782411221
 20
170.9520852504926
 30
0.0
 11
265.5794782411221
 21
154.9948092504926
 31
0.0
  0
LINE
  5
145C
330
2
100
AcDbEntity
  8
CENTER
100
AcDbLine
 10
262.5071362411222
 20
152.9734472504926
 30
0.0
 11
273.651820241122
 21
152.9734472504926
 31
0.0
  0
LINE
  5
145D
330
2
100
AcDbEntity
  8
CENTER
100
AcDbLine
 10
268.0794782411221
 20
147.4011052504926
 30
0.0
 11
268.0794782411221
 21
158.5457892504926
 31
0.0
  0
LINE
  5
145E
330
2
100
AcDbEntity
  8
CENTER
100
AcDbLine
 10
273.5581162411222
 20
162.9734472504926
 30
0.0
 11
257.6008402411221
 21
162.9734472504926
 31
0.0
  0
LINE
  5
145F
330
2
100
AcDbEntity
  8
CENTER
100
AcDbLine
 10
582.5613380317823
 20
99.26693475049274
 30
0.0
 11
582.5613380317823
 21
159.6799597504925
 31
0.0
  0
LINE
  5
1460
330
2
100
AcDbEntity
  8
CENTER
100
AcDbLine
 10
550.5613380317822
 20
103.9520852504927
 30
0.0
 11
550.5613380317822
 21
87.99480925049261
 31
0.0
  0
LINE
  5
1461
330
2
100
AcDbEntity
  8
CENTER
100
AcDbLine
 10
558.5399760317823
 20
95.97344725049266
 30
0.0
 11
542.5827000317822
 21
95.97344725049266
 31
0.0
  0
LINE
  5
1462
330
2
100
AcDbEntity
  8
CENTER
100
AcDbLine
 10
636.5613380317823
 20
103.9520852504927
 30
0.0
 11
636.5613380317823
 21
87.99480925049261
 31
0.0
  0
LINE
  5
1463
330
2
100
AcDbEntity
  8
CENTER
100
AcDbLine
 10
644.5399760317823
 20
95.97344725049266
 30
0.0
 11
628.5827000317822
 21
95.97344725049266
 31
0.0
  0
LINE
  5
1464
330
2
100
AcDbEntity
  8
CENTER
100
AcDbLine
 10
550.5613380317822
 20
170.9520852504927
 30
0.0
 11
550.5613380317822
 21
154.9948092504926
 31
0.0
  0
LINE
  5
1465
330
2
100
AcDbEntity
  8
CENTER
100
AcDbLine
 10
558.5399760317823
 20
162.9734472504926
 30
0.0
 11
542.5827000317822
 21
162.9734472504926
 31
0.0
  0
LINE
  5
1466
330
2
100
AcDbEntity
  8
CENTER
100
AcDbLine
 10
636.5613380317823
 20
170.9520852504927
 30
0.0
 11
636.5613380317823
 21
154.9948092504926
 31
0.0
  0
LINE
  5
1467
330
2
100
AcDbEntity
  8
CENTER
100
AcDbLine
 10
644.5399760317823
 20
162.9734472504926
 30
0.0
 11
628.5827000317822
 21
162.9734472504926
 31
0.0
  0
LINE
  5
1FD2
330
2
100
AcDbEntity
  8
0
100
AcDbLine
 10
358.0560837166813
 20
180.9734472504927
 30
0.0
 11
408.0560687166813
 21
180.9734472504927
 31
0.0
  0
LINE
  5
1FD3
330
2
100
AcDbEntity
  8
0
100
AcDbLine
 10
358.0560837166813
 20
170.9734472504927
 30
0.0
 11
408.0560687166813
 21
170.9734472504927
 31
0.0
  0
LINE
  5
1FD4
330
2
100
AcDbEntity
  8
0
100
AcDbLine
 10
359.0560837166813
 20
199.9734452504927
 30
0.0
 11
403.2181749006552
 21
199.9734452504926
 31
0.0
  0
LINE
  5
1FD5
330
2
100
AcDbEntity
  8
0
100
AcDbLine
 10
358.0560837166813
 20
198.9734452504927
 30
0.0
 11
400.5560687166813
 21
198.9734452504927
 31
0.0
  0
LINE
  5
1FD7
330
2
100
AcDbEntity
  8
CENTER
100
AcDbLine
 10
353.0124767354728
 20
190.4734452504927
 30
0.0
 11
413.0996906978898
 21
190.4734452504927
 31
0.0
  0
LINE
  5
1FFD
330
2
100
AcDbEntity
  8
0
100
AcDbLine
 10
95.36189005714778
 20
199.9734452504926
 30
0.0
 11
139.5239812411222
 21
199.9734452504926
 31
0.0
  0
LINE
  5
1FFE
330
2
100
AcDbEntity
  8
0
100
AcDbLine
 10
92.02397424112223
 20
168.9734472504926
 30
0.0
 11
138.5239812411222
 21
168.9734472504926
 31
0.0
  0
LINE
  5
1FFF
330
2
100
AcDbEntity
  8
0
100
AcDbLine
 10
88.52397424112224
 20
180.9734472504926
 30
0.0
 11
140.5239812411222
 21
180.9734472504926
 31
0.0
  0
LINE
  5
2000
330
2
100
AcDbEntity
  8
0
100
AcDbLine
 10
90.52397424112223
 20
170.9734472504926
 30
0.0
 11
140.5239812411222
 21
170.9734472504926
 31
0.0
  0
LINE
  5
2001
330
2
100
AcDbEntity
  8
0
100
AcDbLine
 10
98.02397466969319
 20
198.9734452504926
 30
0.0
 11
140.5239882411222
 21
198.9734452504926
 31
0.0
  0
LINE
  5
2002
330
2
100
AcDbEntity
  8
CENTER
100
AcDbLine
 10
82.58022524112224
 20
190.4734452504926
 30
0.0
 11
144.4762842048603
 21
190.4734452504926
 31
0.0
  0
ARC
  5
2004
330
2
100
AcDbEntity
  8
0
100
AcDbCircle
 10
89.52398924112225
 20
196.9734452504926
 30
0.0
 40
1.0
100
AcDbArc
 50
90.0
 51
180.0
  0
LINE
  5
2005
330
2
100
AcDbEntity
  8
0
100
AcDbLine
 10
88.52398924112225
 20
196.9734452504926
 30
0.0
 11
88.52397424112224
 21
180.9734472504926
 31
0.0
  0
LINE
  5
2006
330
2
100
AcDbEntity
  8
0
100
AcDbLine
 10
85.02398924112226
 20
194.4734452504926
 30
0.0
 11
85.02398924112226
 21
186.4734452504926
 31
0.0
  0
LINE
  5
2007
330
2
100
AcDbEntity
  8
0
100
AcDbLine
 10
85.02397424112222
 20
186.4734452504926
 30
0.0
 11
88.52397424112224
 21
184.9734452504926
 31
0.0
  0
LINE
  5
2008
330
2
100
AcDbEntity
  8
0
100
AcDbLine
 10
85.02398924112226
 20
194.4734452504926
 30
0.0
 11
88.52398924112225
 21
195.9734452504926
 31
0.0
  0
LINE
  5
2009
330
2
100
AcDbEntity
  8
CENTER
100
AcDbLine
 10
115.5239812411222
 20
164.2797462504926
 30
0.0
 11
115.5239812411222
 21
205.3609452504926
 31
0.0
  0
LINE
  5
200A
330
2
100
AcDbEntity
  8
0
100
AcDbLine
 10
90.52397424112223
 20
198.9734452504926
 30
0.0
 11
90.52397424112223
 21
170.9734472504926
 31
0.0
  0
LINE
  5
200B
330
2
100
AcDbEntity
  8
0
100
AcDbLine
 10
92.02397424112223
 20
168.9734472504926
 30
0.0
 11
92.02397424112223
 21
167.4734472504926
 31
0.0
  0
LINE
  5
200D
330
2
100
AcDbEntity
  8
0
100
AcDbLine
 10
90.52397424112223
 20
170.9734472504926
 30
0.0
 11
92.52397424112222
 21
168.9734472504926
 31
0.0
  0
ARC
  5
200E
330
2
100
AcDbEntity
  8
0
100
AcDbCircle
 10
94.02398124112233
 20
191.0734452504925
 30
0.0
 40
9.0
100
AcDbArc
 50
74.11914999171883
 51
105.8808500082811
  0
LINE
  5
200F
330
2
100
AcDbEntity
  8
0
100
AcDbLine
 10
94.31148124157738
 20
198.5564452504925
 30
0.0
 11
93.73648124066727
 21
198.5564452504925
 31
0.0
  0
LINE
  5
2010
330
2
100
AcDbEntity
  8
0
100
AcDbLine
 10
98.02397466969319
 20
197.4734452504925
 30
0.0
 11
90.52397466969319
 21
197.4734452504925
 31
0.0
  0
LINE
  5
2011
330
2
100
AcDbEntity
  8
0
100
AcDbLine
 10
91.99424141795821
 20
199.6258867878701
 30
0.0
 11
91.97398124112231
 21
199.8368635333317
 31
0.0
  0
SPLINE
  5
2012
330
2
100
AcDbEntity
  8
0
100
AcDbSpline
210
0.0
220
0.0
230
1.0
 70
     8
 71
     3
 72
    11
 73
     7
 74
     0
 42
0.0000000001
 43
0.0000000001
 40
0.0
 40
0.0
 40
0.0
 40
0.0
 40
0.4601364636755307
 40
1.04988694485363
 40
1.713742833862792
 40
2.320347933405154
 40
2.320347933405154
 40
2.320347933405154
 40
2.320347933405179
 10
93.73648124066727
 20
198.5564452504925
 30
0.0
 10
93.71406358355944
 20
198.7114686901724
 30
0.0
 10
93.66291352832616
 20
199.06518350809
 30
0.0
 10
93.22702836679258
 20
199.4899111796916
 30
0.0
 10
92.62197765178513
 20
199.7090983596575
 30
0.0
 10
92.19679302760932
 20
199.6401070600468
 30
0.0
 10
91.99424141795821
 20
199.6258867878701
 30
0.0
  0
LINE
  5
2013
330
2
100
AcDbEntity
  8
0
100
AcDbLine
 10
90.52398124112233
 20
197.4734452504925
 30
0.0
 11
90.62191738001013
 21
198.5928604403108
 31
0.0
  0
ARC
  5
2014
330
2
100
AcDbEntity
  8
0
100
AcDbCircle
 10
91.91697048752928
 20
198.4795579747389
 30
0.0
 40
1.3
100
AcDbArc
 50
105.8808500082811
 51
175.0000000000001
  0
LINE
  5
2015
330
2
100
AcDbEntity
  8
0
100
AcDbLine
 10
91.52397466969318
 20
199.9734452504925
 30
0.0
 11
90.5239742411222
 21
198.9734452504926
 31
0.0
  0
LINE
  5
2016
330
2
100
AcDbEntity
  8
0
100
AcDbLine
 10
90.52397424112223
 20
198.9734452504926
 30
0.0
 11
91.52397424112223
 21
199.9734452504926
 31
0.0
  0
LINE
  5
2017
330
2
100
AcDbEntity
  8
0
100
AcDbLine
 10
89.52397424112223
 20
197.9734452504926
 30
0.0
 11
90.52397424112223
 21
197.9734452504926
 31
0.0
  0
LINE
  5
2018
330
2
100
AcDbEntity
  8
0
100
AcDbLine
 10
91.52397424112223
 20
199.9734452504926
 30
0.0
 11
92.68607242509691
 21
199.9734452504926
 31
0.0
  0
LINE
  5
2019
330
2
100
AcDbEntity
  8
0
100
AcDbLine
 10
97.52398124112222
 20
197.4734452504925
 30
0.0
 11
97.42604510223442
 21
198.5928604403108
 31
0.0
  0
ARC
  5
201A
330
2
100
AcDbEntity
  8
0
100
AcDbCircle
 10
96.13099199471514
 20
198.4795579747389
 30
0.0
 40
1.3
100
AcDbArc
 50
4.999999999999796
 51
74.11914999171883
  0
LINE
  5
201B
330
2
100
AcDbEntity
  8
0
100
AcDbLine
 10
96.05372106428644
 20
199.6258867878701
 30
0.0
 11
96.07398124112235
 21
199.8368635333317
 31
0.0
  0
SPLINE
  5
201C
330
2
100
AcDbEntity
  8
0
100
AcDbSpline
210
0.0
220
0.0
230
1.0
 70
     8
 71
     3
 72
    11
 73
     7
 74
     0
 42
0.0000000001
 43
0.0000000001
 40
0.0
 40
0.0
 40
0.0
 40
0.0
 40
0.4601364636755307
 40
1.04988694485363
 40
1.713742833862792
 40
2.320347933405154
 40
2.320347933405154
 40
2.320347933405154
 40
2.320347933405179
 10
94.31148124157738
 20
198.5564452504925
 30
0.0
 10
94.33389889868522
 20
198.7114686901724
 30
0.0
 10
94.38504895391849
 20
199.06518350809
 30
0.0
 10
94.82093411545207
 20
199.4899111796916
 30
0.0
 10
95.42598483045953
 20
199.7090983596575
 30
0.0
 10
95.85116945463534
 20
199.6401070600468
 30
0.0
 10
96.05372106428644
 20
199.6258867878701
 30
0.0
  0
LINE
  5
201D
330
2
100
AcDbEntity
  8
0
100
AcDbLine
 10
98.52397466969319
 20
199.9734452504925
 30
0.0
 11
98.02397466969319
 21
199.4734452504925
 31
0.0
  0
LINE
  5
201E
330
2
100
AcDbEntity
  8
0
100
AcDbLine
 10
98.02397466969319
 20
197.4734452504925
 30
0.0
 11
98.02397466969319
 21
199.4734452504926
 31
0.0
  0
LINE
  5
201F
330
2
100
AcDbEntity
  8
0
100
AcDbLine
 10
98.02397466969319
 20
199.4734452504925
 30
0.0
 11
96.96895863074249
 21
199.4734452504925
 31
0.0
  0
LINE
  5
2020
330
2
100
AcDbEntity
  8
0
100
AcDbLine
 10
140.5239812411222
 20
198.9734452504926
 30
0.0
 11
140.5239812411222
 21
170.9734472504926
 31
0.0
  0
LINE
  5
2021
330
2
100
AcDbEntity
  8
0
100
AcDbLine
 10
138.0239812411222
 20
168.9734472504926
 30
0.0
 11
138.0239812411222
 21
167.4734472504926
 31
0.0
  0
LINE
  5
2022
330
2
100
AcDbEntity
  8
0
100
AcDbLine
 10
138.5239812411222
 20
168.9734472504926
 30
0.0
 11
140.5239812411222
 21
170.9734472504926
 31
0.0
  0
LINE
  5
2023
330
2
100
AcDbEntity
  8
0
100
AcDbLine
 10
139.5239882411222
 20
199.9734452504926
 30
0.0
 11
140.5239882411222
 21
198.9734452504926
 31
0.0
  0
LINE
  5
2024
330
2
100
AcDbEntity
  8
0
100
AcDbLine
 10
358.0560837166813
 20
198.9734452504927
 30
0.0
 11
358.0560837166813
 21
170.9734472504927
 31
0.0
  0
LINE
  5
2026
330
2
100
AcDbEntity
  8
0
100
AcDbLine
 10
358.0560837166813
 20
170.9734472504927
 30
0.0
 11
359.4678240691559
 21
169.561706898018
 31
0.0
  0
LINE
  5
2027
330
2
100
AcDbEntity
  8
0
100
AcDbLine
 10
359.0560837166813
 20
199.9734452504927
 30
0.0
 11
358.0560837166813
 21
198.9734452504927
 31
0.0
  0
LINE
  5
202A
330
2
100
AcDbEntity
  8
0
100
AcDbLine
 10
408.0560687166813
 20
198.9734452504926
 30
0.0
 11
408.0560687166813
 21
170.9734472504927
 31
0.0
  0
LINE
  5
202D
330
2
100
AcDbEntity
  8
0
100
AcDbLine
 10
406.6443286215443
 20
169.5617071553557
 30
0.0
 11
408.0560687166813
 21
170.9734472504927
 31
0.0
  0
ARC
  5
202E
330
2
100
AcDbEntity
  8
0
100
AcDbCircle
 10
404.5560837166814
 20
191.0734452504926
 30
0.0
 40
9.0
100
AcDbArc
 50
74.11914999171883
 51
105.8808500082811
  0
SPLINE
  5
202F
330
2
100
AcDbEntity
  8
0
100
AcDbSpline
210
0.0
220
0.0
230
1.0
 70
     8
 71
     3
 72
    11
 73
     7
 74
     0
 42
0.0000000001
 43
0.0000000001
 40
0.0
 40
0.0
 40
0.0
 40
0.0
 40
0.4601364636755307
 40
1.04988694485363
 40
1.713742833862792
 40
2.320347933405154
 40
2.320347933405154
 40
2.320347933405154
 40
2.320347933405179
 10
404.2685837162263
 20
198.5564452504927
 30
0.0
 10
404.2461660591184
 20
198.7114686901725
 30
0.0
 10
404.1950160038852
 20
199.0651835080901
 30
0.0
 10
403.7591308423515
 20
199.4899111796918
 30
0.0
 10
403.1540801273441
 20
199.7090983596576
 30
0.0
 10
402.7288955031683
 20
199.6401070600469
 30
0.0
 10
402.5263438935172
 20
199.6258867878703
 30
0.0
  0
LINE
  5
2030
330
2
100
AcDbEntity
  8
0
100
AcDbLine
 10
400.5560687166813
 20
197.4734452504926
 30
0.0
 11
408.0560687166813
 21
197.4734452504927
 31
0.0
  0
LINE
  5
2031
330
2
100
AcDbEntity
  8
0
100
AcDbLine
 10
402.5263438935172
 20
199.6258867878703
 30
0.0
 11
402.5060837166813
 21
199.8368635333319
 31
0.0
  0
LINE
  5
2032
330
2
100
AcDbEntity
  8
0
100
AcDbLine
 10
401.0560837166813
 20
197.4734452504927
 30
0.0
 11
401.1540198555691
 21
198.592860440311
 31
0.0
  0
ARC
  5
2033
330
2
100
AcDbEntity
  8
0
100
AcDbCircle
 10
402.4490729630882
 20
198.479557974739
 30
0.0
 40
1.3
100
AcDbArc
 50
105.8808500082811
 51
175.0000000000001
  0
LINE
  5
2034
330
2
100
AcDbEntity
  8
0
100
AcDbLine
 10
400.0560687166813
 20
199.9734452504926
 30
0.0
 11
400.5560687166813
 21
199.4734452504926
 31
0.0
  0
LINE
  5
2035
330
2
100
AcDbEntity
  8
0
100
AcDbLine
 10
400.5560687166813
 20
197.4734452504926
 30
0.0
 11
400.5560687166813
 21
199.4734452504927
 31
0.0
  0
LINE
  5
2036
330
2
100
AcDbEntity
  8
0
100
AcDbLine
 10
400.5560687166813
 20
199.4734452504926
 30
0.0
 11
401.6111063270609
 21
199.4734452504926
 31
0.0
  0
LINE
  5
2037
330
2
100
AcDbEntity
  8
0
100
AcDbLine
 10
405.8939925327075
 20
199.9734452504926
 30
0.0
 11
407.0560687166813
 21
199.9734452504926
 31
0.0
  0
LINE
  5
2038
330
2
100
AcDbEntity
  8
0
100
AcDbLine
 10
408.0560837166812
 20
197.4734452504927
 30
0.0
 11
407.9581475777934
 21
198.592860440311
 31
0.0
  0
ARC
  5
2039
330
2
100
AcDbEntity
  8
0
100
AcDbCircle
 10
406.6630944702741
 20
198.479557974739
 30
0.0
 40
1.3
100
AcDbArc
 50
4.999999999999796
 51
74.11914999171883
  0
LINE
  5
203A
330
2
100
AcDbEntity
  8
0
100
AcDbLine
 10
406.5858235398454
 20
199.6258867878703
 30
0.0
 11
406.6060837166814
 21
199.8368635333319
 31
0.0
  0
LINE
  5
203B
330
2
100
AcDbEntity
  8
0
100
AcDbLine
 10
404.8435837171364
 20
198.5564452504927
 30
0.0
 11
404.2685837162263
 21
198.5564452504927
 31
0.0
  0
SPLINE
  5
203C
330
2
100
AcDbEntity
  8
0
100
AcDbSpline
210
0.0
220
0.0
230
1.0
 70
     8
 71
     3
 72
    11
 73
     7
 74
     0
 42
0.0000000001
 43
0.0000000001
 40
0.0
 40
0.0
 40
0.0
 40
0.0
 40
0.4601364636755307
 40
1.04988694485363
 40
1.713742833862792
 40
2.320347933405154
 40
2.320347933405154
 40
2.320347933405154
 40
2.320347933405179
 10
404.8435837171364
 20
198.5564452504927
 30
0.0
 10
404.8660013742442
 20
198.7114686901725
 30
0.0
 10
404.9171514294775
 20
199.0651835080901
 30
0.0
 10
405.3530365910111
 20
199.4899111796918
 30
0.0
 10
405.9580873060185
 20
199.7090983596576
 30
0.0
 10
406.3832719301943
 20
199.6401070600469
 30
0.0
 10
406.5858235398454
 20
199.6258867878703
 30
0.0
  0
LINE
  5
203D
330
2
100
AcDbEntity
  8
0
100
AcDbLine
 10
407.0560687166813
 20
199.9734452504926
 30
0.0
 11
408.0560687166813
 21
198.9734452504926
 31
0.0
  0
LINE
  5
203F
330
2
100
AcDbEntity
  8
0
100
AcDbLine
 10
680.4547208478076
 20
199.9734452504926
 30
0.0
 11
724.6168120317823
 21
199.9734452504926
 31
0.0
  0
LINE
  5
2040
330
2
100
AcDbEntity
  8
0
100
AcDbLine
 10
683.1168124603533
 20
198.9734452504926
 30
0.0
 11
725.6168190317823
 21
198.9734452504926
 31
0.0
  0
LINE
  5
2042
330
2
100
AcDbEntity
  8
0
100
AcDbLine
 10
725.6168190317823
 20
170.9734472504926
 30
0.0
 11
675.6168120317822
 21
170.9734472504926
 31
0.0
  0
LINE
  5
2043
330
2
100
AcDbEntity
  8
0
100
AcDbLine
 10
724.1168190317823
 20
168.9734472504926
 30
0.0
 11
677.6168120317822
 21
168.9734472504926
 31
0.0
  0
LINE
  5
2044
330
2
100
AcDbEntity
  8
CENTER
100
AcDbLine
 10
733.5605680317824
 20
190.4734452504926
 30
0.0
 11
671.6645090680442
 21
190.4734452504926
 31
0.0
  0
LINE
  5
2045
330
2
100
AcDbEntity
  8
0
100
AcDbLine
 10
727.6168190317823
 20
180.9734472504926
 30
0.0
 11
675.6168120317822
 21
180.9734472504926
 31
0.0
  0
LINE
  5
2046
330
2
100
AcDbEntity
  8
0
100
AcDbLine
 10
675.6168120317823
 20
198.9734452504926
 30
0.0
 11
675.6168120317822
 21
170.9734472504926
 31
0.0
  0
LINE
  5
2047
330
2
100
AcDbEntity
  8
CENTER
100
AcDbLine
 10
700.6168120317822
 20
164.2797462504926
 30
0.0
 11
700.6168120317822
 21
205.3609452504926
 31
0.0
  0
LINE
  5
2048
330
2
100
AcDbEntity
  8
0
100
AcDbLine
 10
678.1168120317822
 20
168.9734472504926
 30
0.0
 11
678.1168120317822
 21
167.4734472504926
 31
0.0
  0
LINE
  5
2049
330
2
100
AcDbEntity
  8
0
100
AcDbLine
 10
677.6168120317822
 20
168.9734472504926
 30
0.0
 11
675.6168120317822
 21
170.9734472504926
 31
0.0
  0
LINE
  5
204A
330
2
100
AcDbEntity
  8
0
100
AcDbLine
 10
683.1168124603533
 20
199.4734452504925
 30
0.0
 11
682.0617894214026
 21
199.4734452504925
 31
0.0
  0
LINE
  5
204B
330
2
100
AcDbEntity
  8
0
100
AcDbLine
 10
683.1168124603533
 20
197.4734452504925
 30
0.0
 11
675.6168124603533
 21
197.4734452504925
 31
0.0
  0
ARC
  5
204C
330
2
100
AcDbEntity
  8
0
100
AcDbCircle
 10
679.1168120317824
 20
191.0734452504925
 30
0.0
 40
9.0
100
AcDbArc
 50
74.11914999171883
 51
105.8808500082811
  0
SPLINE
  5
204D
330
2
100
AcDbEntity
  8
0
100
AcDbSpline
210
0.0
220
0.0
230
1.0
 70
     8
 71
     3
 72
    11
 73
     7
 74
     0
 42
0.0000000001
 43
0.0000000001
 40
0.0
 40
0.0
 40
0.0
 40
0.0
 40
0.4601364636755307
 40
1.04988694485363
 40
1.713742833862792
 40
2.320347933405154
 40
2.320347933405154
 40
2.320347933405154
 40
2.320347933405179
 10
678.8293120313274
 20
198.5564452504925
 30
0.0
 10
678.8068943742195
 20
198.7114686901724
 30
0.0
 10
678.7557443189862
 20
199.06518350809
 30
0.0
 10
678.3198591574525
 20
199.4899111796916
 30
0.0
 10
677.7148084424452
 20
199.7090983596575
 30
0.0
 10
677.2896238182693
 20
199.6401070600468
 30
0.0
 10
677.0870722086183
 20
199.6258867878701
 30
0.0
  0
LINE
  5
204E
330
2
100
AcDbEntity
  8
0
100
AcDbLine
 10
677.0870722086183
 20
199.6258867878701
 30
0.0
 11
677.0668120317822
 21
199.8368635333317
 31
0.0
  0
LINE
  5
204F
330
2
100
AcDbEntity
  8
0
100
AcDbLine
 10
675.6168120317823
 20
197.4734452504925
 30
0.0
 11
675.7147481706701
 21
198.5928604403108
 31
0.0
  0
ARC
  5
2050
330
2
100
AcDbEntity
  8
0
100
AcDbCircle
 10
677.0098012781893
 20
198.4795579747389
 30
0.0
 40
1.3
100
AcDbArc
 50
105.8808500082811
 51
175.0000000000001
  0
LINE
  5
2051
330
2
100
AcDbEntity
  8
0
100
AcDbLine
 10
675.6168120317823
 20
198.9734452504926
 30
0.0
 11
676.6168120317823
 21
199.9734452504926
 31
0.0
  0
LINE
  5
2052
330
2
100
AcDbEntity
  8
0
100
AcDbLine
 10
676.6168120317823
 20
199.9734452504926
 30
0.0
 11
677.7789032157571
 21
199.9734452504926
 31
0.0
  0
LINE
  5
2053
330
2
100
AcDbEntity
  8
0
100
AcDbLine
 10
682.6168120317823
 20
197.4734452504925
 30
0.0
 11
682.5188758928945
 21
198.5928604403108
 31
0.0
  0
ARC
  5
2054
330
2
100
AcDbEntity
  8
0
100
AcDbCircle
 10
681.2238227853752
 20
198.4795579747389
 30
0.0
 40
1.3
100
AcDbArc
 50
4.999999999999796
 51
74.11914999171883
  0
LINE
  5
2055
330
2
100
AcDbEntity
  8
0
100
AcDbLine
 10
681.1465518549464
 20
199.6258867878701
 30
0.0
 11
681.1668120317825
 21
199.8368635333317
 31
0.0
  0
LINE
  5
2056
330
2
100
AcDbEntity
  8
0
100
AcDbLine
 10
679.4043120322373
 20
198.5564452504925
 30
0.0
 11
678.8293120313274
 21
198.5564452504925
 31
0.0
  0
SPLINE
  5
2057
330
2
100
AcDbEntity
  8
0
100
AcDbSpline
210
0.0
220
0.0
230
1.0
 70
     8
 71
     3
 72
    11
 73
     7
 74
     0
 42
0.0000000001
 43
0.0000000001
 40
0.0
 40
0.0
 40
0.0
 40
0.0
 40
0.4601364636755307
 40
1.04988694485363
 40
1.713742833862792
 40
2.320347933405154
 40
2.320347933405154
 40
2.320347933405154
 40
2.320347933405179
 10
679.4043120322373
 20
198.5564452504925
 30
0.0
 10
679.4267296893452
 20
198.7114686901724
 30
0.0
 10
679.4778797445785
 20
199.06518350809
 30
0.0
 10
679.9137649061122
 20
199.4899111796916
 30
0.0
 10
680.5188156211195
 20
199.7090983596575
 30
0.0
 10
680.9440002452954
 20
199.6401070600468
 30
0.0
 10
681.1465518549464
 20
199.6258867878701
 30
0.0
  0
LINE
  5
2058
330
2
100
AcDbEntity
  8
0
100
AcDbLine
 10
683.6168124603533
 20
199.9734452504925
 30
0.0
 11
683.1168124603533
 21
199.4734452504925
 31
0.0
  0
LINE
  5
2059
330
2
100
AcDbEntity
  8
0
100
AcDbLine
 10
683.1168124603533
 20
197.4734452504925
 30
0.0
 11
683.1168124603533
 21
199.4734452504926
 31
0.0
  0
LINE
  5
205B
330
2
100
AcDbEntity
  8
0
100
AcDbLine
 10
725.6168190317823
 20
198.9734452504926
 30
0.0
 11
725.6168190317823
 21
170.9734472504926
 31
0.0
  0
LINE
  5
205C
330
2
100
AcDbEntity
  8
0
100
AcDbLine
 10
731.1168040317823
 20
194.4734452504926
 30
0.0
 11
731.1168040317823
 21
186.4734452504926
 31
0.0
  0
LINE
  5
205D
330
2
100
AcDbEntity
  8
0
100
AcDbLine
 10
727.6168040317823
 20
196.9734452504926
 30
0.0
 11
727.6168190317823
 21
180.9734472504926
 31
0.0
  0
LINE
  5
205F
330
2
100
AcDbEntity
  8
0
100
AcDbLine
 10
724.1168190317823
 20
168.9734472504926
 30
0.0
 11
724.1168190317823
 21
167.4734472504926
 31
0.0
  0
LINE
  5
2060
330
2
100
AcDbEntity
  8
0
100
AcDbLine
 10
731.1168190317824
 20
186.4734452504926
 30
0.0
 11
727.6168190317823
 21
184.9734452504926
 31
0.0
  0
LINE
  5
2061
330
2
100
AcDbEntity
  8
0
100
AcDbLine
 10
725.6168190317823
 20
170.9734472504926
 30
0.0
 11
723.6168190317823
 21
168.9734472504926
 31
0.0
  0
LINE
  5
2062
330
2
100
AcDbEntity
  8
0
100
AcDbLine
 10
731.1168040317823
 20
194.4734452504926
 30
0.0
 11
727.6168040317823
 21
195.9734452504926
 31
0.0
  0
LINE
  5
2063
330
2
100
AcDbEntity
  8
0
100
AcDbLine
 10
724.6168190317823
 20
199.9734452504926
 30
0.0
 11
725.6168190317823
 21
198.9734452504926
 31
0.0
  0
ARC
  5
2064
330
2
100
AcDbEntity
  8
0
100
AcDbCircle
 10
726.6168040317823
 20
196.9734452504926
 30
0.0
 40
1.0
100
AcDbArc
 50
0.0
 51
90.0
  0
LINE
  5
2065
330
2
100
AcDbEntity
  8
0
100
AcDbLine
 10
726.6168190317824
 20
197.9734452504926
 30
0.0
 11
725.6168190317823
 21
197.9734452504926
 31
0.0
  0
LINE
  5
2066
330
2
100
AcDbEntity
  8
0
100
AcDbLine
 10
678.0167140317822
 20
361.4373521272992
 30
0.0
 11
718.1168190317822
 21
361.4373521272992
 31
0.0
  0
LINE
  5
2067
330
2
100
AcDbEntity
  8
0
100
AcDbLine
 10
723.6168190317822
 20
362.8373461272992
 30
0.0
 11
677.6169190317823
 21
362.8373461272992
 31
0.0
  0
LINE
  5
2068
330
2
100
AcDbEntity
  8
0
100
AcDbLine
 10
723.6168190317822
 20
312.8373461272992
 30
0.0
 11
677.6169190317823
 21
312.8373461272993
 31
0.0
  0
LINE
  5
2069
330
2
100
AcDbEntity
  8
0
100
AcDbLine
 10
723.2168180317822
 20
314.2373551272992
 30
0.0
 11
683.1169190317823
 21
314.2373551272992
 31
0.0
  0
LINE
  5
206A
330
2
100
AcDbEntity
  8
0
100
AcDbLine
 10
675.6169190317823
 20
314.8373461272993
 30
0.0
 11
675.6169190317823
 21
360.8373461272992
 31
0.0
  0
LINE
  5
206B
330
2
100
AcDbEntity
  8
CENTER
100
AcDbLine
 10
700.6168120317822
 20
307.4481201831915
 30
0.0
 11
700.6168120317822
 21
368.5873461272992
 31
0.0
  0
LINE
  5
206C
330
2
100
AcDbEntity
  8
0
100
AcDbLine
 10
677.0167140317822
 20
360.4373521272993
 30
0.0
 11
677.0167140317822
 21
320.3373461272993
 31
0.0
  0
ARC
  5
206D
330
2
100
AcDbEntity
  8
0
100
AcDbCircle
 10
679.1167200317822
 20
316.3373461272992
 30
0.0
 40
4.0
100
AcDbArc
 50
0.0
 51
90.0
  0
ARC
  5
206E
330
2
100
AcDbEntity
  8
0
100
AcDbCircle
 10
677.0870200317821
 20
314.3076461272993
 30
0.0
 40
1.742199999999999
100
AcDbArc
 50
359.9986903345002
 51
90.00130966549649
  0
ARC
  5
206F
330
2
100
AcDbEntity
  8
0
100
AcDbCircle
 10
677.0870200317821
 20
318.3670461272992
 30
0.0
 40
1.742199999999999
100
AcDbArc
 50
269.9986903345035
 51
0.0013096654997424
  0
CIRCLE
  5
2070
330
2
100
AcDbEntity
  8
0
100
AcDbCircle
 10
679.1167200317822
 20
316.3373461272992
 30
0.0
 40
3.500000000000028
  0
LINE
  5
2071
330
2
100
AcDbEntity
  8
0
100
AcDbLine
 10
679.1169190317823
 20
320.3373461272993
 30
0.0
 11
675.6169190317823
 21
320.3373461272993
 31
0.0
  0
ARC
  5
2072
330
2
100
AcDbEntity
  8
0
100
AcDbCircle
 10
679.1167200317822
 20
316.3373461272992
 30
0.0
 40
2.049999999999998
100
AcDbArc
 50
171.938039916018
 51
180.0
  0
ARC
  5
2073
330
2
100
AcDbEntity
  8
0
100
AcDbCircle
 10
679.1167200317822
 20
316.3373461272992
 30
0.0
 40
2.049999999999998
100
AcDbArc
 50
180.0
 51
188.0619600839818
  0
LINE
  5
2074
330
2
100
AcDbEntity
  8
0
100
AcDbLine
 10
677.6169190317823
 20
312.8373461272993
 30
0.0
 11
675.6169190317823
 21
314.8373461272993
 31
0.0
  0
LINE
  5
2075
330
2
100
AcDbEntity
  8
0
100
AcDbLine
 10
675.6169190317823
 20
314.8373461272993
 30
0.0
 11
677.6169190317823
 21
312.8373461272993
 31
0.0
  0
ARC
  5
2076
330
2
100
AcDbEntity
  8
0
100
AcDbCircle
 10
681.1464200317821
 20
314.3076461272993
 30
0.0
 40
1.742199999999999
100
AcDbArc
 50
89.99869033450025
 51
180.0013096654997
  0
ARC
  5
2077
330
2
100
AcDbEntity
  8
0
100
AcDbCircle
 10
681.1464200317821
 20
318.3670461272992
 30
0.0
 40
1.742199999999999
100
AcDbArc
 50
179.9986903345002
 51
270.0013096654964
  0
ARC
  5
2078
330
2
100
AcDbEntity
  8
0
100
AcDbCircle
 10
679.1167200317822
 20
316.3373461272992
 30
0.0
 40
2.049999999999998
100
AcDbArc
 50
0.0
 51
8.061960083981905
  0
ARC
  5
2079
330
2
100
AcDbEntity
  8
0
100
AcDbCircle
 10
679.1167200317822
 20
316.3373461272992
 30
0.0
 40
2.049999999999998
100
AcDbArc
 50
261.9380399160178
 51
270.0
  0
ARC
  5
207A
330
2
100
AcDbEntity
  8
0
100
AcDbCircle
 10
679.1167200317822
 20
316.3373461272992
 30
0.0
 40
2.049999999999998
100
AcDbArc
 50
270.0
 51
278.061960083982
  0
ARC
  5
207B
330
2
100
AcDbEntity
  8
0
100
AcDbCircle
 10
679.1167200317822
 20
316.3373461272992
 30
0.0
 40
2.049999999999998
100
AcDbArc
 50
351.9380399160181
 51
0.0
  0
ARC
  5
207C
330
2
100
AcDbEntity
  8
0
100
AcDbCircle
 10
679.1167200317822
 20
316.3373461272992
 30
0.0
 40
2.049999999999998
100
AcDbArc
 50
90.0
 51
98.06196008398211
  0
ARC
  5
207D
330
2
100
AcDbEntity
  8
0
100
AcDbCircle
 10
679.1167200317822
 20
316.3373461272992
 30
0.0
 40
2.049999999999998
100
AcDbArc
 50
81.93803991601789
 51
90.0
  0
LINE
  5
207E
330
2
100
AcDbEntity
  8
0
100
AcDbLine
 10
683.1169190317823
 20
316.3373461272993
 30
0.0
 11
683.1169190317823
 21
312.8373461272993
 31
0.0
  0
LINE
  5
207F
330
2
100
AcDbEntity
  8
0
100
AcDbLine
 10
675.6167200317823
 20
360.8373461272992
 30
0.0
 11
677.6169190317823
 21
362.8373461272992
 31
0.0
  0
LINE
  5
2080
330
2
100
AcDbEntity
  8
0
100
AcDbLine
 10
675.6169190317823
 20
360.8373461272992
 30
0.0
 11
677.6169190317823
 21
362.8373461272992
 31
0.0
  0
LINE
  5
2081
330
2
100
AcDbEntity
  8
0
100
AcDbLine
 10
675.6169190317823
 20
360.8373461272992
 30
0.0
 11
677.6169190317823
 21
362.8373461272992
 31
0.0
  0
LINE
  5
2082
330
2
100
AcDbEntity
  8
0
100
AcDbLine
 10
678.0167140317822
 20
361.4373521272992
 30
0.0
 11
677.0167140317822
 21
360.4373521272993
 31
0.0
  0
LINE
  5
2083
330
2
100
AcDbEntity
  8
0
100
AcDbLine
 10
725.6168190317822
 20
314.8373461272992
 30
0.0
 11
725.6168190317822
 21
360.8373461272992
 31
0.0
  0
LINE
  5
2084
330
2
100
AcDbEntity
  8
0
100
AcDbLine
 10
724.2168250317822
 20
315.2373551272992
 30
0.0
 11
724.2168180317823
 21
355.3373461272992
 31
0.0
  0
LINE
  5
2085
330
2
100
AcDbEntity
  8
0
100
AcDbLine
 10
725.6168190317822
 20
314.8373461272992
 30
0.0
 11
723.6168190317822
 21
312.8373461272992
 31
0.0
  0
LINE
  5
2086
330
2
100
AcDbEntity
  8
0
100
AcDbLine
 10
724.2168250317822
 20
315.2373551272992
 30
0.0
 11
723.2168180317822
 21
314.2373551272992
 31
0.0
  0
LINE
  5
2087
330
2
100
AcDbEntity
  8
0
100
AcDbLine
 10
727.6168190317823
 20
343.3373461272992
 30
0.0
 11
731.1168190317822
 21
339.8373461272992
 31
0.0
  0
LINE
  5
2088
330
2
100
AcDbEntity
  8
0
100
AcDbLine
 10
731.1168190317822
 20
335.8373461272992
 30
0.0
 11
727.6168190317823
 21
332.3373461272992
 31
0.0
  0
LINE
  5
2089
330
2
100
AcDbEntity
  8
0
100
AcDbLine
 10
727.6168190317823
 20
344.3373461272992
 30
0.0
 11
727.6168190317823
 21
331.3373461272992
 31
0.0
  0
ARC
  5
208A
330
2
100
AcDbEntity
  8
0
100
AcDbCircle
 10
726.6168040317823
 20
331.3373461272992
 30
0.0
 40
1.0
100
AcDbArc
 50
270.0
 51
0.0
  0
LINE
  5
208B
330
2
100
AcDbEntity
  8
0
100
AcDbLine
 10
726.6168190317822
 20
330.3373461272992
 30
0.0
 11
725.6168190317822
 21
330.3373461272992
 31
0.0
  0
ARC
  5
208C
330
2
100
AcDbEntity
  8
0
100
AcDbCircle
 10
726.6168190317824
 20
344.3373461272992
 30
0.0
 40
1.0
100
AcDbArc
 50
0.0
 51
90.0
  0
LINE
  5
208D
330
2
100
AcDbEntity
  8
0
100
AcDbLine
 10
726.6168190317822
 20
345.3373461272992
 30
0.0
 11
725.6168190317822
 21
345.3373461272992
 31
0.0
  0
LINE
  5
208E
330
2
100
AcDbEntity
  8
0
100
AcDbLine
 10
731.1168190317822
 20
335.8373461272992
 30
0.0
 11
731.1168190317822
 21
339.8373461272992
 31
0.0
  0
ARC
  5
208F
330
2
100
AcDbEntity
  8
0
100
AcDbCircle
 10
720.0870890317822
 20
357.3076461272993
 30
0.0
 40
1.742199999999999
100
AcDbArc
 50
359.9986903345002
 51
90.00130966549649
  0
ARC
  5
2090
330
2
100
AcDbEntity
  8
0
100
AcDbCircle
 10
720.0870890317822
 20
361.3670461272992
 30
0.0
 40
1.742199999999999
100
AcDbArc
 50
269.9986903345035
 51
0.0013096654997424
  0
CIRCLE
  5
2091
330
2
100
AcDbEntity
  8
0
100
AcDbCircle
 10
722.1167890317823
 20
359.3373461272992
 30
0.0
 40
3.500000000000028
  0
ARC
  5
2092
330
2
100
AcDbEntity
  8
0
100
AcDbCircle
 10
722.1167890317823
 20
359.3373461272992
 30
0.0
 40
4.0
100
AcDbArc
 50
180.0
 51
270.0
  0
ARC
  5
2093
330
2
100
AcDbEntity
  8
0
100
AcDbCircle
 10
722.1167890317823
 20
359.3373461272992
 30
0.0
 40
2.049999999999998
100
AcDbArc
 50
171.938039916018
 51
180.0
  0
ARC
  5
2094
330
2
100
AcDbEntity
  8
0
100
AcDbCircle
 10
722.1167890317823
 20
359.3373461272992
 30
0.0
 40
2.049999999999998
100
AcDbArc
 50
180.0
 51
188.0619600839818
  0
LINE
  5
2095
330
2
100
AcDbEntity
  8
0
100
AcDbLine
 10
718.1168190317822
 20
359.3373461272992
 30
0.0
 11
718.1168190317822
 21
362.8371471272992
 31
0.0
  0
ARC
  5
2096
330
2
100
AcDbEntity
  8
0
100
AcDbCircle
 10
724.1464890317822
 20
357.3076461272993
 30
0.0
 40
1.742199999999999
100
AcDbArc
 50
89.99869033450025
 51
180.0013096654997
  0
LINE
  5
2097
330
2
100
AcDbEntity
  8
0
100
AcDbLine
 10
722.1167890317822
 20
355.3373461272992
 30
0.0
 11
725.6167890317822
 21
355.3373461272992
 31
0.0
  0
ARC
  5
2098
330
2
100
AcDbEntity
  8
0
100
AcDbCircle
 10
722.1167890317823
 20
359.3373461272992
 30
0.0
 40
2.049999999999998
100
AcDbArc
 50
261.9380399160178
 51
270.0
  0
ARC
  5
2099
330
2
100
AcDbEntity
  8
0
100
AcDbCircle
 10
722.1167890317823
 20
359.3373461272992
 30
0.0
 40
2.049999999999998
100
AcDbArc
 50
270.0
 51
278.061960083982
  0
LINE
  5
209A
330
2
100
AcDbEntity
  8
0
100
AcDbLine
 10
725.6168190317822
 20
360.8373461272992
 30
0.0
 11
723.6168190317822
 21
362.8373461272992
 31
0.0
  0
LINE
  5
209B
330
2
100
AcDbEntity
  8
0
100
AcDbLine
 10
725.6168190317822
 20
360.8373461272992
 30
0.0
 11
723.6168190317822
 21
362.8373461272992
 31
0.0
  0
ARC
  5
209C
330
2
100
AcDbEntity
  8
0
100
AcDbCircle
 10
724.1464890317822
 20
361.3670461272992
 30
0.0
 40
1.742199999999999
100
AcDbArc
 50
179.9986903345002
 51
270.0013096654964
  0
ARC
  5
209D
330
2
100
AcDbEntity
  8
0
100
AcDbCircle
 10
722.1167890317823
 20
359.3373461272992
 30
0.0
 40
2.049999999999998
100
AcDbArc
 50
0.0
 51
8.061960083981905
  0
ARC
  5
209E
330
2
100
AcDbEntity
  8
0
100
AcDbCircle
 10
722.1167890317823
 20
359.3373461272992
 30
0.0
 40
2.049999999999998
100
AcDbArc
 50
351.9380399160181
 51
0.0
  0
ARC
  5
209F
330
2
100
AcDbEntity
  8
0
100
AcDbCircle
 10
722.1167890317823
 20
359.3373461272992
 30
0.0
 40
2.049999999999998
100
AcDbArc
 50
90.0
 51
98.06196008398211
  0
ARC
  5
20A0
330
2
100
AcDbEntity
  8
0
100
AcDbCircle
 10
722.1167890317823
 20
359.3373461272992
 30
0.0
 40
2.049999999999998
100
AcDbArc
 50
81.93803991601789
 51
90.0
  0
LINE
  5
213B
330
2
100
AcDbEntity
  8
0
100
AcDbLine
 10
726.1168190317824
 20
330.3373461272992
 30
0.0
 11
726.1168190317824
 21
297.8373461272992
 31
0.0
  0
ENDSEC
  0
SECTION
  2
OBJECTS
  0
DICTIONARY
  5
7
330
0
100
AcDbDictionary
  3
ACAD_GROUP
350
75
  3
ACAD_LAYOUT
350
61
  3
ACAD_MLINESTYLE
350
76
  3
ACAD_PLOTSETTINGS
350
77
  3
ACAD_PLOTSTYLENAME
350
6
  3
ACADDIM
350
480
  3
ACDBHEADERROUNDTRIPXREC
350
2183
  3
ACDBVARIABLEDICTIONARY
350
102
  3
DWGPROPS
350
3D2
  0
DICTIONARY
  5
21A4
330
2
100
AcDbDictionary
280
     1
  3
ACAD_LAYOUTSELFREF
360
21A5
  0
DICTIONARY
  5
21A6
330
217D
100
AcDbDictionary
280
     1
  3
ACAD_LAYOUTSELFREF
360
21A7
  0
DICTIONARY
  5
75
102
{ACAD_REACTORS
330
7
102
}
330
7
100
AcDbDictionary
  0
DICTIONARY
  5
61
102
{ACAD_REACTORS
330
7
102
}
330
7
100
AcDbDictionary
  0
DICTIONARY
  5
76
102
{ACAD_REACTORS
330
7
102
}
330
7
100
AcDbDictionary
  3
STANDARD
350
78
  0
DICTIONARY
  5
77
102
{ACAD_REACTORS
330
7
102
}
330
7
100
AcDbDictionary
  0
ACDBDICTIONARYWDFLT
  5
6
102
{ACAD_REACTORS
330
7
102
}
330
7
100
AcDbDictionary
281
     1
  3
Normal
350
5
100
AcDbDictionaryWithDefault
340
5
  0
XRECORD
  5
480
102
{ACAD_REACTORS
330
7
102
}
330
7
100
AcDbXrecord
 90
   990106
  3

 60
     0
 61
     0
 62
     1
 63
     3
 64
     1
 65
     0
 66
     0
 67
     3
 68
     1
 69
     0
 70
     0
 71
     0
 72
     0
 40
0.0
170
     2
340
0
  0
DICTIONARY
  5
2183
102
{ACAD_REACTORS
330
7
102
}
330
7
100
AcDbDictionary
  3
CEPSNTYPE
350
218D
  3
DIMSTYLEDATA
350
2191
  3
FINGERPRINTGUID
350
218E
  3
HYPERLINKBASE
350
2186
  3
INSUNITS
350
218C
  3
LAYOUTDICT
350
2188
  3
LWETCUNION
350
218B
  3
PLOTSETDICT
350
2189
  3
PLOTSTYLNAMDICT
350
218A
  3
PSVPSCALE
350
2190
  3
PUCSBASE
350
2194
  3
PUCSORGBACK
350
219A
  3
PUCSORGBOTTOM
350
2196
  3
PUCSORGFRONT
350
2199
  3
PUCSORGLEFT
350
2197
  3
PUCSORGRIGHT
350
2198
  3
PUCSORGTOP
350
2195
  3
PUCSORTHOREF
350
2192
  3
PUCSORTHOVIEW
350
2193
  3
STYLESHEET
350
2187
  3
TSTACKALIGN
350
2184
  3
TSTACKSIZE
350
2185
  3
UCSBASE
350
219D
  3
UCSORGBACK
350
21A3
  3
UCSORGBOTTOM
350
219F
  3
UCSORGFRONT
350
21A2
  3
UCSORGLEFT
350
21A0
  3
UCSORGRIGHT
350
21A1
  3
UCSORGTOP
350
219E
  3
UCSORTHOREF
350
219B
  3
UCSORTHOVIEW
350
219C
  3
VERSIONGUID
350
218F
  0
DICTIONARY
  5
102
102
{ACAD_REACTORS
330
7
102
}
330
7
100
AcDbDictionary
  3
DIMASSOC
350
103
  0
XRECORD
  5
3D2
102
{ACAD_REACTORS
330
7
102
}
330
7
100
AcDbXrecord
  1
DWGPROPS COOKIE
  2

  3

  4

  6

  7

  8

  9

300
=
301
=
302
=
303
=
304
=
305
=
306
=
307
=
308
=
309
=
 40
0.5353330671296296
 41
2452052.431989363
 42
2453406.550756377
  1

 90
        0
  0
XRECORD
  5
21A5
102
{ACAD_REACTORS
330
21A4
102
}
330
21A4
100
AcDbXrecord
340
2
  0
XRECORD
  5
21A7
102
{ACAD_REACTORS
330
21A6
102
}
330
21A6
100
AcDbXrecord
340
217D
  0
MLINESTYLE
  5
78
102
{ACAD_REACTORS
330
76
102
}
330
76
100
AcDbMlineStyle
  2
STANDARD
 70
     0
  3

 62
     0
 51
90.0
 52
90.0
 71
     2
 49
0.5
 62
   256
  6
BYLAYER
 49
-0.5
 62
   256
  6
BYLAYER
  0
ACDBPLACEHOLDER
  5
5
102
{ACAD_REACTORS
330
6
102
}
330
6
100
AcDbPlaceHolder
280
     0
  0
XRECORD
  5
218D
102
{ACAD_REACTORS
330
2183
102
}
330
2183
100
AcDbXrecord
 90
        0
  0
XRECORD
  5
2191
102
{ACAD_REACTORS
330
2183
102
}
330
2183
100
AcDbXrecord
1000
DSTYLE
1002
{
1070
   179
 70
     2
1070
   277
 70
     6
1002
}
  0
XRECORD
  5
218E
102
{ACAD_REACTORS
330
2183
102
}
330
2183
100
AcDbXrecord
  1
{6385560B-F4B1-4644-A7C2-A3E32AC3D232}
  0
XRECORD
  5
2186
102
{ACAD_REACTORS
330
2183
102
}
330
2183
100
AcDbXrecord
  1

  0
XRECORD
  5
218C
102
{ACAD_REACTORS
330
2183
102
}
330
2183
100
AcDbXrecord
 90
        0
  0
XRECORD
  5
2188
102
{ACAD_REACTORS
330
2183
102
}
330
2183
100
AcDbXrecord
340
61
  0
XRECORD
  5
218B
102
{ACAD_REACTORS
330
2183
102
}
330
2183
100
AcDbXrecord
 90
    10781
  0
XRECORD
  5
2189
102
{ACAD_REACTORS
330
2183
102
}
330
2183
100
AcDbXrecord
340
77
  0
XRECORD
  5
218A
102
{ACAD_REACTORS
330
2183
102
}
330
2183
100
AcDbXrecord
340
6
  0
XRECORD
  5
2190
102
{ACAD_REACTORS
330
2183
102
}
330
2183
100
AcDbXrecord
 40
0.0
  0
XRECORD
  5
2194
102
{ACAD_REACTORS
330
2183
102
}
330
2183
100
AcDbXrecord
340
0
  0
XRECORD
  5
219A
102
{ACAD_REACTORS
330
2183
102
}
330
2183
100
AcDbXrecord
 10
0.0
 20
0.0
 30
0.0
  0
XRECORD
  5
2196
102
{ACAD_REACTORS
330
2183
102
}
330
2183
100
AcDbXrecord
 10
0.0
 20
0.0
 30
0.0
  0
XRECORD
  5
2199
102
{ACAD_REACTORS
330
2183
102
}
330
2183
100
AcDbXrecord
 10
0.0
 20
0.0
 30
0.0
  0
XRECORD
  5
2197
102
{ACAD_REACTORS
330
2183
102
}
330
2183
100
AcDbXrecord
 10
0.0
 20
0.0
 30
0.0
  0
XRECORD
  5
2198
102
{ACAD_REACTORS
330
2183
102
}
330
2183
100
AcDbXrecord
 10
0.0
 20
0.0
 30
0.0
  0
XRECORD
  5
2195
102
{ACAD_REACTORS
330
2183
102
}
330
2183
100
AcDbXrecord
 10
0.0
 20
0.0
 30
0.0
  0
XRECORD
  5
2192
102
{ACAD_REACTORS
330
2183
102
}
330
2183
100
AcDbXrecord
340
0
  0
XRECORD
  5
2193
102
{ACAD_REACTORS
330
2183
102
}
330
2183
100
AcDbXrecord
 70
     0
  0
XRECORD
  5
2187
102
{ACAD_REACTORS
330
2183
102
}
330
2183
100
AcDbXrecord
  1
Sekkei.ctb
  0
XRECORD
  5
2184
102
{ACAD_REACTORS
330
2183
102
}
330
2183
100
AcDbXrecord
 90
        1
  0
XRECORD
  5
2185
102
{ACAD_REACTORS
330
2183
102
}
330
2183
100
AcDbXrecord
 90
       70
  0
XRECORD
  5
219D
102
{ACAD_REACTORS
330
2183
102
}
330
2183
100
AcDbXrecord
340
0
  0
XRECORD
  5
21A3
102
{ACAD_REACTORS
330
2183
102
}
330
2183
100
AcDbXrecord
 10
0.0
 20
0.0
 30
0.0
  0
XRECORD
  5
219F
102
{ACAD_REACTORS
330
2183
102
}
330
2183
100
AcDbXrecord
 10
0.0
 20
0.0
 30
0.0
  0
XRECORD
  5
21A2
102
{ACAD_REACTORS
330
2183
102
}
330
2183
100
AcDbXrecord
 10
0.0
 20
0.0
 30
0.0
  0
XRECORD
  5
21A0
102
{ACAD_REACTORS
330
2183
102
}
330
2183
100
AcDbXrecord
 10
0.0
 20
0.0
 30
0.0
  0
XRECORD
  5
21A1
102
{ACAD_REACTORS
330
2183
102
}
330
2183
100
AcDbXrecord
 10
0.0
 20
0.0
 30
0.0
  0
XRECORD
  5
219E
102
{ACAD_REACTORS
330
2183
102
}
330
2183
100
AcDbXrecord
 10
0.0
 20
0.0
 30
0.0
  0
XRECORD
  5
219B
102
{ACAD_REACTORS
330
2183
102
}
330
2183
100
AcDbXrecord
340
0
  0
XRECORD
  5
219C
102
{ACAD_REACTORS
330
2183
102
}
330
2183
100
AcDbXrecord
 70
     0
  0
XRECORD
  5
218F
102
{ACAD_REACTORS
330
2183
102
}
330
2183
100
AcDbXrecord
  1
{A200B1FD-238E-4E7F-AD93-7A8ACFC87AEE}
  0
DICTIONARYVAR
  5
103
102
{ACAD_REACTORS
330
102
102
}
330
102
100
DictionaryVariables
280
     0
  1
1
  0
ENDSEC
  0
EOF
