  0
SECTION
  2
HEADER
  9
$ACADVER
  1
AC1014
  9
$ACADMAINTVER
 70
     9
  9
$DWGCODEPAGE
  3
ANSI_932
  9
$INSBASE
 10
0.0
 20
0.0
 30
0.0
  9
$EXTMIN
 10
25.69544621860109
 20
25.10389444724097
 30
0.0
  9
$EXTMAX
 10
692.9655049451281
 20
391.1768750505227
 30
0.0
  9
$LIMMIN
 10
-25.70168879130005
 20
-28.42889865057452
  9
$LIMMAX
 10
976.8987518791529
 20
647.4257556927767
  9
$ORTHOMODE
 70
     1
  9
$REGENMODE
 70
     1
  9
$FILLMODE
 70
     1
  9
$QTEXTMODE
 70
     0
  9
$MIRRTEXT
 70
     0
  9
$DRAGMODE
 70
     2
  9
$LTSCALE
 40
2.0
  9
$OSMODE
 70
    37
  9
$ATTMODE
 70
     1
  9
$TEXTSIZE
 40
2.0
  9
$TRACEWID
 40
1.0
  9
$TEXTSTYLE
  7
STANDARD
  9
$CLAYER
  8
0
  9
$CELTYPE
  6
BYLAYER
  9
$CECOLOR
 62
   256
  9
$CELTSCALE
 40
1.0
  9
$DELOBJ
 70
     1
  9
$DISPSILH
 70
     0
  9
$DIMSCALE
 40
2.0
  9
$DIMASZ
 40
1.8
  9
$DIMEXO
 40
0.625
  9
$DIMDLI
 40
3.75
  9
$DIMRND
 40
0.0
  9
$DIMDLE
 40
0.0
  9
$DIMEXE
 40
1.25
  9
$DIMTP
 40
0.0
  9
$DIMTM
 40
0.0
  9
$DIMTXT
 40
1.8
  9
$DIMCEN
 40
2.5
  9
$DIMTSZ
 40
0.0
  9
$DIMTOL
 70
     0
  9
$DIMLIM
 70
     0
  9
$DIMTIH
 70
     0
  9
$DIMTOH
 70
     0
  9
$DIMSE1
 70
     0
  9
$DIMSE2
 70
     0
  9
$DIMTAD
 70
     1
  9
$DIMZIN
 70
     8
  9
$DIMBLK
  1

  9
$DIMASO
 70
     1
  9
$DIMSHO
 70
     1
  9
$DIMPOST
  1

  9
$DIMAPOST
  1

  9
$DIMALT
 70
     0
  9
$DIMALTD
 70
     4
  9
$DIMALTF
 40
0.0394
  9
$DIMLFAC
 40
1.0
  9
$DIMTOFL
 70
     1
  9
$DIMTVP
 40
0.0
  9
$DIMTIX
 70
     0
  9
$DIMSOXD
 70
     0
  9
$DIMSAH
 70
     0
  9
$DIMBLK1
  1

  9
$DIMBLK2
  1

  9
$DIMSTYLE
  2
STANDARD
  9
$DIMCLRD
 70
     0
  9
$DIMCLRE
 70
     0
  9
$DIMCLRT
 70
     0
  9
$DIMTFAC
 40
1.0
  9
$DIMGAP
 40
0.75
  9
$DIMJUST
 70
     0
  9
$DIMSD1
 70
     0
  9
$DIMSD2
 70
     0
  9
$DIMTOLJ
 70
     1
  9
$DIMTZIN
 70
     0
  9
$DIMALTZ
 70
     0
  9
$DIMALTTZ
 70
     0
  9
$DIMFIT
 70
     3
  9
$DIMUPT
 70
     0
  9
$DIMUNIT
 70
     8
  9
$DIMDEC
 70
     2
  9
$DIMTDEC
 70
     2
  9
$DIMALTU
 70
     8
  9
$DIMALTTD
 70
     4
  9
$DIMTXSTY
  7
STANDARD
  9
$DIMAUNIT
 70
     0
  9
$LUNITS
 70
     2
  9
$LUPREC
 70
     3
  9
$SKETCHINC
 40
1.0
  9
$FILLETRAD
 40
10.0
  9
$AUNITS
 70
     0
  9
$AUPREC
 70
     2
  9
$MENU
  1
.
  9
$ELEVATION
 40
0.0
  9
$PELEVATION
 40
0.0
  9
$THICKNESS
 40
0.0
  9
$LIMCHECK
 70
     0
  9
$BLIPMODE
 70
     0
  9
$CHAMFERA
 40
0.0
  9
$CHAMFERB
 40
0.0
  9
$CHAMFERC
 40
20.0
  9
$CHAMFERD
 40
0.0
  9
$SKPOLY
 70
     0
  9
$TDCREATE
 40
2453557.579687129
  9
$TDUPDATE
 40
2453615.569863819
  9
$TDINDWG
 40
0.3827835648
  9
$TDUSRTIMER
 40
0.3827835648
  9
$USRTIMER
 70
     1
  9
$ANGBASE
 50
0.0
  9
$ANGDIR
 70
     0
  9
$PDMODE
 70
     0
  9
$PDSIZE
 40
-10.0
  9
$PLINEWID
 40
0.0
  9
$COORDS
 70
     2
  9
$SPLFRAME
 70
     0
  9
$SPLINETYPE
 70
     6
  9
$SPLINESEGS
 70
     8
  9
$ATTDIA
 70
     0
  9
$ATTREQ
 70
     1
  9
$HANDLING
 70
-16383
  9
$HANDSEED
  5
30DD
  9
$SURFTAB1
 70
     6
  9
$SURFTAB2
 70
     6
  9
$SURFTYPE
 70
     6
  9
$SURFU
 70
     6
  9
$SURFV
 70
     6
  9
$UCSNAME
  2

  9
$UCSORG
 10
0.0
 20
0.0
 30
0.0
  9
$UCSXDIR
 10
1.0
 20
0.0
 30
0.0
  9
$UCSYDIR
 10
0.0
 20
1.0
 30
0.0
  9
$PUCSNAME
  2

  9
$PUCSORG
 10
0.0
 20
0.0
 30
0.0
  9
$PUCSXDIR
 10
1.0
 20
0.0
 30
0.0
  9
$PUCSYDIR
 10
0.0
 20
1.0
 30
0.0
  9
$USERI1
 70
     0
  9
$USERI2
 70
     0
  9
$USERI3
 70
     0
  9
$USERI4
 70
     0
  9
$USERI5
 70
     0
  9
$USERR1
 40
0.0
  9
$USERR2
 40
0.0
  9
$USERR3
 40
0.0
  9
$USERR4
 40
0.0
  9
$USERR5
 40
0.0
  9
$WORLDVIEW
 70
     1
  9
$SHADEDGE
 70
     3
  9
$SHADEDIF
 70
    70
  9
$TILEMODE
 70
     1
  9
$MAXACTVP
 70
    48
  9
$PINSBASE
 10
0.0
 20
0.0
 30
0.0
  9
$PLIMCHECK
 70
     0
  9
$PEXTMIN
 10
3.0
 20
3.999999999999998
 30
0.0
  9
$PEXTMAX
 10
280.0
 20
194.0
 30
0.0
  9
$PLIMMIN
 10
-5.873748779296875
 20
-5.873749732971191
  9
$PLIMMAX
 10
291.05224609375
 20
204.0995779037475
  9
$UNITMODE
 70
     0
  9
$VISRETAIN
 70
     1
  9
$PLINEGEN
 70
     0
  9
$PSLTSCALE
 70
     0
  9
$TREEDEPTH
 70
  3020
  9
$PICKSTYLE
 70
     1
  9
$CMLSTYLE
  2
STANDARD
  9
$CMLJUST
 70
     0
  9
$CMLSCALE
 40
1.0
  9
$PROXYGRAPHICS
 70
     1
  9
$MEASUREMENT
 70
     0
  0
ENDSEC
  0
SECTION
  2
CLASSES
  0
CLASS
  1
DICTIONARYVAR
  2
AcDbDictionaryVar
  3
AutoCAD 2000
 90
        0
280
     0
281
     0
  0
CLASS
  1
ACDBDICTIONARYWDFLT
  2
AcDbDictionaryWithDefault
  3
AutoCAD 2000
 90
        0
280
     0
281
     0
  0
CLASS
  1
ACDBPLACEHOLDER
  2
AcDbPlaceHolder
  3
AutoCAD 2000
 90
        0
280
     0
281
     0
  0
CLASS
  1
LAYOUT
  2
AcDbLayout
  3
AutoCAD 2000
 90
        0
280
     0
281
     0
  0
CLASS
  1
LONG_TRANSACTION
  2
AcDbLongTransaction
  3
AutoCAD 2000
 90
        0
280
     0
281
     0
  0
CLASS
  1
LWPOLYLINE
  2
AcDbPolyline
  3
AutoCAD 2000
 90
        0
280
     0
281
     1
  0
CLASS
  1
HATCH
  2
AcDbHatch
  3
AutoCAD 2000
 90
        0
280
     0
281
     1
  0
CLASS
  1
XRECORD
  2
AcDbXrecord
  3
AutoCAD 2000
 90
        0
280
     0
281
     0
  0
ENDSEC
  0
SECTION
  2
TABLES
  0
TABLE
  2
VPORT
  5
6E
330
0
100
AcDbSymbolTable
 70
     2
  0
VPORT
  5
30AE
330
6E
100
AcDbSymbolTableRecord
100
AcDbViewportTableRecord
  2
*ACTIVE
 70
     0
 10
0.0
 20
0.0
 11
1.0
 21
1.0
 12
365.0288516672663
 22
208.150138723672
 13
0.0
 23
0.0
 14
10.0
 24
10.0
 15
12.0
 25
12.0
 16
0.0
 26
0.0
 36
1.0
 17
0.0
 27
0.0
 37
0.0
 40
435.2933583384582
 41
1.566970091027308
 42
50.0
 43
0.0
 44
0.0
 50
0.0
 51
0.0
 71
     0
 72
   100
 73
     1
 74
     3
 75
     0
 76
     0
 77
     0
 78
     0
  0
ENDTAB
  0
TABLE
  2
LTYPE
  5
69
330
0
100
AcDbSymbolTable
 70
     3
  0
LTYPE
  5
6A
330
69
100
AcDbSymbolTableRecord
100
AcDbLinetypeTableRecord
  2
BYBLOCK
 70
     0
  3

 72
    65
 73
     0
 40
0.0
  0
LTYPE
  5
6B
330
69
100
AcDbSymbolTableRecord
100
AcDbLinetypeTableRecord
  2
BYLAYER
 70
     0
  3

 72
    65
 73
     0
 40
0.0
  0
LTYPE
  5
8
330
69
100
AcDbSymbolTableRecord
100
AcDbLinetypeTableRecord
  2
CONTINUOUS
 70
     0
  3
Solid line
 72
    65
 73
     0
 40
0.0
  0
LTYPE
  5
27C
330
69
100
AcDbSymbolTableRecord
100
AcDbLinetypeTableRecord
  2
SEKKEI_A2_
 70
     0
  3
center(A2)  ____ _ ____ _ ____ _ ____ _ ____ _ 
 72
    65
 73
     4
 40
14.28749999999999
 49
9.525
 74
     0
 49
-1.587499999999999
 74
     0
 49
1.587499999999999
 74
     0
 49
-1.587499999999999
 74
     0
  0
LTYPE
  5
2B4
330
69
100
AcDbSymbolTableRecord
100
AcDbLinetypeTableRecord
  2
HIDDEN2
 70
     0
  3
Hidden (.5x) _ _ _ _ _ _ _ _ _ _ _ _ _ _ _ _ _
 72
    65
 73
     2
 40
4.762499999999999
 49
3.174999999999999
 74
     0
 49
-1.587499999999999
 74
     0
  0
ENDTAB
  0
TABLE
  2
LAYER
  5
66
330
0
100
AcDbSymbolTable
 70
     9
  0
LAYER
  5
5E
330
66
100
AcDbSymbolTableRecord
100
AcDbLayerTableRecord
  2
0
 70
     0
 62
     7
  6
CONTINUOUS
  0
LAYER
  5
3E
330
66
100
AcDbSymbolTableRecord
100
AcDbLayerTableRecord
  2
CENTER
 70
     0
 62
     3
  6
SEKKEI_A2_
  0
LAYER
  5
4
330
66
100
AcDbSymbolTableRecord
100
AcDbLayerTableRecord
  2
WAKU
 70
     0
 62
     5
  6
CONTINUOUS
  0
LAYER
  5
E4
330
66
100
AcDbSymbolTableRecord
100
AcDbLayerTableRecord
  2
TEXT
 70
     0
 62
     4
  6
CONTINUOUS
  0
LAYER
  5
135
330
66
100
AcDbSymbolTableRecord
100
AcDbLayerTableRecord
  2
DEFPOINTS
 70
     0
 62
     7
  6
CONTINUOUS
  0
LAYER
  5
2B5
330
66
100
AcDbSymbolTableRecord
100
AcDbLayerTableRecord
  2
HIDS
 70
     0
 62
     1
  6
HIDDEN2
  0
LAYER
  5
2BA
330
66
100
AcDbSymbolTableRecord
100
AcDbLayerTableRecord
  2
HOJO
 70
     0
 62
     4
  6
CONTINUOUS
  0
LAYER
  5
3FA
330
66
100
AcDbSymbolTableRecord
100
AcDbLayerTableRecord
  2
TITLE
 70
     0
 62
     4
  6
CONTINUOUS
  0
ENDTAB
  0
TABLE
  2
STYLE
  5
67
330
0
100
AcDbSymbolTable
 70
     1
  0
STYLE
  5
16
330
67
100
AcDbSymbolTableRecord
100
AcDbTextStyleTableRecord
  2
STANDARD
 70
     0
 40
0.0
 41
1.0
 50
0.0
 71
     0
 42
2.0
  3
simplex.shx
  4
extfont.shx
  0
ENDTAB
  0
TABLE
  2
VIEW
  5
6C
330
0
100
AcDbSymbolTable
 70
     0
  0
ENDTAB
  0
TABLE
  2
UCS
  5
6D
330
0
100
AcDbSymbolTable
 70
     0
  0
ENDTAB
  0
TABLE
  2
APPID
  5
70
330
0
100
AcDbSymbolTable
 70
     2
  0
APPID
  5
71
330
70
100
AcDbSymbolTableRecord
100
AcDbRegAppTableRecord
  2
ACAD
 70
     0
  0
APPID
  5
30D2
330
70
100
AcDbSymbolTableRecord
100
AcDbRegAppTableRecord
  2
CONTENTBLOCKICON
 70
     0
  0
ENDTAB
  0
TABLE
  2
DIMSTYLE
  5
72
330
0
100
AcDbSymbolTable
 70
     1
  0
DIMSTYLE
105
73
102
{ACAD_REACTORS
330
1444
330
144A
330
14E2
330
155D
102
}
330
72
100
AcDbSymbolTableRecord
100
AcDbDimStyleTableRecord
  2
STANDARD
 70
     0
  3

  4

  5

  6

  7

 40
2.0
 41
1.8
 42
0.625
 43
3.75
 44
1.25
 45
0.0
 46
0.0
 47
0.0
 48
0.0
140
1.8
141
2.5
142
0.0
143
0.0394
144
1.0
145
0.0
146
1.0
147
0.75
 71
     0
 72
     0
 73
     0
 74
     0
 75
     0
 76
     0
 77
     1
 78
     8
170
     0
171
     4
172
     1
173
     0
174
     0
175
     0
176
     0
177
     0
178
     0
270
     8
271
     2
272
     2
273
     8
274
     4
340
16
275
     0
280
     0
281
     0
282
     0
283
     1
284
     0
285
     0
286
     0
287
     3
288
     0
  0
ENDTAB
  0
TABLE
  2
BLOCK_RECORD
  5
1
330
0
100
AcDbSymbolTable
 70
    55
  0
BLOCK_RECORD
  5
2
102
{ACAD_XDICTIONARY
360
30D0
102
}
330
1
100
AcDbSymbolTableRecord
100
AcDbBlockTableRecord
  2
*MODEL_SPACE
  0
BLOCK_RECORD
  5
2A04
102
{ACAD_XDICTIONARY
360
30D3
102
}
330
1
100
AcDbSymbolTableRecord
100
AcDbBlockTableRecord
  2
*PAPER_SPACE
  0
BLOCK_RECORD
  5
40C
330
1
100
AcDbSymbolTableRecord
100
AcDbBlockTableRecord
  2
外寸枠A4テンプレート
1001
CONTENTBLOCKICON
1071
        0
1004
2800000020000000200000000100080000000000000400000000000000000000000000000000000000000000000080000080000000808000800000008000800080800000C0C0C000C0DCC000F0CAA6000020400000206000002080000020A0000020C0000020E00000400000004020000040400000406000004080000040A0
1004
000040C0000040E00000600000006020000060400000606000006080000060A0000060C0000060E00000800000008020000080400000806000008080000080A0000080C0000080E00000A0000000A0200000A0400000A0600000A0800000A0A00000A0C00000A0E00000C0000000C0200000C0400000C0600000C0800000C0
1004
A00000C0C00000C0E00000E0000000E0200000E0400000E0600000E0800000E0A00000E0C00000E0E00040000000400020004000400040006000400080004000A0004000C0004000E00040200000402020004020400040206000402080004020A0004020C0004020E000404000004040200040404000404060004040800040
1004
40A0004040C0004040E00040600000406020004060400040606000406080004060A0004060C0004060E00040800000408020004080400040806000408080004080A0004080C0004080E00040A0000040A0200040A0400040A0600040A0800040A0A00040A0C00040A0E00040C0000040C0200040C0400040C0600040C08000
1004
40C0A00040C0C00040C0E00040E0000040E0200040E0400040E0600040E0800040E0A00040E0C00040E0E00080000000800020008000400080006000800080008000A0008000C0008000E00080200000802020008020400080206000802080008020A0008020C0008020E00080400000804020008040400080406000804080
1004
008040A0008040C0008040E00080600000806020008060400080606000806080008060A0008060C0008060E00080800000808020008080400080806000808080008080A0008080C0008080E00080A0000080A0200080A0400080A0600080A0800080A0A00080A0C00080A0E00080C0000080C0200080C0400080C0600080C0
1004
800080C0A00080C0C00080C0E00080E0000080E0200080E0400080E0600080E0800080E0A00080E0C00080E0E000C0000000C0002000C0004000C0006000C0008000C000A000C000C000C000E000C0200000C0202000C0204000C0206000C0208000C020A000C020C000C020E000C0400000C0402000C0404000C0406000C0
1004
408000C040A000C040C000C040E000C0600000C0602000C0604000C0606000C0608000C060A000C060C000C060E000C0800000C0802000C0804000C0806000C0808000C080A000C080C000C080E000C0A00000C0A02000C0A04000C0A06000C0A08000C0A0A000C0A0C000C0A0E000C0C00000C0C02000C0C04000C0C06000
1004
C0C08000C0C0A000F0FBFF00A4A0A000808080000000FF0000FF000000FFFF00FF000000FF00FF00FFFF0000FFFFFF0000000000000000000000000000000000000000000000000000000000000000000000000000000000000000000000000000000000000000000000000000000000000000000000000000000000000000
1004
000000000000000000000000000000000000000000000000000000000000000000000000000000000000000000000000000000000000000000000000000000000000000000000000000000000000000000000000000000000000000000000000000000000000000000000000000000000000FCFCFCFCFCFCFCFCFCFCFCFCFC
1004
FCFCFCFCFCFCFCFCFEFEFEFDFDFCFDFDFD0000FC0000000000000000000000000000000000000000FDFDFDFDFDFDFDFDFD0000FC0000000000000000000000000000000000000000FDFDFEFEFEFEFDFDFD0000FC0000000000000000000000000000000000000000FDFCFEFEFEFEFCFCFC0000FC0000000000000000000000
1004
0000000000000000000000000000000000FC0000FC00000000000000000000000000000000000000000000000000000000FC0000FC00000000000000000000000000000000000000000000000000000000FC0000FC00000000000000000000000000000000000000000000000000000000FC0000FC00000000000000000000
1004
000000000000000000000000000000000000FC0000FC00000000000000000000000000000000000000000000000000000000FC0000FC00000000000000000000000000000000000000000000000000000000FC0000FC00000000000000000000000000000000000000000000000000000000FC0000FC000000000000000000
1004
00000000000000000000000000000000000000FC0000FC00000000000000000000000000000000000000000000000000000000FC0000FC00000000000000000000000000000000000000000000000000000000FC0000FC00000000000000000000000000000000000000000000000000000000FC0000FC0000000000000000
1004
0000000000000000000000000000000000000000FC0000FC00000000000000000000000000000000000000000000000000000000FC0000FC00000000000000000000000000000000000000000000FCFCFCFCFCFCFC0000FCFCFCFCFCFCFCFCFCFCFCFCFCFCFCFCFCFCFCFCFCFCFCFCFDFCFCFCFCFC00000000000000000000
1004
00000000000000000000000000000000000000000000000000000000000000000000000000000000000000000000000000000000000000000000000000000000000000000000000000000000000000000000000000000000000000000000000000000000000000000000000000000000000000000000000000000000000000
1004
0000000000000000000000000000000000000000000000000000000000000000000000000000000000000000000000000000000000000000
  0
BLOCK_RECORD
  5
29C6
330
1
100
AcDbSymbolTableRecord
100
AcDbBlockTableRecord
  2
1
  0
BLOCK_RECORD
  5
2A95
330
1
100
AcDbSymbolTableRecord
100
AcDbBlockTableRecord
  2
GSPEC_F2F-15L-10-240
  0
BLOCK_RECORD
  5
2ADF
330
1
100
AcDbSymbolTableRecord
100
AcDbBlockTableRecord
  2
GSPEC_F2F-15L-10-120
  0
BLOCK_RECORD
  5
2B96
330
1
100
AcDbSymbolTableRecord
100
AcDbBlockTableRecord
  2
MSPEC_T40-75
  0
BLOCK_RECORD
  5
2BBC
330
1
100
AcDbSymbolTableRecord
100
AcDbBlockTableRecord
  2
MSPEC_S15-75
  0
BLOCK_RECORD
  5
2BE2
330
1
100
AcDbSymbolTableRecord
100
AcDbBlockTableRecord
  2
MSPEC_S15W-75
  0
BLOCK_RECORD
  5
2C08
330
1
100
AcDbSymbolTableRecord
100
AcDbBlockTableRecord
  2
MSPEC_S25-75
  0
BLOCK_RECORD
  5
2C2E
330
1
100
AcDbSymbolTableRecord
100
AcDbBlockTableRecord
  2
MSPEC_S25W-75
  0
BLOCK_RECORD
  5
2C7C
330
1
100
AcDbSymbolTableRecord
100
AcDbBlockTableRecord
  2
17
  0
ENDTAB
  0
ENDSEC
  0
SECTION
  2
BLOCKS
  0
BLOCK
  5
5D
330
2
100
AcDbEntity
  8
0
100
AcDbBlockBegin
  2
*MODEL_SPACE
 70
     0
 10
0.0
 20
0.0
 30
0.0
  3
*MODEL_SPACE
  1

  0
ENDBLK
  5
5F
330
2
100
AcDbEntity
  8
0
100
AcDbBlockEnd
  0
BLOCK
  5
2A11
330
2A04
100
AcDbEntity
 67
     1
  8
0
100
AcDbBlockBegin
  2
*PAPER_SPACE
 70
     0
 10
0.0
 20
0.0
 30
0.0
  3
*PAPER_SPACE
  1

  0
ENDBLK
  5
2A12
330
2A04
100
AcDbEntity
 67
     1
  8
0
100
AcDbBlockEnd
  0
BLOCK
  5
463
330
40C
100
AcDbEntity
  8
0
100
AcDbBlockBegin
  2
外寸枠A4テンプレート
 70
     2
 10
0.0
 20
0.0
 30
0.0
  3
外寸枠A4テンプレート
  1

  0
LWPOLYLINE
  5
40D
330
40C
100
AcDbEntity
  8
WAKU
100
AcDbPolyline
 90
        4
 70
     1
 43
0.0
 10
3.0
 20
4.0
 10
280.0
 20
4.0
 10
280.0
 20
194.0
 10
3.0
 20
194.0
  0
LWPOLYLINE
  5
40E
330
40C
100
AcDbEntity
  8
WAKU
100
AcDbPolyline
 90
        4
 70
     1
 43
0.0
 10
3.0
 20
4.0
 10
280.0
 20
4.0
 10
280.0
 20
194.0
 10
3.0
 20
194.0
  0
LINE
  5
40F
330
40C
100
AcDbEntity
  8
WAKU
100
AcDbLine
 10
280.0
 20
182.0
 30
0.0
 11
226.4018178786999
 21
182.0
 31
0.0
  0
TEXT
  5
410
330
40C
100
AcDbEntity
  8
WAKU
 62
     6
100
AcDbText
 10
228.3816999999999
 20
190.11095
 30
0.0
 40
2.1213
  1
REVISIONS
 41
0.7
100
AcDbText
  0
LINE
  5
411
330
40C
100
AcDbEntity
  8
WAKU
100
AcDbLine
 10
226.4018178786999
 20
194.0
 30
0.0
 11
226.4018178786999
 21
181.9999999999999
 31
0.0
  0
LINE
  5
412
330
40C
100
AcDbEntity
  8
WAKU
 62
     6
100
AcDbLine
 10
203.6331999999998
 20
29.0030567071
 30
0.0
 11
280.0
 21
29.0030567071
 31
0.0
  0
LINE
  5
413
330
40C
100
AcDbEntity
  8
WAKU
 62
     6
100
AcDbLine
 10
203.6331999999998
 20
24.47761529289999
 30
0.0
 11
280.0
 21
24.47761529289999
 31
0.0
  0
LINE
  5
414
330
40C
100
AcDbEntity
  8
WAKU
 62
     6
100
AcDbLine
 10
203.6331999999998
 20
19.9521752929
 30
0.0
 11
280.0
 21
19.9521752929
 31
0.0
  0
LINE
  5
415
330
40C
100
AcDbEntity
  8
WAKU
 62
     6
100
AcDbLine
 10
203.6331999999998
 20
15.42673599999999
 30
0.0
 11
280.0
 21
15.42673599999999
 31
0.0
  0
LINE
  5
416
330
40C
100
AcDbEntity
  8
WAKU
 62
     6
100
AcDbLine
 10
203.6331999999998
 20
29.0030567071
 30
0.0
 11
280.0
 21
29.0030567071
 31
0.0
  0
LINE
  5
417
330
40C
100
AcDbEntity
  8
WAKU
 62
     6
100
AcDbLine
 10
203.6331999999998
 20
24.47761529289999
 30
0.0
 11
280.0
 21
24.47761529289999
 31
0.0
  0
LINE
  5
418
330
40C
100
AcDbEntity
  8
WAKU
 62
     6
100
AcDbLine
 10
203.6331999999998
 20
19.9521752929
 30
0.0
 11
280.0
 21
19.9521752929
 31
0.0
  0
LINE
  5
419
330
40C
100
AcDbEntity
  8
WAKU
 62
     6
100
AcDbLine
 10
203.6331999999998
 20
15.42673599999999
 30
0.0
 11
280.0
 21
15.42673599999999
 31
0.0
  0
LINE
  5
41A
330
40C
100
AcDbEntity
  8
WAKU
 62
     6
100
AcDbLine
 10
203.6331999999998
 20
29.0030567071
 30
0.0
 11
280.0
 21
29.0030567071
 31
0.0
  0
LINE
  5
41B
330
40C
100
AcDbEntity
  8
WAKU
 62
     6
100
AcDbLine
 10
203.6331999999998
 20
24.47761529289999
 30
0.0
 11
280.0
 21
24.47761529289999
 31
0.0
  0
LINE
  5
41C
330
40C
100
AcDbEntity
  8
WAKU
 62
     6
100
AcDbLine
 10
203.6331999999998
 20
19.9521752929
 30
0.0
 11
280.0
 21
19.9521752929
 31
0.0
  0
LINE
  5
41D
330
40C
100
AcDbEntity
  8
WAKU
 62
     6
100
AcDbLine
 10
203.6331999999998
 20
15.42673599999999
 30
0.0
 11
280.0
 21
15.42673599999999
 31
0.0
  0
LINE
  5
41E
330
40C
100
AcDbEntity
  8
WAKU
100
AcDbLine
 10
203.6331999999998
 20
38.053936
 30
0.0
 11
280.0
 21
38.053936
 31
0.0
  0
LINE
  5
41F
330
40C
100
AcDbEntity
  8
WAKU
100
AcDbLine
 10
203.6331999999998
 20
38.053936
 30
0.0
 11
280.0
 21
38.053936
 31
0.0
  0
LINE
  5
420
330
40C
100
AcDbEntity
  8
WAKU
100
AcDbLine
 10
203.6331999999998
 20
38.053936
 30
0.0
 11
280.0
 21
38.053936
 31
0.0
  0
TEXT
  5
421
330
40C
100
AcDbEntity
  8
WAKU
 62
     6
100
AcDbText
 10
231.4464545235218
 20
12.856420429
 30
0.0
 40
1.76775
  1
SCALE
 41
0.7
100
AcDbText
  0
TEXT
  5
422
330
40C
100
AcDbEntity
  8
TEXT
100
AcDbText
 10
228.8293221750166
 20
29.96641277760619
 30
0.0
 40
2.5
  1
外　形　寸　法　図
100
AcDbText
  0
ATTDEF
  5
423
330
40C
100
AcDbEntity
  8
TEXT
100
AcDbText
 10
241.8165999999999
 20
35.58735183158626
 30
0.0
 40
2.500000000000001
  1

 72
     4
 11
241.8165999999999
 21
35.58735183158626
 31
0.0
100
AcDbAttributeDefinition
  3
タイトル
  2
T　I　T　L　E
 70
     0
  0
LINE
  5
424
330
40C
100
AcDbEntity
  8
WAKU
100
AcDbLine
 10
203.6331999999998
 20
38.053936
 30
0.0
 11
203.6331999999998
 21
3.999999999999998
 31
0.0
  0
LINE
  5
425
330
40C
100
AcDbEntity
  8
WAKU
100
AcDbLine
 10
203.6331999999998
 20
38.053936
 30
0.0
 11
203.6331999999998
 21
3.999999999999998
 31
0.0
  0
LINE
  5
426
330
40C
100
AcDbEntity
  8
WAKU
100
AcDbLine
 10
203.6331999999998
 20
38.053936
 30
0.0
 11
203.6331999999998
 21
3.999999999999998
 31
0.0
  0
TEXT
  5
427
330
40C
100
AcDbEntity
  8
WAKU
 62
     6
100
AcDbText
 10
204.7645642425999
 20
25.805189179
 30
0.0
 40
2.1213
  1
DRAWING  NO.
 41
0.7
100
AcDbText
  0
TEXT
  5
428
330
40C
100
AcDbEntity
  8
WAKU
 62
     6
100
AcDbText
 10
204.7645642425999
 20
16.75430988609998
 30
0.0
 40
2.1213
  1
NOTICE
 41
0.7
100
AcDbText
  0
TEXT
  5
429
330
40C
100
AcDbEntity
  8
WAKU
 62
     6
100
AcDbText
 10
204.8446469479863
 20
12.674695729
 30
0.0
 40
1.8097340625
  1
APPROVE
 41
0.512174
100
AcDbText
  0
TEXT
  5
42A
330
40C
100
AcDbEntity
  8
WAKU
 62
     6
100
AcDbText
 10
204.7645642425999
 20
21.279749179
 30
0.0
 40
2.1213
  1
USER
 41
0.7
100
AcDbText
  0
TEXT
  5
42B
330
40C
100
AcDbEntity
  8
WAKU
 62
     6
100
AcDbText
 10
222.3147516895863
 20
12.6973292929
 30
0.0
 40
1.7832163983
  1
DESIGN
 41
0.5729449999999999
100
AcDbText
  0
LINE
  5
42C
330
40C
100
AcDbEntity
  8
WAKU
 62
     6
100
AcDbLine
 10
212.3823646725999
 20
15.42673599999999
 30
0.0
 11
212.3823646725999
 21
3.999999999999998
 31
0.0
  0
LINE
  5
42D
330
40C
100
AcDbEntity
  8
WAKU
 62
     6
100
AcDbLine
 10
212.3823646725999
 20
15.42673599999999
 30
0.0
 11
212.3823646725999
 21
3.999999999999998
 31
0.0
  0
LINE
  5
42E
330
40C
100
AcDbEntity
  8
WAKU
 62
     6
100
AcDbLine
 10
212.3823646725999
 20
15.42673599999999
 30
0.0
 11
212.3823646725999
 21
3.999999999999998
 31
0.0
  0
LINE
  5
42F
330
40C
100
AcDbEntity
  8
WAKU
 62
     6
100
AcDbLine
 10
221.1033047415999
 20
15.42673599999999
 30
0.0
 11
221.1033047415999
 21
3.999999999999998
 31
0.0
  0
LINE
  5
430
330
40C
100
AcDbEntity
  8
WAKU
 62
     6
100
AcDbLine
 10
221.1033047415999
 20
15.42673599999999
 30
0.0
 11
221.1033047415999
 21
3.999999999999998
 31
0.0
  0
LINE
  5
431
330
40C
100
AcDbEntity
  8
WAKU
 62
     6
100
AcDbLine
 10
221.1033047415999
 20
15.42673599999999
 30
0.0
 11
221.1033047415999
 21
3.999999999999998
 31
0.0
  0
TEXT
  5
432
330
40C
100
AcDbEntity
  8
WAKU
 62
     6
100
AcDbText
 10
213.5938010140863
 20
12.674695729
 30
0.0
 40
1.76775
  1
CHECK
 41
0.7
100
AcDbText
  0
LINE
  5
433
330
40C
100
AcDbEntity
  8
WAKU
 62
     6
100
AcDbLine
 10
229.8241790502999
 20
15.42673599999999
 30
0.0
 11
229.8241790502999
 21
3.999999999999998
 31
0.0
  0
LINE
  5
434
330
40C
100
AcDbEntity
  8
WAKU
 62
     6
100
AcDbLine
 10
229.8241790502999
 20
15.42673599999999
 30
0.0
 11
229.8241790502999
 21
3.999999999999998
 31
0.0
  0
LINE
  5
435
330
40C
100
AcDbEntity
  8
WAKU
 62
     6
100
AcDbLine
 10
229.8241790502999
 20
15.42673599999999
 30
0.0
 11
229.8241790502999
 21
3.999999999999998
 31
0.0
  0
TEXT
  5
436
330
40C
100
AcDbEntity
  8
WAKU
 62
     6
100
AcDbText
 10
204.7645642425999
 20
35.31568488609999
 30
0.0
 40
2.1213
  1
TITLE
 41
0.7
100
AcDbText
  0
ATTDEF
  5
437
330
40C
100
AcDbEntity
  8
TEXT
100
AcDbText
 10
234.056163734276
 20
8.134449518875573
 30
0.0
 40
2.0
  1

 72
     4
 11
234.056163734276
 21
8.134449518875573
 31
0.0
100
AcDbAttributeDefinition
  3
SCALE
  2
FREE
 70
     0
  0
ATTDEF
  5
438
330
40C
100
AcDbEntity
  8
TEXT
100
AcDbText
 10
207.865184683976
 20
8.134449518875573
 30
0.0
 40
2.500000000000004
  1

 72
     4
 11
207.865184683976
 21
8.134449518875573
 31
0.0
100
AcDbAttributeDefinition
  3
承認
  2
海野
 70
     0
  0
ATTDEF
  5
439
330
40C
100
AcDbEntity
  8
TEXT
100
AcDbText
 10
225.335289425576
 20
8.134449518875575
 30
0.0
 40
2.500000000000004
  1

 72
     4
 11
225.335289425576
 21
8.134449518875575
 31
0.0
100
AcDbAttributeDefinition
  3
作成
  2
鳥居
 70
     0
  0
ATTDEF
  5
43A
330
40C
100
AcDbEntity
  8
TEXT
100
AcDbText
 10
216.614349356576
 20
8.134449518875575
 30
0.0
 40
2.500000000000004
  1

 72
     4
 11
216.614349356576
 21
8.134449518875575
 31
0.0
100
AcDbAttributeDefinition
  3
確認
  2
永坂
 70
     0
  0
LINE
  5
43B
330
40C
100
AcDbEntity
  8
WAKU
 62
     6
100
AcDbLine
 10
238.6487948283999
 20
8.638576
 30
0.0
 11
280.0
 21
8.638576
 31
0.0
  0
LINE
  5
43C
330
40C
100
AcDbEntity
  8
WAKU
 62
     6
100
AcDbLine
 10
238.6487948283999
 20
8.638576
 30
0.0
 11
280.0
 21
8.638576
 31
0.0
  0
LINE
  5
43D
330
40C
100
AcDbEntity
  8
WAKU
 62
     6
100
AcDbLine
 10
238.6487948283999
 20
8.638576
 30
0.0
 11
280.0
 21
8.638576
 31
0.0
  0
TEXT
  5
43E
330
40C
100
AcDbEntity
  8
WAKU
 62
     6
100
AcDbText
 10
241.15294501234
 20
5.246258800300003
 30
0.0
 40
2.1213
  1
NISSEI  CORPORATION
100
AcDbText
  0
LINE
  5
43F
330
40C
100
AcDbEntity
  8
WAKU
100
AcDbLine
 10
246.5683127070999
 20
13.02259600000001
 30
0.0
 11
250.5280769496998
 21
14.01253599999999
 31
0.0
  0
LINE
  5
440
330
40C
100
AcDbEntity
  8
WAKU
100
AcDbLine
 10
246.5683127070999
 20
13.02259600000001
 30
0.0
 11
250.5280769496998
 21
14.01253599999999
 31
0.0
  0
LINE
  5
441
330
40C
100
AcDbEntity
  8
WAKU
100
AcDbLine
 10
246.5683127070999
 20
13.02259600000001
 30
0.0
 11
250.5280769496998
 21
14.01253599999999
 31
0.0
  0
LINE
  5
442
330
40C
100
AcDbEntity
  8
WAKU
100
AcDbLine
 10
246.5683127070999
 20
11.0427152929
 30
0.0
 11
250.5280769496998
 21
10.052776
 31
0.0
  0
LINE
  5
443
330
40C
100
AcDbEntity
  8
WAKU
100
AcDbLine
 10
246.5683127070999
 20
11.0427152929
 30
0.0
 11
250.5280769496998
 21
10.052776
 31
0.0
  0
LINE
  5
444
330
40C
100
AcDbEntity
  8
WAKU
100
AcDbLine
 10
246.5683127070999
 20
11.0427152929
 30
0.0
 11
250.5280769496998
 21
10.052776
 31
0.0
  0
LINE
  5
445
330
40C
100
AcDbEntity
  8
CENTER
 62
     6
100
AcDbLine
 10
239.4478107573998
 20
12.0326567071
 30
0.0
 11
251.3624499999998
 21
12.0326567071
 31
0.0
  0
LINE
  5
446
330
40C
100
AcDbEntity
  8
CENTER
 62
     6
100
AcDbLine
 10
239.4478107573998
 20
12.0326567071
 30
0.0
 11
251.3624499999998
 21
12.0326567071
 31
0.0
  0
LINE
  5
447
330
40C
100
AcDbEntity
  8
CENTER
 62
     6
100
AcDbLine
 10
239.4478107573998
 20
12.0326567071
 30
0.0
 11
251.3624499999998
 21
12.0326567071
 31
0.0
  0
LINE
  5
448
330
40C
100
AcDbEntity
  8
WAKU
 62
     6
100
AcDbLine
 10
238.6487948283999
 20
15.42673599999999
 30
0.0
 11
238.6487948283999
 21
3.999999999999998
 31
0.0
  0
LINE
  5
449
330
40C
100
AcDbEntity
  8
WAKU
 62
     6
100
AcDbLine
 10
238.6487948283999
 20
15.42673599999999
 30
0.0
 11
238.6487948283999
 21
3.999999999999998
 31
0.0
  0
LINE
  5
44A
330
40C
100
AcDbEntity
  8
WAKU
 62
     6
100
AcDbLine
 10
238.6487948283999
 20
15.42673599999999
 30
0.0
 11
238.6487948283999
 21
3.999999999999998
 31
0.0
  0
CIRCLE
  5
44B
330
40C
100
AcDbEntity
  8
WAKU
100
AcDbCircle
 10
242.0428769496999
 20
12.0326567071
 30
0.0
 40
0.9899399999999999
  0
CIRCLE
  5
44C
330
40C
100
AcDbEntity
  8
WAKU
100
AcDbCircle
 10
242.0428769496999
 20
12.0326567071
 30
0.0
 40
0.9899399999999999
  0
CIRCLE
  5
44D
330
40C
100
AcDbEntity
  8
WAKU
100
AcDbCircle
 10
242.0428769496999
 20
12.0326567071
 30
0.0
 40
0.9899399999999999
  0
CIRCLE
  5
44E
330
40C
100
AcDbEntity
  8
WAKU
100
AcDbCircle
 10
242.0428769496999
 20
12.0326567071
 30
0.0
 40
1.979879999999999
  0
CIRCLE
  5
44F
330
40C
100
AcDbEntity
  8
WAKU
100
AcDbCircle
 10
242.0428769496999
 20
12.0326567071
 30
0.0
 40
1.979879999999999
  0
CIRCLE
  5
450
330
40C
100
AcDbEntity
  8
WAKU
100
AcDbCircle
 10
242.0428769496999
 20
12.0326567071
 30
0.0
 40
1.979879999999999
  0
LINE
  5
451
330
40C
100
AcDbEntity
  8
WAKU
100
AcDbLine
 10
246.5683127070999
 20
13.02259600000001
 30
0.0
 11
246.5683127070999
 21
11.0427152929
 31
0.0
  0
LINE
  5
452
330
40C
100
AcDbEntity
  8
WAKU
100
AcDbLine
 10
246.5683127070999
 20
13.02259600000001
 30
0.0
 11
246.5683127070999
 21
11.0427152929
 31
0.0
  0
LINE
  5
453
330
40C
100
AcDbEntity
  8
WAKU
100
AcDbLine
 10
246.5683127070999
 20
13.02259600000001
 30
0.0
 11
246.5683127070999
 21
11.0427152929
 31
0.0
  0
LINE
  5
454
330
40C
100
AcDbEntity
  8
CENTER
 62
     6
100
AcDbLine
 10
242.0428769496999
 20
14.96005
 30
0.0
 11
242.0428769496999
 21
9.267895000000009
 31
0.0
  0
LINE
  5
455
330
40C
100
AcDbEntity
  8
CENTER
 62
     6
100
AcDbLine
 10
242.0428769496999
 20
14.96005
 30
0.0
 11
242.0428769496999
 21
9.267895000000009
 31
0.0
  0
LINE
  5
456
330
40C
100
AcDbEntity
  8
CENTER
 62
     6
100
AcDbLine
 10
242.0428769496999
 20
14.96005
 30
0.0
 11
242.0428769496999
 21
9.267895000000009
 31
0.0
  0
TEXT
  5
457
330
40C
100
AcDbEntity
  8
TEXT
100
AcDbText
 10
257.3078171288039
 20
9.492177985111482
 30
0.0
 40
2.0
  1
mm
100
AcDbText
  0
LINE
  5
458
330
40C
100
AcDbEntity
  8
WAKU
 62
     6
100
AcDbLine
 10
252.2251127070999
 20
15.42673599999999
 30
0.0
 11
252.2251127070999
 21
8.638576
 31
0.0
  0
LINE
  5
459
330
40C
100
AcDbEntity
  8
WAKU
 62
     6
100
AcDbLine
 10
252.2251127070999
 20
15.42673599999999
 30
0.0
 11
252.2251127070999
 21
8.638576
 31
0.0
  0
LINE
  5
45A
330
40C
100
AcDbEntity
  8
WAKU
 62
     6
100
AcDbLine
 10
252.2251127070999
 20
15.42673599999999
 30
0.0
 11
252.2251127070999
 21
8.638576
 31
0.0
  0
LINE
  5
45B
330
40C
100
AcDbEntity
  8
WAKU
100
AcDbLine
 10
250.5280769496998
 20
14.01253599999999
 30
0.0
 11
250.5280769496998
 21
10.052776
 31
0.0
  0
LINE
  5
45C
330
40C
100
AcDbEntity
  8
WAKU
100
AcDbLine
 10
250.5280769496998
 20
14.01253599999999
 30
0.0
 11
250.5280769496998
 21
10.052776
 31
0.0
  0
LINE
  5
45D
330
40C
100
AcDbEntity
  8
WAKU
100
AcDbLine
 10
250.5280769496998
 20
14.01253599999999
 30
0.0
 11
250.5280769496998
 21
10.052776
 31
0.0
  0
TEXT
  5
45E
330
40C
100
AcDbEntity
  8
WAKU
 62
     6
100
AcDbText
 10
253.4130357573999
 20
13.0508792929
 30
0.0
 40
1.76775
  1
UNIT
 41
0.7
100
AcDbText
  0
TEXT
  5
45F
330
40C
100
AcDbEntity
  8
WAKU
 62
     6
100
AcDbText
 10
266.9893642426
 20
13.0508792929
 30
0.0
 40
1.76775
  1
DATE
 41
0.7
100
AcDbText
  0
LINE
  5
460
330
40C
100
AcDbEntity
  8
WAKU
 62
     6
100
AcDbLine
 10
265.7448611715999
 20
15.42673599999999
 30
0.0
 11
265.7448611715999
 21
8.638576
 31
0.0
  0
LINE
  5
461
330
40C
100
AcDbEntity
  8
WAKU
 62
     6
100
AcDbLine
 10
265.7448611715999
 20
15.42673599999999
 30
0.0
 11
265.7448611715999
 21
8.638576
 31
0.0
  0
LINE
  5
462
330
40C
100
AcDbEntity
  8
WAKU
 62
     6
100
AcDbLine
 10
265.7448611715999
 20
15.42673599999999
 30
0.0
 11
265.7448611715999
 21
8.638576
 31
0.0
  0
ENDBLK
  5
464
330
40C
100
AcDbEntity
  8
0
100
AcDbBlockEnd
  0
BLOCK
  5
29C8
330
29C6
100
AcDbEntity
  8
0
100
AcDbBlockBegin
  2
1
 70
     0
 10
0.0
 20
0.0
 30
0.0
  3
1
  1

  0
TEXT
  5
29C7
330
29C6
100
AcDbEntity
  8
0
100
AcDbText
 10
0.0
 20
0.0
 30
0.0
 40
2.0
  1
注。出力軸キーは JIS B 1301-1976平行キーに依ります。
100
AcDbText
  0
ENDBLK
  5
29C9
330
29C6
100
AcDbEntity
  8
0
100
AcDbBlockEnd
  0
BLOCK
  5
2AB2
330
2A95
100
AcDbEntity
  8
0
100
AcDbBlockBegin
  2
GSPEC_F2F-15L-10-240
 70
     0
 10
0.0
 20
0.0
 30
0.0
  3
GSPEC_F2F-15L-10-240
  1

  0
LINE
  5
2A96
330
2A95
100
AcDbEntity
  8
0
100
AcDbLine
 10
131.0
 20
13.25149999999988
 30
0.0
 11
183.0
 21
13.25149999999988
 31
0.0
  0
LINE
  5
2A97
330
2A95
100
AcDbEntity
  8
0
100
AcDbLine
 10
131.0
 20
9.715999999999894
 30
0.0
 11
183.0
 21
9.715999999999894
 31
0.0
  0
LINE
  5
2A98
330
2A95
100
AcDbEntity
  8
0
100
AcDbLine
 10
131.0
 20
16.78699999999986
 30
0.0
 11
183.0
 21
16.78699999999986
 31
0.0
  0
LINE
  5
2A99
330
2A95
100
AcDbEntity
  8
0
100
AcDbLine
 10
131.0
 20
34.46450000000001
 30
0.0
 11
183.0
 21
34.46450000000001
 31
0.0
  0
LINE
  5
2A9A
330
2A95
100
AcDbEntity
  8
0
100
AcDbLine
 10
131.0
 20
30.929
 30
0.0
 11
183.0
 21
30.92899999999997
 31
0.0
  0
LINE
  5
2A9B
330
2A95
100
AcDbEntity
  8
0
100
AcDbLine
 10
131.0
 20
38.0
 30
0.0
 11
183.0
 21
38.0
 31
0.0
  0
LINE
  5
2A9C
330
2A95
100
AcDbEntity
  8
0
100
AcDbLine
 10
131.0
 20
9.715999999999894
 30
0.0
 11
131.0
 21
38.0
 31
0.0
  0
TEXT
  5
2A9D
330
2A95
100
AcDbEntity
  8
0
100
AcDbText
 10
131.6780944417463
 20
13.95859999999987
 30
0.0
 40
2.0
  1
潤滑
100
AcDbText
  0
TEXT
  5
2A9E
330
2A95
100
AcDbEntity
  8
0
100
AcDbText
 10
131.6780944417462
 20
10.32954220928042
 30
0.0
 40
2.0
  1
塗色
100
AcDbText
  0
TEXT
  5
2A9F
330
2A95
100
AcDbEntity
  8
0
100
AcDbText
 10
131.6780944417462
 20
22.84191832202132
 30
0.0
 40
2.0
  1
減速比
100
AcDbText
  0
TEXT
  5
2AA0
330
2A95
100
AcDbEntity
  8
0
100
AcDbText
 10
131.6780944417462
 20
31.6361
 30
0.0
 40
2.0
  1
枠番
100
AcDbText
  0
TEXT
  5
2AA1
330
2A95
100
AcDbEntity
  8
0
100
AcDbText
 10
131.6780944417462
 20
35.17159999999998
 30
0.0
 40
2.0
  1
名称
100
AcDbText
  0
LINE
  5
2AA2
330
2A95
100
AcDbEntity
  8
0
100
AcDbLine
 10
183.0
 20
9.715999999999894
 30
0.0
 11
183.0
 21
38.0
 31
0.0
  0
LINE
  5
2AA3
330
2A95
100
AcDbEntity
  8
0
100
AcDbLine
 10
142.5
 20
9.715999999999894
 30
0.0
 11
142.5
 21
38.0
 31
0.0
  0
TEXT
  5
2AA4
330
2A95
100
AcDbEntity
  8
0
100
AcDbText
 10
143.3531994322572
 20
28.10060000000001
 30
0.0
 40
2.0
  1
1/10 1/15 1/20 1/25
100
AcDbText
  0
TEXT
  5
2AA5
330
2A95
100
AcDbEntity
  8
0
100
AcDbText
 10
143.3531994322572
 20
24.56510000000003
 30
0.0
 40
2.0
  1
1/30 1/40 1/50 1/60
100
AcDbText
  0
TEXT
  5
2AA6
330
2A95
100
AcDbEntity
  8
0
100
AcDbText
 10
143.3531994322572
 20
10.42309999999986
 30
0.0
 40
2.0
  1
グレー（マンセル値 9B6/0.5）
100
AcDbText
  0
LINE
  5
2AA7
330
2A95
100
AcDbEntity
  8
0
100
AcDbLine
 10
142.5
 20
27.39349999999999
 30
0.0
 11
183.0
 21
27.39349999999999
 31
0.0
  0
TEXT
  5
2AA8
330
2A95
100
AcDbEntity
  8
0
100
AcDbText
 10
143.3531994322572
 20
13.95859999999987
 30
0.0
 40
2.0
  1
グリース
100
AcDbText
  0
LINE
  5
2AA9
330
2A95
100
AcDbEntity
  8
0
100
AcDbLine
 10
150.4725366217368
 20
39.41419999999999
 30
0.0
 11
163.5274633782631
 21
39.41419999999999
 31
0.0
  0
LINE
  5
2AAA
330
2A95
100
AcDbEntity
  8
0
100
AcDbLine
 10
150.4725366217368
 20
40.12129999999999
 30
0.0
 11
163.5274633782631
 21
40.12129999999999
 31
0.0
  0
TEXT
  5
2AAB
330
2A95
100
AcDbEntity
  8
0
100
AcDbText
 10
151.1299348544099
 20
40.47485
 30
0.0
 40
2.0
  1
減速機仕様
100
AcDbText
  0
TEXT
  5
2AAC
330
2A95
100
AcDbEntity
  8
0
100
AcDbText
 10
143.3531994322572
 20
31.6361
 30
0.0
 40
2.0
  1
15L
100
AcDbText
  0
TEXT
  5
2AAD
330
2A95
100
AcDbEntity
  8
0
100
AcDbText
 10
143.3531994322572
 20
35.17159999999998
 30
0.0
 40
2.0
  1
GTR
100
AcDbText
  0
TEXT
  5
2AAE
330
2A95
100
AcDbEntity
  8
0
100
AcDbText
 10
143.3531994322572
 20
21.02960000000004
 30
0.0
 40
2.0
  1
1/80 1/100 1/120
100
AcDbText
  0
LINE
  5
2AAF
330
2A95
100
AcDbEntity
  8
0
100
AcDbLine
 10
142.5
 20
23.85799999999995
 30
0.0
 11
183.0
 21
23.85799999999994
 31
0.0
  0
LINE
  5
2AB0
330
2A95
100
AcDbEntity
  8
0
100
AcDbLine
 10
142.5
 20
20.32249999999991
 30
0.0
 11
183.0
 21
20.3224999999999
 31
0.0
  0
TEXT
  5
2AB1
330
2A95
100
AcDbEntity
  8
0
100
AcDbText
 10
143.3531994322572
 20
17.4941
 30
0.0
 40
2.0
  1
1/160 1/200 1/240
100
AcDbText
  0
ENDBLK
  5
2AB3
330
2A95
100
AcDbEntity
  8
0
100
AcDbBlockEnd
  0
BLOCK
  5
2AFA
330
2ADF
100
AcDbEntity
  8
0
100
AcDbBlockBegin
  2
GSPEC_F2F-15L-10-120
 70
     0
 10
0.0
 20
0.0
 30
0.0
  3
GSPEC_F2F-15L-10-120
  1

  0
LINE
  5
2AE0
330
2ADF
100
AcDbEntity
  8
0
100
AcDbLine
 10
131.0
 20
16.78699999999992
 30
0.0
 11
183.0
 21
16.78699999999992
 31
0.0
  0
LINE
  5
2AE1
330
2ADF
100
AcDbEntity
  8
0
100
AcDbLine
 10
131.0
 20
13.25149999999993
 30
0.0
 11
183.0
 21
13.25149999999993
 31
0.0
  0
LINE
  5
2AE2
330
2ADF
100
AcDbEntity
  8
0
100
AcDbLine
 10
131.0
 20
20.3224999999999
 30
0.0
 11
183.0
 21
20.3224999999999
 31
0.0
  0
LINE
  5
2AE3
330
2ADF
100
AcDbEntity
  8
0
100
AcDbLine
 10
131.0
 20
34.46450000000001
 30
0.0
 11
183.0
 21
34.46450000000001
 31
0.0
  0
LINE
  5
2AE4
330
2ADF
100
AcDbEntity
  8
0
100
AcDbLine
 10
131.0
 20
30.929
 30
0.0
 11
183.0
 21
30.92899999999997
 31
0.0
  0
LINE
  5
2AE5
330
2ADF
100
AcDbEntity
  8
0
100
AcDbLine
 10
131.0
 20
38.0
 30
0.0
 11
183.0
 21
38.0
 31
0.0
  0
LINE
  5
2AE6
330
2ADF
100
AcDbEntity
  8
0
100
AcDbLine
 10
131.0
 20
13.25149999999993
 30
0.0
 11
131.0
 21
38.0
 31
0.0
  0
TEXT
  5
2AE7
330
2ADF
100
AcDbEntity
  8
0
100
AcDbText
 10
131.6780944417463
 20
17.49409999999991
 30
0.0
 40
2.0
  1
潤滑
100
AcDbText
  0
TEXT
  5
2AE8
330
2ADF
100
AcDbEntity
  8
0
100
AcDbText
 10
131.6780944417462
 20
13.86504220928046
 30
0.0
 40
2.0
  1
塗色
100
AcDbText
  0
TEXT
  5
2AE9
330
2ADF
100
AcDbEntity
  8
0
100
AcDbText
 10
131.6780944417462
 20
24.60966832202135
 30
0.0
 40
2.0
  1
減速比
100
AcDbText
  0
TEXT
  5
2AEA
330
2ADF
100
AcDbEntity
  8
0
100
AcDbText
 10
131.6780944417462
 20
31.6361
 30
0.0
 40
2.0
  1
枠番
100
AcDbText
  0
TEXT
  5
2AEB
330
2ADF
100
AcDbEntity
  8
0
100
AcDbText
 10
131.6780944417462
 20
35.17159999999998
 30
0.0
 40
2.0
  1
名称
100
AcDbText
  0
LINE
  5
2AEC
330
2ADF
100
AcDbEntity
  8
0
100
AcDbLine
 10
183.0
 20
13.25149999999993
 30
0.0
 11
183.0
 21
38.0
 31
0.0
  0
LINE
  5
2AED
330
2ADF
100
AcDbEntity
  8
0
100
AcDbLine
 10
142.5
 20
13.25149999999993
 30
0.0
 11
142.5
 21
38.0
 31
0.0
  0
TEXT
  5
2AEE
330
2ADF
100
AcDbEntity
  8
0
100
AcDbText
 10
143.3531994322572
 20
28.10060000000001
 30
0.0
 40
2.0
  1
1/10 1/15 1/20 1/25
100
AcDbText
  0
TEXT
  5
2AEF
330
2ADF
100
AcDbEntity
  8
0
100
AcDbText
 10
143.3531994322572
 20
24.56510000000003
 30
0.0
 40
2.0
  1
1/30 1/40 1/50 1/60
100
AcDbText
  0
TEXT
  5
2AF0
330
2ADF
100
AcDbEntity
  8
0
100
AcDbText
 10
143.3531994322572
 20
13.9585999999999
 30
0.0
 40
2.0
  1
グレー（マンセル値 9B6/0.5）
100
AcDbText
  0
LINE
  5
2AF1
330
2ADF
100
AcDbEntity
  8
0
100
AcDbLine
 10
142.5
 20
27.39349999999999
 30
0.0
 11
183.0
 21
27.39349999999999
 31
0.0
  0
TEXT
  5
2AF2
330
2ADF
100
AcDbEntity
  8
0
100
AcDbText
 10
143.3531994322572
 20
17.49409999999991
 30
0.0
 40
2.0
  1
グリース
100
AcDbText
  0
LINE
  5
2AF3
330
2ADF
100
AcDbEntity
  8
0
100
AcDbLine
 10
150.4725366217368
 20
39.41419999999999
 30
0.0
 11
163.5274633782631
 21
39.41419999999999
 31
0.0
  0
LINE
  5
2AF4
330
2ADF
100
AcDbEntity
  8
0
100
AcDbLine
 10
150.4725366217368
 20
40.12129999999999
 30
0.0
 11
163.5274633782631
 21
40.12129999999999
 31
0.0
  0
TEXT
  5
2AF5
330
2ADF
100
AcDbEntity
  8
0
100
AcDbText
 10
151.1299348544099
 20
40.47485
 30
0.0
 40
2.0
  1
減速機仕様
100
AcDbText
  0
TEXT
  5
2AF6
330
2ADF
100
AcDbEntity
  8
0
100
AcDbText
 10
143.3531994322572
 20
31.6361
 30
0.0
 40
2.0
  1
15L
100
AcDbText
  0
TEXT
  5
2AF7
330
2ADF
100
AcDbEntity
  8
0
100
AcDbText
 10
143.3531994322572
 20
35.17159999999998
 30
0.0
 40
2.0
  1
GTR
100
AcDbText
  0
TEXT
  5
2AF8
330
2ADF
100
AcDbEntity
  8
0
100
AcDbText
 10
143.3531994322572
 20
21.02960000000004
 30
0.0
 40
2.0
  1
1/80 1/100 1/120
100
AcDbText
  0
LINE
  5
2AF9
330
2ADF
100
AcDbEntity
  8
0
100
AcDbLine
 10
142.5
 20
23.85799999999995
 30
0.0
 11
183.0
 21
23.85799999999994
 31
0.0
  0
ENDBLK
  5
2AFB
330
2ADF
100
AcDbEntity
  8
0
100
AcDbBlockEnd
  0
BLOCK
  5
2BB9
330
2B96
100
AcDbEntity
  8
0
100
AcDbBlockBegin
  2
MSPEC_T40-75
 70
     0
 10
0.0
 20
0.0
 30
0.0
  3
MSPEC_T40-75
  1

  0
LINE
  5
2B97
330
2B96
100
AcDbEntity
  8
0
100
AcDbLine
 10
126.0
 20
6.180499999999994
 30
0.0
 11
126.0
 21
37.99999999999997
 31
0.0
  0
TEXT
  5
2B98
330
2B96
100
AcDbEntity
  8
0
100
AcDbText
 10
86.35319943225727
 20
28.10060000000001
 30
0.0
 40
2.0
  1
40 W
100
AcDbText
  0
TEXT
  5
2B99
330
2B96
100
AcDbEntity
  8
0
100
AcDbText
 10
74.67809444174623
 20
28.10059999999998
 30
0.0
 40
2.0
  1
出力
100
AcDbText
  0
LINE
  5
2B9A
330
2B96
100
AcDbEntity
  8
0
100
AcDbLine
 10
85.5
 20
6.180499999999994
 30
0.0
 11
85.5
 21
38.0
 31
0.0
  0
LINE
  5
2B9B
330
2B96
100
AcDbEntity
  8
0
100
AcDbLine
 10
73.99999999999998
 20
6.180500000000023
 30
0.0
 11
74.0
 21
38.0
 31
0.0
  0
TEXT
  5
2B9C
330
2B96
100
AcDbEntity
  8
0
100
AcDbText
 10
86.35319943225727
 20
13.95859999999993
 30
0.0
 40
2.0
  1
1500/1800/1800 rpm
100
AcDbText
  0
LINE
  5
2B9D
330
2B96
100
AcDbEntity
  8
0
100
AcDbLine
 10
74.0
 20
6.180500000000023
 30
0.0
 11
126.0
 21
6.180499999999994
 31
0.0
  0
LINE
  5
2B9E
330
2B96
100
AcDbEntity
  8
0
100
AcDbLine
 10
74.0
 20
9.716000000000008
 30
0.0
 11
126.0
 21
9.715999999999979
 31
0.0
  0
LINE
  5
2B9F
330
2B96
100
AcDbEntity
  8
0
100
AcDbLine
 10
74.0
 20
13.25149999999999
 30
0.0
 11
126.0
 21
13.25149999999996
 31
0.0
  0
LINE
  5
2BA0
330
2B96
100
AcDbEntity
  8
0
100
AcDbLine
 10
74.0
 20
23.85799999999994
 30
0.0
 11
126.0
 21
23.85799999999992
 31
0.0
  0
LINE
  5
2BA1
330
2B96
100
AcDbEntity
  8
0
100
AcDbLine
 10
74.0
 20
16.78699999999997
 30
0.0
 11
126.0
 21
16.78699999999994
 31
0.0
  0
LINE
  5
2BA2
330
2B96
100
AcDbEntity
  8
0
100
AcDbLine
 10
74.0
 20
20.32249999999996
 30
0.0
 11
126.0
 21
20.32249999999993
 31
0.0
  0
LINE
  5
2BA3
330
2B96
100
AcDbEntity
  8
0
100
AcDbLine
 10
74.0
 20
27.39349999999999
 30
0.0
 11
126.0
 21
27.39349999999996
 31
0.0
  0
TEXT
  5
2BA4
330
2B96
100
AcDbEntity
  8
0
100
AcDbText
 10
86.35319943225727
 20
24.56510000000003
 30
0.0
 40
2.0
  1
200/200/220 V
100
AcDbText
  0
TEXT
  5
2BA5
330
2B96
100
AcDbEntity
  8
0
100
AcDbText
 10
86.35319943225727
 20
21.02959999999995
 30
0.0
 40
2.0
  1
50/60/60 Hz
100
AcDbText
  0
TEXT
  5
2BA6
330
2B96
100
AcDbEntity
  8
0
100
AcDbText
 10
74.67809444174623
 20
10.3295422092805
 30
0.0
 40
2.0
  1
定格
100
AcDbText
  0
TEXT
  5
2BA7
330
2B96
100
AcDbEntity
  8
0
100
AcDbText
 10
74.67809444174623
 20
6.794042209280519
 30
0.0
 40
2.0
  1
絶縁
100
AcDbText
  0
TEXT
  5
2BA8
330
2B96
100
AcDbEntity
  8
0
100
AcDbText
 10
86.35319943225727
 20
10.42309999999994
 30
0.0
 40
2.0
  1
連続
100
AcDbText
  0
TEXT
  5
2BA9
330
2B96
100
AcDbEntity
  8
0
100
AcDbText
 10
86.35319943225727
 20
6.887599999999963
 30
0.0
 40
2.0
  1
E種
100
AcDbText
  0
TEXT
  5
2BAA
330
2B96
100
AcDbEntity
  8
0
100
AcDbText
 10
74.67809444174623
 20
13.86504220928048
 30
0.0
 40
2.0
  1
回転速度
100
AcDbText
  0
TEXT
  5
2BAB
330
2B96
100
AcDbEntity
  8
0
100
AcDbText
 10
74.67809444174633
 20
21.02959999999995
 30
0.0
 40
2.0
  1
周波数
100
AcDbText
  0
TEXT
  5
2BAC
330
2B96
100
AcDbEntity
  8
0
100
AcDbText
 10
74.67809444174623
 20
17.4005422092805
 30
0.0
 40
2.0
  1
極数
100
AcDbText
  0
TEXT
  5
2BAD
330
2B96
100
AcDbEntity
  8
0
100
AcDbText
 10
74.67809444174623
 20
24.56509999999997
 30
0.0
 40
2.0
  1
電圧
100
AcDbText
  0
TEXT
  5
2BAE
330
2B96
100
AcDbEntity
  8
0
100
AcDbText
 10
86.35319943225727
 20
17.49409999999994
 30
0.0
 40
2.0
  1
4
100
AcDbText
  0
TEXT
  5
2BAF
330
2B96
100
AcDbEntity
  8
0
100
AcDbText
 10
86.35319943225727
 20
31.6361
 30
0.0
 40
2.0
  1
全閉形　DT-75
100
AcDbText
  0
LINE
  5
2BB0
330
2B96
100
AcDbEntity
  8
0
100
AcDbLine
 10
74.0
 20
38.0
 30
0.0
 11
126.0
 21
37.99999999999997
 31
0.0
  0
LINE
  5
2BB1
330
2B96
100
AcDbEntity
  8
0
100
AcDbLine
 10
74.0
 20
30.929
 30
0.0
 11
126.0
 21
30.92899999999994
 31
0.0
  0
LINE
  5
2BB2
330
2B96
100
AcDbEntity
  8
0
100
AcDbLine
 10
74.0
 20
34.46450000000001
 30
0.0
 11
126.0
 21
34.46449999999998
 31
0.0
  0
TEXT
  5
2BB3
330
2B96
100
AcDbEntity
  8
0
100
AcDbText
 10
86.35319943225727
 20
35.17159999999998
 30
0.0
 40
2.0
  1
三相誘導電動機
100
AcDbText
  0
TEXT
  5
2BB4
330
2B96
100
AcDbEntity
  8
0
100
AcDbText
 10
74.67809444174623
 20
31.6361
 30
0.0
 40
2.0
  1
型式
100
AcDbText
  0
TEXT
  5
2BB5
330
2B96
100
AcDbEntity
  8
0
100
AcDbText
 10
74.67809444174623
 20
35.17159999999998
 30
0.0
 40
2.0
  1
名称
100
AcDbText
  0
LINE
  5
2BB6
330
2B96
100
AcDbEntity
  8
0
100
AcDbLine
 10
93.80123573807338
 20
40.12129999999999
 30
0.0
 11
106.1987642619266
 21
40.12129999999999
 31
0.0
  0
LINE
  5
2BB7
330
2B96
100
AcDbEntity
  8
0
100
AcDbLine
 10
93.80123573807338
 20
39.41419999999999
 30
0.0
 11
106.1987642619266
 21
39.41419999999999
 31
0.0
  0
TEXT
  5
2BB8
330
2B96
100
AcDbEntity
  8
0
100
AcDbText
 10
93.99902987649658
 20
40.47485
 30
0.0
 40
2.0
  1
モータ仕様
100
AcDbText
  0
ENDBLK
  5
2BBA
330
2B96
100
AcDbEntity
  8
0
100
AcDbBlockEnd
  0
BLOCK
  5
2BDF
330
2BBC
100
AcDbEntity
  8
0
100
AcDbBlockBegin
  2
MSPEC_S15-75
 70
     0
 10
0.0
 20
0.0
 30
0.0
  3
MSPEC_S15-75
  1

  0
LINE
  5
2BBD
330
2BBC
100
AcDbEntity
  8
0
100
AcDbLine
 10
126.0
 20
6.180499999999994
 30
0.0
 11
126.0
 21
37.99999999999997
 31
0.0
  0
TEXT
  5
2BBE
330
2BBC
100
AcDbEntity
  8
0
100
AcDbText
 10
86.35319943225727
 20
28.10060000000001
 30
0.0
 40
2.0
  1
15 W
100
AcDbText
  0
TEXT
  5
2BBF
330
2BBC
100
AcDbEntity
  8
0
100
AcDbText
 10
74.67809444174623
 20
28.10059999999998
 30
0.0
 40
2.0
  1
出力
100
AcDbText
  0
LINE
  5
2BC0
330
2BBC
100
AcDbEntity
  8
0
100
AcDbLine
 10
85.5
 20
6.180499999999994
 30
0.0
 11
85.5
 21
38.0
 31
0.0
  0
LINE
  5
2BC1
330
2BBC
100
AcDbEntity
  8
0
100
AcDbLine
 10
73.99999999999998
 20
6.180500000000023
 30
0.0
 11
74.0
 21
38.0
 31
0.0
  0
TEXT
  5
2BC2
330
2BBC
100
AcDbEntity
  8
0
100
AcDbText
 10
86.35319943225727
 20
13.95859999999993
 30
0.0
 40
2.0
  1
1500/1800 rpm
100
AcDbText
  0
LINE
  5
2BC3
330
2BBC
100
AcDbEntity
  8
0
100
AcDbLine
 10
74.0
 20
6.180500000000023
 30
0.0
 11
126.0
 21
6.180499999999994
 31
0.0
  0
LINE
  5
2BC4
330
2BBC
100
AcDbEntity
  8
0
100
AcDbLine
 10
74.0
 20
9.716000000000008
 30
0.0
 11
126.0
 21
9.715999999999979
 31
0.0
  0
LINE
  5
2BC5
330
2BBC
100
AcDbEntity
  8
0
100
AcDbLine
 10
74.0
 20
13.25149999999999
 30
0.0
 11
126.0
 21
13.25149999999996
 31
0.0
  0
LINE
  5
2BC6
330
2BBC
100
AcDbEntity
  8
0
100
AcDbLine
 10
74.0
 20
23.85799999999994
 30
0.0
 11
126.0
 21
23.85799999999992
 31
0.0
  0
LINE
  5
2BC7
330
2BBC
100
AcDbEntity
  8
0
100
AcDbLine
 10
74.0
 20
16.78699999999997
 30
0.0
 11
126.0
 21
16.78699999999994
 31
0.0
  0
LINE
  5
2BC8
330
2BBC
100
AcDbEntity
  8
0
100
AcDbLine
 10
74.0
 20
20.32249999999996
 30
0.0
 11
126.0
 21
20.32249999999993
 31
0.0
  0
LINE
  5
2BC9
330
2BBC
100
AcDbEntity
  8
0
100
AcDbLine
 10
74.0
 20
27.39349999999999
 30
0.0
 11
126.0
 21
27.39349999999996
 31
0.0
  0
TEXT
  5
2BCA
330
2BBC
100
AcDbEntity
  8
0
100
AcDbText
 10
86.35319943225727
 20
24.56510000000003
 30
0.0
 40
2.0
  1
100 V
100
AcDbText
  0
TEXT
  5
2BCB
330
2BBC
100
AcDbEntity
  8
0
100
AcDbText
 10
86.35319943225727
 20
21.02959999999995
 30
0.0
 40
2.0
  1
50/60 Hz
100
AcDbText
  0
TEXT
  5
2BCC
330
2BBC
100
AcDbEntity
  8
0
100
AcDbText
 10
74.67809444174623
 20
10.3295422092805
 30
0.0
 40
2.0
  1
定格
100
AcDbText
  0
TEXT
  5
2BCD
330
2BBC
100
AcDbEntity
  8
0
100
AcDbText
 10
74.67809444174623
 20
6.794042209280519
 30
0.0
 40
2.0
  1
絶縁
100
AcDbText
  0
TEXT
  5
2BCE
330
2BBC
100
AcDbEntity
  8
0
100
AcDbText
 10
86.35319943225727
 20
10.42309999999994
 30
0.0
 40
2.0
  1
連続
100
AcDbText
  0
TEXT
  5
2BCF
330
2BBC
100
AcDbEntity
  8
0
100
AcDbText
 10
86.35319943225727
 20
6.887599999999963
 30
0.0
 40
2.0
  1
E種
100
AcDbText
  0
TEXT
  5
2BD0
330
2BBC
100
AcDbEntity
  8
0
100
AcDbText
 10
74.67809444174623
 20
13.86504220928048
 30
0.0
 40
2.0
  1
回転速度
100
AcDbText
  0
TEXT
  5
2BD1
330
2BBC
100
AcDbEntity
  8
0
100
AcDbText
 10
74.67809444174633
 20
21.02959999999995
 30
0.0
 40
2.0
  1
周波数
100
AcDbText
  0
TEXT
  5
2BD2
330
2BBC
100
AcDbEntity
  8
0
100
AcDbText
 10
74.67809444174623
 20
17.4005422092805
 30
0.0
 40
2.0
  1
極数
100
AcDbText
  0
TEXT
  5
2BD3
330
2BBC
100
AcDbEntity
  8
0
100
AcDbText
 10
74.67809444174623
 20
24.56509999999997
 30
0.0
 40
2.0
  1
電圧
100
AcDbText
  0
TEXT
  5
2BD4
330
2BBC
100
AcDbEntity
  8
0
100
AcDbText
 10
86.35319943225727
 20
17.49409999999994
 30
0.0
 40
2.0
  1
4
100
AcDbText
  0
TEXT
  5
2BD5
330
2BBC
100
AcDbEntity
  8
0
100
AcDbText
 10
86.35319943225727
 20
31.6361
 30
0.0
 40
2.0
  1
全閉形（コンデンサラン）DS-75
 41
0.95
100
AcDbText
  0
LINE
  5
2BD6
330
2BBC
100
AcDbEntity
  8
0
100
AcDbLine
 10
74.0
 20
38.0
 30
0.0
 11
126.0
 21
37.99999999999997
 31
0.0
  0
LINE
  5
2BD7
330
2BBC
100
AcDbEntity
  8
0
100
AcDbLine
 10
74.0
 20
30.929
 30
0.0
 11
126.0
 21
30.92899999999994
 31
0.0
  0
LINE
  5
2BD8
330
2BBC
100
AcDbEntity
  8
0
100
AcDbLine
 10
74.0
 20
34.46450000000001
 30
0.0
 11
126.0
 21
34.46449999999998
 31
0.0
  0
TEXT
  5
2BD9
330
2BBC
100
AcDbEntity
  8
0
100
AcDbText
 10
86.35319943225727
 20
35.17159999999998
 30
0.0
 40
2.0
  1
単相誘導電動機
100
AcDbText
  0
TEXT
  5
2BDA
330
2BBC
100
AcDbEntity
  8
0
100
AcDbText
 10
74.67809444174623
 20
31.6361
 30
0.0
 40
2.0
  1
型式
100
AcDbText
  0
TEXT
  5
2BDB
330
2BBC
100
AcDbEntity
  8
0
100
AcDbText
 10
74.67809444174623
 20
35.17159999999998
 30
0.0
 40
2.0
  1
名称
100
AcDbText
  0
LINE
  5
2BDC
330
2BBC
100
AcDbEntity
  8
0
100
AcDbLine
 10
93.80123573807338
 20
40.12129999999999
 30
0.0
 11
106.1987642619266
 21
40.12129999999999
 31
0.0
  0
LINE
  5
2BDD
330
2BBC
100
AcDbEntity
  8
0
100
AcDbLine
 10
93.80123573807338
 20
39.41419999999999
 30
0.0
 11
106.1987642619266
 21
39.41419999999999
 31
0.0
  0
TEXT
  5
2BDE
330
2BBC
100
AcDbEntity
  8
0
100
AcDbText
 10
93.99902987649658
 20
40.47485
 30
0.0
 40
2.0
  1
モータ仕様
100
AcDbText
  0
ENDBLK
  5
2BE0
330
2BBC
100
AcDbEntity
  8
0
100
AcDbBlockEnd
  0
BLOCK
  5
2C05
330
2BE2
100
AcDbEntity
  8
0
100
AcDbBlockBegin
  2
MSPEC_S15W-75
 70
     0
 10
0.0
 20
0.0
 30
0.0
  3
MSPEC_S15W-75
  1

  0
LINE
  5
2BE3
330
2BE2
100
AcDbEntity
  8
0
100
AcDbLine
 10
126.0
 20
6.180499999999994
 30
0.0
 11
126.0
 21
37.99999999999997
 31
0.0
  0
TEXT
  5
2BE4
330
2BE2
100
AcDbEntity
  8
0
100
AcDbText
 10
86.35319943225727
 20
28.10060000000001
 30
0.0
 40
2.0
  1
15 W
100
AcDbText
  0
TEXT
  5
2BE5
330
2BE2
100
AcDbEntity
  8
0
100
AcDbText
 10
74.67809444174623
 20
28.10059999999998
 30
0.0
 40
2.0
  1
出力
100
AcDbText
  0
LINE
  5
2BE6
330
2BE2
100
AcDbEntity
  8
0
100
AcDbLine
 10
85.5
 20
6.180499999999994
 30
0.0
 11
85.5
 21
38.0
 31
0.0
  0
LINE
  5
2BE7
330
2BE2
100
AcDbEntity
  8
0
100
AcDbLine
 10
73.99999999999998
 20
6.180500000000023
 30
0.0
 11
74.0
 21
38.0
 31
0.0
  0
TEXT
  5
2BE8
330
2BE2
100
AcDbEntity
  8
0
100
AcDbText
 10
86.35319943225727
 20
13.95859999999993
 30
0.0
 40
2.0
  1
1500/1800 rpm
100
AcDbText
  0
LINE
  5
2BE9
330
2BE2
100
AcDbEntity
  8
0
100
AcDbLine
 10
74.0
 20
6.180500000000023
 30
0.0
 11
126.0
 21
6.180499999999994
 31
0.0
  0
LINE
  5
2BEA
330
2BE2
100
AcDbEntity
  8
0
100
AcDbLine
 10
74.0
 20
9.716000000000008
 30
0.0
 11
126.0
 21
9.715999999999979
 31
0.0
  0
LINE
  5
2BEB
330
2BE2
100
AcDbEntity
  8
0
100
AcDbLine
 10
74.0
 20
13.25149999999999
 30
0.0
 11
126.0
 21
13.25149999999996
 31
0.0
  0
LINE
  5
2BEC
330
2BE2
100
AcDbEntity
  8
0
100
AcDbLine
 10
74.0
 20
23.85799999999994
 30
0.0
 11
126.0
 21
23.85799999999992
 31
0.0
  0
LINE
  5
2BED
330
2BE2
100
AcDbEntity
  8
0
100
AcDbLine
 10
74.0
 20
16.78699999999997
 30
0.0
 11
126.0
 21
16.78699999999994
 31
0.0
  0
LINE
  5
2BEE
330
2BE2
100
AcDbEntity
  8
0
100
AcDbLine
 10
74.0
 20
20.32249999999996
 30
0.0
 11
126.0
 21
20.32249999999993
 31
0.0
  0
LINE
  5
2BEF
330
2BE2
100
AcDbEntity
  8
0
100
AcDbLine
 10
74.0
 20
27.39349999999999
 30
0.0
 11
126.0
 21
27.39349999999996
 31
0.0
  0
TEXT
  5
2BF0
330
2BE2
100
AcDbEntity
  8
0
100
AcDbText
 10
86.35319943225727
 20
24.56510000000003
 30
0.0
 40
2.0
  1
200 V
100
AcDbText
  0
TEXT
  5
2BF1
330
2BE2
100
AcDbEntity
  8
0
100
AcDbText
 10
86.35319943225727
 20
21.02959999999995
 30
0.0
 40
2.0
  1
50/60 Hz
100
AcDbText
  0
TEXT
  5
2BF2
330
2BE2
100
AcDbEntity
  8
0
100
AcDbText
 10
74.67809444174623
 20
10.3295422092805
 30
0.0
 40
2.0
  1
定格
100
AcDbText
  0
TEXT
  5
2BF3
330
2BE2
100
AcDbEntity
  8
0
100
AcDbText
 10
74.67809444174623
 20
6.794042209280519
 30
0.0
 40
2.0
  1
絶縁
100
AcDbText
  0
TEXT
  5
2BF4
330
2BE2
100
AcDbEntity
  8
0
100
AcDbText
 10
86.35319943225727
 20
10.42309999999994
 30
0.0
 40
2.0
  1
連続
100
AcDbText
  0
TEXT
  5
2BF5
330
2BE2
100
AcDbEntity
  8
0
100
AcDbText
 10
86.35319943225727
 20
6.887599999999963
 30
0.0
 40
2.0
  1
E種
100
AcDbText
  0
TEXT
  5
2BF6
330
2BE2
100
AcDbEntity
  8
0
100
AcDbText
 10
74.67809444174623
 20
13.86504220928048
 30
0.0
 40
2.0
  1
回転速度
100
AcDbText
  0
TEXT
  5
2BF7
330
2BE2
100
AcDbEntity
  8
0
100
AcDbText
 10
74.67809444174633
 20
21.02959999999995
 30
0.0
 40
2.0
  1
周波数
100
AcDbText
  0
TEXT
  5
2BF8
330
2BE2
100
AcDbEntity
  8
0
100
AcDbText
 10
74.67809444174623
 20
17.4005422092805
 30
0.0
 40
2.0
  1
極数
100
AcDbText
  0
TEXT
  5
2BF9
330
2BE2
100
AcDbEntity
  8
0
100
AcDbText
 10
74.67809444174623
 20
24.56509999999997
 30
0.0
 40
2.0
  1
電圧
100
AcDbText
  0
TEXT
  5
2BFA
330
2BE2
100
AcDbEntity
  8
0
100
AcDbText
 10
86.35319943225727
 20
17.49409999999994
 30
0.0
 40
2.0
  1
4
100
AcDbText
  0
TEXT
  5
2BFB
330
2BE2
100
AcDbEntity
  8
0
100
AcDbText
 10
86.35319943225727
 20
31.6361
 30
0.0
 40
2.0
  1
全閉形（コンデンサラン）DS-75
 41
0.95
100
AcDbText
  0
LINE
  5
2BFC
330
2BE2
100
AcDbEntity
  8
0
100
AcDbLine
 10
74.0
 20
38.0
 30
0.0
 11
126.0
 21
37.99999999999997
 31
0.0
  0
LINE
  5
2BFD
330
2BE2
100
AcDbEntity
  8
0
100
AcDbLine
 10
74.0
 20
30.929
 30
0.0
 11
126.0
 21
30.92899999999994
 31
0.0
  0
LINE
  5
2BFE
330
2BE2
100
AcDbEntity
  8
0
100
AcDbLine
 10
74.0
 20
34.46450000000001
 30
0.0
 11
126.0
 21
34.46449999999998
 31
0.0
  0
TEXT
  5
2BFF
330
2BE2
100
AcDbEntity
  8
0
100
AcDbText
 10
86.35319943225727
 20
35.17159999999998
 30
0.0
 40
2.0
  1
単相誘導電動機
100
AcDbText
  0
TEXT
  5
2C00
330
2BE2
100
AcDbEntity
  8
0
100
AcDbText
 10
74.67809444174623
 20
31.6361
 30
0.0
 40
2.0
  1
型式
100
AcDbText
  0
TEXT
  5
2C01
330
2BE2
100
AcDbEntity
  8
0
100
AcDbText
 10
74.67809444174623
 20
35.17159999999998
 30
0.0
 40
2.0
  1
名称
100
AcDbText
  0
LINE
  5
2C02
330
2BE2
100
AcDbEntity
  8
0
100
AcDbLine
 10
93.80123573807338
 20
40.12129999999999
 30
0.0
 11
106.1987642619266
 21
40.12129999999999
 31
0.0
  0
LINE
  5
2C03
330
2BE2
100
AcDbEntity
  8
0
100
AcDbLine
 10
93.80123573807338
 20
39.41419999999999
 30
0.0
 11
106.1987642619266
 21
39.41419999999999
 31
0.0
  0
TEXT
  5
2C04
330
2BE2
100
AcDbEntity
  8
0
100
AcDbText
 10
93.99902987649658
 20
40.47485
 30
0.0
 40
2.0
  1
モータ仕様
100
AcDbText
  0
ENDBLK
  5
2C06
330
2BE2
100
AcDbEntity
  8
0
100
AcDbBlockEnd
  0
BLOCK
  5
2C2B
330
2C08
100
AcDbEntity
  8
0
100
AcDbBlockBegin
  2
MSPEC_S25-75
 70
     0
 10
0.0
 20
0.0
 30
0.0
  3
MSPEC_S25-75
  1

  0
LINE
  5
2C09
330
2C08
100
AcDbEntity
  8
0
100
AcDbLine
 10
126.0
 20
6.180499999999994
 30
0.0
 11
126.0
 21
37.99999999999997
 31
0.0
  0
TEXT
  5
2C0A
330
2C08
100
AcDbEntity
  8
0
100
AcDbText
 10
86.35319943225727
 20
28.10060000000001
 30
0.0
 40
2.0
  1
25 W
100
AcDbText
  0
TEXT
  5
2C0B
330
2C08
100
AcDbEntity
  8
0
100
AcDbText
 10
74.67809444174623
 20
28.10059999999998
 30
0.0
 40
2.0
  1
出力
100
AcDbText
  0
LINE
  5
2C0C
330
2C08
100
AcDbEntity
  8
0
100
AcDbLine
 10
85.5
 20
6.180499999999994
 30
0.0
 11
85.5
 21
38.0
 31
0.0
  0
LINE
  5
2C0D
330
2C08
100
AcDbEntity
  8
0
100
AcDbLine
 10
73.99999999999998
 20
6.180500000000023
 30
0.0
 11
74.0
 21
38.0
 31
0.0
  0
TEXT
  5
2C0E
330
2C08
100
AcDbEntity
  8
0
100
AcDbText
 10
86.35319943225727
 20
13.95859999999993
 30
0.0
 40
2.0
  1
1500/1800 rpm
100
AcDbText
  0
LINE
  5
2C0F
330
2C08
100
AcDbEntity
  8
0
100
AcDbLine
 10
74.0
 20
6.180500000000023
 30
0.0
 11
126.0
 21
6.180499999999994
 31
0.0
  0
LINE
  5
2C10
330
2C08
100
AcDbEntity
  8
0
100
AcDbLine
 10
74.0
 20
9.716000000000008
 30
0.0
 11
126.0
 21
9.715999999999979
 31
0.0
  0
LINE
  5
2C11
330
2C08
100
AcDbEntity
  8
0
100
AcDbLine
 10
74.0
 20
13.25149999999999
 30
0.0
 11
126.0
 21
13.25149999999996
 31
0.0
  0
LINE
  5
2C12
330
2C08
100
AcDbEntity
  8
0
100
AcDbLine
 10
74.0
 20
23.85799999999994
 30
0.0
 11
126.0
 21
23.85799999999992
 31
0.0
  0
LINE
  5
2C13
330
2C08
100
AcDbEntity
  8
0
100
AcDbLine
 10
74.0
 20
16.78699999999997
 30
0.0
 11
126.0
 21
16.78699999999994
 31
0.0
  0
LINE
  5
2C14
330
2C08
100
AcDbEntity
  8
0
100
AcDbLine
 10
74.0
 20
20.32249999999996
 30
0.0
 11
126.0
 21
20.32249999999993
 31
0.0
  0
LINE
  5
2C15
330
2C08
100
AcDbEntity
  8
0
100
AcDbLine
 10
74.0
 20
27.39349999999999
 30
0.0
 11
126.0
 21
27.39349999999996
 31
0.0
  0
TEXT
  5
2C16
330
2C08
100
AcDbEntity
  8
0
100
AcDbText
 10
86.35319943225727
 20
24.56510000000003
 30
0.0
 40
2.0
  1
100 V
100
AcDbText
  0
TEXT
  5
2C17
330
2C08
100
AcDbEntity
  8
0
100
AcDbText
 10
86.35319943225727
 20
21.02959999999995
 30
0.0
 40
2.0
  1
50/60 Hz
100
AcDbText
  0
TEXT
  5
2C18
330
2C08
100
AcDbEntity
  8
0
100
AcDbText
 10
74.67809444174623
 20
10.3295422092805
 30
0.0
 40
2.0
  1
定格
100
AcDbText
  0
TEXT
  5
2C19
330
2C08
100
AcDbEntity
  8
0
100
AcDbText
 10
74.67809444174623
 20
6.794042209280519
 30
0.0
 40
2.0
  1
絶縁
100
AcDbText
  0
TEXT
  5
2C1A
330
2C08
100
AcDbEntity
  8
0
100
AcDbText
 10
86.35319943225727
 20
10.42309999999994
 30
0.0
 40
2.0
  1
連続
100
AcDbText
  0
TEXT
  5
2C1B
330
2C08
100
AcDbEntity
  8
0
100
AcDbText
 10
86.35319943225727
 20
6.887599999999963
 30
0.0
 40
2.0
  1
E種
100
AcDbText
  0
TEXT
  5
2C1C
330
2C08
100
AcDbEntity
  8
0
100
AcDbText
 10
74.67809444174623
 20
13.86504220928048
 30
0.0
 40
2.0
  1
回転速度
100
AcDbText
  0
TEXT
  5
2C1D
330
2C08
100
AcDbEntity
  8
0
100
AcDbText
 10
74.67809444174633
 20
21.02959999999995
 30
0.0
 40
2.0
  1
周波数
100
AcDbText
  0
TEXT
  5
2C1E
330
2C08
100
AcDbEntity
  8
0
100
AcDbText
 10
74.67809444174623
 20
17.4005422092805
 30
0.0
 40
2.0
  1
極数
100
AcDbText
  0
TEXT
  5
2C1F
330
2C08
100
AcDbEntity
  8
0
100
AcDbText
 10
74.67809444174623
 20
24.56509999999997
 30
0.0
 40
2.0
  1
電圧
100
AcDbText
  0
TEXT
  5
2C20
330
2C08
100
AcDbEntity
  8
0
100
AcDbText
 10
86.35319943225727
 20
17.49409999999994
 30
0.0
 40
2.0
  1
4
100
AcDbText
  0
TEXT
  5
2C21
330
2C08
100
AcDbEntity
  8
0
100
AcDbText
 10
86.35319943225727
 20
31.6361
 30
0.0
 40
2.0
  1
全閉形（コンデンサラン）DS-75
 41
0.95
100
AcDbText
  0
LINE
  5
2C22
330
2C08
100
AcDbEntity
  8
0
100
AcDbLine
 10
74.0
 20
38.0
 30
0.0
 11
126.0
 21
37.99999999999997
 31
0.0
  0
LINE
  5
2C23
330
2C08
100
AcDbEntity
  8
0
100
AcDbLine
 10
74.0
 20
30.929
 30
0.0
 11
126.0
 21
30.92899999999994
 31
0.0
  0
LINE
  5
2C24
330
2C08
100
AcDbEntity
  8
0
100
AcDbLine
 10
74.0
 20
34.46450000000001
 30
0.0
 11
126.0
 21
34.46449999999998
 31
0.0
  0
TEXT
  5
2C25
330
2C08
100
AcDbEntity
  8
0
100
AcDbText
 10
86.35319943225727
 20
35.17159999999998
 30
0.0
 40
2.0
  1
単相誘導電動機
100
AcDbText
  0
TEXT
  5
2C26
330
2C08
100
AcDbEntity
  8
0
100
AcDbText
 10
74.67809444174623
 20
31.6361
 30
0.0
 40
2.0
  1
型式
100
AcDbText
  0
TEXT
  5
2C27
330
2C08
100
AcDbEntity
  8
0
100
AcDbText
 10
74.67809444174623
 20
35.17159999999998
 30
0.0
 40
2.0
  1
名称
100
AcDbText
  0
LINE
  5
2C28
330
2C08
100
AcDbEntity
  8
0
100
AcDbLine
 10
93.80123573807338
 20
40.12129999999999
 30
0.0
 11
106.1987642619266
 21
40.12129999999999
 31
0.0
  0
LINE
  5
2C29
330
2C08
100
AcDbEntity
  8
0
100
AcDbLine
 10
93.80123573807338
 20
39.41419999999999
 30
0.0
 11
106.1987642619266
 21
39.41419999999999
 31
0.0
  0
TEXT
  5
2C2A
330
2C08
100
AcDbEntity
  8
0
100
AcDbText
 10
93.99902987649658
 20
40.47485
 30
0.0
 40
2.0
  1
モータ仕様
100
AcDbText
  0
ENDBLK
  5
2C2C
330
2C08
100
AcDbEntity
  8
0
100
AcDbBlockEnd
  0
BLOCK
  5
2C51
330
2C2E
100
AcDbEntity
  8
0
100
AcDbBlockBegin
  2
MSPEC_S25W-75
 70
     0
 10
0.0
 20
0.0
 30
0.0
  3
MSPEC_S25W-75
  1

  0
LINE
  5
2C2F
330
2C2E
100
AcDbEntity
  8
0
100
AcDbLine
 10
126.0
 20
6.180499999999994
 30
0.0
 11
126.0
 21
37.99999999999997
 31
0.0
  0
TEXT
  5
2C30
330
2C2E
100
AcDbEntity
  8
0
100
AcDbText
 10
86.35319943225727
 20
28.10060000000001
 30
0.0
 40
2.0
  1
25 W
100
AcDbText
  0
TEXT
  5
2C31
330
2C2E
100
AcDbEntity
  8
0
100
AcDbText
 10
74.67809444174623
 20
28.10059999999998
 30
0.0
 40
2.0
  1
出力
100
AcDbText
  0
LINE
  5
2C32
330
2C2E
100
AcDbEntity
  8
0
100
AcDbLine
 10
85.5
 20
6.180499999999994
 30
0.0
 11
85.5
 21
38.0
 31
0.0
  0
LINE
  5
2C33
330
2C2E
100
AcDbEntity
  8
0
100
AcDbLine
 10
73.99999999999998
 20
6.180500000000023
 30
0.0
 11
74.0
 21
38.0
 31
0.0
  0
TEXT
  5
2C34
330
2C2E
100
AcDbEntity
  8
0
100
AcDbText
 10
86.35319943225727
 20
13.95859999999993
 30
0.0
 40
2.0
  1
1500/1800 rpm
100
AcDbText
  0
LINE
  5
2C35
330
2C2E
100
AcDbEntity
  8
0
100
AcDbLine
 10
74.0
 20
6.180500000000023
 30
0.0
 11
126.0
 21
6.180499999999994
 31
0.0
  0
LINE
  5
2C36
330
2C2E
100
AcDbEntity
  8
0
100
AcDbLine
 10
74.0
 20
9.716000000000008
 30
0.0
 11
126.0
 21
9.715999999999979
 31
0.0
  0
LINE
  5
2C37
330
2C2E
100
AcDbEntity
  8
0
100
AcDbLine
 10
74.0
 20
13.25149999999999
 30
0.0
 11
126.0
 21
13.25149999999996
 31
0.0
  0
LINE
  5
2C38
330
2C2E
100
AcDbEntity
  8
0
100
AcDbLine
 10
74.0
 20
23.85799999999994
 30
0.0
 11
126.0
 21
23.85799999999992
 31
0.0
  0
LINE
  5
2C39
330
2C2E
100
AcDbEntity
  8
0
100
AcDbLine
 10
74.0
 20
16.78699999999997
 30
0.0
 11
126.0
 21
16.78699999999994
 31
0.0
  0
LINE
  5
2C3A
330
2C2E
100
AcDbEntity
  8
0
100
AcDbLine
 10
74.0
 20
20.32249999999996
 30
0.0
 11
126.0
 21
20.32249999999993
 31
0.0
  0
LINE
  5
2C3B
330
2C2E
100
AcDbEntity
  8
0
100
AcDbLine
 10
74.0
 20
27.39349999999999
 30
0.0
 11
126.0
 21
27.39349999999996
 31
0.0
  0
TEXT
  5
2C3C
330
2C2E
100
AcDbEntity
  8
0
100
AcDbText
 10
86.35319943225727
 20
24.56510000000003
 30
0.0
 40
2.0
  1
200 V
100
AcDbText
  0
TEXT
  5
2C3D
330
2C2E
100
AcDbEntity
  8
0
100
AcDbText
 10
86.35319943225727
 20
21.02959999999995
 30
0.0
 40
2.0
  1
50/60 Hz
100
AcDbText
  0
TEXT
  5
2C3E
330
2C2E
100
AcDbEntity
  8
0
100
AcDbText
 10
74.67809444174623
 20
10.3295422092805
 30
0.0
 40
2.0
  1
定格
100
AcDbText
  0
TEXT
  5
2C3F
330
2C2E
100
AcDbEntity
  8
0
100
AcDbText
 10
74.67809444174623
 20
6.794042209280519
 30
0.0
 40
2.0
  1
絶縁
100
AcDbText
  0
TEXT
  5
2C40
330
2C2E
100
AcDbEntity
  8
0
100
AcDbText
 10
86.35319943225727
 20
10.42309999999994
 30
0.0
 40
2.0
  1
連続
100
AcDbText
  0
TEXT
  5
2C41
330
2C2E
100
AcDbEntity
  8
0
100
AcDbText
 10
86.35319943225727
 20
6.887599999999963
 30
0.0
 40
2.0
  1
E種
100
AcDbText
  0
TEXT
  5
2C42
330
2C2E
100
AcDbEntity
  8
0
100
AcDbText
 10
74.67809444174623
 20
13.86504220928048
 30
0.0
 40
2.0
  1
回転速度
100
AcDbText
  0
TEXT
  5
2C43
330
2C2E
100
AcDbEntity
  8
0
100
AcDbText
 10
74.67809444174633
 20
21.02959999999995
 30
0.0
 40
2.0
  1
周波数
100
AcDbText
  0
TEXT
  5
2C44
330
2C2E
100
AcDbEntity
  8
0
100
AcDbText
 10
74.67809444174623
 20
17.4005422092805
 30
0.0
 40
2.0
  1
極数
100
AcDbText
  0
TEXT
  5
2C45
330
2C2E
100
AcDbEntity
  8
0
100
AcDbText
 10
74.67809444174623
 20
24.56509999999997
 30
0.0
 40
2.0
  1
電圧
100
AcDbText
  0
TEXT
  5
2C46
330
2C2E
100
AcDbEntity
  8
0
100
AcDbText
 10
86.35319943225727
 20
17.49409999999994
 30
0.0
 40
2.0
  1
4
100
AcDbText
  0
TEXT
  5
2C47
330
2C2E
100
AcDbEntity
  8
0
100
AcDbText
 10
86.35319943225727
 20
31.6361
 30
0.0
 40
2.0
  1
全閉形（コンデンサラン）DS-75
 41
0.95
100
AcDbText
  0
LINE
  5
2C48
330
2C2E
100
AcDbEntity
  8
0
100
AcDbLine
 10
74.0
 20
38.0
 30
0.0
 11
126.0
 21
37.99999999999997
 31
0.0
  0
LINE
  5
2C49
330
2C2E
100
AcDbEntity
  8
0
100
AcDbLine
 10
74.0
 20
30.929
 30
0.0
 11
126.0
 21
30.92899999999994
 31
0.0
  0
LINE
  5
2C4A
330
2C2E
100
AcDbEntity
  8
0
100
AcDbLine
 10
74.0
 20
34.46450000000001
 30
0.0
 11
126.0
 21
34.46449999999998
 31
0.0
  0
TEXT
  5
2C4B
330
2C2E
100
AcDbEntity
  8
0
100
AcDbText
 10
86.35319943225727
 20
35.17159999999998
 30
0.0
 40
2.0
  1
単相誘導電動機
100
AcDbText
  0
TEXT
  5
2C4C
330
2C2E
100
AcDbEntity
  8
0
100
AcDbText
 10
74.67809444174623
 20
31.6361
 30
0.0
 40
2.0
  1
型式
100
AcDbText
  0
TEXT
  5
2C4D
330
2C2E
100
AcDbEntity
  8
0
100
AcDbText
 10
74.67809444174623
 20
35.17159999999998
 30
0.0
 40
2.0
  1
名称
100
AcDbText
  0
LINE
  5
2C4E
330
2C2E
100
AcDbEntity
  8
0
100
AcDbLine
 10
93.80123573807338
 20
40.12129999999999
 30
0.0
 11
106.1987642619266
 21
40.12129999999999
 31
0.0
  0
LINE
  5
2C4F
330
2C2E
100
AcDbEntity
  8
0
100
AcDbLine
 10
93.80123573807338
 20
39.41419999999999
 30
0.0
 11
106.1987642619266
 21
39.41419999999999
 31
0.0
  0
TEXT
  5
2C50
330
2C2E
100
AcDbEntity
  8
0
100
AcDbText
 10
93.99902987649658
 20
40.47485
 30
0.0
 40
2.0
  1
モータ仕様
100
AcDbText
  0
ENDBLK
  5
2C52
330
2C2E
100
AcDbEntity
  8
0
100
AcDbBlockEnd
  0
BLOCK
  5
2C7F
330
2C7C
100
AcDbEntity
  8
0
100
AcDbBlockBegin
  2
17
 70
     0
 10
0.0
 20
0.0
 30
0.0
  3
17
  1

  0
TEXT
  5
2C7D
330
2C7C
100
AcDbEntity
  8
0
100
AcDbText
 10
0.0
 20
3.5
 30
0.0
 40
2.0
  1
注。K型ターミナルボックスにはコネクター（キャプコン、膜付ゴム
100
AcDbText
  0
TEXT
  5
2C7E
330
2C7C
100
AcDbEntity
  8
0
100
AcDbText
 10
0.0
 20
0.0
 30
0.0
 40
2.0
  1
　　ブッシュ）が付属されています。
100
AcDbText
  0
ENDBLK
  5
2C80
330
2C7C
100
AcDbEntity
  8
0
100
AcDbBlockEnd
  0
ENDSEC
  0
SECTION
  2
ENTITIES
  0
LINE
  5
762
330
2
100
AcDbEntity
  8
HIDS
100
AcDbLine
 10
307.5737074322042
 20
162.4414558457759
 30
0.0
 11
327.5737074322041
 21
162.4414558457759
 31
0.0
  0
LINE
  5
763
330
2
100
AcDbEntity
  8
HIDS
100
AcDbLine
 10
307.5737074322042
 20
170.4414558457759
 30
0.0
 11
327.5737074322041
 21
170.4414558457759
 31
0.0
  0
LINE
  5
764
330
2
100
AcDbEntity
  8
HOJO
100
AcDbLine
 10
307.5737074322042
 20
95.44145584577591
 30
0.0
 11
327.5737074322041
 21
95.44145584577591
 31
0.0
  0
LINE
  5
765
330
2
100
AcDbEntity
  8
HOJO
100
AcDbLine
 10
307.5737074322042
 20
103.4414558457759
 30
0.0
 11
327.5737074322041
 21
103.4414558457759
 31
0.0
  0
LINE
  5
766
330
2
100
AcDbEntity
  8
0
100
AcDbLine
 10
307.5737074322042
 20
102.8414498457759
 30
0.0
 11
376.0737074322041
 21
102.8414498457759
 31
0.0
  0
LINE
  5
767
330
2
100
AcDbEntity
  8
0
100
AcDbLine
 10
307.5737074322042
 20
96.04146184577594
 30
0.0
 11
376.0737074322041
 21
96.04146184577594
 31
0.0
  0
LINE
  5
768
330
2
100
AcDbEntity
  8
HIDS
100
AcDbLine
 10
307.5737074322042
 20
163.0414618457759
 30
0.0
 11
376.0737074322041
 21
163.0414618457759
 31
0.0
  0
LINE
  5
769
330
2
100
AcDbEntity
  8
HIDS
100
AcDbLine
 10
307.5737074322042
 20
169.8414498457759
 30
0.0
 11
376.0737074322041
 21
169.8414498457759
 31
0.0
  0
LINE
  5
76A
330
2
100
AcDbEntity
  8
0
100
AcDbLine
 10
326.2757034322041
 20
121.7678408457759
 30
0.0
 11
307.5737074322042
 21
121.4414558457759
 31
0.0
  0
LINE
  5
76B
330
2
100
AcDbEntity
  8
0
100
AcDbLine
 10
326.2757034322041
 20
144.1150708457759
 30
0.0
 11
307.5737074322042
 21
144.4414558457759
 31
0.0
  0
LINE
  5
76C
330
2
100
AcDbEntity
  8
0
100
AcDbLine
 10
328.6087114322042
 20
148.0742678457759
 30
0.0
 11
307.5737074322042
 21
148.4414558457759
 31
0.0
  0
LINE
  5
76D
330
2
100
AcDbEntity
  8
0
100
AcDbLine
 10
328.6087114322042
 20
117.8086438457759
 30
0.0
 11
307.5737074322042
 21
117.4414558457759
 31
0.0
  0
LINE
  5
76E
330
2
100
AcDbEntity
  8
CENTER
100
AcDbLine
 10
292.5687024322042
 20
166.4414558457759
 30
0.0
 11
379.6175004322041
 21
166.4414558457759
 31
0.0
  0
LINE
  5
76F
330
2
100
AcDbEntity
  8
CENTER
100
AcDbLine
 10
292.5687024322042
 20
99.44145584577592
 30
0.0
 11
379.6175004322041
 21
99.44145584577592
 31
0.0
  0
LINE
  5
770
330
2
100
AcDbEntity
  8
HIDS
100
AcDbLine
 10
314.5387034322041
 20
95.30865884577588
 30
0.0
 11
335.5737074322041
 21
94.94145584577593
 31
0.0
  0
LINE
  5
771
330
2
100
AcDbEntity
  8
HIDS
100
AcDbLine
 10
314.5387034322041
 20
170.5742678457759
 30
0.0
 11
335.5737074322041
 21
170.9414558457759
 31
0.0
  0
LINE
  5
772
330
2
100
AcDbEntity
  8
0
100
AcDbLine
 10
335.5737074322041
 20
92.44145584577593
 30
0.0
 11
295.0737074322041
 21
93.14845684577591
 31
0.0
  0
LINE
  5
773
330
2
100
AcDbEntity
  8
0
100
AcDbLine
 10
335.5737074322041
 20
173.4414558457759
 30
0.0
 11
295.0737074322041
 21
172.7344548457759
 31
0.0
  0
LINE
  5
774
330
2
100
AcDbEntity
  8
CENTER
100
AcDbLine
 10
286.0785604322042
 20
132.9414558457759
 30
0.0
 11
406.5531084322042
 21
132.9414558457759
 31
0.0
  0
CIRCLE
  5
775
330
2
100
AcDbEntity
  8
HOJO
100
AcDbCircle
 10
134.7714721868351
 20
99.44145584577592
 30
0.0
 40
4.0
  0
CIRCLE
  5
776
330
2
100
AcDbEntity
  8
0
100
AcDbCircle
 10
134.7714721868351
 20
99.44145584577592
 30
0.0
 40
4.25
  0
CIRCLE
  5
777
330
2
100
AcDbEntity
  8
HOJO
100
AcDbCircle
 10
220.7714721868351
 20
99.44145584577592
 30
0.0
 40
4.0
  0
CIRCLE
  5
778
330
2
100
AcDbEntity
  8
0
100
AcDbCircle
 10
220.7714721868351
 20
99.44145584577592
 30
0.0
 40
4.25
  0
CIRCLE
  5
779
330
2
100
AcDbEntity
  8
0
100
AcDbCircle
 10
220.7714721868351
 20
99.44145584577592
 30
0.0
 40
3.399999999999999
  0
CIRCLE
  5
77A
330
2
100
AcDbEntity
  8
0
100
AcDbCircle
 10
134.7714721868351
 20
99.44145584577592
 30
0.0
 40
3.399999999999999
  0
LINE
  5
77B
330
2
100
AcDbEntity
  8
0
100
AcDbLine
 10
34.71597618683517
 20
167.9414558457759
 30
0.0
 11
34.71597618683517
 21
97.94145584577591
 31
0.0
  0
LINE
  5
77C
330
2
100
AcDbEntity
  8
0
100
AcDbLine
 10
34.21597618683517
 20
164.9414558457759
 30
0.0
 11
34.21597618683517
 21
100.9414558457759
 31
0.0
  0
LINE
  5
77D
330
2
100
AcDbEntity
  8
0
100
AcDbLine
 10
54.71597618683517
 20
170.9414558457759
 30
0.0
 11
54.71597618683517
 21
94.94145584577593
 31
0.0
  0
ARC
  5
77E
330
2
100
AcDbEntity
  8
0
100
AcDbCircle
 10
147.7714721868351
 20
101.2016488457759
 30
0.0
 40
2.0
100
AcDbArc
 50
0.0
 51
40.60129899999998
  0
LINE
  5
77F
330
2
100
AcDbEntity
  8
0
100
AcDbLine
 10
151.7714721868351
 20
101.9414558457759
 30
0.0
 11
151.7714721868351
 21
100.0764658457759
 31
0.0
  0
ARC
  5
780
330
2
100
AcDbEntity
  8
0
100
AcDbCircle
 10
207.7714721868351
 20
101.2016488457759
 30
0.0
 40
2.0
100
AcDbArc
 50
139.3986970000003
 51
180.0
  0
LINE
  5
781
330
2
100
AcDbEntity
  8
0
100
AcDbLine
 10
203.7714721868351
 20
101.9414558457759
 30
0.0
 11
203.7714721868351
 21
100.0764658457759
 31
0.0
  0
LINE
  5
782
330
2
100
AcDbEntity
  8
0
100
AcDbLine
 10
127.7714721868351
 20
116.6130558457759
 30
0.0
 11
127.7714721868351
 21
99.44145584577592
 31
0.0
  0
LINE
  5
783
330
2
100
AcDbEntity
  8
0
100
AcDbLine
 10
227.7714721868351
 20
99.44145584577592
 30
0.0
 11
227.7714721868351
 21
166.4414558457759
 31
0.0
  0
LINE
  5
786
330
2
100
AcDbEntity
  8
0
100
AcDbLine
 10
295.0737074322041
 20
172.7344548457759
 30
0.0
 11
295.0737074322041
 21
93.14845684577591
 31
0.0
  0
ARC
  5
787
330
2
100
AcDbEntity
  8
HIDS
100
AcDbCircle
 10
309.5737074322041
 20
101.2396428457759
 30
0.0
 40
3.0
100
AcDbArc
 50
0.0
 51
50.64329900000029
  0
LINE
  5
788
330
2
100
AcDbEntity
  8
0
100
AcDbLine
 10
307.5737074322042
 20
172.9526558457759
 30
0.0
 11
307.5737074322042
 21
92.93025584577595
 31
0.0
  0
LINE
  5
78A
330
2
100
AcDbEntity
  8
0
100
AcDbLine
 10
54.71597618683517
 20
94.94145584577593
 30
0.0
 11
126.412738186835
 21
94.94145584577593
 31
0.0
  0
LINE
  5
78B
330
2
100
AcDbEntity
  8
0
100
AcDbLine
 10
38.1800721868351
 20
94.94145584577593
 30
0.0
 11
54.71597618683517
 21
94.94145584577593
 31
0.0
  0
ARC
  5
78C
330
2
100
AcDbEntity
  8
0
100
AcDbCircle
 10
38.1800721868351
 20
97.94145584577591
 30
0.0
 40
3.0
100
AcDbArc
 50
209.9996029999991
 51
270.0
  0
LINE
  5
78D
330
2
100
AcDbEntity
  8
0
100
AcDbLine
 10
35.58197318683517
 20
96.44145584577593
 30
0.0
 11
34.71597618683517
 21
97.94145584577591
 31
0.0
  0
LINE
  5
78E
330
2
100
AcDbEntity
  8
0
100
AcDbLine
 10
34.21597618683517
 20
100.9414558457759
 30
0.0
 11
34.71597618683517
 21
100.4414558457759
 31
0.0
  0
ARC
  5
78F
330
2
100
AcDbEntity
  8
0
100
AcDbCircle
 10
196.7714721868351
 20
119.4414558457759
 30
0.0
 40
22.0
100
AcDbArc
 50
270.0
 51
290.4873049999995
  0
LINE
  5
790
330
2
100
AcDbEntity
  8
0
100
AcDbLine
 10
134.7714721868351
 20
92.44145584577593
 30
0.0
 11
220.7714721868351
 21
92.44145584577593
 31
0.0
  0
ARC
  5
791
330
2
100
AcDbEntity
  8
0
100
AcDbCircle
 10
143.5768461868351
 20
89.87765884577589
 30
0.0
 40
6.0
100
AcDbArc
 50
59.6417009999995
 51
132.6358950000002
  0
LINE
  5
792
330
2
100
AcDbEntity
  8
0
100
AcDbLine
 10
127.107852186835
 20
94.81685284577594
 30
0.0
 11
132.338489186835
 21
92.8778568457759
 31
0.0
  0
ARC
  5
793
330
2
100
AcDbEntity
  8
0
100
AcDbCircle
 10
134.7714721868351
 20
99.44145584577592
 30
0.0
 40
7.0
100
AcDbArc
 50
180.0
 51
312.6358950000003
  0
ARC
  5
795
330
2
100
AcDbEntity
  8
0
100
AcDbCircle
 10
126.412738186835
 20
92.94145584577591
 30
0.0
 40
2.0
100
AcDbArc
 50
69.66127000000027
 51
90.0
  0
LINE
  5
796
330
2
100
AcDbEntity
  8
0
100
AcDbLine
 10
196.7714721868351
 20
97.44145584577593
 30
0.0
 11
158.7714721868351
 21
97.44145584577593
 31
0.0
  0
ARC
  5
797
330
2
100
AcDbEntity
  8
0
100
AcDbCircle
 10
158.7714721868351
 20
119.4414558457759
 30
0.0
 40
22.0
100
AcDbArc
 50
249.5127030000004
 51
270.0
  0
ARC
  5
798
330
2
100
AcDbEntity
  8
0
100
AcDbCircle
 10
151.7714721868351
 20
100.7064708457759
 30
0.0
 40
2.0
100
AcDbArc
 50
180.0
 51
249.5126950000004
  0
ARC
  5
799
330
2
100
AcDbEntity
  8
0
100
AcDbCircle
 10
161.7714721868351
 20
120.9414558457759
 30
0.0
 40
30.0
100
AcDbArc
 50
239.6417009999995
 51
247.6684039999998
  0
LINE
  5
79A
330
2
100
AcDbEntity
  8
0
100
AcDbLine
 10
149.7714721868351
 20
101.2016488457759
 30
0.0
 11
149.7714721868351
 21
100.7064708457759
 31
0.0
  0
ARC
  5
79B
330
2
100
AcDbEntity
  8
0
100
AcDbCircle
 10
153.7714721868351
 20
100.0764658457759
 30
0.0
 40
2.0
100
AcDbArc
 50
180.0
 51
255.5225069999996
  0
ARC
  5
79C
330
2
100
AcDbEntity
  8
0
100
AcDbCircle
 10
154.1720761868351
 20
102.4414558457759
 30
0.0
 40
10.0
100
AcDbArc
 50
247.6684039999998
 51
270.0
  0
ARC
  5
79D
330
2
100
AcDbEntity
  8
0
100
AcDbCircle
 10
220.7714721868351
 20
99.44145584577592
 30
0.0
 40
7.0
100
AcDbArc
 50
227.3641049999997
 51
0.0
  0
ARC
  5
79F
330
2
100
AcDbEntity
  8
0
100
AcDbCircle
 10
211.9660831868351
 20
89.87765884577589
 30
0.0
 40
6.0
100
AcDbArc
 50
47.364071
 51
120.3582990000005
  0
ARC
  5
7A0
330
2
100
AcDbEntity
  8
0
100
AcDbCircle
 10
193.7714721868351
 20
120.9414558457759
 30
0.0
 40
30.0
100
AcDbArc
 50
292.3316420000002
 51
300.358299
  0
ARC
  5
7A1
330
2
100
AcDbEntity
  8
0
100
AcDbCircle
 10
203.7714721868351
 20
100.7064708457759
 30
0.0
 40
2.0
100
AcDbArc
 50
290.4873120000003
 51
0.0
  0
ARC
  5
7A2
330
2
100
AcDbEntity
  8
0
100
AcDbCircle
 10
201.7714721868351
 20
100.0764658457759
 30
0.0
 40
2.0
100
AcDbArc
 50
284.4775090000004
 51
0.0
  0
LINE
  5
7A3
330
2
100
AcDbEntity
  8
0
100
AcDbLine
 10
205.7714721868351
 20
101.2016488457759
 30
0.0
 11
205.7714721868351
 21
100.7064708457759
 31
0.0
  0
ARC
  5
7A4
330
2
100
AcDbEntity
  8
0
100
AcDbCircle
 10
201.370868186835
 20
102.4414558457759
 30
0.0
 40
10.0
100
AcDbArc
 50
270.0
 51
292.3316420000002
  0
LINE
  5
7A5
330
2
100
AcDbEntity
  8
0
100
AcDbLine
 10
295.0737074322041
 20
95.19145584577591
 30
0.0
 11
307.5737074322042
 21
95.19145584577591
 31
0.0
  0
ARC
  5
7A6
330
2
100
AcDbEntity
  8
HIDS
100
AcDbCircle
 10
314.5737074322041
 20
97.30826184577592
 30
0.0
 40
2.0
100
AcDbArc
 50
180.0
 51
268.9999999999998
  0
LINE
  5
7A7
330
2
100
AcDbEntity
  8
HIDS
100
AcDbLine
 10
312.5737074322041
 20
97.30826184577592
 30
0.0
 11
312.5737074322041
 21
101.2396428457759
 31
0.0
  0
LINE
  5
7A8
330
2
100
AcDbEntity
  8
0
100
AcDbLine
 10
54.71597618683517
 20
163.1904488457759
 30
0.0
 11
127.7714721868351
 21
163.1904488457759
 31
0.0
  0
LINE
  5
7A9
330
2
100
AcDbEntity
  8
0
100
AcDbLine
 10
54.71597618683517
 20
102.6924628457758
 30
0.0
 11
127.7714721868351
 21
102.6924628457758
 31
0.0
  0
LINE
  5
7AA
330
2
100
AcDbEntity
  8
0
100
AcDbLine
 10
54.71597618683517
 20
170.9414558457759
 30
0.0
 11
126.412738186835
 21
170.9414558457759
 31
0.0
  0
LINE
  5
7AB
330
2
100
AcDbEntity
  8
CENTER
100
AcDbLine
 10
235.312243186835
 20
132.9414558457759
 30
0.0
 11
25.69544621860109
 21
132.9414558457759
 31
0.0
  0
LINE
  5
7B0
330
2
100
AcDbEntity
  8
0
100
AcDbLine
 10
36.29757218683517
 20
102.6924628457758
 30
0.0
 11
54.71597618683517
 21
102.6924628457758
 31
0.0
  0
LINE
  5
7B1
330
2
100
AcDbEntity
  8
0
100
AcDbLine
 10
36.29757218683517
 20
163.1904488457759
 30
0.0
 11
54.71597618683517
 21
163.1904488457759
 31
0.0
  0
LINE
  5
7B2
330
2
100
AcDbEntity
  8
0
100
AcDbLine
 10
38.1800721868351
 20
170.9414558457759
 30
0.0
 11
54.71597618683517
 21
170.9414558457759
 31
0.0
  0
ARC
  5
7B3
330
2
100
AcDbEntity
  8
0
100
AcDbCircle
 10
38.1800721868351
 20
167.9414558457759
 30
0.0
 40
3.0
100
AcDbArc
 50
90.0
 51
150.0003970000008
  0
LINE
  5
7B4
330
2
100
AcDbEntity
  8
0
100
AcDbLine
 10
35.58197318683517
 20
169.4414558457759
 30
0.0
 11
34.71597618683517
 21
167.9414558457759
 31
0.0
  0
LINE
  5
7B5
330
2
100
AcDbEntity
  8
0
100
AcDbLine
 10
34.21597618683517
 20
164.9414558457759
 30
0.0
 11
34.71597618683517
 21
165.4414558457759
 31
0.0
  0
CIRCLE
  5
7BD
330
2
100
AcDbEntity
  8
0
100
AcDbCircle
 10
188.7714721868351
 20
132.9414558457759
 30
0.0
 40
25.002001
  0
CIRCLE
  5
7BE
330
2
100
AcDbEntity
  8
0
100
AcDbCircle
 10
188.7714721868351
 20
132.9414558457759
 30
0.0
 40
23.0
  0
CIRCLE
  5
7BF
330
2
100
AcDbEntity
  8
0
100
AcDbCircle
 10
188.7714721868351
 20
132.9414558457759
 30
0.0
 40
15.0
  0
CIRCLE
  5
7C0
330
2
100
AcDbEntity
  8
0
100
AcDbCircle
 10
188.7714721868351
 20
132.9414558457759
 30
0.0
 40
19.0
  0
ARC
  5
7C1
330
2
100
AcDbEntity
  8
0
100
AcDbCircle
 10
196.7714721868351
 20
146.4414558457759
 30
0.0
 40
22.0
100
AcDbArc
 50
69.51268799999965
 51
90.0
  0
LINE
  5
7C2
330
2
100
AcDbEntity
  8
0
100
AcDbLine
 10
134.7714721868351
 20
173.4414558457759
 30
0.0
 11
220.7714721868351
 21
173.4414558457759
 31
0.0
  0
ARC
  5
7C3
330
2
100
AcDbEntity
  8
0
100
AcDbCircle
 10
143.5768461868351
 20
176.0052678457759
 30
0.0
 40
6.0
100
AcDbArc
 50
227.3641049999997
 51
300.358299
  0
LINE
  5
7C4
330
2
100
AcDbEntity
  8
0
100
AcDbLine
 10
142.2899661868351
 20
113.7430608457759
 30
0.0
 11
151.2900721868351
 21
103.2430608457759
 31
0.0
  0
LINE
  5
7C5
330
2
100
AcDbEntity
  8
0
100
AcDbLine
 10
141.3701051868351
 20
111.7430608457759
 30
0.0
 11
149.2900721868351
 21
102.5032538457759
 31
0.0
  0
LINE
  5
7C6
330
2
100
AcDbEntity
  8
0
100
AcDbLine
 10
142.2899661868351
 20
152.1398508457759
 30
0.0
 11
151.2900721868351
 21
162.6398508457759
 31
0.0
  0
LINE
  5
7C7
330
2
100
AcDbEntity
  8
0
100
AcDbLine
 10
141.3701051868351
 20
154.1398508457759
 30
0.0
 11
149.2900721868351
 21
163.3796578457759
 31
0.0
  0
LINE
  5
7C8
330
2
100
AcDbEntity
  8
0
100
AcDbLine
 10
136.7714721868351
 20
146.4414558457759
 30
0.0
 11
136.7714721868351
 21
119.4414558457759
 31
0.0
  0
LINE
  5
7C9
330
2
100
AcDbEntity
  8
0
100
AcDbLine
 10
131.7714721868351
 20
122.2698558457759
 30
0.0
 11
131.7714721868351
 21
143.6130558457759
 31
0.0
  0
LINE
  5
7CA
330
2
100
AcDbEntity
  8
0
100
AcDbLine
 10
127.2714721868351
 20
158.6318548457759
 30
0.0
 11
127.2714721868351
 21
107.2510568457759
 31
0.0
  0
ARC
  5
7CB
330
2
100
AcDbEntity
  8
0
100
AcDbCircle
 10
129.7714721868351
 20
122.2698558457759
 30
0.0
 40
2.0
100
AcDbArc
 50
315.0
 51
0.0
  0
ARC
  5
7CC
330
2
100
AcDbEntity
  8
0
100
AcDbCircle
 10
129.7714721868351
 20
115.9414558457759
 30
0.0
 40
2.0
100
AcDbArc
 50
180.0
 51
270.0
  0
CIRCLE
  5
7CE
330
2
100
AcDbEntity
  8
0
100
AcDbCircle
 10
132.2714721868351
 20
109.4414558457759
 30
0.0
 40
3.799999999999999
  0
ARC
  5
7CF
330
2
100
AcDbEntity
  8
0
100
AcDbCircle
 10
129.7714721868351
 20
102.9414558457759
 30
0.0
 40
2.0
100
AcDbArc
 50
90.0
 51
180.0
  0
LINE
  5
7D0
330
2
100
AcDbEntity
  8
0
100
AcDbLine
 10
131.1856871868351
 20
120.8556708457759
 30
0.0
 11
128.3572571868351
 21
118.0272408457759
 31
0.0
  0
LINE
  5
7D1
330
2
100
AcDbEntity
  8
0
100
AcDbLine
 10
127.2714721868351
 20
107.2510568457759
 30
0.0
 11
127.7714721868351
 21
107.2510568457759
 31
0.0
  0
ARC
  5
7D2
330
2
100
AcDbEntity
  8
0
100
AcDbCircle
 10
129.7714721868351
 20
116.6130558457759
 30
0.0
 40
2.0
100
AcDbArc
 50
135.0
 51
180.0
  0
CIRCLE
  5
7D4
330
2
100
AcDbEntity
  8
0
100
AcDbCircle
 10
132.2714721868351
 20
109.4414558457759
 30
0.0
 40
3.5
  0
ARC
  5
7D5
330
2
100
AcDbEntity
  8
0
100
AcDbCircle
 10
132.2714721868351
 20
109.4414558457759
 30
0.0
 40
4.5
100
AcDbArc
 50
270.0
 51
90.0
  0
LINE
  5
7D6
330
2
100
AcDbEntity
  8
0
100
AcDbLine
 10
132.2714721868351
 20
107.6414678457759
 30
0.0
 11
133.7714721868351
 21
108.5074658457759
 31
0.0
  0
LINE
  5
7D7
330
2
100
AcDbEntity
  8
0
100
AcDbLine
 10
133.7714721868351
 20
110.3754458457759
 30
0.0
 11
133.7714721868351
 21
108.5074658457759
 31
0.0
  0
LINE
  5
7D8
330
2
100
AcDbEntity
  8
0
100
AcDbLine
 10
132.2714721868351
 20
111.2414438457759
 30
0.0
 11
133.7714721868351
 21
110.3754458457759
 31
0.0
  0
LINE
  5
7D9
330
2
100
AcDbEntity
  8
0
100
AcDbLine
 10
132.2714721868351
 20
111.2414438457759
 30
0.0
 11
130.7714721868351
 21
110.3754458457759
 31
0.0
  0
LINE
  5
7DA
330
2
100
AcDbEntity
  8
0
100
AcDbLine
 10
130.7714721868351
 20
110.3754458457759
 30
0.0
 11
130.7714721868351
 21
108.5074658457759
 31
0.0
  0
LINE
  5
7DB
330
2
100
AcDbEntity
  8
0
100
AcDbLine
 10
132.2714721868351
 20
107.6414678457759
 30
0.0
 11
130.7714721868351
 21
108.5074658457759
 31
0.0
  0
LINE
  5
7DC
330
2
100
AcDbEntity
  8
0
100
AcDbLine
 10
129.7714721868351
 20
104.9414558457759
 30
0.0
 11
132.2714721868351
 21
104.9414558457759
 31
0.0
  0
LINE
  5
7DD
330
2
100
AcDbEntity
  8
0
100
AcDbLine
 10
129.7714721868351
 20
113.9414558457759
 30
0.0
 11
132.2714721868351
 21
113.9414558457759
 31
0.0
  0
ARC
  5
7DE
330
2
100
AcDbEntity
  8
0
100
AcDbCircle
 10
158.7714721868351
 20
119.4414558457759
 30
0.0
 40
22.0
100
AcDbArc
 50
180.0
 51
194.4774929999995
  0
ARC
  5
7DF
330
2
100
AcDbEntity
  8
0
100
AcDbCircle
 10
139.4065581868351
 20
114.4414558457759
 30
0.0
 40
2.0
100
AcDbArc
 50
194.4774929999995
 51
270.0
  0
ARC
  5
7E0
330
2
100
AcDbEntity
  8
0
100
AcDbCircle
 10
138.9977451868351
 20
116.4414558457759
 30
0.0
 40
2.0
100
AcDbArc
 50
188.6269069999995
 51
270.0
  0
LINE
  5
7E1
330
2
100
AcDbEntity
  8
0
100
AcDbLine
 10
139.8515961868352
 20
112.4414558457759
 30
0.0
 11
139.4065581868351
 21
112.4414558457759
 31
0.0
  0
LINE
  5
7E2
330
2
100
AcDbEntity
  8
0
100
AcDbLine
 10
140.7714721868351
 20
114.4414558457759
 30
0.0
 11
138.9977451868351
 21
114.4414558457759
 31
0.0
  0
LINE
  5
7E3
330
2
100
AcDbEntity
  8
0
100
AcDbLine
 10
141.6071651868351
 20
114.2584418457759
 30
0.0
 11
140.6873051868351
 21
112.2584418457759
 31
0.0
  0
ARC
  5
7E4
330
2
100
AcDbEntity
  8
0
100
AcDbCircle
 10
140.7714721868351
 20
112.4414558457759
 30
0.0
 40
2.0
100
AcDbArc
 50
40.60129899999998
 51
90.0
  0
ARC
  5
7E5
330
2
100
AcDbEntity
  8
0
100
AcDbCircle
 10
139.8515961868352
 20
110.4414558457759
 30
0.0
 40
2.0
100
AcDbArc
 50
40.60129899999998
 51
90.0
  0
ARC
  5
7E6
330
2
100
AcDbEntity
  8
0
100
AcDbCircle
 10
129.7714721868351
 20
162.9414558457759
 30
0.0
 40
2.0
100
AcDbArc
 50
180.0
 51
270.0
  0
LINE
  5
7E9
330
2
100
AcDbEntity
  8
0
100
AcDbLine
 10
127.7714721868351
 20
166.4414558457759
 30
0.0
 11
127.7714721868351
 21
149.2698558457759
 31
0.0
  0
ARC
  5
7EB
330
2
100
AcDbEntity
  8
0
100
AcDbCircle
 10
129.7714721868351
 20
149.9414558457759
 30
0.0
 40
2.0
100
AcDbArc
 50
90.0
 51
180.0
  0
CIRCLE
  5
7EC
330
2
100
AcDbEntity
  8
0
100
AcDbCircle
 10
132.2714721868351
 20
156.4414558457759
 30
0.0
 40
3.799999999999999
  0
LINE
  5
7ED
330
2
100
AcDbEntity
  8
0
100
AcDbLine
 10
131.1856871868351
 20
145.0272408457759
 30
0.0
 11
128.3572571868351
 21
147.8556708457759
 31
0.0
  0
ARC
  5
7EE
330
2
100
AcDbEntity
  8
0
100
AcDbCircle
 10
129.7714721868351
 20
149.2698558457759
 30
0.0
 40
2.0
100
AcDbArc
 50
180.0
 51
225.0
  0
LINE
  5
7EF
330
2
100
AcDbEntity
  8
0
100
AcDbLine
 10
127.2714721868351
 20
158.6318548457759
 30
0.0
 11
127.7714721868351
 21
158.6318548457759
 31
0.0
  0
ARC
  5
7F0
330
2
100
AcDbEntity
  8
0
100
AcDbCircle
 10
158.7714721868351
 20
146.4414558457759
 30
0.0
 40
22.0
100
AcDbArc
 50
165.5225070000004
 51
180.0
  0
ARC
  5
7F1
330
2
100
AcDbEntity
  8
0
100
AcDbCircle
 10
138.9977451868351
 20
149.4414558457759
 30
0.0
 40
2.0
100
AcDbArc
 50
90.0
 51
171.3730930000004
  0
LINE
  5
7F2
330
2
100
AcDbEntity
  8
0
100
AcDbLine
 10
141.6071651868351
 20
151.6244698457759
 30
0.0
 11
140.6873051868351
 21
153.6244698457759
 31
0.0
  0
ARC
  5
7F3
330
2
100
AcDbEntity
  8
0
100
AcDbCircle
 10
140.7714721868351
 20
153.4414558457759
 30
0.0
 40
2.0
100
AcDbArc
 50
270.0
 51
319.398701
  0
ARC
  5
7F4
330
2
100
AcDbEntity
  8
0
100
AcDbCircle
 10
129.7714721868351
 20
143.6130558457759
 30
0.0
 40
2.0
100
AcDbArc
 50
0.0
 51
45.0
  0
LINE
  5
7F5
330
2
100
AcDbEntity
  8
0
100
AcDbLine
 10
140.7714721868351
 20
151.4414558457759
 30
0.0
 11
138.9977451868351
 21
151.4414558457759
 31
0.0
  0
ARC
  5
7F6
330
2
100
AcDbEntity
  8
0
100
AcDbCircle
 10
132.2714721868351
 20
156.4414558457759
 30
0.0
 40
4.5
100
AcDbArc
 50
270.0
 51
90.0
  0
CIRCLE
  5
7F7
330
2
100
AcDbEntity
  8
0
100
AcDbCircle
 10
132.2714721868351
 20
156.4414558457759
 30
0.0
 40
3.5
  0
LINE
  5
7F8
330
2
100
AcDbEntity
  8
0
100
AcDbLine
 10
129.7714721868351
 20
151.9414558457759
 30
0.0
 11
132.2714721868351
 21
151.9414558457759
 31
0.0
  0
LINE
  5
7F9
330
2
100
AcDbEntity
  8
0
100
AcDbLine
 10
129.7714721868351
 20
160.9414558457759
 30
0.0
 11
132.2714721868351
 21
160.9414558457759
 31
0.0
  0
LINE
  5
7FA
330
2
100
AcDbEntity
  8
0
100
AcDbLine
 10
132.2714721868351
 20
154.6414678457759
 30
0.0
 11
133.7714721868351
 21
155.5074658457759
 31
0.0
  0
LINE
  5
7FB
330
2
100
AcDbEntity
  8
0
100
AcDbLine
 10
132.2714721868351
 20
154.6414678457759
 30
0.0
 11
130.7714721868351
 21
155.5074658457759
 31
0.0
  0
LINE
  5
7FC
330
2
100
AcDbEntity
  8
0
100
AcDbLine
 10
132.2714721868351
 20
158.2414438457758
 30
0.0
 11
130.7714721868351
 21
157.3754458457759
 31
0.0
  0
LINE
  5
7FD
330
2
100
AcDbEntity
  8
0
100
AcDbLine
 10
132.2714721868351
 20
158.2414438457758
 30
0.0
 11
133.7714721868351
 21
157.3754458457759
 31
0.0
  0
LINE
  5
7FE
330
2
100
AcDbEntity
  8
0
100
AcDbLine
 10
130.7714721868351
 20
155.5074658457759
 30
0.0
 11
130.7714721868351
 21
157.3754458457759
 31
0.0
  0
LINE
  5
7FF
330
2
100
AcDbEntity
  8
0
100
AcDbLine
 10
133.7714721868351
 20
155.5074658457759
 30
0.0
 11
133.7714721868351
 21
157.3754458457759
 31
0.0
  0
ARC
  5
800
330
2
100
AcDbEntity
  8
0
100
AcDbCircle
 10
139.4065581868351
 20
151.4414558457759
 30
0.0
 40
2.0
100
AcDbArc
 50
90.0
 51
165.5225070000004
  0
LINE
  5
801
330
2
100
AcDbEntity
  8
0
100
AcDbLine
 10
139.8515961868352
 20
153.4414558457759
 30
0.0
 11
139.4065581868351
 21
153.4414558457759
 31
0.0
  0
ARC
  5
802
330
2
100
AcDbEntity
  8
0
100
AcDbCircle
 10
139.8515961868352
 20
155.4414558457759
 30
0.0
 40
2.0
100
AcDbArc
 50
270.0
 51
319.398701
  0
LINE
  5
803
330
2
100
AcDbEntity
  8
0
100
AcDbLine
 10
127.107852186835
 20
171.0660588457758
 30
0.0
 11
132.338489186835
 21
173.0050548457759
 31
0.0
  0
ARC
  5
804
330
2
100
AcDbEntity
  8
0
100
AcDbCircle
 10
134.7714721868351
 20
166.4414558457759
 30
0.0
 40
7.0
100
AcDbArc
 50
47.364071
 51
180.0
  0
ARC
  5
806
330
2
100
AcDbEntity
  8
0
100
AcDbCircle
 10
126.412738186835
 20
172.9414558457759
 30
0.0
 40
2.0
100
AcDbArc
 50
270.0
 51
290.3387299999997
  0
CIRCLE
  5
807
330
2
100
AcDbEntity
  8
HOJO
100
AcDbCircle
 10
134.7714721868351
 20
166.4414558457759
 30
0.0
 40
4.0
  0
CIRCLE
  5
808
330
2
100
AcDbEntity
  8
0
100
AcDbCircle
 10
134.7714721868351
 20
166.4414558457759
 30
0.0
 40
4.25
  0
CIRCLE
  5
809
330
2
100
AcDbEntity
  8
0
100
AcDbCircle
 10
134.7714721868351
 20
166.4414558457759
 30
0.0
 40
3.399999999999999
  0
LINE
  5
80B
330
2
100
AcDbEntity
  8
0
100
AcDbLine
 10
151.647265186835
 20
102.6352428457758
 30
0.0
 11
149.647265186835
 21
101.8954658457759
 31
0.0
  0
ARC
  5
80C
330
2
100
AcDbEntity
  8
0
100
AcDbCircle
 10
149.7714721868351
 20
101.9414558457759
 30
0.0
 40
2.0
100
AcDbArc
 50
0.0
 51
40.60129899999998
  0
LINE
  5
80D
330
2
100
AcDbEntity
  8
0
100
AcDbLine
 10
196.7714721868351
 20
168.4414558457759
 30
0.0
 11
158.7714721868351
 21
168.4414558457759
 31
0.0
  0
ARC
  5
80E
330
2
100
AcDbEntity
  8
0
100
AcDbCircle
 10
158.7714721868351
 20
146.4414558457759
 30
0.0
 40
22.0
100
AcDbArc
 50
90.0
 51
110.4872969999995
  0
ARC
  5
80F
330
2
100
AcDbEntity
  8
0
100
AcDbCircle
 10
161.7714721868351
 20
144.9414558457759
 30
0.0
 40
30.0
100
AcDbArc
 50
112.3315960000001
 51
120.3582990000005
  0
ARC
  5
810
330
2
100
AcDbEntity
  8
0
100
AcDbCircle
 10
151.7714721868351
 20
165.1764408457759
 30
0.0
 40
2.0
100
AcDbArc
 50
110.4872969999995
 51
180.0
  0
LINE
  5
811
330
2
100
AcDbEntity
  8
0
100
AcDbLine
 10
151.647265186835
 20
163.2476688457759
 30
0.0
 11
149.647265186835
 21
163.9874458457759
 31
0.0
  0
ARC
  5
812
330
2
100
AcDbEntity
  8
0
100
AcDbCircle
 10
147.7714721868351
 20
164.6812628457759
 30
0.0
 40
2.0
100
AcDbArc
 50
319.398701
 51
0.0
  0
LINE
  5
813
330
2
100
AcDbEntity
  8
0
100
AcDbLine
 10
149.7714721868351
 20
164.6812628457759
 30
0.0
 11
149.7714721868351
 21
165.1764408457759
 31
0.0
  0
ARC
  5
814
330
2
100
AcDbEntity
  8
0
100
AcDbCircle
 10
153.7714721868351
 20
165.8064458457759
 30
0.0
 40
2.0
100
AcDbArc
 50
104.4775009999997
 51
180.0
  0
ARC
  5
815
330
2
100
AcDbEntity
  8
0
100
AcDbCircle
 10
149.7714721868351
 20
163.9414558457759
 30
0.0
 40
2.0
100
AcDbArc
 50
319.398701
 51
0.0
  0
LINE
  5
816
330
2
100
AcDbEntity
  8
0
100
AcDbLine
 10
151.7714721868351
 20
163.9414558457759
 30
0.0
 11
151.7714721868351
 21
165.8064458457759
 31
0.0
  0
ARC
  5
817
330
2
100
AcDbEntity
  8
0
100
AcDbCircle
 10
154.1720761868351
 20
163.4414558457759
 30
0.0
 40
10.0
100
AcDbArc
 50
90.0
 51
112.3315960000001
  0
LINE
  5
818
330
2
100
AcDbEntity
  8
0
100
AcDbLine
 10
218.7714721868351
 20
146.4414558457759
 30
0.0
 11
218.7714721868351
 21
119.4414558457759
 31
0.0
  0
LINE
  5
819
330
2
100
AcDbEntity
  8
0
100
AcDbLine
 10
223.7714721868351
 20
122.2698558457759
 30
0.0
 11
223.7714721868351
 21
143.6130558457759
 31
0.0
  0
ARC
  5
81A
330
2
100
AcDbEntity
  8
0
100
AcDbCircle
 10
225.7714721868351
 20
122.2698558457759
 30
0.0
 40
2.0
100
AcDbArc
 50
180.0
 51
225.0
  0
LINE
  5
81B
330
2
100
AcDbEntity
  8
0
100
AcDbLine
 10
213.9356871868351
 20
114.2584418457759
 30
0.0
 11
214.8556701868351
 21
112.2584418457759
 31
0.0
  0
ARC
  5
81C
330
2
100
AcDbEntity
  8
0
100
AcDbCircle
 10
214.7714721868351
 20
112.4414558457759
 30
0.0
 40
2.0
100
AcDbArc
 50
90.0
 51
139.3986970000003
  0
LINE
  5
81D
330
2
100
AcDbEntity
  8
0
100
AcDbLine
 10
214.1728701868351
 20
111.7430608457759
 30
0.0
 11
206.2528871868351
 21
102.5032538457759
 31
0.0
  0
LINE
  5
81E
330
2
100
AcDbEntity
  8
0
100
AcDbLine
 10
213.2528871868351
 20
113.7430608457759
 30
0.0
 11
204.2528721868351
 21
103.2430608457759
 31
0.0
  0
LINE
  5
81F
330
2
100
AcDbEntity
  8
0
100
AcDbLine
 10
203.895679186835
 20
102.6352428457758
 30
0.0
 11
205.895679186835
 21
101.8954658457759
 31
0.0
  0
ARC
  5
820
330
2
100
AcDbEntity
  8
0
100
AcDbCircle
 10
205.7714721868351
 20
101.9414558457759
 30
0.0
 40
2.0
100
AcDbArc
 50
139.3986970000003
 51
180.0
  0
ARC
  5
821
330
2
100
AcDbEntity
  8
0
100
AcDbCircle
 10
223.2714721868351
 20
109.4414558457759
 30
0.0
 40
4.5
100
AcDbArc
 50
90.0
 51
270.0
  0
CIRCLE
  5
823
330
2
100
AcDbEntity
  8
0
100
AcDbCircle
 10
223.2714721868351
 20
109.4414558457759
 30
0.0
 40
3.5
  0
CIRCLE
  5
824
330
2
100
AcDbEntity
  8
0
100
AcDbCircle
 10
223.2714721868351
 20
109.4414558457759
 30
0.0
 40
3.799999999999999
  0
LINE
  5
826
330
2
100
AcDbEntity
  8
0
100
AcDbLine
 10
225.7714721868351
 20
104.9414558457759
 30
0.0
 11
223.2714721868351
 21
104.9414558457759
 31
0.0
  0
ARC
  5
827
330
2
100
AcDbEntity
  8
0
100
AcDbCircle
 10
225.7714721868351
 20
102.9414558457759
 30
0.0
 40
2.0
100
AcDbArc
 50
0.0
 51
90.0
  0
LINE
  5
828
330
2
100
AcDbEntity
  8
0
100
AcDbLine
 10
223.2714721868351
 20
111.2414438457759
 30
0.0
 11
221.7714721868351
 21
110.3754458457759
 31
0.0
  0
LINE
  5
829
330
2
100
AcDbEntity
  8
0
100
AcDbLine
 10
223.2714721868351
 20
111.2414438457759
 30
0.0
 11
224.7714721868351
 21
110.3754458457759
 31
0.0
  0
LINE
  5
82A
330
2
100
AcDbEntity
  8
0
100
AcDbLine
 10
223.2714721868351
 20
107.6414678457759
 30
0.0
 11
224.7714721868351
 21
108.5074658457759
 31
0.0
  0
LINE
  5
82B
330
2
100
AcDbEntity
  8
0
100
AcDbLine
 10
223.2714721868351
 20
107.6414678457759
 30
0.0
 11
221.7714721868351
 21
108.5074658457759
 31
0.0
  0
LINE
  5
82C
330
2
100
AcDbEntity
  8
0
100
AcDbLine
 10
224.7714721868351
 20
110.3754458457759
 30
0.0
 11
224.7714721868351
 21
108.5074658457759
 31
0.0
  0
LINE
  5
82D
330
2
100
AcDbEntity
  8
0
100
AcDbLine
 10
221.7714721868351
 20
110.3754458457759
 30
0.0
 11
221.7714721868351
 21
108.5074658457759
 31
0.0
  0
ARC
  5
82E
330
2
100
AcDbEntity
  8
0
100
AcDbCircle
 10
196.7714721868351
 20
119.4414558457759
 30
0.0
 40
22.0
100
AcDbArc
 50
345.5224900000004
 51
0.0
  0
ARC
  5
82F
330
2
100
AcDbEntity
  8
0
100
AcDbCircle
 10
216.1364621868351
 20
114.4414558457759
 30
0.0
 40
2.0
100
AcDbArc
 50
270.0
 51
345.5224909999996
  0
ARC
  5
830
330
2
100
AcDbEntity
  8
0
100
AcDbCircle
 10
216.545276186835
 20
116.4414558457759
 30
0.0
 40
2.0
100
AcDbArc
 50
270.0
 51
351.3731079999995
  0
LINE
  5
831
330
2
100
AcDbEntity
  8
0
100
AcDbLine
 10
215.6912721868351
 20
112.4414558457759
 30
0.0
 11
216.1364621868351
 21
112.4414558457759
 31
0.0
  0
LINE
  5
832
330
2
100
AcDbEntity
  8
0
100
AcDbLine
 10
214.7714721868351
 20
114.4414558457759
 30
0.0
 11
216.545276186835
 21
114.4414558457759
 31
0.0
  0
ARC
  5
833
330
2
100
AcDbEntity
  8
0
100
AcDbCircle
 10
215.6912721868351
 20
110.4414558457759
 30
0.0
 40
2.0
100
AcDbArc
 50
90.0
 51
139.3986970000003
  0
LINE
  5
834
330
2
100
AcDbEntity
  8
0
100
AcDbLine
 10
225.7714721868351
 20
113.9414558457759
 30
0.0
 11
223.2714721868351
 21
113.9414558457759
 31
0.0
  0
ARC
  5
835
330
2
100
AcDbEntity
  8
0
100
AcDbCircle
 10
225.7714721868351
 20
115.9414558457759
 30
0.0
 40
2.0
100
AcDbArc
 50
270.0
 51
0.0
  0
ARC
  5
836
330
2
100
AcDbEntity
  8
0
100
AcDbCircle
 10
225.7714721868351
 20
116.6130558457759
 30
0.0
 40
2.0
100
AcDbArc
 50
0.0
 51
45.0
  0
LINE
  5
837
330
2
100
AcDbEntity
  8
0
100
AcDbLine
 10
224.3572571868351
 20
120.8556708457759
 30
0.0
 11
227.1856871868351
 21
118.0272408457759
 31
0.0
  0
ARC
  5
838
330
2
100
AcDbEntity
  8
0
100
AcDbCircle
 10
220.7714721868351
 20
166.4414558457759
 30
0.0
 40
7.0
100
AcDbArc
 50
0.0
 51
132.6358950000002
  0
ARC
  5
83A
330
2
100
AcDbEntity
  8
0
100
AcDbCircle
 10
225.7714721868351
 20
162.9414558457759
 30
0.0
 40
2.0
100
AcDbArc
 50
270.0
 51
0.0
  0
LINE
  5
83C
330
2
100
AcDbEntity
  8
0
100
AcDbLine
 10
213.2528871868351
 20
152.1398508457759
 30
0.0
 11
204.2528721868351
 21
162.6398508457759
 31
0.0
  0
LINE
  5
83D
330
2
100
AcDbEntity
  8
0
100
AcDbLine
 10
214.1728701868351
 20
154.1398508457759
 30
0.0
 11
206.2528871868351
 21
163.3796578457759
 31
0.0
  0
LINE
  5
83F
330
2
100
AcDbEntity
  8
0
100
AcDbLine
 10
213.9356871868351
 20
151.6244698457759
 30
0.0
 11
214.8556701868351
 21
153.6244698457759
 31
0.0
  0
ARC
  5
840
330
2
100
AcDbEntity
  8
0
100
AcDbCircle
 10
214.7714721868351
 20
153.4414558457759
 30
0.0
 40
2.0
100
AcDbArc
 50
220.6013029999997
 51
270.0
  0
ARC
  5
841
330
2
100
AcDbEntity
  8
0
100
AcDbCircle
 10
225.7714721868351
 20
149.9414558457759
 30
0.0
 40
2.0
100
AcDbArc
 50
0.0
 51
90.0
  0
ARC
  5
842
330
2
100
AcDbEntity
  8
0
100
AcDbCircle
 10
196.7714721868351
 20
146.4414558457759
 30
0.0
 40
22.0
100
AcDbArc
 50
0.0
 51
14.47750999999959
  0
ARC
  5
843
330
2
100
AcDbEntity
  8
0
100
AcDbCircle
 10
216.545276186835
 20
149.4414558457759
 30
0.0
 40
2.0
100
AcDbArc
 50
8.626927000000565
 51
90.0
  0
LINE
  5
844
330
2
100
AcDbEntity
  8
0
100
AcDbLine
 10
214.7714721868351
 20
151.4414558457759
 30
0.0
 11
216.545276186835
 21
151.4414558457759
 31
0.0
  0
ARC
  5
845
330
2
100
AcDbEntity
  8
0
100
AcDbCircle
 10
225.7714721868351
 20
143.6130558457759
 30
0.0
 40
2.0
100
AcDbArc
 50
135.0
 51
180.0
  0
ARC
  5
846
330
2
100
AcDbEntity
  8
0
100
AcDbCircle
 10
225.7714721868351
 20
149.2698558457759
 30
0.0
 40
2.0
100
AcDbArc
 50
315.0
 51
0.0
  0
LINE
  5
847
330
2
100
AcDbEntity
  8
0
100
AcDbLine
 10
224.3572571868351
 20
145.0272408457759
 30
0.0
 11
227.1856871868351
 21
147.8556708457759
 31
0.0
  0
ARC
  5
849
330
2
100
AcDbEntity
  8
0
100
AcDbCircle
 10
223.2714721868351
 20
156.4414558457759
 30
0.0
 40
4.5
100
AcDbArc
 50
90.0
 51
270.0
  0
CIRCLE
  5
84A
330
2
100
AcDbEntity
  8
0
100
AcDbCircle
 10
223.2714721868351
 20
156.4414558457759
 30
0.0
 40
3.5
  0
CIRCLE
  5
84B
330
2
100
AcDbEntity
  8
0
100
AcDbCircle
 10
223.2714721868351
 20
156.4414558457759
 30
0.0
 40
3.799999999999999
  0
ARC
  5
84C
330
2
100
AcDbEntity
  8
0
100
AcDbCircle
 10
216.1364621868351
 20
151.4414558457759
 30
0.0
 40
2.0
100
AcDbArc
 50
14.47750999999959
 51
90.0
  0
LINE
  5
84D
330
2
100
AcDbEntity
  8
0
100
AcDbLine
 10
215.6912721868351
 20
153.4414558457759
 30
0.0
 11
216.1364621868351
 21
153.4414558457759
 31
0.0
  0
ARC
  5
84E
330
2
100
AcDbEntity
  8
0
100
AcDbCircle
 10
215.6912721868351
 20
155.4414558457759
 30
0.0
 40
2.0
100
AcDbArc
 50
220.6013029999997
 51
270.0
  0
LINE
  5
84F
330
2
100
AcDbEntity
  8
0
100
AcDbLine
 10
225.7714721868351
 20
151.9414558457759
 30
0.0
 11
223.2714721868351
 21
151.9414558457759
 31
0.0
  0
LINE
  5
850
330
2
100
AcDbEntity
  8
0
100
AcDbLine
 10
225.7714721868351
 20
160.9414558457759
 30
0.0
 11
223.2714721868351
 21
160.9414558457759
 31
0.0
  0
LINE
  5
851
330
2
100
AcDbEntity
  8
0
100
AcDbLine
 10
223.2714721868351
 20
154.6414678457759
 30
0.0
 11
221.7714721868351
 21
155.5074658457759
 31
0.0
  0
LINE
  5
852
330
2
100
AcDbEntity
  8
0
100
AcDbLine
 10
223.2714721868351
 20
154.6414678457759
 30
0.0
 11
224.7714721868351
 21
155.5074658457759
 31
0.0
  0
LINE
  5
853
330
2
100
AcDbEntity
  8
0
100
AcDbLine
 10
223.2714721868351
 20
158.2414438457758
 30
0.0
 11
224.7714721868351
 21
157.3754458457759
 31
0.0
  0
LINE
  5
854
330
2
100
AcDbEntity
  8
0
100
AcDbLine
 10
223.2714721868351
 20
158.2414438457758
 30
0.0
 11
221.7714721868351
 21
157.3754458457759
 31
0.0
  0
LINE
  5
855
330
2
100
AcDbEntity
  8
0
100
AcDbLine
 10
224.7714721868351
 20
155.5074658457759
 30
0.0
 11
224.7714721868351
 21
157.3754458457759
 31
0.0
  0
LINE
  5
856
330
2
100
AcDbEntity
  8
0
100
AcDbLine
 10
221.7714721868351
 20
155.5074658457759
 30
0.0
 11
221.7714721868351
 21
157.3754458457759
 31
0.0
  0
ARC
  5
857
330
2
100
AcDbEntity
  8
0
100
AcDbCircle
 10
211.9660831868351
 20
176.0052678457759
 30
0.0
 40
6.0
100
AcDbArc
 50
239.6417009999995
 51
312.6359289999999
  0
ARC
  5
858
330
2
100
AcDbEntity
  8
0
100
AcDbCircle
 10
193.7714721868351
 20
144.9414558457759
 30
0.0
 40
30.0
100
AcDbArc
 50
59.6417009999995
 51
67.66835799999981
  0
ARC
  5
859
330
2
100
AcDbEntity
  8
0
100
AcDbCircle
 10
203.7714721868351
 20
165.1764408457759
 30
0.0
 40
2.0
100
AcDbArc
 50
0.0
 51
69.51268799999965
  0
ARC
  5
85A
330
2
100
AcDbEntity
  8
0
100
AcDbCircle
 10
201.7714721868351
 20
165.8064458457759
 30
0.0
 40
2.0
100
AcDbArc
 50
0.0
 51
75.52249099999959
  0
LINE
  5
85B
330
2
100
AcDbEntity
  8
0
100
AcDbLine
 10
203.895679186835
 20
163.2476688457759
 30
0.0
 11
205.895679186835
 21
163.9874458457759
 31
0.0
  0
ARC
  5
85C
330
2
100
AcDbEntity
  8
0
100
AcDbCircle
 10
207.7714721868351
 20
164.6812628457759
 30
0.0
 40
2.0
100
AcDbArc
 50
180.0
 51
220.6013029999997
  0
ARC
  5
85D
330
2
100
AcDbEntity
  8
0
100
AcDbCircle
 10
205.7714721868351
 20
163.9414558457759
 30
0.0
 40
2.0
100
AcDbArc
 50
180.0
 51
220.6013029999997
  0
LINE
  5
85E
330
2
100
AcDbEntity
  8
0
100
AcDbLine
 10
203.7714721868351
 20
163.9414558457759
 30
0.0
 11
203.7714721868351
 21
165.8064458457759
 31
0.0
  0
LINE
  5
85F
330
2
100
AcDbEntity
  8
0
100
AcDbLine
 10
205.7714721868351
 20
164.6812628457759
 30
0.0
 11
205.7714721868351
 21
165.1764408457759
 31
0.0
  0
ARC
  5
860
330
2
100
AcDbEntity
  8
0
100
AcDbCircle
 10
201.370868186835
 20
163.4414558457759
 30
0.0
 40
10.0
100
AcDbArc
 50
67.66835799999981
 51
90.0
  0
CIRCLE
  5
861
330
2
100
AcDbEntity
  8
HOJO
100
AcDbCircle
 10
220.7714721868351
 20
166.4414558457759
 30
0.0
 40
4.0
  0
CIRCLE
  5
862
330
2
100
AcDbEntity
  8
0
100
AcDbCircle
 10
220.7714721868351
 20
166.4414558457759
 30
0.0
 40
4.25
  0
CIRCLE
  5
863
330
2
100
AcDbEntity
  8
0
100
AcDbCircle
 10
220.7714721868351
 20
166.4414558457759
 30
0.0
 40
3.399999999999999
  0
ARC
  5
864
330
2
100
AcDbEntity
  8
HIDS
100
AcDbCircle
 10
335.5737074322041
 20
132.9414558457759
 30
0.0
 40
38.0
100
AcDbArc
 50
129.3567050000005
 51
230.6432949999994
  0
LINE
  5
866
330
2
100
AcDbEntity
  8
0
100
AcDbLine
 10
301.5737074322041
 20
107.7556011671128
 30
0.0
 11
301.5737074322041
 21
113.9414558457759
 31
0.0
  0
LINE
  5
867
330
2
100
AcDbEntity
  8
0
100
AcDbLine
 10
296.5737074322041
 20
107.3683024471894
 30
0.0
 11
296.5737074322041
 21
112.9414558457759
 31
0.0
  0
LINE
  5
868
330
2
100
AcDbEntity
  8
0
100
AcDbLine
 10
300.5737074322041
 20
107.6163219163607
 30
0.0
 11
300.5737074322041
 21
113.2414438457759
 31
0.0
  0
LINE
  5
86A
330
2
100
AcDbEntity
  8
0
100
AcDbLine
 10
295.0737074322041
 20
103.6914558457759
 30
0.0
 11
307.5737074322042
 21
103.6914558457759
 31
0.0
  0
LINE
  5
86B
330
2
100
AcDbEntity
  8
CENTER
100
AcDbLine
 10
294.6341014322041
 20
109.4414558457759
 30
0.0
 11
302.6187204322041
 21
109.4414558457759
 31
0.0
  0
LINE
  5
871
330
2
100
AcDbEntity
  8
0
100
AcDbLine
 10
307.5737074322042
 20
117.4414558457759
 30
0.0
 11
295.0737074322041
 21
117.4414558457759
 31
0.0
  0
LINE
  5
872
330
2
100
AcDbEntity
  8
0
100
AcDbLine
 10
295.0737074322041
 20
114.1116528457759
 30
0.0
 11
301.5737074322041
 21
113.9414558457759
 31
0.0
  0
LINE
  5
873
330
2
100
AcDbEntity
  8
0
100
AcDbLine
 10
300.5737074322041
 20
113.2414438457759
 30
0.0
 11
301.5737074322041
 21
113.2414438457759
 31
0.0
  0
LINE
  5
874
330
2
100
AcDbEntity
  8
0
100
AcDbLine
 10
296.5737074322041
 20
112.9414558457759
 30
0.0
 11
300.5737074322041
 21
112.9414558457759
 31
0.0
  0
LINE
  5
878
330
2
100
AcDbEntity
  8
0
100
AcDbLine
 10
307.5737074322042
 20
121.4414558457759
 30
0.0
 11
295.0737074322041
 21
121.4414558457759
 31
0.0
  0
LINE
  5
87A
330
2
100
AcDbEntity
  8
0
100
AcDbLine
 10
307.5737074322042
 20
144.4414558457759
 30
0.0
 11
295.0737074322041
 21
144.4414558457759
 31
0.0
  0
LINE
  5
87B
330
2
100
AcDbEntity
  8
0
100
AcDbLine
 10
307.5737074322042
 20
148.4414558457759
 30
0.0
 11
295.0737074322041
 21
148.4414558457759
 31
0.0
  0
LINE
  5
87D
330
2
100
AcDbEntity
  8
0
100
AcDbLine
 10
295.0737074322041
 20
151.7712588457758
 30
0.0
 11
301.5737074322041
 21
151.9414558457759
 31
0.0
  0
LINE
  5
87E
330
2
100
AcDbEntity
  8
0
100
AcDbLine
 10
300.5737074322041
 20
152.6414678457759
 30
0.0
 11
301.5737074322041
 21
152.6414678457759
 31
0.0
  0
LINE
  5
87F
330
2
100
AcDbEntity
  8
CENTER
100
AcDbLine
 10
294.6341014322041
 20
156.4414558457759
 30
0.0
 11
302.6187204322041
 21
156.4414558457759
 31
0.0
  0
LINE
  5
880
330
2
100
AcDbEntity
  8
0
100
AcDbLine
 10
295.0737074322041
 20
161.1116528457759
 30
0.0
 11
301.5737074322041
 21
160.9414558457759
 31
0.0
  0
LINE
  5
881
330
2
100
AcDbEntity
  8
0
100
AcDbLine
 10
300.5737074322041
 20
160.2414438457758
 30
0.0
 11
301.5737074322041
 21
160.2414438457758
 31
0.0
  0
LINE
  5
883
330
2
100
AcDbEntity
  8
0
100
AcDbLine
 10
296.5737074322041
 20
152.9414558457759
 30
0.0
 11
300.5737074322041
 21
152.9414558457759
 31
0.0
  0
LINE
  5
884
330
2
100
AcDbEntity
  8
0
100
AcDbLine
 10
296.5737074322041
 20
159.9414558457759
 30
0.0
 11
296.5737074322041
 21
152.9414558457759
 31
0.0
  0
LINE
  5
885
330
2
100
AcDbEntity
  8
0
100
AcDbLine
 10
296.5737074322041
 20
159.9414558457759
 30
0.0
 11
300.5737074322041
 21
159.9414558457759
 31
0.0
  0
LINE
  5
886
330
2
100
AcDbEntity
  8
0
100
AcDbLine
 10
300.5737074322041
 20
160.2414438457758
 30
0.0
 11
300.5737074322041
 21
152.6414678457759
 31
0.0
  0
LINE
  5
888
330
2
100
AcDbEntity
  8
0
100
AcDbLine
 10
301.5737074322041
 20
160.9414558457759
 30
0.0
 11
301.5737074322041
 21
151.9414558457759
 31
0.0
  0
LINE
  5
88C
330
2
100
AcDbEntity
  8
HIDS
100
AcDbLine
 10
295.0737074322041
 20
162.1914558457759
 30
0.0
 11
307.5737074322042
 21
162.1914558457759
 31
0.0
  0
LINE
  5
88D
330
2
100
AcDbEntity
  8
HIDS
100
AcDbLine
 10
295.0737074322041
 20
170.6914558457759
 30
0.0
 11
307.5737074322042
 21
170.6914558457759
 31
0.0
  0
LINE
  5
88E
330
2
100
AcDbEntity
  8
HIDS
100
AcDbLine
 10
312.5737074322041
 20
168.5746648457758
 30
0.0
 11
312.5737074322041
 21
164.6432688457759
 31
0.0
  0
ARC
  5
88F
330
2
100
AcDbEntity
  8
HIDS
100
AcDbCircle
 10
314.5737074322041
 20
168.5746648457758
 30
0.0
 40
2.0
100
AcDbArc
 50
91.00000000000013
 51
180.0
  0
ARC
  5
890
330
2
100
AcDbEntity
  8
HIDS
100
AcDbCircle
 10
309.5737074322041
 20
164.6432688457759
 30
0.0
 40
3.0
100
AcDbArc
 50
309.3567009999997
 51
0.0
  0
CIRCLE
  5
891
330
2
100
AcDbEntity
  8
HOJO
100
AcDbCircle
 10
583.889554976894
 20
99.44145584577592
 30
0.0
 40
4.0
  0
CIRCLE
  5
892
330
2
100
AcDbEntity
  8
HOJO
100
AcDbCircle
 10
497.889554976894
 20
99.44145584577592
 30
0.0
 40
4.0
  0
LINE
  5
893
330
2
100
AcDbEntity
  8
HOJO
100
AcDbLine
 10
327.5737074322041
 20
103.4414558457759
 30
0.0
 11
327.5737074322041
 21
95.44145584577591
 31
0.0
  0
LINE
  5
894
330
2
100
AcDbEntity
  8
HOJO
100
AcDbLine
 10
343.5737074322041
 20
103.4414558457759
 30
0.0
 11
343.5737074322041
 21
95.44145584577591
 31
0.0
  0
CIRCLE
  5
895
330
2
100
AcDbEntity
  8
0
100
AcDbCircle
 10
497.889554976894
 20
99.44145584577592
 30
0.0
 40
3.399999999999999
  0
CIRCLE
  5
896
330
2
100
AcDbEntity
  8
0
100
AcDbCircle
 10
583.889554976894
 20
99.44145584577592
 30
0.0
 40
3.399999999999999
  0
LINE
  5
897
330
2
100
AcDbEntity
  8
0
100
AcDbLine
 10
683.944974976894
 20
167.9414558457759
 30
0.0
 11
683.944974976894
 21
97.94145584577591
 31
0.0
  0
LINE
  5
898
330
2
100
AcDbEntity
  8
0
100
AcDbLine
 10
684.4449749768941
 20
164.9414558457759
 30
0.0
 11
684.4449749768941
 21
100.9414558457759
 31
0.0
  0
LINE
  5
899
330
2
100
AcDbEntity
  8
0
100
AcDbLine
 10
663.9449749768941
 20
170.9414558457759
 30
0.0
 11
663.9449749768941
 21
94.94145584577593
 31
0.0
  0
ARC
  5
89A
330
2
100
AcDbEntity
  8
0
100
AcDbCircle
 10
570.889554976894
 20
101.2016488457759
 30
0.0
 40
2.0
100
AcDbArc
 50
139.3986970000003
 51
180.0
  0
LINE
  5
89B
330
2
100
AcDbEntity
  8
0
100
AcDbLine
 10
566.889554976894
 20
101.9414558457759
 30
0.0
 11
566.889554976894
 21
100.0764658457759
 31
0.0
  0
ARC
  5
89C
330
2
100
AcDbEntity
  8
0
100
AcDbCircle
 10
510.889554976894
 20
101.2016488457759
 30
0.0
 40
2.0
100
AcDbArc
 50
0.0
 51
40.60129899999998
  0
LINE
  5
89D
330
2
100
AcDbEntity
  8
0
100
AcDbLine
 10
514.889554976894
 20
101.9414558457759
 30
0.0
 11
514.889554976894
 21
100.0764658457759
 31
0.0
  0
LINE
  5
89E
330
2
100
AcDbEntity
  8
0
100
AcDbLine
 10
590.889554976894
 20
116.6130558457759
 30
0.0
 11
590.889554976894
 21
99.44145584577592
 31
0.0
  0
LINE
  5
89F
330
2
100
AcDbEntity
  8
0
100
AcDbLine
 10
490.889554976894
 20
99.44145584577592
 30
0.0
 11
490.889554976894
 21
166.4414558457759
 31
0.0
  0
ARC
  5
8A2
330
2
100
AcDbEntity
  8
HIDS
100
AcDbCircle
 10
361.5737074322041
 20
101.2396428457759
 30
0.0
 40
3.0
100
AcDbArc
 50
129.3567050000005
 51
180.0
  0
LINE
  5
8A3
330
2
100
AcDbEntity
  8
0
100
AcDbLine
 10
376.0737074322041
 20
172.7344548457759
 30
0.0
 11
376.0737074322041
 21
93.14845684577591
 31
0.0
  0
LINE
  5
8A4
330
2
100
AcDbEntity
  8
CENTER
100
AcDbLine
 10
335.5737074322041
 20
222.8289708457759
 30
0.0
 11
335.5737074322041
 21
86.40068484577597
 31
0.0
  0
LINE
  5
8A5
330
2
100
AcDbEntity
  8
0
100
AcDbLine
 10
521.889554976894
 20
97.44145584577593
 30
0.0
 11
559.889554976894
 21
97.44145584577593
 31
0.0
  0
LINE
  5
8A6
330
2
100
AcDbEntity
  8
0
100
AcDbLine
 10
583.889554976894
 20
92.44145584577593
 30
0.0
 11
497.889554976894
 21
92.44145584577593
 31
0.0
  0
LINE
  5
8A7
330
2
100
AcDbEntity
  8
HOJO
100
AcDbLine
 10
343.5737074322041
 20
95.44145584577591
 30
0.0
 11
376.0737074322041
 21
95.44145584577591
 31
0.0
  0
LINE
  5
8A8
330
2
100
AcDbEntity
  8
HIDS
100
AcDbLine
 10
356.6087114322042
 20
95.30865884577588
 30
0.0
 11
335.5737074322041
 21
94.94145584577593
 31
0.0
  0
LINE
  5
8A9
330
2
100
AcDbEntity
  8
0
100
AcDbLine
 10
335.5737074322041
 20
92.44145584577593
 30
0.0
 11
376.0737074322041
 21
93.14845684577591
 31
0.0
  0
ARC
  5
8AA
330
2
100
AcDbEntity
  8
HIDS
100
AcDbCircle
 10
356.5737074322041
 20
97.30826184577592
 30
0.0
 40
2.0
100
AcDbArc
 50
271.0000000000001
 51
0.0
  0
LINE
  5
8AB
330
2
100
AcDbEntity
  8
HIDS
100
AcDbLine
 10
358.5737074322041
 20
97.30826184577592
 30
0.0
 11
358.5737074322041
 21
101.2396428457759
 31
0.0
  0
ARC
  5
8AC
330
2
100
AcDbEntity
  8
0
100
AcDbCircle
 10
497.889554976894
 20
99.44145584577592
 30
0.0
 40
7.0
100
AcDbArc
 50
180.0
 51
312.6358950000003
  0
ARC
  5
8AE
330
2
100
AcDbEntity
  8
0
100
AcDbCircle
 10
524.889554976894
 20
120.9414558457759
 30
0.0
 40
30.0
100
AcDbArc
 50
239.6416930000005
 51
247.6683960000001
  0
ARC
  5
8AF
330
2
100
AcDbEntity
  8
0
100
AcDbCircle
 10
506.694974976894
 20
89.87765884577589
 30
0.0
 40
6.0
100
AcDbArc
 50
59.6417009999995
 51
132.6358950000002
  0
ARC
  5
8B0
330
2
100
AcDbEntity
  8
0
100
AcDbCircle
 10
521.889554976894
 20
119.4414558457759
 30
0.0
 40
22.0
100
AcDbArc
 50
249.5127030000004
 51
270.0
  0
ARC
  5
8B1
330
2
100
AcDbEntity
  8
0
100
AcDbCircle
 10
514.889554976894
 20
100.7064708457759
 30
0.0
 40
2.0
100
AcDbArc
 50
180.0
 51
249.5126950000004
  0
ARC
  5
8B2
330
2
100
AcDbEntity
  8
0
100
AcDbCircle
 10
516.889554976894
 20
100.0764658457759
 30
0.0
 40
2.0
100
AcDbArc
 50
180.0
 51
255.5225069999996
  0
LINE
  5
8B3
330
2
100
AcDbEntity
  8
0
100
AcDbLine
 10
512.889554976894
 20
101.2016488457759
 30
0.0
 11
512.889554976894
 21
100.7064708457759
 31
0.0
  0
ARC
  5
8B4
330
2
100
AcDbEntity
  8
0
100
AcDbCircle
 10
517.290128976894
 20
102.4414558457759
 30
0.0
 40
10.0
100
AcDbArc
 50
247.6683960000001
 51
270.0
  0
LINE
  5
8B5
330
2
100
AcDbEntity
  8
0
100
AcDbLine
 10
680.480924976894
 20
94.94145584577593
 30
0.0
 11
663.9449749768941
 21
94.94145584577593
 31
0.0
  0
LINE
  5
8B6
330
2
100
AcDbEntity
  8
0
100
AcDbLine
 10
663.9449749768941
 20
94.94145584577593
 30
0.0
 11
592.248380976894
 21
94.94145584577593
 31
0.0
  0
ARC
  5
8B7
330
2
100
AcDbEntity
  8
0
100
AcDbCircle
 10
583.889554976894
 20
99.44145584577592
 30
0.0
 40
7.0
100
AcDbArc
 50
227.3641049999997
 51
0.0
  0
ARC
  5
8B9
330
2
100
AcDbEntity
  8
0
100
AcDbCircle
 10
559.889554976894
 20
119.4414558457759
 30
0.0
 40
22.0
100
AcDbArc
 50
270.0
 51
290.4873049999995
  0
ARC
  5
8BA
330
2
100
AcDbEntity
  8
0
100
AcDbCircle
 10
564.4889809768939
 20
102.4414558457759
 30
0.0
 40
10.0
100
AcDbArc
 50
270.0
 51
292.3316039999998
  0
ARC
  5
8BB
330
2
100
AcDbEntity
  8
0
100
AcDbCircle
 10
564.889554976894
 20
100.0764658457759
 30
0.0
 40
2.0
100
AcDbArc
 50
284.4775090000004
 51
0.0
  0
ARC
  5
8BC
330
2
100
AcDbEntity
  8
0
100
AcDbCircle
 10
575.084134976894
 20
89.87765884577589
 30
0.0
 40
6.0
100
AcDbArc
 50
47.364071
 51
120.3582990000005
  0
ARC
  5
8BD
330
2
100
AcDbEntity
  8
0
100
AcDbCircle
 10
566.889554976894
 20
100.7064708457759
 30
0.0
 40
2.0
100
AcDbArc
 50
290.4873120000003
 51
0.0
  0
LINE
  5
8BE
330
2
100
AcDbEntity
  8
0
100
AcDbLine
 10
568.889554976894
 20
101.2016488457759
 30
0.0
 11
568.889554976894
 21
100.7064708457759
 31
0.0
  0
ARC
  5
8BF
330
2
100
AcDbEntity
  8
0
100
AcDbCircle
 10
556.889554976894
 20
120.9414558457759
 30
0.0
 40
30.0
100
AcDbArc
 50
292.3316039999998
 51
300.3583069999994
  0
LINE
  5
8C0
330
2
100
AcDbEntity
  8
0
100
AcDbLine
 10
591.553128976894
 20
94.81685284577594
 30
0.0
 11
586.322537976894
 21
92.8778568457759
 31
0.0
  0
ARC
  5
8C1
330
2
100
AcDbEntity
  8
0
100
AcDbCircle
 10
592.248380976894
 20
92.94145584577591
 30
0.0
 40
2.0
100
AcDbArc
 50
90.0
 51
110.3386989999999
  0
ARC
  5
8C2
330
2
100
AcDbEntity
  8
0
100
AcDbCircle
 10
680.480924976894
 20
97.94145584577591
 30
0.0
 40
3.0
100
AcDbArc
 50
270.0
 51
330.0003970000009
  0
LINE
  5
8C3
330
2
100
AcDbEntity
  8
0
100
AcDbLine
 10
683.0791299768939
 20
96.44145584577593
 30
0.0
 11
683.944974976894
 21
97.94145584577591
 31
0.0
  0
LINE
  5
8C4
330
2
100
AcDbEntity
  8
0
100
AcDbLine
 10
684.4449749768941
 20
100.9414558457759
 30
0.0
 11
683.944974976894
 21
100.4414558457759
 31
0.0
  0
LINE
  5
8C5
330
2
100
AcDbEntity
  8
0
100
AcDbLine
 10
491.5965249768941
 20
382.1817280505228
 30
0.0
 11
590.1825849768939
 21
382.1817280505228
 31
0.0
  0
CIRCLE
  5
8C6
330
2
100
AcDbEntity
  8
0
100
AcDbCircle
 10
529.889554976894
 20
132.9414558457759
 30
0.0
 40
25.002001
  0
LINE
  5
8C7
330
2
100
AcDbEntity
  8
0
100
AcDbLine
 10
591.889554976894
 20
369.6817280505228
 30
0.0
 11
491.3783249768941
 21
369.6817280505228
 31
0.0
  0
LINE
  5
8C8
330
2
100
AcDbEntity
  8
0
100
AcDbLine
 10
590.1825849768939
 20
301.1817280505227
 30
0.0
 11
491.5965249768941
 21
301.1817280505227
 31
0.0
  0
LINE
  5
8C9
330
2
100
AcDbEntity
  8
CENTER
100
AcDbLine
 10
483.3487839768941
 20
341.6817280505227
 30
0.0
 11
692.9655049451281
 21
341.6817280505227
 31
0.0
  0
LINE
  5
8CA
330
2
100
AcDbEntity
  8
0
100
AcDbLine
 10
521.889554976894
 20
168.4414558457759
 30
0.0
 11
559.889554976894
 21
168.4414558457759
 31
0.0
  0
LINE
  5
8CB
330
2
100
AcDbEntity
  8
0
100
AcDbLine
 10
583.889554976894
 20
173.4414558457759
 30
0.0
 11
497.889554976894
 21
173.4414558457759
 31
0.0
  0
LINE
  5
8CC
330
2
100
AcDbEntity
  8
CENTER
100
AcDbLine
 10
483.3487839768941
 20
132.9414558457759
 30
0.0
 11
692.9655049451281
 21
132.9414558457759
 31
0.0
  0
LINE
  5
8CD
330
2
100
AcDbEntity
  8
0
100
AcDbLine
 10
522.8185709768941
 20
273.1817280505227
 30
0.0
 11
522.8185709768941
 21
294.6817280505227
 31
0.0
  0
LINE
  5
8CE
330
2
100
AcDbEntity
  8
0
100
AcDbLine
 10
520.389554976894
 20
273.1817280505227
 30
0.0
 11
520.389554976894
 21
297.1817280505227
 31
0.0
  0
LINE
  5
8CF
330
2
100
AcDbEntity
  8
0
100
AcDbLine
 10
537.389554976894
 20
300.1817280505227
 30
0.0
 11
537.389554976894
 21
273.1817280505227
 31
0.0
  0
LINE
  5
8D0
330
2
100
AcDbEntity
  8
CENTER
100
AcDbLine
 10
529.889554976894
 20
391.1768750505227
 30
0.0
 11
529.889554976894
 21
268.8101150505227
 31
0.0
  0
LINE
  5
8D1
330
2
100
AcDbEntity
  8
0
100
AcDbLine
 10
404.0737074322041
 20
125.4414558457759
 30
0.0
 11
377.0737074322041
 21
125.4414558457759
 31
0.0
  0
LINE
  5
8D2
330
2
100
AcDbEntity
  8
0
100
AcDbLine
 10
404.0737074322041
 20
140.4414558457759
 30
0.0
 11
377.0737074322041
 21
140.4414558457759
 31
0.0
  0
LINE
  5
8D3
330
2
100
AcDbEntity
  8
0
100
AcDbLine
 10
342.9067154322042
 20
141.8970528457759
 30
0.0
 11
342.9067154322042
 21
123.9858588457759
 31
0.0
  0
LINE
  5
8D4
330
2
100
AcDbEntity
  8
0
100
AcDbLine
 10
328.2406994322041
 20
142.1152538457759
 30
0.0
 11
328.2406994322041
 21
123.7676578457759
 31
0.0
  0
LINE
  5
8D5
330
2
100
AcDbEntity
  8
0
100
AcDbLine
 10
330.5737074322042
 20
119.8082468457759
 30
0.0
 11
330.5737074322042
 21
146.0746648457758
 31
0.0
  0
LINE
  5
8D6
330
2
100
AcDbEntity
  8
0
100
AcDbLine
 10
340.5737074322041
 20
145.8564648457759
 30
0.0
 11
340.5737074322041
 21
120.0264468457759
 31
0.0
  0
ARC
  5
8D7
330
2
100
AcDbEntity
  8
HIDS
100
AcDbCircle
 10
335.5737074322041
 20
132.9414558457759
 30
0.0
 40
38.0
100
AcDbArc
 50
309.3567009999997
 51
50.64329900000029
  0
LINE
  5
8D9
330
2
100
AcDbEntity
  8
HOJO
100
AcDbLine
 10
343.5737074322041
 20
103.4414558457759
 30
0.0
 11
376.0737074322041
 21
103.4414558457759
 31
0.0
  0
LINE
  5
8DA
330
2
100
AcDbEntity
  8
0
100
AcDbLine
 10
344.8717114322041
 20
121.9860418457759
 30
0.0
 11
376.0737074322041
 21
121.4414558457759
 31
0.0
  0
LINE
  5
8DB
330
2
100
AcDbEntity
  8
0
100
AcDbLine
 10
342.538703432204
 20
118.0268438457758
 30
0.0
 11
376.0737074322041
 21
117.4414558457759
 31
0.0
  0
ARC
  5
8DC
330
2
100
AcDbEntity
  8
0
100
AcDbCircle
 10
326.2406994322041
 20
123.7676578457759
 30
0.0
 40
2.0
100
AcDbArc
 50
271.0000000000001
 51
0.0
  0
LINE
  5
8DD
330
2
100
AcDbEntity
  8
0
100
AcDbLine
 10
343.3355174322041
 20
122.7482488457759
 30
0.0
 11
341.0025094322041
 21
118.7890508457759
 31
0.0
  0
LINE
  5
8DE
330
2
100
AcDbEntity
  8
0
100
AcDbLine
 10
330.1449054322041
 20
118.5708508457759
 30
0.0
 11
327.8118974322042
 21
122.5300488457759
 31
0.0
  0
ARC
  5
8E2
330
2
100
AcDbEntity
  8
0
100
AcDbCircle
 10
328.5737074322041
 20
119.8082468457759
 30
0.0
 40
2.0
100
AcDbArc
 50
271.0000000000001
 51
0.0
  0
ARC
  5
8E5
330
2
100
AcDbEntity
  8
0
100
AcDbCircle
 10
342.5737074322041
 20
120.0264468457759
 30
0.0
 40
2.0
100
AcDbArc
 50
180.0
 51
268.9999999999998
  0
ARC
  5
8E6
330
2
100
AcDbEntity
  8
0
100
AcDbCircle
 10
344.9067154322042
 20
123.9858588457759
 30
0.0
 40
2.0
100
AcDbArc
 50
180.0
 51
268.9999999999998
  0
LINE
  5
8ED
330
2
100
AcDbEntity
  8
0
100
AcDbLine
 10
377.0737074322041
 20
125.1300548457759
 30
0.0
 11
377.0737074322041
 21
140.7528568457759
 31
0.0
  0
LINE
  5
8EE
330
2
100
AcDbEntity
  8
0
100
AcDbLine
 10
376.2963024322041
 20
124.4414558457759
 30
0.0
 11
376.0737074322041
 21
124.4414558457759
 31
0.0
  0
ARC
  5
8EF
330
2
100
AcDbEntity
  8
0
100
AcDbCircle
 10
375.6716994322041
 20
126.3414498457759
 30
0.0
 40
2.0
100
AcDbArc
 50
288.1948699999997
 51
299.9999999999997
  0
ARC
  5
8F0
330
2
100
AcDbEntity
  8
0
100
AcDbCircle
 10
376.5737074322041
 20
125.1300548457759
 30
0.0
 40
0.5
100
AcDbArc
 50
299.9999999999997
 51
0.0
  0
LINE
  5
8F1
330
2
100
AcDbEntity
  8
0
100
AcDbLine
 10
376.8237074322041
 20
124.6970708457759
 30
0.0
 11
376.6716994322041
 21
124.6094548457759
 31
0.0
  0
LINE
  5
8F2
330
2
100
AcDbEntity
  8
0
100
AcDbLine
 10
376.2963024322041
 20
141.4414558457759
 30
0.0
 11
376.0737074322041
 21
141.4414558457759
 31
0.0
  0
ARC
  5
8F3
330
2
100
AcDbEntity
  8
0
100
AcDbCircle
 10
375.6716994322041
 20
139.5414618457759
 30
0.0
 40
2.0
100
AcDbArc
 50
60.00000000000028
 51
71.8051300000003
  0
ARC
  5
8F4
330
2
100
AcDbEntity
  8
0
100
AcDbCircle
 10
376.5737074322041
 20
140.7528568457759
 30
0.0
 40
0.5
100
AcDbArc
 50
0.0
 51
60.00000000000028
  0
LINE
  5
8F5
330
2
100
AcDbEntity
  8
0
100
AcDbLine
 10
376.8237074322041
 20
141.1858408457759
 30
0.0
 11
376.6716994322041
 21
141.2734568457759
 31
0.0
  0
LINE
  5
8F7
330
2
100
AcDbEntity
  8
HIDS
100
AcDbLine
 10
343.5737074322041
 20
162.4414558457759
 30
0.0
 11
376.0737074322041
 21
162.4414558457759
 31
0.0
  0
LINE
  5
8F8
330
2
100
AcDbEntity
  8
HIDS
100
AcDbLine
 10
343.5737074322041
 20
170.4414558457759
 30
0.0
 11
376.0737074322041
 21
170.4414558457759
 31
0.0
  0
LINE
  5
8F9
330
2
100
AcDbEntity
  8
0
100
AcDbLine
 10
344.8717114322041
 20
143.8968698457759
 30
0.0
 11
376.0737074322041
 21
144.4414558457759
 31
0.0
  0
LINE
  5
8FA
330
2
100
AcDbEntity
  8
0
100
AcDbLine
 10
342.538703432204
 20
147.8560678457759
 30
0.0
 11
376.0737074322041
 21
148.4414558457759
 31
0.0
  0
LINE
  5
8FB
330
2
100
AcDbEntity
  8
HIDS
100
AcDbLine
 10
356.6087114322042
 20
170.5742678457759
 30
0.0
 11
335.5737074322041
 21
170.9414558457759
 31
0.0
  0
LINE
  5
8FC
330
2
100
AcDbEntity
  8
0
100
AcDbLine
 10
335.5737074322041
 20
173.4414558457759
 30
0.0
 11
376.0737074322041
 21
172.7344548457759
 31
0.0
  0
ARC
  5
8FE
330
2
100
AcDbEntity
  8
0
100
AcDbCircle
 10
328.5737074322041
 20
146.0746648457758
 30
0.0
 40
2.0
100
AcDbArc
 50
0.0
 51
88.99999999999986
  0
LINE
  5
8FF
330
2
100
AcDbEntity
  8
0
100
AcDbLine
 10
327.8118974322042
 20
143.3528628457759
 30
0.0
 11
330.1449054322041
 21
147.3120608457758
 31
0.0
  0
ARC
  5
900
330
2
100
AcDbEntity
  8
0
100
AcDbCircle
 10
326.2406994322041
 20
142.1152538457759
 30
0.0
 40
2.0
100
AcDbArc
 50
0.0
 51
88.99999999999986
  0
ARC
  5
903
330
2
100
AcDbEntity
  8
0
100
AcDbCircle
 10
344.9067154322042
 20
141.8970528457759
 30
0.0
 40
2.0
100
AcDbArc
 50
91.00000000000013
 51
180.0
  0
ARC
  5
904
330
2
100
AcDbEntity
  8
0
100
AcDbCircle
 10
342.5737074322041
 20
145.8564648457759
 30
0.0
 40
2.0
100
AcDbArc
 50
91.00000000000013
 51
180.0
  0
LINE
  5
905
330
2
100
AcDbEntity
  8
0
100
AcDbLine
 10
343.3355174322041
 20
143.1346628457758
 30
0.0
 11
341.0025094322041
 21
147.0938608457759
 31
0.0
  0
LINE
  5
908
330
2
100
AcDbEntity
  8
HIDS
100
AcDbLine
 10
327.5737074322041
 20
170.4414558457759
 30
0.0
 11
327.5737074322041
 21
162.4414558457759
 31
0.0
  0
LINE
  5
909
330
2
100
AcDbEntity
  8
HIDS
100
AcDbLine
 10
343.5737074322041
 20
170.4414558457759
 30
0.0
 11
343.5737074322041
 21
162.4414558457759
 31
0.0
  0
ARC
  5
910
330
2
100
AcDbEntity
  8
HIDS
100
AcDbCircle
 10
356.5737074322041
 20
168.5746648457758
 30
0.0
 40
2.0
100
AcDbArc
 50
0.0
 51
88.99999999999986
  0
ARC
  5
911
330
2
100
AcDbEntity
  8
HIDS
100
AcDbCircle
 10
361.5737074322041
 20
164.6432688457759
 30
0.0
 40
3.0
100
AcDbArc
 50
180.0
 51
230.6432949999994
  0
LINE
  5
912
330
2
100
AcDbEntity
  8
HIDS
100
AcDbLine
 10
358.5737074322041
 20
168.5746648457758
 30
0.0
 11
358.5737074322041
 21
164.6432688457759
 31
0.0
  0
LINE
  5
913
330
2
100
AcDbEntity
  8
0
100
AcDbLine
 10
404.0737074322041
 20
130.4414558457759
 30
0.0
 11
382.5737074322042
 21
130.4414558457759
 31
0.0
  0
LINE
  5
914
330
2
100
AcDbEntity
  8
0
100
AcDbLine
 10
404.0737074322041
 20
135.4414558457759
 30
0.0
 11
382.5737074322042
 21
135.4414558457759
 31
0.0
  0
ARC
  5
915
330
2
100
AcDbEntity
  8
0
100
AcDbCircle
 10
382.5737074322042
 20
132.9414558457759
 30
0.0
 40
2.5
100
AcDbArc
 50
90.0
 51
270.0
  0
LINE
  5
916
330
2
100
AcDbEntity
  8
0
100
AcDbLine
 10
404.0737074322041
 20
140.4414558457759
 30
0.0
 11
404.0737074322041
 21
125.4414558457759
 31
0.0
  0
CIRCLE
  5
917
330
2
100
AcDbEntity
  8
HOJO
100
AcDbCircle
 10
497.889554976894
 20
166.4414558457759
 30
0.0
 40
4.0
  0
CIRCLE
  5
918
330
2
100
AcDbEntity
  8
0
100
AcDbCircle
 10
497.889554976894
 20
166.4414558457759
 30
0.0
 40
3.399999999999999
  0
ARC
  5
919
330
2
100
AcDbEntity
  8
0
100
AcDbCircle
 10
497.889554976894
 20
166.4414558457759
 30
0.0
 40
7.0
100
AcDbArc
 50
47.364071
 51
180.0
  0
LINE
  5
91B
330
2
100
AcDbEntity
  8
0
100
AcDbLine
 10
494.889554976894
 20
122.2698558457759
 30
0.0
 11
494.889554976894
 21
143.6130558457759
 31
0.0
  0
ARC
  5
91C
330
2
100
AcDbEntity
  8
0
100
AcDbCircle
 10
492.889554976894
 20
122.2698558457759
 30
0.0
 40
2.0
100
AcDbArc
 50
315.0
 51
0.0
  0
ARC
  5
91D
330
2
100
AcDbEntity
  8
0
100
AcDbCircle
 10
492.889554976894
 20
116.6130558457759
 30
0.0
 40
2.0
100
AcDbArc
 50
135.0
 51
180.0
  0
LINE
  5
91E
330
2
100
AcDbEntity
  8
0
100
AcDbLine
 10
494.303739976894
 20
120.8556708457759
 30
0.0
 11
491.475369976894
 21
118.0272408457759
 31
0.0
  0
ARC
  5
91F
330
2
100
AcDbEntity
  8
0
100
AcDbCircle
 10
492.889554976894
 20
143.6130558457759
 30
0.0
 40
2.0
100
AcDbArc
 50
0.0
 51
45.0
  0
ARC
  5
920
330
2
100
AcDbEntity
  8
0
100
AcDbCircle
 10
492.889554976894
 20
149.2698558457759
 30
0.0
 40
2.0
100
AcDbArc
 50
180.0
 51
225.0
  0
LINE
  5
921
330
2
100
AcDbEntity
  8
0
100
AcDbLine
 10
494.303739976894
 20
145.0272408457759
 30
0.0
 11
491.475369976894
 21
147.8556708457759
 31
0.0
  0
CIRCLE
  5
922
330
2
100
AcDbEntity
  8
0
100
AcDbCircle
 10
529.889554976894
 20
132.9414558457759
 30
0.0
 40
23.0
  0
CIRCLE
  5
923
330
2
100
AcDbEntity
  8
0
100
AcDbCircle
 10
529.889554976894
 20
132.9414558457759
 30
0.0
 40
15.0
  0
CIRCLE
  5
924
330
2
100
AcDbEntity
  8
0
100
AcDbCircle
 10
529.889554976894
 20
132.9414558457759
 30
0.0
 40
19.0
  0
LINE
  5
925
330
2
100
AcDbEntity
  8
0
100
AcDbLine
 10
499.889554976894
 20
146.4414558457759
 30
0.0
 11
499.889554976894
 21
119.4414558457759
 31
0.0
  0
LINE
  5
926
330
2
100
AcDbEntity
  8
CENTER
100
AcDbLine
 10
529.889554976894
 20
102.7349433457759
 30
0.0
 11
529.889554976894
 21
163.1479683457758
 31
0.0
  0
ARC
  5
927
330
2
100
AcDbEntity
  8
0
100
AcDbCircle
 10
529.889554976894
 20
132.9414558457759
 30
0.0
 40
7.5
100
AcDbArc
 50
199.4712070000002
 51
160.5287929999997
  0
LINE
  5
928
330
2
100
AcDbEntity
  8
0
100
AcDbLine
 10
525.389554976894
 20
130.4414558457759
 30
0.0
 11
520.389554976894
 21
130.4414558457759
 31
0.0
  0
LINE
  5
929
330
2
100
AcDbEntity
  8
0
100
AcDbLine
 10
525.389554976894
 20
135.4414558457759
 30
0.0
 11
520.389554976894
 21
135.4414558457759
 31
0.0
  0
ARC
  5
92A
330
2
100
AcDbEntity
  8
0
100
AcDbCircle
 10
529.889554976894
 20
132.9414558457759
 30
0.0
 40
8.5
100
AcDbArc
 50
197.1045990000003
 51
162.8954009999996
  0
LINE
  5
92B
330
2
100
AcDbEntity
  8
0
100
AcDbLine
 10
505.407926976894
 20
113.7430608457759
 30
0.0
 11
514.407926976894
 21
103.2430608457759
 31
0.0
  0
LINE
  5
92C
330
2
100
AcDbEntity
  8
0
100
AcDbLine
 10
504.488126976894
 20
111.7430608457759
 30
0.0
 11
512.407926976894
 21
102.5032538457759
 31
0.0
  0
LINE
  5
92D
330
2
100
AcDbEntity
  8
0
100
AcDbLine
 10
503.889554976894
 20
114.4414558457759
 30
0.0
 11
502.1157509768939
 21
114.4414558457759
 31
0.0
  0
ARC
  5
92E
330
2
100
AcDbEntity
  8
0
100
AcDbCircle
 10
502.969754976894
 20
110.4414558457759
 30
0.0
 40
2.0
100
AcDbArc
 50
40.60129899999998
 51
90.0
  0
ARC
  5
92F
330
2
100
AcDbEntity
  8
0
100
AcDbCircle
 10
521.889554976894
 20
119.4414558457759
 30
0.0
 40
22.0
100
AcDbArc
 50
180.0
 51
194.4774929999995
  0
ARC
  5
930
330
2
100
AcDbEntity
  8
0
100
AcDbCircle
 10
502.5245649768939
 20
114.4414558457759
 30
0.0
 40
2.0
100
AcDbArc
 50
194.4774929999995
 51
270.0
  0
ARC
  5
931
330
2
100
AcDbEntity
  8
0
100
AcDbCircle
 10
502.1157509768939
 20
116.4414558457759
 30
0.0
 40
2.0
100
AcDbArc
 50
188.6269069999995
 51
270.0
  0
LINE
  5
932
330
2
100
AcDbEntity
  8
0
100
AcDbLine
 10
502.969754976894
 20
112.4414558457759
 30
0.0
 11
502.5245649768939
 21
112.4414558457759
 31
0.0
  0
LINE
  5
933
330
2
100
AcDbEntity
  8
0
100
AcDbLine
 10
504.7251259768939
 20
114.2584418457759
 30
0.0
 11
503.805325976894
 21
112.2584418457759
 31
0.0
  0
ARC
  5
934
330
2
100
AcDbEntity
  8
0
100
AcDbCircle
 10
503.889554976894
 20
112.4414558457759
 30
0.0
 40
2.0
100
AcDbArc
 50
40.60129899999998
 51
90.0
  0
LINE
  5
935
330
2
100
AcDbEntity
  8
0
100
AcDbLine
 10
514.765347976894
 20
102.6352428457758
 30
0.0
 11
512.7653479768939
 21
101.8954658457759
 31
0.0
  0
ARC
  5
936
330
2
100
AcDbEntity
  8
0
100
AcDbCircle
 10
512.889554976894
 20
101.9414558457759
 30
0.0
 40
2.0
100
AcDbArc
 50
0.0
 51
40.60129899999998
  0
LINE
  5
937
330
2
100
AcDbEntity
  8
0
100
AcDbLine
 10
520.389554976894
 20
135.4414558457759
 30
0.0
 11
520.389554976894
 21
130.4414558457759
 31
0.0
  0
LINE
  5
938
330
2
100
AcDbEntity
  8
0
100
AcDbLine
 10
525.389554976894
 20
135.4414558457759
 30
0.0
 11
525.389554976894
 21
130.4414558457759
 31
0.0
  0
LINE
  5
939
330
2
100
AcDbEntity
  8
0
100
AcDbLine
 10
505.407926976894
 20
152.1398508457759
 30
0.0
 11
514.407926976894
 21
162.6398508457759
 31
0.0
  0
LINE
  5
93A
330
2
100
AcDbEntity
  8
0
100
AcDbLine
 10
504.488126976894
 20
154.1398508457759
 30
0.0
 11
512.407926976894
 21
163.3796578457759
 31
0.0
  0
ARC
  5
93C
330
2
100
AcDbEntity
  8
0
100
AcDbCircle
 10
521.889554976894
 20
146.4414558457759
 30
0.0
 40
22.0
100
AcDbArc
 50
165.5225070000004
 51
180.0
  0
ARC
  5
93D
330
2
100
AcDbEntity
  8
0
100
AcDbCircle
 10
502.1157509768939
 20
149.4414558457759
 30
0.0
 40
2.0
100
AcDbArc
 50
90.0
 51
171.3730930000004
  0
LINE
  5
93E
330
2
100
AcDbEntity
  8
0
100
AcDbLine
 10
504.7251259768939
 20
151.6244698457759
 30
0.0
 11
503.805325976894
 21
153.6244698457759
 31
0.0
  0
ARC
  5
93F
330
2
100
AcDbEntity
  8
0
100
AcDbCircle
 10
503.889554976894
 20
153.4414558457759
 30
0.0
 40
2.0
100
AcDbArc
 50
270.0
 51
319.398701
  0
LINE
  5
940
330
2
100
AcDbEntity
  8
0
100
AcDbLine
 10
503.889554976894
 20
151.4414558457759
 30
0.0
 11
502.1157509768939
 21
151.4414558457759
 31
0.0
  0
ARC
  5
941
330
2
100
AcDbEntity
  8
0
100
AcDbCircle
 10
502.969754976894
 20
155.4414558457759
 30
0.0
 40
2.0
100
AcDbArc
 50
270.0
 51
319.398701
  0
ARC
  5
942
330
2
100
AcDbEntity
  8
0
100
AcDbCircle
 10
502.5245649768939
 20
151.4414558457759
 30
0.0
 40
2.0
100
AcDbArc
 50
90.0
 51
165.5225070000004
  0
LINE
  5
943
330
2
100
AcDbEntity
  8
0
100
AcDbLine
 10
502.969754976894
 20
153.4414558457759
 30
0.0
 11
502.5245649768939
 21
153.4414558457759
 31
0.0
  0
ARC
  5
944
330
2
100
AcDbEntity
  8
0
100
AcDbCircle
 10
524.889554976894
 20
144.9414558457759
 30
0.0
 40
30.0
100
AcDbArc
 50
112.3315960000001
 51
120.3582990000005
  0
ARC
  5
945
330
2
100
AcDbEntity
  8
0
100
AcDbCircle
 10
506.694974976894
 20
176.0052678457759
 30
0.0
 40
6.0
100
AcDbArc
 50
227.3641049999997
 51
300.3583069999994
  0
ARC
  5
946
330
2
100
AcDbEntity
  8
0
100
AcDbCircle
 10
521.889554976894
 20
146.4414558457759
 30
0.0
 40
22.0
100
AcDbArc
 50
90.0
 51
110.4872969999995
  0
ARC
  5
947
330
2
100
AcDbEntity
  8
0
100
AcDbCircle
 10
514.889554976894
 20
165.1764408457759
 30
0.0
 40
2.0
100
AcDbArc
 50
110.4872969999995
 51
180.0
  0
ARC
  5
948
330
2
100
AcDbEntity
  8
0
100
AcDbCircle
 10
516.889554976894
 20
165.8064458457759
 30
0.0
 40
2.0
100
AcDbArc
 50
104.4775009999997
 51
180.0
  0
LINE
  5
949
330
2
100
AcDbEntity
  8
0
100
AcDbLine
 10
514.765347976894
 20
163.2476688457759
 30
0.0
 11
512.7653479768939
 21
163.9874458457759
 31
0.0
  0
ARC
  5
94A
330
2
100
AcDbEntity
  8
0
100
AcDbCircle
 10
510.889554976894
 20
164.6812628457759
 30
0.0
 40
2.0
100
AcDbArc
 50
319.398701
 51
0.0
  0
ARC
  5
94B
330
2
100
AcDbEntity
  8
0
100
AcDbCircle
 10
512.889554976894
 20
163.9414558457759
 30
0.0
 40
2.0
100
AcDbArc
 50
319.398701
 51
0.0
  0
LINE
  5
94C
330
2
100
AcDbEntity
  8
0
100
AcDbLine
 10
514.889554976894
 20
163.9414558457759
 30
0.0
 11
514.889554976894
 21
165.8064458457759
 31
0.0
  0
LINE
  5
94D
330
2
100
AcDbEntity
  8
0
100
AcDbLine
 10
512.889554976894
 20
164.6812628457759
 30
0.0
 11
512.889554976894
 21
165.1764408457759
 31
0.0
  0
ARC
  5
94E
330
2
100
AcDbEntity
  8
0
100
AcDbCircle
 10
517.290128976894
 20
163.4414558457759
 30
0.0
 40
10.0
100
AcDbArc
 50
90.0
 51
112.3315960000001
  0
LINE
  5
94F
330
2
100
AcDbEntity
  8
0
100
AcDbLine
 10
520.389554976894
 20
273.1817280505227
 30
0.0
 11
537.389554976894
 21
273.1817280505227
 31
0.0
  0
LINE
  5
950
330
2
100
AcDbEntity
  8
HIDS
100
AcDbLine
 10
502.139554976894
 20
369.6817280505228
 30
0.0
 11
502.139554976894
 21
382.1817280505228
 31
0.0
  0
LINE
  5
951
330
2
100
AcDbEntity
  8
HIDS
100
AcDbLine
 10
493.639554976894
 20
369.6817280505228
 30
0.0
 11
493.639554976894
 21
382.1817280505228
 31
0.0
  0
LINE
  5
952
330
2
100
AcDbEntity
  8
0
100
AcDbLine
 10
506.547574976894
 20
382.1817280505228
 30
0.0
 11
506.547574976894
 21
348.8857380505227
 31
0.0
  0
LINE
  5
953
330
2
100
AcDbEntity
  8
0
100
AcDbLine
 10
515.5221839768939
 20
382.1817280505228
 30
0.0
 11
515.5221839768939
 21
346.6817280505228
 31
0.0
  0
LINE
  5
954
330
2
100
AcDbEntity
  8
0
100
AcDbLine
 10
490.889554976894
 20
341.6817280505227
 30
0.0
 11
491.5965249768941
 21
382.1817280505228
 31
0.0
  0
LINE
  5
955
330
2
100
AcDbEntity
  8
CENTER
100
AcDbLine
 10
497.889554976894
 20
297.8227190505227
 30
0.0
 11
497.889554976894
 21
385.4979510505228
 31
0.0
  0
LINE
  5
956
330
2
100
AcDbEntity
  8
HIDS
100
AcDbLine
 10
493.889554976894
 20
333.6817280505227
 30
0.0
 11
501.889554976894
 21
333.6817280505227
 31
0.0
  0
LINE
  5
957
330
2
100
AcDbEntity
  8
HIDS
100
AcDbLine
 10
493.889554976894
 20
349.6817280505227
 30
0.0
 11
501.889554976894
 21
349.6817280505227
 31
0.0
  0
LINE
  5
958
330
2
100
AcDbEntity
  8
HIDS
100
AcDbLine
 10
493.889554976894
 20
301.1817280505227
 30
0.0
 11
493.889554976894
 21
333.6817280505227
 31
0.0
  0
LINE
  5
959
330
2
100
AcDbEntity
  8
HIDS
100
AcDbLine
 10
494.489530976894
 20
369.6817280505228
 30
0.0
 11
494.489530976894
 21
301.1817280505227
 31
0.0
  0
LINE
  5
95A
330
2
100
AcDbEntity
  8
0
100
AcDbLine
 10
490.889554976894
 20
341.6817280505227
 30
0.0
 11
491.5965249768941
 21
301.1817280505227
 31
0.0
  0
LINE
  5
95B
330
2
100
AcDbEntity
  8
HIDS
100
AcDbLine
 10
493.889554976894
 20
369.6817280505228
 30
0.0
 11
493.889554976894
 21
349.6817280505227
 31
0.0
  0
LINE
  5
95C
330
2
100
AcDbEntity
  8
HIDS
100
AcDbLine
 10
501.889554976894
 20
301.1817280505227
 30
0.0
 11
501.889554976894
 21
333.6817280505227
 31
0.0
  0
LINE
  5
95D
330
2
100
AcDbEntity
  8
HIDS
100
AcDbLine
 10
501.289578976894
 20
369.6817280505228
 30
0.0
 11
501.289578976894
 21
301.1817280505227
 31
0.0
  0
LINE
  5
95E
330
2
100
AcDbEntity
  8
0
100
AcDbLine
 10
515.5221839768939
 20
336.6817280505228
 30
0.0
 11
515.5221839768939
 21
301.1817280505227
 31
0.0
  0
LINE
  5
95F
330
2
100
AcDbEntity
  8
0
100
AcDbLine
 10
506.547574976894
 20
334.4777180505227
 30
0.0
 11
506.547574976894
 21
301.1817280505227
 31
0.0
  0
LINE
  5
960
330
2
100
AcDbEntity
  8
0
100
AcDbLine
 10
522.0781539768941
 20
300.1817280505227
 30
0.0
 11
537.7009559768939
 21
300.1817280505227
 31
0.0
  0
LINE
  5
961
330
2
100
AcDbEntity
  8
0
100
AcDbLine
 10
521.389554976894
 20
300.9591330505227
 30
0.0
 11
521.389554976894
 21
301.1817280505227
 31
0.0
  0
ARC
  5
962
330
2
100
AcDbEntity
  8
0
100
AcDbCircle
 10
523.289578976894
 20
301.5837360505227
 30
0.0
 40
2.0
100
AcDbArc
 50
198.1949010000006
 51
210.0000000000001
  0
ARC
  5
963
330
2
100
AcDbEntity
  8
0
100
AcDbCircle
 10
522.0781539768941
 20
300.6817280505227
 30
0.0
 40
0.5
100
AcDbArc
 50
210.0000000000001
 51
270.0
  0
LINE
  5
964
330
2
100
AcDbEntity
  8
0
100
AcDbLine
 10
521.645169976894
 20
300.4317280505227
 30
0.0
 11
521.5575849768939
 21
300.5837360505227
 31
0.0
  0
ARC
  5
965
330
2
100
AcDbEntity
  8
0
100
AcDbCircle
 10
515.3185709768941
 20
294.6817280505227
 30
0.0
 40
7.500003999999999
100
AcDbArc
 50
0.0
 51
19.47120999999928
  0
LINE
  5
966
330
2
100
AcDbEntity
  8
0
100
AcDbLine
 10
522.389554976894
 20
297.1817280505227
 30
0.0
 11
522.389554976894
 21
300.1817280505227
 31
0.0
  0
LINE
  5
967
330
2
100
AcDbEntity
  8
0
100
AcDbLine
 10
520.389554976894
 20
297.1817280505227
 30
0.0
 11
522.389554976894
 21
297.1817280505227
 31
0.0
  0
LINE
  5
968
330
2
100
AcDbEntity
  8
0
100
AcDbLine
 10
538.389554976894
 20
300.9591330505227
 30
0.0
 11
538.389554976894
 21
301.1817280505227
 31
0.0
  0
ARC
  5
969
330
2
100
AcDbEntity
  8
0
100
AcDbCircle
 10
536.489530976894
 20
301.5837360505227
 30
0.0
 40
2.0
100
AcDbArc
 50
329.9999999999998
 51
341.8051299999993
  0
ARC
  5
96A
330
2
100
AcDbEntity
  8
0
100
AcDbCircle
 10
537.7009559768939
 20
300.6817280505227
 30
0.0
 40
0.5
100
AcDbArc
 50
270.0
 51
329.9999999999998
  0
LINE
  5
96B
330
2
100
AcDbEntity
  8
0
100
AcDbLine
 10
538.133939976894
 20
300.4317280505227
 30
0.0
 11
538.2215249768941
 21
300.5837360505227
 31
0.0
  0
LINE
  5
96C
330
2
100
AcDbEntity
  8
HIDS
100
AcDbLine
 10
501.889554976894
 20
369.6817280505228
 30
0.0
 11
501.889554976894
 21
349.6817280505227
 31
0.0
  0
ARC
  5
96D
330
2
100
AcDbEntity
  8
0
100
AcDbCircle
 10
506.547574976894
 20
345.4777180505227
 30
0.0
 40
11.0
100
AcDbArc
 50
244.2823030000003
 51
291.0752870000003
  0
LINE
  5
96E
330
2
100
AcDbEntity
  8
0
100
AcDbLine
 10
515.5221839768939
 20
336.6817280505228
 30
0.0
 11
497.976773976894
 21
336.6817280505228
 31
0.0
  0
ARC
  5
96F
330
2
100
AcDbEntity
  8
0
100
AcDbCircle
 10
506.547574976894
 20
337.8857380505227
 30
0.0
 40
11.0
100
AcDbArc
 50
68.92466700000015
 51
115.7176969999996
  0
LINE
  5
970
330
2
100
AcDbEntity
  8
0
100
AcDbLine
 10
515.5221839768939
 20
346.6817280505228
 30
0.0
 11
497.976773976894
 21
346.6817280505228
 31
0.0
  0
LINE
  5
971
330
2
100
AcDbEntity
  8
0
100
AcDbLine
 10
501.774381976894
 20
335.5673180505228
 30
0.0
 11
500.797330976894
 21
336.0379290505227
 31
0.0
  0
ARC
  5
972
330
2
100
AcDbEntity
  8
0
100
AcDbCircle
 10
497.976773976894
 20
330.1817280505227
 30
0.0
 40
6.5
100
AcDbArc
 50
64.28227200000034
 51
90.0
  0
LINE
  5
973
330
2
100
AcDbEntity
  8
0
100
AcDbLine
 10
501.774381976894
 20
347.7961380505226
 30
0.0
 11
500.797330976894
 21
347.3255270505227
 31
0.0
  0
ARC
  5
974
330
2
100
AcDbEntity
  8
0
100
AcDbCircle
 10
497.976773976894
 20
353.1817280505228
 30
0.0
 40
6.5
100
AcDbArc
 50
270.0
 51
295.7177279999996
  0
ARC
  5
975
330
2
100
AcDbEntity
  8
0
100
AcDbCircle
 10
515.5221839768939
 20
330.1817280505227
 30
0.0
 40
6.5
100
AcDbArc
 50
90.0
 51
111.075302
  0
LINE
  5
976
330
2
100
AcDbEntity
  8
0
100
AcDbLine
 10
513.184781976894
 20
336.2469140505228
 30
0.0
 11
510.503140976894
 21
335.2135270505227
 31
0.0
  0
ARC
  5
977
330
2
100
AcDbEntity
  8
0
100
AcDbCircle
 10
515.5221839768939
 20
353.1817280505228
 30
0.0
 40
6.5
100
AcDbArc
 50
248.9246979999998
 51
270.0
  0
LINE
  5
978
330
2
100
AcDbEntity
  8
0
100
AcDbLine
 10
513.184781976894
 20
347.1165420505227
 30
0.0
 11
510.503140976894
 21
348.1499290505226
 31
0.0
  0
LINE
  5
979
330
2
100
AcDbEntity
  8
0
100
AcDbLine
 10
682.3633709768941
 20
163.1904488457759
 30
0.0
 11
663.9449749768941
 21
163.1904488457759
 31
0.0
  0
LINE
  5
97A
330
2
100
AcDbEntity
  8
0
100
AcDbLine
 10
682.3633709768941
 20
102.6924628457758
 30
0.0
 11
663.9449749768941
 21
102.6924628457758
 31
0.0
  0
LINE
  5
97B
330
2
100
AcDbEntity
  8
0
100
AcDbLine
 10
680.480924976894
 20
170.9414558457759
 30
0.0
 11
663.9449749768941
 21
170.9414558457759
 31
0.0
  0
LINE
  5
980
330
2
100
AcDbEntity
  8
0
100
AcDbLine
 10
663.9449749768941
 20
163.1904488457759
 30
0.0
 11
590.889554976894
 21
163.1904488457759
 31
0.0
  0
LINE
  5
981
330
2
100
AcDbEntity
  8
0
100
AcDbLine
 10
663.9449749768941
 20
102.6924628457758
 30
0.0
 11
590.889554976894
 21
102.6924628457758
 31
0.0
  0
LINE
  5
982
330
2
100
AcDbEntity
  8
0
100
AcDbLine
 10
663.9449749768941
 20
170.9414558457759
 30
0.0
 11
592.248380976894
 21
170.9414558457759
 31
0.0
  0
LINE
  5
983
330
2
100
AcDbEntity
  8
0
100
AcDbLine
 10
581.889554976894
 20
146.4414558457759
 30
0.0
 11
581.889554976894
 21
119.4414558457759
 31
0.0
  0
LINE
  5
984
330
2
100
AcDbEntity
  8
0
100
AcDbLine
 10
586.889554976894
 20
122.2698558457759
 30
0.0
 11
586.889554976894
 21
143.6130558457759
 31
0.0
  0
ARC
  5
985
330
2
100
AcDbEntity
  8
0
100
AcDbCircle
 10
559.889554976894
 20
119.4414558457759
 30
0.0
 40
22.0
100
AcDbArc
 50
345.5224900000004
 51
0.0
  0
ARC
  5
986
330
2
100
AcDbEntity
  8
0
100
AcDbCircle
 10
579.6633589768941
 20
116.4414558457759
 30
0.0
 40
2.0
100
AcDbArc
 50
270.0
 51
351.3731079999995
  0
LINE
  5
987
330
2
100
AcDbEntity
  8
0
100
AcDbLine
 10
567.0137619768941
 20
102.6352428457758
 30
0.0
 11
569.0137619768941
 21
101.8954658457759
 31
0.0
  0
LINE
  5
988
330
2
100
AcDbEntity
  8
0
100
AcDbLine
 10
576.371182976894
 20
113.7430608457759
 30
0.0
 11
567.371182976894
 21
103.2430608457759
 31
0.0
  0
ARC
  5
989
330
2
100
AcDbEntity
  8
0
100
AcDbCircle
 10
568.889554976894
 20
101.9414558457759
 30
0.0
 40
2.0
100
AcDbArc
 50
139.3986970000003
 51
180.0
  0
LINE
  5
98A
330
2
100
AcDbEntity
  8
0
100
AcDbLine
 10
577.290982976894
 20
111.7430608457759
 30
0.0
 11
569.371182976894
 21
102.5032538457759
 31
0.0
  0
ARC
  5
98B
330
2
100
AcDbEntity
  8
0
100
AcDbCircle
 10
579.254544976894
 20
114.4414558457759
 30
0.0
 40
2.0
100
AcDbArc
 50
270.0
 51
345.5224909999996
  0
LINE
  5
98C
330
2
100
AcDbEntity
  8
0
100
AcDbLine
 10
578.809354976894
 20
112.4414558457759
 30
0.0
 11
579.254544976894
 21
112.4414558457759
 31
0.0
  0
LINE
  5
98D
330
2
100
AcDbEntity
  8
0
100
AcDbLine
 10
577.889554976894
 20
114.4414558457759
 30
0.0
 11
579.6633589768941
 21
114.4414558457759
 31
0.0
  0
LINE
  5
98E
330
2
100
AcDbEntity
  8
0
100
AcDbLine
 10
577.053983976894
 20
114.2584418457759
 30
0.0
 11
577.973783976894
 21
112.2584418457759
 31
0.0
  0
ARC
  5
98F
330
2
100
AcDbEntity
  8
0
100
AcDbCircle
 10
577.889554976894
 20
112.4414558457759
 30
0.0
 40
2.0
100
AcDbArc
 50
90.0
 51
139.3986970000003
  0
ARC
  5
990
330
2
100
AcDbEntity
  8
0
100
AcDbCircle
 10
578.809354976894
 20
110.4414558457759
 30
0.0
 40
2.0
100
AcDbArc
 50
90.0
 51
139.3986970000003
  0
ARC
  5
991
330
2
100
AcDbEntity
  8
0
100
AcDbCircle
 10
588.889554976894
 20
122.2698558457759
 30
0.0
 40
2.0
100
AcDbArc
 50
180.0
 51
225.0
  0
LINE
  5
992
330
2
100
AcDbEntity
  8
0
100
AcDbLine
 10
587.475369976894
 20
120.8556708457759
 30
0.0
 11
590.303739976894
 21
118.0272408457759
 31
0.0
  0
ARC
  5
993
330
2
100
AcDbEntity
  8
0
100
AcDbCircle
 10
588.889554976894
 20
116.6130558457759
 30
0.0
 40
2.0
100
AcDbArc
 50
0.0
 51
45.0
  0
CIRCLE
  5
994
330
2
100
AcDbEntity
  8
HOJO
100
AcDbCircle
 10
583.889554976894
 20
166.4414558457759
 30
0.0
 40
4.0
  0
CIRCLE
  5
995
330
2
100
AcDbEntity
  8
0
100
AcDbCircle
 10
583.889554976894
 20
166.4414558457759
 30
0.0
 40
3.399999999999999
  0
ARC
  5
996
330
2
100
AcDbEntity
  8
0
100
AcDbCircle
 10
559.889554976894
 20
146.4414558457759
 30
0.0
 40
22.0
100
AcDbArc
 50
0.0
 51
14.47750999999959
  0
ARC
  5
997
330
2
100
AcDbEntity
  8
0
100
AcDbCircle
 10
579.6633589768941
 20
149.4414558457759
 30
0.0
 40
2.0
100
AcDbArc
 50
8.626927000000565
 51
90.0
  0
ARC
  5
998
330
2
100
AcDbEntity
  8
0
100
AcDbCircle
 10
583.889554976894
 20
166.4414558457759
 30
0.0
 40
7.0
100
AcDbArc
 50
0.0
 51
132.6358950000002
  0
LINE
  5
99A
330
2
100
AcDbEntity
  8
0
100
AcDbLine
 10
576.371182976894
 20
152.1398508457759
 30
0.0
 11
567.371182976894
 21
162.6398508457759
 31
0.0
  0
LINE
  5
99B
330
2
100
AcDbEntity
  8
0
100
AcDbLine
 10
577.290982976894
 20
154.1398508457759
 30
0.0
 11
569.371182976894
 21
163.3796578457759
 31
0.0
  0
LINE
  5
99C
330
2
100
AcDbEntity
  8
0
100
AcDbLine
 10
577.053983976894
 20
151.6244698457759
 30
0.0
 11
577.973783976894
 21
153.6244698457759
 31
0.0
  0
ARC
  5
99D
330
2
100
AcDbEntity
  8
0
100
AcDbCircle
 10
577.889554976894
 20
153.4414558457759
 30
0.0
 40
2.0
100
AcDbArc
 50
220.6013029999997
 51
270.0
  0
LINE
  5
99E
330
2
100
AcDbEntity
  8
0
100
AcDbLine
 10
577.889554976894
 20
151.4414558457759
 30
0.0
 11
579.6633589768941
 21
151.4414558457759
 31
0.0
  0
ARC
  5
99F
330
2
100
AcDbEntity
  8
0
100
AcDbCircle
 10
579.254544976894
 20
151.4414558457759
 30
0.0
 40
2.0
100
AcDbArc
 50
14.47750999999959
 51
90.0
  0
LINE
  5
9A0
330
2
100
AcDbEntity
  8
0
100
AcDbLine
 10
578.809354976894
 20
153.4414558457759
 30
0.0
 11
579.254544976894
 21
153.4414558457759
 31
0.0
  0
ARC
  5
9A1
330
2
100
AcDbEntity
  8
0
100
AcDbCircle
 10
578.809354976894
 20
155.4414558457759
 30
0.0
 40
2.0
100
AcDbArc
 50
220.6013029999997
 51
270.0
  0
LINE
  5
9A2
330
2
100
AcDbEntity
  8
0
100
AcDbLine
 10
567.0137619768941
 20
163.2476688457759
 30
0.0
 11
569.0137619768941
 21
163.9874458457759
 31
0.0
  0
ARC
  5
9A3
330
2
100
AcDbEntity
  8
0
100
AcDbCircle
 10
559.889554976894
 20
146.4414558457759
 30
0.0
 40
22.0
100
AcDbArc
 50
69.51268799999965
 51
90.0
  0
ARC
  5
9A4
330
2
100
AcDbEntity
  8
0
100
AcDbCircle
 10
564.4889809768939
 20
163.4414558457759
 30
0.0
 40
10.0
100
AcDbArc
 50
67.66835799999981
 51
90.0
  0
ARC
  5
9A5
330
2
100
AcDbEntity
  8
0
100
AcDbCircle
 10
564.889554976894
 20
165.8064458457759
 30
0.0
 40
2.0
100
AcDbArc
 50
0.0
 51
75.52249099999959
  0
ARC
  5
9A6
330
2
100
AcDbEntity
  8
0
100
AcDbCircle
 10
568.889554976894
 20
163.9414558457759
 30
0.0
 40
2.0
100
AcDbArc
 50
180.0
 51
220.6013029999997
  0
LINE
  5
9A7
330
2
100
AcDbEntity
  8
0
100
AcDbLine
 10
566.889554976894
 20
163.9414558457759
 30
0.0
 11
566.889554976894
 21
165.8064458457759
 31
0.0
  0
ARC
  5
9A8
330
2
100
AcDbEntity
  8
0
100
AcDbCircle
 10
556.889554976894
 20
144.9414558457759
 30
0.0
 40
30.0
100
AcDbArc
 50
59.6417009999995
 51
67.66835799999981
  0
ARC
  5
9A9
330
2
100
AcDbEntity
  8
0
100
AcDbCircle
 10
575.084134976894
 20
176.0052678457759
 30
0.0
 40
6.0
100
AcDbArc
 50
239.6416930000005
 51
312.6358950000003
  0
ARC
  5
9AA
330
2
100
AcDbEntity
  8
0
100
AcDbCircle
 10
566.889554976894
 20
165.1764408457759
 30
0.0
 40
2.0
100
AcDbArc
 50
0.0
 51
69.51268799999965
  0
ARC
  5
9AB
330
2
100
AcDbEntity
  8
0
100
AcDbCircle
 10
570.889554976894
 20
164.6812628457759
 30
0.0
 40
2.0
100
AcDbArc
 50
180.0
 51
220.6013029999997
  0
LINE
  5
9AC
330
2
100
AcDbEntity
  8
0
100
AcDbLine
 10
568.889554976894
 20
164.6812628457759
 30
0.0
 11
568.889554976894
 21
165.1764408457759
 31
0.0
  0
LINE
  5
9AE
330
2
100
AcDbEntity
  8
0
100
AcDbLine
 10
590.889554976894
 20
166.4414558457759
 30
0.0
 11
590.889554976894
 21
149.2698558457759
 31
0.0
  0
LINE
  5
9AF
330
2
100
AcDbEntity
  8
0
100
AcDbLine
 10
587.475369976894
 20
145.0272408457759
 30
0.0
 11
590.303739976894
 21
147.8556708457759
 31
0.0
  0
ARC
  5
9B0
330
2
100
AcDbEntity
  8
0
100
AcDbCircle
 10
588.889554976894
 20
143.6130558457759
 30
0.0
 40
2.0
100
AcDbArc
 50
135.0
 51
180.0
  0
ARC
  5
9B1
330
2
100
AcDbEntity
  8
0
100
AcDbCircle
 10
588.889554976894
 20
149.2698558457759
 30
0.0
 40
2.0
100
AcDbArc
 50
315.0
 51
0.0
  0
LINE
  5
9B2
330
2
100
AcDbEntity
  8
0
100
AcDbLine
 10
591.553128976894
 20
171.0660588457758
 30
0.0
 11
586.322537976894
 21
173.0050548457759
 31
0.0
  0
ARC
  5
9B3
330
2
100
AcDbEntity
  8
0
100
AcDbCircle
 10
592.248380976894
 20
172.9414558457759
 30
0.0
 40
2.0
100
AcDbArc
 50
249.661301
 51
270.0
  0
ARC
  5
9B9
330
2
100
AcDbEntity
  8
0
100
AcDbCircle
 10
680.480924976894
 20
167.9414558457759
 30
0.0
 40
3.0
100
AcDbArc
 50
29.99959899999903
 51
90.0
  0
LINE
  5
9BB
330
2
100
AcDbEntity
  8
0
100
AcDbLine
 10
683.0791299768939
 20
169.4414558457759
 30
0.0
 11
683.944974976894
 21
167.9414558457759
 31
0.0
  0
LINE
  5
9BC
330
2
100
AcDbEntity
  8
0
100
AcDbLine
 10
684.4449749768941
 20
164.9414558457759
 30
0.0
 11
683.944974976894
 21
165.4414558457759
 31
0.0
  0
LINE
  5
9BE
330
2
100
AcDbEntity
  8
0
100
AcDbLine
 10
680.480924976894
 20
303.6817280505227
 30
0.0
 11
663.9449749768941
 21
303.6817280505227
 31
0.0
  0
LINE
  5
9BF
330
2
100
AcDbEntity
  8
0
100
AcDbLine
 10
680.480924976894
 20
379.6817280505227
 30
0.0
 11
663.9449749768941
 21
379.6817280505227
 31
0.0
  0
LINE
  5
9C0
330
2
100
AcDbEntity
  8
0
100
AcDbLine
 10
682.3633709768941
 20
318.6817280505227
 30
0.0
 11
672.945074976894
 21
318.6817280505227
 31
0.0
  0
LINE
  5
9C1
330
2
100
AcDbEntity
  8
0
100
AcDbLine
 10
682.3633709768941
 20
364.6817280505227
 30
0.0
 11
672.945074976894
 21
364.6817280505227
 31
0.0
  0
LINE
  5
9C6
330
2
100
AcDbEntity
  8
HIDS
100
AcDbLine
 10
588.139554976894
 20
369.6817280505228
 30
0.0
 11
588.139554976894
 21
382.1817280505228
 31
0.0
  0
LINE
  5
9C7
330
2
100
AcDbEntity
  8
HIDS
100
AcDbLine
 10
579.639554976894
 20
369.6817280505228
 30
0.0
 11
579.639554976894
 21
382.1817280505228
 31
0.0
  0
LINE
  5
9C8
330
2
100
AcDbEntity
  8
0
100
AcDbLine
 10
663.9449749768941
 20
366.6817280505227
 30
0.0
 11
663.9449749768941
 21
379.6817280505227
 31
0.0
  0
LINE
  5
9C9
330
2
100
AcDbEntity
  8
0
100
AcDbLine
 10
575.2315349768941
 20
382.1817280505228
 30
0.0
 11
575.2315349768941
 21
348.8857380505227
 31
0.0
  0
LINE
  5
9CA
330
2
100
AcDbEntity
  8
0
100
AcDbLine
 10
566.256925976894
 20
382.1817280505228
 30
0.0
 11
566.256925976894
 21
346.6817280505228
 31
0.0
  0
LINE
  5
9CB
330
2
100
AcDbEntity
  8
0
100
AcDbLine
 10
590.1825849768939
 20
382.1817280505228
 30
0.0
 11
590.488126976894
 21
364.6817280505227
 31
0.0
  0
LINE
  5
9CC
330
2
100
AcDbEntity
  8
0
100
AcDbLine
 10
591.889554976894
 20
379.0609390505227
 30
0.0
 11
591.889554976894
 21
369.6817280505228
 31
0.0
  0
LINE
  5
9CD
330
2
100
AcDbEntity
  8
CENTER
100
AcDbLine
 10
583.889554976894
 20
297.8227190505227
 30
0.0
 11
583.889554976894
 21
385.4979510505228
 31
0.0
  0
LINE
  5
9CE
330
2
100
AcDbEntity
  8
0
100
AcDbLine
 10
622.945165976894
 20
318.6817280505227
 30
0.0
 11
587.8863809768939
 21
318.6817280505227
 31
0.0
  0
LINE
  5
9CF
330
2
100
AcDbEntity
  8
0
100
AcDbLine
 10
622.945165976894
 20
364.6817280505227
 30
0.0
 11
587.8863809768939
 21
364.6817280505227
 31
0.0
  0
LINE
  5
9D0
330
2
100
AcDbEntity
  8
0
100
AcDbLine
 10
592.191739976894
 20
303.6817280505227
 30
0.0
 11
663.9449749768941
 21
303.6817280505227
 31
0.0
  0
LINE
  5
9D1
330
2
100
AcDbEntity
  8
HIDS
100
AcDbLine
 10
587.889554976894
 20
301.1817280505227
 30
0.0
 11
587.889554976894
 21
333.6817280505227
 31
0.0
  0
LINE
  5
9D2
330
2
100
AcDbEntity
  8
HIDS
100
AcDbLine
 10
579.889554976894
 20
301.1817280505227
 30
0.0
 11
579.889554976894
 21
333.6817280505227
 31
0.0
  0
LINE
  5
9D3
330
2
100
AcDbEntity
  8
HIDS
100
AcDbLine
 10
587.289578976894
 20
369.6817280505228
 30
0.0
 11
587.289578976894
 21
301.1817280505227
 31
0.0
  0
LINE
  5
9D4
330
2
100
AcDbEntity
  8
HIDS
100
AcDbLine
 10
580.489530976894
 20
369.6817280505228
 30
0.0
 11
580.489530976894
 21
301.1817280505227
 31
0.0
  0
LINE
  5
9D5
330
2
100
AcDbEntity
  8
0
100
AcDbLine
 10
575.2315349768941
 20
334.4777180505227
 30
0.0
 11
575.2315349768941
 21
301.1817280505227
 31
0.0
  0
LINE
  5
9D6
330
2
100
AcDbEntity
  8
0
100
AcDbLine
 10
566.256925976894
 20
336.6817280505228
 30
0.0
 11
566.256925976894
 21
301.1817280505227
 31
0.0
  0
LINE
  5
9D7
330
2
100
AcDbEntity
  8
0
100
AcDbLine
 10
586.322537976894
 20
341.6817280505227
 30
0.0
 11
585.8867469768941
 21
316.7167320505227
 31
0.0
  0
LINE
  5
9D8
330
2
100
AcDbEntity
  8
0
100
AcDbLine
 10
591.889554976894
 20
364.6817280505227
 30
0.0
 11
591.889554976894
 21
318.6817280505227
 31
0.0
  0
LINE
  5
9D9
330
2
100
AcDbEntity
  8
0
100
AcDbLine
 10
590.1825849768939
 20
301.1817280505227
 30
0.0
 11
590.488126976894
 21
318.6817280505227
 31
0.0
  0
ARC
  5
9DA
330
2
100
AcDbEntity
  8
0
100
AcDbCircle
 10
592.191739976894
 20
301.6817280505227
 30
0.0
 40
2.0
100
AcDbArc
 50
90.0
 51
178.9999999999998
  0
ARC
  5
9DB
330
2
100
AcDbEntity
  8
0
100
AcDbCircle
 10
587.8863809768939
 20
316.6817280505227
 30
0.0
 40
2.0
100
AcDbArc
 50
90.0
 51
178.9999999999998
  0
LINE
  5
9DC
330
2
100
AcDbEntity
  8
HIDS
100
AcDbLine
 10
579.889554976894
 20
333.6817280505227
 30
0.0
 11
587.889554976894
 21
333.6817280505227
 31
0.0
  0
LINE
  5
9DD
330
2
100
AcDbEntity
  8
HIDS
100
AcDbLine
 10
579.889554976894
 20
349.6817280505227
 30
0.0
 11
587.889554976894
 21
349.6817280505227
 31
0.0
  0
ARC
  5
9DE
330
2
100
AcDbEntity
  8
0
100
AcDbCircle
 10
583.802335976894
 20
330.1817280505227
 30
0.0
 40
6.5
100
AcDbArc
 50
90.0
 51
115.7176969999996
  0
LINE
  5
9DF
330
2
100
AcDbEntity
  8
0
100
AcDbLine
 10
566.256925976894
 20
336.6817280505228
 30
0.0
 11
583.802335976894
 21
336.6817280505228
 31
0.0
  0
ARC
  5
9E0
330
2
100
AcDbEntity
  8
0
100
AcDbCircle
 10
583.802335976894
 20
353.1817280505228
 30
0.0
 40
6.5
100
AcDbArc
 50
244.2823030000003
 51
270.0
  0
LINE
  5
9E1
330
2
100
AcDbEntity
  8
0
100
AcDbLine
 10
566.256925976894
 20
346.6817280505228
 30
0.0
 11
583.802335976894
 21
346.6817280505228
 31
0.0
  0
LINE
  5
9E2
330
2
100
AcDbEntity
  8
HIDS
100
AcDbLine
 10
579.889554976894
 20
369.6817280505228
 30
0.0
 11
579.889554976894
 21
349.6817280505227
 31
0.0
  0
ARC
  5
9E3
330
2
100
AcDbEntity
  8
0
100
AcDbCircle
 10
566.256925976894
 20
330.1817280505227
 30
0.0
 40
6.5
100
AcDbArc
 50
68.92466700000015
 51
90.0
  0
ARC
  5
9E4
330
2
100
AcDbEntity
  8
0
100
AcDbCircle
 10
566.256925976894
 20
353.1817280505228
 30
0.0
 40
6.5
100
AcDbArc
 50
270.0
 51
291.0752870000003
  0
ARC
  5
9E5
330
2
100
AcDbEntity
  8
0
100
AcDbCircle
 10
575.2315349768941
 20
345.4777180505227
 30
0.0
 40
11.0
100
AcDbArc
 50
248.9246979999998
 51
295.7177279999996
  0
LINE
  5
9E6
330
2
100
AcDbEntity
  8
0
100
AcDbLine
 10
568.5943279768941
 20
336.2469140505228
 30
0.0
 11
571.2759689768939
 21
335.2135270505227
 31
0.0
  0
LINE
  5
9E7
330
2
100
AcDbEntity
  8
0
100
AcDbLine
 10
580.004727976894
 20
335.5673180505228
 30
0.0
 11
580.981778976894
 21
336.0379290505227
 31
0.0
  0
ARC
  5
9E8
330
2
100
AcDbEntity
  8
0
100
AcDbCircle
 10
575.2315349768941
 20
337.8857380505227
 30
0.0
 40
11.0
100
AcDbArc
 50
64.28227200000034
 51
111.075302
  0
LINE
  5
9E9
330
2
100
AcDbEntity
  8
0
100
AcDbLine
 10
568.5943279768941
 20
347.1165420505227
 30
0.0
 11
571.2759689768939
 21
348.1499290505226
 31
0.0
  0
LINE
  5
9EA
330
2
100
AcDbEntity
  8
0
100
AcDbLine
 10
580.004727976894
 20
347.7961380505226
 30
0.0
 11
580.981778976894
 21
347.3255270505227
 31
0.0
  0
LINE
  5
9EB
330
2
100
AcDbEntity
  8
HIDS
100
AcDbLine
 10
587.889554976894
 20
369.6817280505228
 30
0.0
 11
587.889554976894
 21
349.6817280505227
 31
0.0
  0
LINE
  5
9EC
330
2
100
AcDbEntity
  8
0
100
AcDbLine
 10
586.322537976894
 20
341.6817280505227
 30
0.0
 11
585.8867469768941
 21
366.6467240505227
 31
0.0
  0
ARC
  5
9ED
330
2
100
AcDbEntity
  8
0
100
AcDbCircle
 10
587.8863809768939
 20
366.6817280505227
 30
0.0
 40
2.0
100
AcDbArc
 50
181.0000000000001
 51
270.0
  0
LINE
  5
9EE
330
2
100
AcDbEntity
  8
0
100
AcDbLine
 10
663.9449749768941
 20
303.6817280505227
 30
0.0
 11
663.9449749768941
 21
316.6817280505227
 31
0.0
  0
LINE
  5
9F3
330
2
100
AcDbEntity
  8
0
100
AcDbLine
 10
593.3379799768941
 20
379.6817280505227
 30
0.0
 11
663.9449749768941
 21
379.6817280505227
 31
0.0
  0
ARC
  5
9F4
330
2
100
AcDbEntity
  8
0
100
AcDbCircle
 10
593.3379799768941
 20
377.6817280505227
 30
0.0
 40
2.0
100
AcDbArc
 50
90.0
 51
136.3988040000003
  0
LINE
  5
9F5
330
2
100
AcDbEntity
  8
0
100
AcDbLine
 10
683.944974976894
 20
376.6817280505228
 30
0.0
 11
683.944974976894
 21
306.6817280505227
 31
0.0
  0
LINE
  5
9F6
330
2
100
AcDbEntity
  8
0
100
AcDbLine
 10
684.4449749768941
 20
373.6817280505228
 30
0.0
 11
684.4449749768941
 21
309.6817280505227
 31
0.0
  0
ARC
  5
9F7
330
2
100
AcDbEntity
  8
0
100
AcDbCircle
 10
680.480924976894
 20
306.6817280505227
 30
0.0
 40
3.0
100
AcDbArc
 50
270.0
 51
330.0003970000009
  0
LINE
  5
9F8
330
2
100
AcDbEntity
  8
0
100
AcDbLine
 10
683.0791299768939
 20
305.1817280505227
 30
0.0
 11
683.944974976894
 21
306.6817280505227
 31
0.0
  0
LINE
  5
9F9
330
2
100
AcDbEntity
  8
0
100
AcDbLine
 10
684.4449749768941
 20
309.6817280505227
 30
0.0
 11
683.944974976894
 21
309.1817280505227
 31
0.0
  0
ARC
  5
9FE
330
2
100
AcDbEntity
  8
0
100
AcDbCircle
 10
680.480924976894
 20
376.6817280505228
 30
0.0
 40
3.0
100
AcDbArc
 50
29.99959899999903
 51
90.0
  0
LINE
  5
9FF
330
2
100
AcDbEntity
  8
0
100
AcDbLine
 10
683.0791299768939
 20
378.1817280505228
 30
0.0
 11
683.944974976894
 21
376.6817280505228
 31
0.0
  0
LINE
  5
A00
330
2
100
AcDbEntity
  8
0
100
AcDbLine
 10
684.4449749768941
 20
373.6817280505228
 30
0.0
 11
683.944974976894
 21
374.1817280505228
 31
0.0
  0
SPLINE
  5
A01
330
2
100
AcDbEntity
  8
HOJO
100
AcDbSpline
210
0.0
220
0.0
230
1.0
 70
     8
 71
     3
 72
    27
 73
    23
 74
    21
 42
0.0000000001
 43
0.0000000001
 44
0.0000000001
 40
0.0
 40
0.0
 40
0.0
 40
0.0
 40
3.539268772771754
 40
7.287513562995795
 40
11.09046033223702
 40
14.62599423816976
 40
18.69227008921793
 40
22.26802890950275
 40
26.82672101949673
 40
31.55579532198596
 40
36.28066624743832
 40
40.14414690074357
 40
45.4800328401602
 40
49.44095400921195
 40
54.14226030623293
 40
58.62868909724451
 40
62.78426171223562
 40
66.26314687902698
 40
70.60953379849483
 40
74.30511416613953
 40
78.24621988074818
 40
82.00437648752254
 40
82.00437648752254
 40
82.00437648752254
 40
82.00437648752254
 10
295.0737074322041
 20
107.5594686478231
 30
0.0
 10
296.2527737979535
 20
107.3937696262447
 30
0.0
 10
298.6805244672933
 20
107.0525878893792
 30
0.0
 10
302.3364049532042
 20
108.1985431340138
 30
0.0
 10
306.0228420477753
 20
106.9389677913834
 30
0.0
 10
309.7753123557708
 20
108.38894881693
 30
0.0
 10
313.481665797507
 20
106.8298195714965
 30
0.0
 10
317.4820836135799
 20
108.4563560590371
 30
0.0
 10
321.763021012235
 20
106.8073194758682
 30
0.0
 10
326.3787150103703
 20
108.6752114665874
 30
0.0
 10
330.8003127268784
 20
106.8671271376499
 30
0.0
 10
335.3558833317094
 20
108.7010817969077
 30
0.0
 10
339.7599841106145
 20
106.8924346898115
 30
0.0
 10
344.3466047405606
 20
108.9314376002212
 30
0.0
 10
348.6613259951591
 20
106.5130479828451
 30
0.0
 10
353.0291533332641
 20
109.103695744502
 30
0.0
 10
356.9908090976654
 20
106.558427406536
 30
0.0
 10
360.8363855648448
 20
108.9966273041868
 30
0.0
 10
364.6517876978988
 20
106.6882907260001
 30
0.0
 10
368.5569017849979
 20
108.8149813355555
 30
0.0
 10
372.2894849569681
 20
106.9688200095835
 30
0.0
 10
374.8324417696681
 20
107.6535929372117
 30
0.0
 10
376.0737074322041
 20
107.9878436478231
 30
0.0
 11
295.0737074322041
 21
107.5594686478231
 31
0.0
 11
298.6048964322042
 21
107.3204546478231
 31
0.0
 11
302.3237074322041
 21
107.7892656478231
 31
0.0
 11
306.1048964322042
 21
107.3830466478231
 31
0.0
 11
309.6048964322042
 21
107.8830466478231
 31
0.0
 11
313.6362994322041
 21
107.3516436478232
 31
0.0
 11
317.1675184322041
 21
107.9142656478231
 31
0.0
 11
321.6987074322041
 21
107.4142656478231
 31
0.0
 11
326.3862994322041
 21
108.0392656478231
 31
0.0
 11
331.0737074322041
 21
107.4454546478231
 31
0.0
 11
334.8862994322041
 21
108.0704546478231
 31
0.0
 11
340.1987074322041
 21
107.5704546478231
 31
0.0
 11
344.1048964322042
 21
108.2266436478232
 31
0.0
 11
348.7298964322042
 21
107.3830466478231
 31
0.0
 11
353.1362994322041
 21
108.2266436478232
 31
0.0
 11
357.1987074322041
 21
107.3516436478232
 31
0.0
 11
360.5737074322041
 21
108.1954546478231
 31
0.0
 11
364.8548964322042
 21
107.4454546478231
 31
0.0
 11
368.4798964322042
 21
108.1642656478231
 31
0.0
 11
372.3548964322042
 21
107.4454546478231
 31
0.0
 11
376.0737074322041
 21
107.9878436478231
 31
0.0
  0
LINE
  5
FE0
330
2
100
AcDbEntity
  8
CENTER
100
AcDbLine
 10
591.8681929768941
 20
166.4414558457759
 30
0.0
 11
575.9109169768939
 21
166.4414558457759
 31
0.0
  0
LINE
  5
FE1
330
2
100
AcDbEntity
  8
CENTER
100
AcDbLine
 10
583.889554976894
 20
174.4200938457758
 30
0.0
 11
583.889554976894
 21
158.4628178457759
 31
0.0
  0
LINE
  5
FE2
330
2
100
AcDbEntity
  8
CENTER
100
AcDbLine
 10
497.889554976894
 20
174.4200938457758
 30
0.0
 11
497.889554976894
 21
158.4628178457759
 31
0.0
  0
LINE
  5
FE3
330
2
100
AcDbEntity
  8
CENTER
100
AcDbLine
 10
505.868192976894
 20
166.4414558457759
 30
0.0
 11
489.910916976894
 21
166.4414558457759
 31
0.0
  0
LINE
  5
FE4
330
2
100
AcDbEntity
  8
CENTER
100
AcDbLine
 10
497.889554976894
 20
107.4200938457759
 30
0.0
 11
497.889554976894
 21
91.46281784577594
 31
0.0
  0
LINE
  5
FE5
330
2
100
AcDbEntity
  8
CENTER
100
AcDbLine
 10
505.868192976894
 20
99.44145584577592
 30
0.0
 11
489.910916976894
 21
99.44145584577592
 31
0.0
  0
LINE
  5
FE6
330
2
100
AcDbEntity
  8
CENTER
100
AcDbLine
 10
591.8681929768941
 20
99.44145584577592
 30
0.0
 11
575.9109169768939
 21
99.44145584577592
 31
0.0
  0
LINE
  5
FE7
330
2
100
AcDbEntity
  8
CENTER
100
AcDbLine
 10
583.889554976894
 20
107.4200938457759
 30
0.0
 11
583.889554976894
 21
91.46281784577594
 31
0.0
  0
LINE
  5
13D3
330
2
100
AcDbEntity
  8
CENTER
100
AcDbLine
 10
142.7501101868351
 20
99.44145584577592
 30
0.0
 11
126.792834186835
 21
99.44145584577592
 31
0.0
  0
LINE
  5
13D4
330
2
100
AcDbEntity
  8
CENTER
100
AcDbLine
 10
142.7501101868351
 20
166.4414558457759
 30
0.0
 11
126.792834186835
 21
166.4414558457759
 31
0.0
  0
TEXT
  5
13E0
330
2
100
AcDbEntity
  8
TITLE
100
AcDbText
 10
32.55278381513358
 20
25.10389444724097
 30
0.0
 40
5.0
  1
F2FM-15L-10～120-T40K
 41
0.9
100
AcDbText
  0
TEXT
  5
13E1
330
2
100
AcDbEntity
  8
TITLE
100
AcDbText
 10
32.55278381513358
 20
43.10389444724097
 30
0.0
 40
5.0
  1
F2FM-15L-10～240-T25K
 41
0.9
100
AcDbText
  0
TEXT
  5
13E2
330
2
100
AcDbEntity
  8
TITLE
100
AcDbText
 10
32.55278381513358
 20
34.10389444724097
 30
0.0
 40
5.0
  1
F2FM-15L-10～240-T25WK
 41
0.9
100
AcDbText
  0
TEXT
  5
13E9
330
2
100
AcDbEntity
  8
TITLE
100
AcDbText
 10
32.55278381513358
 20
52.10389444724097
 30
0.0
 40
5.0
  1
F2FM-15L-10～240-T15WK
 41
0.9
100
AcDbText
  0
TEXT
  5
13EA
330
2
100
AcDbEntity
  8
TITLE
100
AcDbText
 10
32.55278381513358
 20
61.10389444724098
 30
0.0
 40
5.0
  1
F2FM-15L-10～240-T15K
 41
0.9
100
AcDbText
  0
LINE
  5
13F2
330
2
100
AcDbEntity
  8
CENTER
100
AcDbLine
 10
134.7714721868351
 20
107.4200938457759
 30
0.0
 11
134.7714721868351
 21
91.46281784577594
 31
0.0
  0
LINE
  5
13F4
330
2
100
AcDbEntity
  8
CENTER
100
AcDbLine
 10
132.2714721868351
 20
103.8691138457759
 30
0.0
 11
132.2714721868351
 21
115.0137978457759
 31
0.0
  0
LINE
  5
13FE
330
2
100
AcDbEntity
  8
CENTER
100
AcDbLine
 10
126.6991301868351
 20
109.4414558457759
 30
0.0
 11
137.843814186835
 21
109.4414558457759
 31
0.0
  0
LINE
  5
1424
330
2
100
AcDbEntity
  8
CENTER
100
AcDbLine
 10
132.2714721868351
 20
150.8691138457759
 30
0.0
 11
132.2714721868351
 21
162.0137978457759
 31
0.0
  0
LINE
  5
142D
330
2
100
AcDbEntity
  8
CENTER
100
AcDbLine
 10
126.6991301868351
 20
156.4414558457759
 30
0.0
 11
137.843814186835
 21
156.4414558457759
 31
0.0
  0
LINE
  5
1438
330
2
100
AcDbEntity
  8
CENTER
100
AcDbLine
 10
134.7714721868351
 20
174.4200938457758
 30
0.0
 11
134.7714721868351
 21
158.4628178457759
 31
0.0
  0
TEXT
  5
1448
330
2
100
AcDbEntity
  8
TITLE
100
AcDbText
 10
136.1936704057129
 20
34.07610393758676
 30
0.0
 40
5.0
  1
F2FM-15L-10～240-S25WK
 41
0.9
100
AcDbText
  0
TEXT
  5
1449
330
2
100
AcDbEntity
  8
TITLE
100
AcDbText
 10
136.1936704057129
 20
43.07610393758676
 30
0.0
 40
5.0
  1
F2FM-15L-10～240-S25K
 41
0.9
100
AcDbText
  0
LINE
  5
1459
330
2
100
AcDbEntity
  8
CENTER
100
AcDbLine
 10
188.7714721868351
 20
102.8345828457759
 30
0.0
 11
188.7714721868351
 21
163.0483288457759
 31
0.0
  0
TEXT
  5
145B
330
2
100
AcDbEntity
  8
TITLE
100
AcDbText
 10
136.1936704057129
 20
61.07610393758676
 30
0.0
 40
5.0
  1
F2FM-15L-10～240-S15K
 41
0.9
100
AcDbText
  0
TEXT
  5
145C
330
2
100
AcDbEntity
  8
TITLE
100
AcDbText
 10
136.1936704057129
 20
52.07610393758677
 30
0.0
 40
5.0
  1
F2FM-15L-10～240-S15WK
 41
0.9
100
AcDbText
  0
LINE
  5
145D
330
2
100
AcDbEntity
  8
CENTER
100
AcDbLine
 10
228.7501101868351
 20
99.44145584577592
 30
0.0
 11
212.792834186835
 21
99.44145584577592
 31
0.0
  0
LINE
  5
145E
330
2
100
AcDbEntity
  8
CENTER
100
AcDbLine
 10
217.6991301868351
 20
109.4414558457759
 30
0.0
 11
228.843814186835
 21
109.4414558457759
 31
0.0
  0
LINE
  5
1466
330
2
100
AcDbEntity
  8
CENTER
100
AcDbLine
 10
220.7714721868351
 20
107.4200938457759
 30
0.0
 11
220.7714721868351
 21
91.46281784577594
 31
0.0
  0
LINE
  5
1474
330
2
100
AcDbEntity
  8
CENTER
100
AcDbLine
 10
223.2714721868351
 20
103.8691138457759
 30
0.0
 11
223.2714721868351
 21
115.0137978457759
 31
0.0
  0
LINE
  5
1498
330
2
100
AcDbEntity
  8
CENTER
100
AcDbLine
 10
228.7501101868351
 20
166.4414558457759
 30
0.0
 11
212.792834186835
 21
166.4414558457759
 31
0.0
  0
LINE
  5
149E
330
2
100
AcDbEntity
  8
CENTER
100
AcDbLine
 10
217.6991301868351
 20
156.4414558457759
 30
0.0
 11
228.843814186835
 21
156.4414558457759
 31
0.0
  0
LINE
  5
14B0
330
2
100
AcDbEntity
  8
CENTER
100
AcDbLine
 10
223.2714721868351
 20
150.8691138457759
 30
0.0
 11
223.2714721868351
 21
162.0137978457759
 31
0.0
  0
LINE
  5
14C9
330
2
100
AcDbEntity
  8
CENTER
100
AcDbLine
 10
220.7714721868351
 20
174.4200938457758
 30
0.0
 11
220.7714721868351
 21
158.4628178457759
 31
0.0
  0
LINE
  5
2E11
330
2
100
AcDbEntity
  8
0
100
AcDbLine
 10
315.4116162482309
 20
217.4414708457759
 30
0.0
 11
355.7357986161774
 21
217.4414708457759
 31
0.0
  0
LINE
  5
2E13
330
2
100
AcDbEntity
  8
0
100
AcDbLine
 10
310.5737074322041
 20
184.4414558457758
 30
0.0
 11
360.5736924322042
 21
184.4414558457758
 31
0.0
  0
LINE
  5
2E14
330
2
100
AcDbEntity
  8
0
100
AcDbLine
 10
310.5737074322041
 20
174.4414558457759
 30
0.0
 11
360.5736924322042
 21
174.4414558457759
 31
0.0
  0
LINE
  5
2E15
330
2
100
AcDbEntity
  8
0
100
AcDbLine
 10
310.5737074322041
 20
185.4414558457758
 30
0.0
 11
360.5736924322042
 21
185.4414558457758
 31
0.0
  0
LINE
  5
2E16
330
2
100
AcDbEntity
  8
0
100
AcDbLine
 10
318.0737074322042
 20
216.4414708457758
 30
0.0
 11
353.0737074322041
 21
216.4414708457758
 31
0.0
  0
LINE
  5
2E17
330
2
100
AcDbEntity
  8
CENTER
100
AcDbLine
 10
305.5301004509956
 20
200.4414558457758
 30
0.0
 11
365.6173144134127
 21
200.4414558457758
 31
0.0
  0
LINE
  5
2E48
330
2
100
AcDbEntity
  8
0
100
AcDbLine
 10
50.55389200286177
 20
217.4414708457758
 30
0.0
 11
90.87807437080883
 21
217.4414708457759
 31
0.0
  0
LINE
  5
2E49
330
2
100
AcDbEntity
  8
0
100
AcDbLine
 10
47.21597618683517
 20
172.4414558457759
 30
0.0
 11
93.71598318683519
 21
172.4414558457759
 31
0.0
  0
LINE
  5
2E4A
330
2
100
AcDbEntity
  8
0
100
AcDbLine
 10
45.71597618683518
 20
184.4414558457759
 30
0.0
 11
95.71598318683518
 21
184.4414558457759
 31
0.0
  0
LINE
  5
2E4B
330
2
100
AcDbEntity
  8
0
100
AcDbLine
 10
45.71597618683518
 20
174.4414558457759
 30
0.0
 11
95.71598318683518
 21
174.4414558457759
 31
0.0
  0
LINE
  5
2E4C
330
2
100
AcDbEntity
  8
0
100
AcDbLine
 10
45.71597618683518
 20
185.4414558457759
 30
0.0
 11
95.71598318683518
 21
185.4414558457759
 31
0.0
  0
LINE
  5
2E4D
330
2
100
AcDbEntity
  8
0
100
AcDbLine
 10
53.21598318683519
 20
216.4414708457759
 30
0.0
 11
88.21598318683516
 21
216.4414708457759
 31
0.0
  0
LINE
  5
2E4E
330
2
100
AcDbEntity
  8
CENTER
100
AcDbLine
 10
40.67237620562667
 20
200.4414558457759
 30
0.0
 11
100.7595901680437
 21
200.4414558457759
 31
0.0
  0
LINE
  5
2E50
330
2
100
AcDbEntity
  8
CENTER
100
AcDbLine
 10
70.71598318683519
 20
166.0519598457759
 30
0.0
 11
70.71598318683519
 21
222.8289708457759
 31
0.0
  0
LINE
  5
2E51
330
2
100
AcDbEntity
  8
0
100
AcDbLine
 10
45.71597618683518
 20
216.4414708457759
 30
0.0
 11
45.71597618683518
 21
174.4414558457759
 31
0.0
  0
LINE
  5
2E52
330
2
100
AcDbEntity
  8
0
100
AcDbLine
 10
47.21597618683517
 20
172.4414558457759
 30
0.0
 11
47.21597618683517
 21
170.9414558457759
 31
0.0
  0
LINE
  5
2E53
330
2
100
AcDbEntity
  8
0
100
AcDbLine
 10
45.71597618683518
 20
174.4414558457759
 30
0.0
 11
47.71597618683517
 21
172.4414558457759
 31
0.0
  0
LINE
  5
2E55
330
2
100
AcDbEntity
  8
0
100
AcDbLine
 10
44.84097618683517
 20
189.9414558457759
 30
0.0
 11
46.84097618683518
 21
189.9414558457759
 31
0.0
  0
LINE
  5
2E56
330
2
100
AcDbEntity
  8
0
100
AcDbLine
 10
48.92848318638005
 20
216.0244708457759
 30
0.0
 11
49.50348318729016
 21
216.0244708457759
 31
0.0
  0
LINE
  5
2E57
330
2
100
AcDbEntity
  8
0
100
AcDbLine
 10
53.21598318683522
 20
214.9414708457759
 30
0.0
 11
45.71598318683519
 21
214.941470845776
 31
0.0
  0
ARC
  5
2E58
330
2
100
AcDbEntity
  8
0
100
AcDbCircle
 10
49.21598318683511
 20
208.541470845776
 30
0.0
 40
9.0
100
AcDbArc
 50
74.11914999171883
 51
105.8808500082811
  0
LINE
  5
2E59
330
2
100
AcDbEntity
  8
0
100
AcDbLine
 10
46.71598318683519
 20
217.4414708457759
 30
0.0
 11
45.71598318683519
 21
216.4414708457759
 31
0.0
  0
SPLINE
  5
2E5A
330
2
100
AcDbEntity
  8
0
100
AcDbSpline
210
0.0
220
0.0
230
1.0
 70
     8
 71
     3
 72
    11
 73
     7
 74
     0
 42
0.0000000001
 43
0.0000000001
 40
0.0
 40
0.0
 40
0.0
 40
0.0
 40
0.4601364636755307
 40
1.04988694485363
 40
1.713742833862792
 40
2.320347933405154
 40
2.320347933405154
 40
2.320347933405154
 40
2.320347933405179
 10
48.92848318638005
 20
216.0244708457759
 30
0.0
 10
48.90606552927221
 20
216.1794942854558
 30
0.0
 10
48.85491547403893
 20
216.5332091033734
 30
0.0
 10
48.41903031250535
 20
216.957936774975
 30
0.0
 10
47.8139795974979
 20
217.1771239549408
 30
0.0
 10
47.38879497332209
 20
217.1081326553302
 30
0.0
 10
47.18624336367099
 20
217.0939123831536
 30
0.0
  0
LINE
  5
2E5B
330
2
100
AcDbEntity
  8
0
100
AcDbLine
 10
47.18624336367099
 20
217.0939123831536
 30
0.0
 11
47.16598318683509
 21
217.3048891286151
 31
0.0
  0
ARC
  5
2E5C
330
2
100
AcDbEntity
  8
0
100
AcDbCircle
 10
47.10897243324228
 20
215.9475835700223
 30
0.0
 40
1.3
100
AcDbArc
 50
105.8808500082811
 51
175.0000000000001
  0
LINE
  5
2E5D
330
2
100
AcDbEntity
  8
0
100
AcDbLine
 10
45.71598318683522
 20
214.941470845776
 30
0.0
 11
45.81391932572302
 21
216.0608860355942
 31
0.0
  0
LINE
  5
2E5E
330
2
100
AcDbEntity
  8
0
100
AcDbLine
 10
47.87807437080866
 20
217.4414708457759
 30
0.0
 11
46.71598318683519
 21
217.4414708457759
 31
0.0
  0
LINE
  5
2E5F
330
2
100
AcDbEntity
  8
0
100
AcDbLine
 10
44.84097618683517
 20
210.9414558457759
 30
0.0
 11
46.84097618683518
 21
210.9414558457759
 31
0.0
  0
LINE
  5
2E60
330
2
100
AcDbEntity
  8
0
100
AcDbLine
 10
53.71598318683519
 20
217.4414708457759
 30
0.0
 11
53.21598318683519
 21
216.9414708457759
 31
0.0
  0
LINE
  5
2E61
330
2
100
AcDbEntity
  8
0
100
AcDbLine
 10
53.21598318683522
 20
214.9414708457759
 30
0.0
 11
53.21598318683522
 21
216.941470845776
 31
0.0
  0
ARC
  5
2E62
330
2
100
AcDbEntity
  8
0
100
AcDbCircle
 10
51.32299394042814
 20
215.9475835700223
 30
0.0
 40
1.3
100
AcDbArc
 50
4.999999999999796
 51
74.11914999171883
  0
LINE
  5
2E63
330
2
100
AcDbEntity
  8
0
100
AcDbLine
 10
51.24572300999921
 20
217.0939123831536
 30
0.0
 11
51.26598318683512
 21
217.3048891286151
 31
0.0
  0
LINE
  5
2E64
330
2
100
AcDbEntity
  8
0
100
AcDbLine
 10
52.7159831868351
 20
214.941470845776
 30
0.0
 11
52.6180470479473
 21
216.0608860355942
 31
0.0
  0
LINE
  5
2E65
330
2
100
AcDbEntity
  8
0
100
AcDbLine
 10
53.21598318683519
 20
216.9414708457759
 30
0.0
 11
52.16096057645555
 21
216.9414708457759
 31
0.0
  0
SPLINE
  5
2E66
330
2
100
AcDbEntity
  8
0
100
AcDbSpline
210
0.0
220
0.0
230
1.0
 70
     8
 71
     3
 72
    11
 73
     7
 74
     0
 42
0.0000000001
 43
0.0000000001
 40
0.0
 40
0.0
 40
0.0
 40
0.0
 40
0.4601364636755307
 40
1.04988694485363
 40
1.713742833862792
 40
2.320347933405154
 40
2.320347933405154
 40
2.320347933405154
 40
2.320347933405179
 10
49.50348318729016
 20
216.0244708457759
 30
0.0
 10
49.52590084439799
 20
216.1794942854558
 30
0.0
 10
49.57705089963127
 20
216.5332091033734
 30
0.0
 10
50.01293606116485
 20
216.957936774975
 30
0.0
 10
50.6179867761723
 20
217.1771239549408
 30
0.0
 10
51.04317140034812
 20
217.1081326553302
 30
0.0
 10
51.24572300999921
 20
217.0939123831536
 30
0.0
  0
LINE
  5
2E67
330
2
100
AcDbEntity
  8
0
100
AcDbLine
 10
95.71598318683518
 20
216.4414708457759
 30
0.0
 11
95.71598318683518
 21
174.4414558457759
 31
0.0
  0
LINE
  5
2E68
330
2
100
AcDbEntity
  8
0
100
AcDbLine
 10
93.21598318683518
 20
172.4414558457759
 30
0.0
 11
93.21598318683518
 21
170.9414558457759
 31
0.0
  0
LINE
  5
2E69
330
2
100
AcDbEntity
  8
0
100
AcDbLine
 10
93.71598318683519
 20
172.4414558457759
 30
0.0
 11
95.71598318683518
 21
174.4414558457759
 31
0.0
  0
ARC
  5
2E6A
330
2
100
AcDbEntity
  8
0
100
AcDbCircle
 10
92.21598318683527
 20
208.541470845776
 30
0.0
 40
9.0
100
AcDbArc
 50
74.11914999171883
 51
105.8808500082811
  0
SPLINE
  5
2E6B
330
2
100
AcDbEntity
  8
0
100
AcDbSpline
210
0.0
220
0.0
230
1.0
 70
     8
 71
     3
 72
    11
 73
     7
 74
     0
 42
0.0000000001
 43
0.0000000001
 40
0.0
 40
0.0
 40
0.0
 40
0.0
 40
0.4601364636755307
 40
1.04988694485363
 40
1.713742833862792
 40
2.320347933405154
 40
2.320347933405154
 40
2.320347933405154
 40
2.320347933405179
 10
91.92848318638022
 20
216.0244708457759
 30
0.0
 10
91.90606552927238
 20
216.1794942854558
 30
0.0
 10
91.85491547403911
 20
216.5332091033734
 30
0.0
 10
91.41903031250553
 20
216.957936774975
 30
0.0
 10
90.81397959749807
 20
217.1771239549408
 30
0.0
 10
90.38879497332226
 20
217.1081326553302
 30
0.0
 10
90.18624336367116
 20
217.0939123831536
 30
0.0
  0
LINE
  5
2E6C
330
2
100
AcDbEntity
  8
0
100
AcDbLine
 10
88.21598318683516
 20
214.9414708457759
 30
0.0
 11
95.71598318683518
 21
214.941470845776
 31
0.0
  0
LINE
  5
2E6D
330
2
100
AcDbEntity
  8
0
100
AcDbLine
 10
88.71598318683528
 20
214.941470845776
 30
0.0
 11
88.81391932572308
 21
216.0608860355942
 31
0.0
  0
LINE
  5
2E6E
330
2
100
AcDbEntity
  8
0
100
AcDbLine
 10
90.18624336367116
 20
217.0939123831536
 30
0.0
 11
90.16598318683525
 21
217.3048891286151
 31
0.0
  0
ARC
  5
2E6F
330
2
100
AcDbEntity
  8
0
100
AcDbCircle
 10
90.10897243324222
 20
215.9475835700223
 30
0.0
 40
1.3
100
AcDbArc
 50
105.8808500082811
 51
175.0000000000001
  0
LINE
  5
2E70
330
2
100
AcDbEntity
  8
0
100
AcDbLine
 10
88.21598318683518
 20
216.9414708457759
 30
0.0
 11
89.27100579721482
 21
216.9414708457759
 31
0.0
  0
LINE
  5
2E71
330
2
100
AcDbEntity
  8
0
100
AcDbLine
 10
87.71598318683519
 20
217.4414708457759
 30
0.0
 11
88.21598318683518
 21
216.9414708457759
 31
0.0
  0
LINE
  5
2E72
330
2
100
AcDbEntity
  8
0
100
AcDbLine
 10
88.21598318683516
 20
214.9414708457759
 30
0.0
 11
88.21598318683516
 21
216.941470845776
 31
0.0
  0
LINE
  5
2E73
330
2
100
AcDbEntity
  8
0
100
AcDbLine
 10
93.55389200286172
 20
217.4414708457759
 30
0.0
 11
94.71598318683518
 21
217.4414708457759
 31
0.0
  0
LINE
  5
2E74
330
2
100
AcDbEntity
  8
0
100
AcDbLine
 10
95.71598318683516
 20
214.941470845776
 30
0.0
 11
95.61804704794736
 21
216.0608860355942
 31
0.0
  0
ARC
  5
2E75
330
2
100
AcDbEntity
  8
0
100
AcDbCircle
 10
94.32299394042809
 20
215.9475835700223
 30
0.0
 40
1.3
100
AcDbArc
 50
4.999999999999796
 51
74.11914999171883
  0
LINE
  5
2E76
330
2
100
AcDbEntity
  8
0
100
AcDbLine
 10
94.24572300999939
 20
217.0939123831536
 30
0.0
 11
94.26598318683529
 21
217.3048891286151
 31
0.0
  0
LINE
  5
2E77
330
2
100
AcDbEntity
  8
0
100
AcDbLine
 10
92.50348318729033
 20
216.0244708457759
 30
0.0
 11
91.92848318638022
 21
216.0244708457759
 31
0.0
  0
SPLINE
  5
2E78
330
2
100
AcDbEntity
  8
0
100
AcDbSpline
210
0.0
220
0.0
230
1.0
 70
     8
 71
     3
 72
    11
 73
     7
 74
     0
 42
0.0000000001
 43
0.0000000001
 40
0.0
 40
0.0
 40
0.0
 40
0.0
 40
0.4601364636755307
 40
1.04988694485363
 40
1.713742833862792
 40
2.320347933405154
 40
2.320347933405154
 40
2.320347933405154
 40
2.320347933405179
 10
92.50348318729033
 20
216.0244708457759
 30
0.0
 10
92.52590084439816
 20
216.1794942854558
 30
0.0
 10
92.57705089963144
 20
216.5332091033734
 30
0.0
 10
93.01293606116502
 20
216.957936774975
 30
0.0
 10
93.61798677617247
 20
217.1771239549408
 30
0.0
 10
94.04317140034828
 20
217.1081326553302
 30
0.0
 10
94.24572300999939
 20
217.0939123831536
 30
0.0
  0
LINE
  5
2E79
330
2
100
AcDbEntity
  8
0
100
AcDbLine
 10
94.71598318683518
 20
217.4414708457759
 30
0.0
 11
95.71598318683518
 21
216.4414708457759
 31
0.0
  0
LINE
  5
2E7A
330
2
100
AcDbEntity
  8
0
100
AcDbLine
 10
310.5737074322041
 20
216.4414708457758
 30
0.0
 11
310.5737074322041
 21
174.4414558457759
 31
0.0
  0
LINE
  5
2E7C
330
2
100
AcDbEntity
  8
0
100
AcDbLine
 10
310.5737074322041
 20
174.4414558457759
 30
0.0
 11
311.9854827031101
 21
173.0296805748699
 31
0.0
  0
ARC
  5
2E7D
330
2
100
AcDbEntity
  8
0
100
AcDbCircle
 10
314.073707432204
 20
208.541470845776
 30
0.0
 40
9.0
100
AcDbArc
 50
74.11914999171883
 51
105.8808500082811
  0
SPLINE
  5
2E7E
330
2
100
AcDbEntity
  8
0
100
AcDbSpline
210
0.0
220
0.0
230
1.0
 70
     8
 71
     3
 72
    11
 73
     7
 74
     0
 42
0.0000000001
 43
0.0000000001
 40
0.0
 40
0.0
 40
0.0
 40
0.0
 40
0.4601364636755307
 40
1.04988694485363
 40
1.713742833862792
 40
2.320347933405154
 40
2.320347933405154
 40
2.320347933405154
 40
2.320347933405179
 10
313.786207431749
 20
216.024470845776
 30
0.0
 10
313.7637897746411
 20
216.1794942854558
 30
0.0
 10
313.7126397194078
 20
216.5332091033734
 30
0.0
 10
313.2767545578743
 20
216.957936774975
 30
0.0
 10
312.6717038428669
 20
217.1771239549409
 30
0.0
 10
312.2465192186911
 20
217.1081326553303
 30
0.0
 10
312.04396760904
 20
217.0939123831536
 30
0.0
  0
LINE
  5
2E7F
330
2
100
AcDbEntity
  8
0
100
AcDbLine
 10
318.0737074322042
 20
214.9414708457759
 30
0.0
 11
310.5737074322041
 21
214.941470845776
 31
0.0
  0
LINE
  5
2E80
330
2
100
AcDbEntity
  8
0
100
AcDbLine
 10
312.7357986161776
 20
217.4414708457759
 30
0.0
 11
311.5737074322041
 21
217.4414708457759
 31
0.0
  0
LINE
  5
2E81
330
2
100
AcDbEntity
  8
0
100
AcDbLine
 10
310.5737074322041
 20
214.941470845776
 30
0.0
 11
310.6716435710919
 21
216.0608860355942
 31
0.0
  0
ARC
  5
2E82
330
2
100
AcDbEntity
  8
0
100
AcDbCircle
 10
311.9666966786112
 20
215.9475835700223
 30
0.0
 40
1.3
100
AcDbArc
 50
105.8808500082811
 51
175.0000000000001
  0
LINE
  5
2E83
330
2
100
AcDbEntity
  8
0
100
AcDbLine
 10
312.04396760904
 20
217.0939123831536
 30
0.0
 11
312.0237074322041
 21
217.3048891286152
 31
0.0
  0
LINE
  5
2E84
330
2
100
AcDbEntity
  8
0
100
AcDbLine
 10
311.5737074322041
 20
217.4414708457759
 30
0.0
 11
310.5737074322041
 21
216.4414708457759
 31
0.0
  0
LINE
  5
2E85
330
2
100
AcDbEntity
  8
0
100
AcDbLine
 10
318.5737074322041
 20
217.4414708457759
 30
0.0
 11
318.0737074322042
 21
216.9414708457759
 31
0.0
  0
LINE
  5
2E86
330
2
100
AcDbEntity
  8
0
100
AcDbLine
 10
317.573707432204
 20
214.941470845776
 30
0.0
 11
317.4757712933162
 21
216.0608860355942
 31
0.0
  0
LINE
  5
2E87
330
2
100
AcDbEntity
  8
0
100
AcDbLine
 10
318.0737074322042
 20
214.9414708457759
 30
0.0
 11
318.0737074322042
 21
216.941470845776
 31
0.0
  0
SPLINE
  5
2E88
330
2
100
AcDbEntity
  8
0
100
AcDbSpline
210
0.0
220
0.0
230
1.0
 70
     8
 71
     3
 72
    11
 73
     7
 74
     0
 42
0.0000000001
 43
0.0000000001
 40
0.0
 40
0.0
 40
0.0
 40
0.0
 40
0.4601364636755307
 40
1.04988694485363
 40
1.713742833862792
 40
2.320347933405154
 40
2.320347933405154
 40
2.320347933405154
 40
2.320347933405179
 10
314.3612074326591
 20
216.024470845776
 30
0.0
 10
314.3836250897669
 20
216.1794942854558
 30
0.0
 10
314.4347751450002
 20
216.5332091033734
 30
0.0
 10
314.8706603065338
 20
216.957936774975
 30
0.0
 10
315.4757110215413
 20
217.1771239549409
 30
0.0
 10
315.9008956457171
 20
217.1081326553303
 30
0.0
 10
316.1034472553682
 20
217.0939123831536
 30
0.0
  0
LINE
  5
2E89
330
2
100
AcDbEntity
  8
0
100
AcDbLine
 10
316.1034472553682
 20
217.0939123831536
 30
0.0
 11
316.1237074322041
 21
217.3048891286152
 31
0.0
  0
LINE
  5
2E8A
330
2
100
AcDbEntity
  8
0
100
AcDbLine
 10
313.786207431749
 20
216.024470845776
 30
0.0
 11
314.3612074326591
 21
216.024470845776
 31
0.0
  0
LINE
  5
2E8B
330
2
100
AcDbEntity
  8
0
100
AcDbLine
 10
318.0737074322042
 20
216.9414708457759
 30
0.0
 11
317.0186848218245
 21
216.9414708457759
 31
0.0
  0
ARC
  5
2E8C
330
2
100
AcDbEntity
  8
0
100
AcDbCircle
 10
316.180718185797
 20
215.9475835700223
 30
0.0
 40
1.3
100
AcDbArc
 50
4.999999999999796
 51
74.11914999171883
  0
LINE
  5
2E92
330
2
100
AcDbEntity
  8
0
100
AcDbLine
 10
360.5736924322042
 20
216.4414708457758
 30
0.0
 11
360.5736924322042
 21
174.4414558457759
 31
0.0
  0
LINE
  5
2E95
330
2
100
AcDbEntity
  8
0
100
AcDbLine
 10
359.1619174186577
 20
173.0296808322294
 30
0.0
 11
360.5736924322042
 21
174.4414558457759
 31
0.0
  0
LINE
  5
2E96
330
2
100
AcDbEntity
  8
0
100
AcDbLine
 10
353.0737074322041
 20
214.9414708457759
 30
0.0
 11
360.5737074322041
 21
214.941470845776
 31
0.0
  0
SPLINE
  5
2E97
330
2
100
AcDbEntity
  8
0
100
AcDbSpline
210
0.0
220
0.0
230
1.0
 70
     8
 71
     3
 72
    11
 73
     7
 74
     0
 42
0.0000000001
 43
0.0000000001
 40
0.0
 40
0.0
 40
0.0
 40
0.0
 40
0.4601364636755307
 40
1.04988694485363
 40
1.713742833862792
 40
2.320347933405154
 40
2.320347933405154
 40
2.320347933405154
 40
2.320347933405179
 10
356.7862074317492
 20
216.024470845776
 30
0.0
 10
356.7637897746414
 20
216.1794942854558
 30
0.0
 10
356.7126397194081
 20
216.5332091033734
 30
0.0
 10
356.2767545578744
 20
216.957936774975
 30
0.0
 10
355.671703842867
 20
217.1771239549409
 30
0.0
 10
355.2465192186912
 20
217.1081326553303
 30
0.0
 10
355.0439676090401
 20
217.0939123831536
 30
0.0
  0
ARC
  5
2E98
330
2
100
AcDbEntity
  8
0
100
AcDbCircle
 10
357.0737074322043
 20
208.541470845776
 30
0.0
 40
9.0
100
AcDbArc
 50
74.11914999171883
 51
105.8808500082811
  0
LINE
  5
2E99
330
2
100
AcDbEntity
  8
0
100
AcDbLine
 10
352.5737074322041
 20
217.4414708457759
 30
0.0
 11
353.0737074322041
 21
216.9414708457759
 31
0.0
  0
LINE
  5
2E9A
330
2
100
AcDbEntity
  8
0
100
AcDbLine
 10
353.0737074322041
 20
214.9414708457759
 30
0.0
 11
353.0737074322041
 21
216.941470845776
 31
0.0
  0
ARC
  5
2E9B
330
2
100
AcDbEntity
  8
0
100
AcDbCircle
 10
354.9666966786112
 20
215.9475835700223
 30
0.0
 40
1.3
100
AcDbArc
 50
105.8808500082811
 51
175.0000000000001
  0
LINE
  5
2E9C
330
2
100
AcDbEntity
  8
0
100
AcDbLine
 10
355.0439676090401
 20
217.0939123831536
 30
0.0
 11
355.0237074322042
 21
217.3048891286152
 31
0.0
  0
LINE
  5
2E9D
330
2
100
AcDbEntity
  8
0
100
AcDbLine
 10
353.5737074322042
 20
214.941470845776
 30
0.0
 11
353.671643571092
 21
216.0608860355942
 31
0.0
  0
LINE
  5
2E9E
330
2
100
AcDbEntity
  8
0
100
AcDbLine
 10
353.0737074322041
 20
216.9414708457759
 30
0.0
 11
354.1287300425838
 21
216.9414708457759
 31
0.0
  0
LINE
  5
2E9F
330
2
100
AcDbEntity
  8
0
100
AcDbLine
 10
359.5737074322041
 20
217.4414708457759
 30
0.0
 11
360.5737074322041
 21
216.4414708457759
 31
0.0
  0
SPLINE
  5
2EA0
330
2
100
AcDbEntity
  8
0
100
AcDbSpline
210
0.0
220
0.0
230
1.0
 70
     8
 71
     3
 72
    11
 73
     7
 74
     0
 42
0.0000000001
 43
0.0000000001
 40
0.0
 40
0.0
 40
0.0
 40
0.0
 40
0.4601364636755307
 40
1.04988694485363
 40
1.713742833862792
 40
2.320347933405154
 40
2.320347933405154
 40
2.320347933405154
 40
2.320347933405179
 10
357.3612074326593
 20
216.024470845776
 30
0.0
 10
357.3836250897671
 20
216.1794942854558
 30
0.0
 10
357.4347751450004
 20
216.5332091033734
 30
0.0
 10
357.8706603065339
 20
216.957936774975
 30
0.0
 10
358.4757110215414
 20
217.1771239549409
 30
0.0
 10
358.9008956457172
 20
217.1081326553303
 30
0.0
 10
359.1034472553683
 20
217.0939123831536
 30
0.0
  0
LINE
  5
2EA1
330
2
100
AcDbEntity
  8
0
100
AcDbLine
 10
357.3612074326593
 20
216.024470845776
 30
0.0
 11
356.7862074317492
 21
216.024470845776
 31
0.0
  0
LINE
  5
2EA2
330
2
100
AcDbEntity
  8
0
100
AcDbLine
 10
359.1034472553683
 20
217.0939123831536
 30
0.0
 11
359.1237074322042
 21
217.3048891286152
 31
0.0
  0
ARC
  5
2EA3
330
2
100
AcDbEntity
  8
0
100
AcDbCircle
 10
359.1807181857971
 20
215.9475835700223
 30
0.0
 40
1.3
100
AcDbArc
 50
4.999999999999796
 51
74.11914999171883
  0
LINE
  5
2EA4
330
2
100
AcDbEntity
  8
0
100
AcDbLine
 10
360.5737074322041
 20
214.941470845776
 30
0.0
 11
360.4757712933163
 21
216.0608860355942
 31
0.0
  0
LINE
  5
2EA5
330
2
100
AcDbEntity
  8
0
100
AcDbLine
 10
358.4116162482307
 20
217.4414708457759
 30
0.0
 11
359.5737074322041
 21
217.4414708457759
 31
0.0
  0
LINE
  5
2EA7
330
2
100
AcDbEntity
  8
0
100
AcDbLine
 10
665.4449679768941
 20
216.4414708457759
 30
0.0
 11
630.444967976894
 21
216.4414708457759
 31
0.0
  0
LINE
  5
2EA8
330
2
100
AcDbEntity
  8
0
100
AcDbLine
 10
672.944974976894
 20
185.4414558457759
 30
0.0
 11
622.944967976894
 21
185.4414558457759
 31
0.0
  0
LINE
  5
2EA9
330
2
100
AcDbEntity
  8
0
100
AcDbLine
 10
672.944974976894
 20
174.4414558457759
 30
0.0
 11
622.944967976894
 21
174.4414558457759
 31
0.0
  0
LINE
  5
2EAA
330
2
100
AcDbEntity
  8
0
100
AcDbLine
 10
672.944974976894
 20
184.4414558457759
 30
0.0
 11
622.944967976894
 21
184.4414558457759
 31
0.0
  0
LINE
  5
2EAB
330
2
100
AcDbEntity
  8
0
100
AcDbLine
 10
671.444974976894
 20
172.4414558457759
 30
0.0
 11
624.944967976894
 21
172.4414558457759
 31
0.0
  0
LINE
  5
2EAC
330
2
100
AcDbEntity
  8
0
100
AcDbLine
 10
668.1070591608675
 20
217.4414708457758
 30
0.0
 11
627.7828767929204
 21
217.4414708457759
 31
0.0
  0
LINE
  5
2EAD
330
2
100
AcDbEntity
  8
CENTER
100
AcDbLine
 10
677.9885749581026
 20
200.4414558457759
 30
0.0
 11
617.9013609956855
 21
200.4414558457759
 31
0.0
  0
LINE
  5
2EAE
330
2
100
AcDbEntity
  8
0
100
AcDbLine
 10
622.944967976894
 20
216.4414708457759
 30
0.0
 11
622.944967976894
 21
174.4414558457759
 31
0.0
  0
LINE
  5
2EAF
330
2
100
AcDbEntity
  8
CENTER
100
AcDbLine
 10
647.944967976894
 20
166.0519598457759
 30
0.0
 11
647.944967976894
 21
222.8289708457759
 31
0.0
  0
LINE
  5
2EB0
330
2
100
AcDbEntity
  8
0
100
AcDbLine
 10
625.444967976894
 20
172.4414558457759
 30
0.0
 11
625.444967976894
 21
170.9414558457759
 31
0.0
  0
LINE
  5
2EB1
330
2
100
AcDbEntity
  8
0
100
AcDbLine
 10
624.944967976894
 20
172.4414558457759
 30
0.0
 11
622.944967976894
 21
174.4414558457759
 31
0.0
  0
LINE
  5
2EB2
330
2
100
AcDbEntity
  8
0
100
AcDbLine
 10
630.444967976894
 20
216.9414708457759
 30
0.0
 11
629.3899453665144
 21
216.9414708457759
 31
0.0
  0
LINE
  5
2EB3
330
2
100
AcDbEntity
  8
0
100
AcDbLine
 10
630.444967976894
 20
214.9414708457759
 30
0.0
 11
622.944967976894
 21
214.941470845776
 31
0.0
  0
SPLINE
  5
2EB4
330
2
100
AcDbEntity
  8
0
100
AcDbSpline
210
0.0
220
0.0
230
1.0
 70
     8
 71
     3
 72
    11
 73
     7
 74
     0
 42
0.0000000001
 43
0.0000000001
 40
0.0
 40
0.0
 40
0.0
 40
0.0
 40
0.4601364636755307
 40
1.04988694485363
 40
1.713742833862792
 40
2.320347933405154
 40
2.320347933405154
 40
2.320347933405154
 40
2.320347933405179
 10
626.157467976439
 20
216.0244708457759
 30
0.0
 10
626.1350503193311
 20
216.1794942854558
 30
0.0
 10
626.0839002640977
 20
216.5332091033734
 30
0.0
 10
625.6480151025641
 20
216.957936774975
 30
0.0
 10
625.0429643875568
 20
217.1771239549408
 30
0.0
 10
624.6177797633809
 20
217.1081326553302
 30
0.0
 10
624.4152281537298
 20
217.0939123831536
 30
0.0
  0
ARC
  5
2EB5
330
2
100
AcDbEntity
  8
0
100
AcDbCircle
 10
626.4449679768939
 20
208.541470845776
 30
0.0
 40
9.0
100
AcDbArc
 50
74.11914999171883
 51
105.8808500082811
  0
LINE
  5
2EB6
330
2
100
AcDbEntity
  8
0
100
AcDbLine
 10
622.944967976894
 20
214.941470845776
 30
0.0
 11
623.0429041157819
 21
216.0608860355942
 31
0.0
  0
LINE
  5
2EB7
330
2
100
AcDbEntity
  8
0
100
AcDbLine
 10
624.4152281537298
 20
217.0939123831536
 30
0.0
 11
624.3949679768938
 21
217.3048891286151
 31
0.0
  0
LINE
  5
2EB8
330
2
100
AcDbEntity
  8
0
100
AcDbLine
 10
625.1070591608675
 20
217.4414708457759
 30
0.0
 11
623.9449679768941
 21
217.4414708457759
 31
0.0
  0
LINE
  5
2EB9
330
2
100
AcDbEntity
  8
0
100
AcDbLine
 10
623.9449679768941
 20
217.4414708457759
 30
0.0
 11
622.944967976894
 21
216.4414708457759
 31
0.0
  0
ARC
  5
2EBA
330
2
100
AcDbEntity
  8
0
100
AcDbCircle
 10
624.3379572233011
 20
215.9475835700223
 30
0.0
 40
1.3
100
AcDbArc
 50
105.8808500082811
 51
175.0000000000001
  0
SPLINE
  5
2EBB
330
2
100
AcDbEntity
  8
0
100
AcDbSpline
210
0.0
220
0.0
230
1.0
 70
     8
 71
     3
 72
    11
 73
     7
 74
     0
 42
0.0000000001
 43
0.0000000001
 40
0.0
 40
0.0
 40
0.0
 40
0.0
 40
0.4601364636755307
 40
1.04988694485363
 40
1.713742833862792
 40
2.320347933405154
 40
2.320347933405154
 40
2.320347933405154
 40
2.320347933405179
 10
626.7324679773489
 20
216.0244708457759
 30
0.0
 10
626.7548856344568
 20
216.1794942854558
 30
0.0
 10
626.8060356896901
 20
216.5332091033734
 30
0.0
 10
627.2419208512237
 20
216.957936774975
 30
0.0
 10
627.8469715662311
 20
217.1771239549408
 30
0.0
 10
628.272156190407
 20
217.1081326553302
 30
0.0
 10
628.474707800058
 20
217.0939123831536
 30
0.0
  0
LINE
  5
2EBC
330
2
100
AcDbEntity
  8
0
100
AcDbLine
 10
626.157467976439
 20
216.0244708457759
 30
0.0
 11
626.7324679773489
 21
216.0244708457759
 31
0.0
  0
ARC
  5
2EBD
330
2
100
AcDbEntity
  8
0
100
AcDbCircle
 10
628.551978730487
 20
215.9475835700223
 30
0.0
 40
1.3
100
AcDbArc
 50
4.999999999999796
 51
74.11914999171883
  0
LINE
  5
2EBE
330
2
100
AcDbEntity
  8
0
100
AcDbLine
 10
629.9449679768939
 20
214.941470845776
 30
0.0
 11
629.8470318380061
 21
216.0608860355942
 31
0.0
  0
LINE
  5
2EBF
330
2
100
AcDbEntity
  8
0
100
AcDbLine
 10
628.474707800058
 20
217.0939123831536
 30
0.0
 11
628.494967976894
 21
217.3048891286151
 31
0.0
  0
LINE
  5
2EC0
330
2
100
AcDbEntity
  8
0
100
AcDbLine
 10
630.444967976894
 20
214.9414708457759
 30
0.0
 11
630.444967976894
 21
216.941470845776
 31
0.0
  0
LINE
  5
2EC1
330
2
100
AcDbEntity
  8
0
100
AcDbLine
 10
630.944967976894
 20
217.4414708457759
 30
0.0
 11
630.444967976894
 21
216.9414708457759
 31
0.0
  0
LINE
  5
2EC2
330
2
100
AcDbEntity
  8
0
100
AcDbLine
 10
672.944974976894
 20
216.4414708457759
 30
0.0
 11
672.944974976894
 21
174.4414558457759
 31
0.0
  0
LINE
  5
2EC4
330
2
100
AcDbEntity
  8
0
100
AcDbLine
 10
671.444974976894
 20
172.4414558457759
 30
0.0
 11
671.444974976894
 21
170.9414558457759
 31
0.0
  0
LINE
  5
2EC5
330
2
100
AcDbEntity
  8
0
100
AcDbLine
 10
672.944974976894
 20
174.4414558457759
 30
0.0
 11
670.944974976894
 21
172.4414558457759
 31
0.0
  0
SPLINE
  5
2EC6
330
2
100
AcDbEntity
  8
0
100
AcDbSpline
210
0.0
220
0.0
230
1.0
 70
     8
 71
     3
 72
    11
 73
     7
 74
     0
 42
0.0000000001
 43
0.0000000001
 40
0.0
 40
0.0
 40
0.0
 40
0.0
 40
0.4601364636755307
 40
1.04988694485363
 40
1.713742833862792
 40
2.320347933405154
 40
2.320347933405154
 40
2.320347933405154
 40
2.320347933405179
 10
669.157467976439
 20
216.0244708457759
 30
0.0
 10
669.1350503193311
 20
216.1794942854558
 30
0.0
 10
669.083900264098
 20
216.5332091033734
 30
0.0
 10
668.6480151025643
 20
216.957936774975
 30
0.0
 10
668.0429643875569
 20
217.1771239549408
 30
0.0
 10
667.6177797633811
 20
217.1081326553302
 30
0.0
 10
667.41522815373
 20
217.0939123831536
 30
0.0
  0
ARC
  5
2EC7
330
2
100
AcDbEntity
  8
0
100
AcDbCircle
 10
669.4449679768941
 20
208.541470845776
 30
0.0
 40
9.0
100
AcDbArc
 50
74.11914999171883
 51
105.8808500082811
  0
LINE
  5
2EC8
330
2
100
AcDbEntity
  8
0
100
AcDbLine
 10
665.4449679768941
 20
214.9414708457759
 30
0.0
 11
672.944967976894
 21
214.941470845776
 31
0.0
  0
LINE
  5
2EC9
330
2
100
AcDbEntity
  8
0
100
AcDbLine
 10
665.9449679768941
 20
214.941470845776
 30
0.0
 11
666.0429041157819
 21
216.0608860355942
 31
0.0
  0
LINE
  5
2ECA
330
2
100
AcDbEntity
  8
0
100
AcDbLine
 10
665.4449679768941
 20
214.9414708457759
 30
0.0
 11
665.4449679768941
 21
216.941470845776
 31
0.0
  0
LINE
  5
2ECB
330
2
100
AcDbEntity
  8
0
100
AcDbLine
 10
664.9449679768941
 20
217.4414708457759
 30
0.0
 11
665.4449679768941
 21
216.9414708457759
 31
0.0
  0
LINE
  5
2ECC
330
2
100
AcDbEntity
  8
0
100
AcDbLine
 10
667.41522815373
 20
217.0939123831536
 30
0.0
 11
667.3949679768941
 21
217.3048891286151
 31
0.0
  0
LINE
  5
2ECD
330
2
100
AcDbEntity
  8
0
100
AcDbLine
 10
665.4449679768941
 20
216.9414708457759
 30
0.0
 11
666.4999905872737
 21
216.9414708457759
 31
0.0
  0
ARC
  5
2ECE
330
2
100
AcDbEntity
  8
0
100
AcDbCircle
 10
667.3379572233011
 20
215.9475835700223
 30
0.0
 40
1.3
100
AcDbArc
 50
105.8808500082811
 51
175.0000000000001
  0
LINE
  5
2ECF
330
2
100
AcDbEntity
  8
0
100
AcDbLine
 10
673.819974976894
 20
189.9414558457759
 30
0.0
 11
671.819974976894
 21
189.9414558457759
 31
0.0
  0
LINE
  5
2ED0
330
2
100
AcDbEntity
  8
0
100
AcDbLine
 10
673.819974976894
 20
210.9414558457759
 30
0.0
 11
671.819974976894
 21
210.9414558457759
 31
0.0
  0
ARC
  5
2ED1
330
2
100
AcDbEntity
  8
0
100
AcDbCircle
 10
671.551978730487
 20
215.9475835700223
 30
0.0
 40
1.3
100
AcDbArc
 50
4.999999999999796
 51
74.11914999171883
  0
LINE
  5
2ED2
330
2
100
AcDbEntity
  8
0
100
AcDbLine
 10
671.944967976894
 20
217.4414708457759
 30
0.0
 11
672.944967976894
 21
216.4414708457759
 31
0.0
  0
LINE
  5
2ED3
330
2
100
AcDbEntity
  8
0
100
AcDbLine
 10
669.7324679773491
 20
216.0244708457759
 30
0.0
 11
669.157467976439
 21
216.0244708457759
 31
0.0
  0
LINE
  5
2ED4
330
2
100
AcDbEntity
  8
0
100
AcDbLine
 10
671.4747078000582
 20
217.0939123831536
 30
0.0
 11
671.4949679768941
 21
217.3048891286151
 31
0.0
  0
LINE
  5
2ED5
330
2
100
AcDbEntity
  8
0
100
AcDbLine
 10
670.7828767929205
 20
217.4414708457759
 30
0.0
 11
671.944967976894
 21
217.4414708457759
 31
0.0
  0
SPLINE
  5
2ED6
330
2
100
AcDbEntity
  8
0
100
AcDbSpline
210
0.0
220
0.0
230
1.0
 70
     8
 71
     3
 72
    11
 73
     7
 74
     0
 42
0.0000000001
 43
0.0000000001
 40
0.0
 40
0.0
 40
0.0
 40
0.0
 40
0.4601364636755307
 40
1.04988694485363
 40
1.713742833862792
 40
2.320347933405154
 40
2.320347933405154
 40
2.320347933405154
 40
2.320347933405179
 10
669.7324679773491
 20
216.0244708457759
 30
0.0
 10
669.7548856344569
 20
216.1794942854558
 30
0.0
 10
669.8060356896903
 20
216.5332091033734
 30
0.0
 10
670.2419208512239
 20
216.957936774975
 30
0.0
 10
670.8469715662313
 20
217.1771239549408
 30
0.0
 10
671.2721561904071
 20
217.1081326553302
 30
0.0
 10
671.4747078000582
 20
217.0939123831536
 30
0.0
  0
LINE
  5
2ED7
330
2
100
AcDbEntity
  8
0
100
AcDbLine
 10
672.944967976894
 20
214.941470845776
 30
0.0
 11
672.8470318380061
 21
216.0608860355942
 31
0.0
  0
LINE
  5
2EDA
330
2
100
AcDbEntity
  8
0
100
AcDbLine
 10
670.945074976894
 20
316.6817280505227
 30
0.0
 11
624.945165976894
 21
316.6817280505227
 31
0.0
  0
LINE
  5
2EDB
330
2
100
AcDbEntity
  8
0
100
AcDbLine
 10
670.945074976894
 20
366.6817280505227
 30
0.0
 11
624.945165976894
 21
366.6817280505227
 31
0.0
  0
LINE
  5
2EDD
330
2
100
AcDbEntity
  8
0
100
AcDbLine
 10
622.945165976894
 20
364.6817280505227
 30
0.0
 11
622.945165976894
 21
318.6817280505227
 31
0.0
  0
LINE
  5
2EDF
330
2
100
AcDbEntity
  8
0
100
AcDbLine
 10
624.945165976894
 20
324.1817280505228
 30
0.0
 11
624.9451659768941
 21
359.1817280505228
 31
0.0
  0
LINE
  5
2EE0
330
2
100
AcDbEntity
  8
CENTER
100
AcDbLine
 10
647.944967976894
 20
371.7253350317312
 30
0.0
 11
647.944967976894
 21
311.6381210693143
 31
0.0
  0
ARC
  5
2EE1
330
2
100
AcDbEntity
  8
0
100
AcDbCircle
 10
626.444967976894
 20
320.1817280505228
 30
0.0
 40
4.0
100
AcDbArc
 50
0.0
 51
90.0
  0
ARC
  5
2EE2
330
2
100
AcDbEntity
  8
0
100
AcDbCircle
 10
624.4152679768941
 20
322.2114280505227
 30
0.0
 40
1.742199999999999
100
AcDbArc
 50
269.9986903345035
 51
0.0013096654997424
  0
ARC
  5
2EE3
330
2
100
AcDbEntity
  8
0
100
AcDbCircle
 10
624.4152679768941
 20
318.1520280505228
 30
0.0
 40
1.742199999999999
100
AcDbArc
 50
359.9986903345002
 51
90.00130966549974
  0
LINE
  5
2EE4
330
2
100
AcDbEntity
  8
0
100
AcDbLine
 10
626.445165976894
 20
324.1817280505228
 30
0.0
 11
622.945165976894
 21
324.1817280505228
 31
0.0
  0
CIRCLE
  5
2EE5
330
2
100
AcDbEntity
  8
0
100
AcDbCircle
 10
626.444967976894
 20
320.1817280505228
 30
0.0
 40
3.500000000000028
  0
ARC
  5
2EE6
330
2
100
AcDbEntity
  8
0
100
AcDbCircle
 10
626.444967976894
 20
320.1817280505228
 30
0.0
 40
2.049999999999998
100
AcDbArc
 50
180.0
 51
188.0619600839818
  0
ARC
  5
2EE7
330
2
100
AcDbEntity
  8
0
100
AcDbCircle
 10
626.444967976894
 20
320.1817280505228
 30
0.0
 40
2.049999999999998
100
AcDbArc
 50
171.938039916018
 51
180.0
  0
LINE
  5
2EE8
330
2
100
AcDbEntity
  8
0
100
AcDbLine
 10
622.945165976894
 20
318.6817280505227
 30
0.0
 11
624.945165976894
 21
316.6817280505227
 31
0.0
  0
LINE
  5
2EE9
330
2
100
AcDbEntity
  8
0
100
AcDbLine
 10
622.945165976894
 20
318.6817280505227
 30
0.0
 11
624.945165976894
 21
316.6817280505227
 31
0.0
  0
LINE
  5
2EEA
330
2
100
AcDbEntity
  8
0
100
AcDbLine
 10
622.944967976894
 20
318.6817280505227
 30
0.0
 11
624.945165976894
 21
316.6817280505227
 31
0.0
  0
ARC
  5
2EEB
330
2
100
AcDbEntity
  8
0
100
AcDbCircle
 10
626.444967976894
 20
320.1817280505228
 30
0.0
 40
2.049999999999998
100
AcDbArc
 50
90.0
 51
98.06196008398211
  0
ARC
  5
2EEC
330
2
100
AcDbEntity
  8
0
100
AcDbCircle
 10
626.444967976894
 20
320.1817280505228
 30
0.0
 40
2.049999999999998
100
AcDbArc
 50
81.93803991601789
 51
90.0
  0
ARC
  5
2EED
330
2
100
AcDbEntity
  8
0
100
AcDbCircle
 10
626.444967976894
 20
320.1817280505228
 30
0.0
 40
2.049999999999998
100
AcDbArc
 50
261.9380399160178
 51
270.0
  0
ARC
  5
2EEE
330
2
100
AcDbEntity
  8
0
100
AcDbCircle
 10
626.444967976894
 20
320.1817280505228
 30
0.0
 40
2.049999999999998
100
AcDbArc
 50
270.0
 51
278.061960083982
  0
ARC
  5
2EEF
330
2
100
AcDbEntity
  8
0
100
AcDbCircle
 10
628.4746679768942
 20
322.2114280505227
 30
0.0
 40
1.742199999999999
100
AcDbArc
 50
179.9986903345002
 51
270.0013096654964
  0
ARC
  5
2EF0
330
2
100
AcDbEntity
  8
0
100
AcDbCircle
 10
628.4746679768942
 20
318.1520280505228
 30
0.0
 40
1.742199999999999
100
AcDbArc
 50
89.9986903345035
 51
180.0013096654997
  0
ARC
  5
2EF1
330
2
100
AcDbEntity
  8
0
100
AcDbCircle
 10
626.444967976894
 20
320.1817280505228
 30
0.0
 40
2.049999999999998
100
AcDbArc
 50
351.9380399160181
 51
0.0
  0
ARC
  5
2EF2
330
2
100
AcDbEntity
  8
0
100
AcDbCircle
 10
626.444967976894
 20
320.1817280505228
 30
0.0
 40
2.049999999999998
100
AcDbArc
 50
0.0
 51
8.061960083981905
  0
LINE
  5
2EF3
330
2
100
AcDbEntity
  8
0
100
AcDbLine
 10
630.445165976894
 20
318.6817280505227
 30
0.0
 11
665.445074976894
 21
318.6817280505227
 31
0.0
  0
LINE
  5
2EF4
330
2
100
AcDbEntity
  8
0
100
AcDbLine
 10
630.445165976894
 20
320.1817280505228
 30
0.0
 11
630.445165976894
 21
316.6819120505228
 31
0.0
  0
ARC
  5
2EF5
330
2
100
AcDbEntity
  8
0
100
AcDbCircle
 10
626.444967976894
 20
363.1818200505227
 30
0.0
 40
4.0
100
AcDbArc
 50
270.0
 51
0.0
  0
CIRCLE
  5
2EF6
330
2
100
AcDbEntity
  8
0
100
AcDbCircle
 10
626.444967976894
 20
363.1818200505227
 30
0.0
 40
3.500000000000028
  0
ARC
  5
2EF7
330
2
100
AcDbEntity
  8
0
100
AcDbCircle
 10
626.444967976894
 20
363.1818200505227
 30
0.0
 40
2.049999999999998
100
AcDbArc
 50
180.0
 51
188.0619600839818
  0
ARC
  5
2EF8
330
2
100
AcDbEntity
  8
0
100
AcDbCircle
 10
626.444967976894
 20
363.1818200505227
 30
0.0
 40
2.049999999999998
100
AcDbArc
 50
351.9380399160181
 51
0.0
  0
ARC
  5
2EF9
330
2
100
AcDbEntity
  8
0
100
AcDbCircle
 10
628.4746679768942
 20
361.1521200505228
 30
0.0
 40
1.742199999999999
100
AcDbArc
 50
89.9986903345035
 51
180.0013096654997
  0
ARC
  5
2EFA
330
2
100
AcDbEntity
  8
0
100
AcDbCircle
 10
624.4152679768941
 20
361.1521200505228
 30
0.0
 40
1.742199999999999
100
AcDbArc
 50
359.9986903345002
 51
90.00130966549974
  0
LINE
  5
2EFC
330
2
100
AcDbEntity
  8
0
100
AcDbLine
 10
626.445165976894
 20
359.1817280505228
 30
0.0
 11
622.945165976894
 21
359.1817280505228
 31
0.0
  0
ARC
  5
2EFD
330
2
100
AcDbEntity
  8
0
100
AcDbCircle
 10
626.444967976894
 20
363.1818200505227
 30
0.0
 40
2.049999999999998
100
AcDbArc
 50
261.9380399160178
 51
270.0
  0
ARC
  5
2EFE
330
2
100
AcDbEntity
  8
0
100
AcDbCircle
 10
626.444967976894
 20
363.1818200505227
 30
0.0
 40
2.049999999999998
100
AcDbArc
 50
270.0
 51
278.061960083982
  0
ARC
  5
2EFF
330
2
100
AcDbEntity
  8
0
100
AcDbCircle
 10
624.4152679768941
 20
365.2115200505227
 30
0.0
 40
1.742199999999999
100
AcDbArc
 50
269.9986903345035
 51
0.0013096654997424
  0
ARC
  5
2F00
330
2
100
AcDbEntity
  8
0
100
AcDbCircle
 10
626.444967976894
 20
363.1818200505227
 30
0.0
 40
2.049999999999998
100
AcDbArc
 50
171.938039916018
 51
180.0
  0
LINE
  5
2F01
330
2
100
AcDbEntity
  8
0
100
AcDbLine
 10
622.945165976894
 20
364.6817280505227
 30
0.0
 11
624.945165976894
 21
366.6817280505227
 31
0.0
  0
LINE
  5
2F02
330
2
100
AcDbEntity
  8
0
100
AcDbLine
 10
624.945165976894
 20
366.6817280505227
 30
0.0
 11
622.945165976894
 21
364.6817280505227
 31
0.0
  0
ARC
  5
2F03
330
2
100
AcDbEntity
  8
0
100
AcDbCircle
 10
626.444967976894
 20
363.1818200505227
 30
0.0
 40
2.049999999999998
100
AcDbArc
 50
90.0
 51
98.06196008398211
  0
ARC
  5
2F04
330
2
100
AcDbEntity
  8
0
100
AcDbCircle
 10
626.444967976894
 20
363.1818200505227
 30
0.0
 40
2.049999999999998
100
AcDbArc
 50
81.93803991601789
 51
90.0
  0
ARC
  5
2F05
330
2
100
AcDbEntity
  8
0
100
AcDbCircle
 10
628.4746679768942
 20
365.2115200505227
 30
0.0
 40
1.742199999999999
100
AcDbArc
 50
179.9986903345002
 51
270.0013096654964
  0
ARC
  5
2F06
330
2
100
AcDbEntity
  8
0
100
AcDbCircle
 10
626.444967976894
 20
363.1818200505227
 30
0.0
 40
2.049999999999998
100
AcDbArc
 50
0.0
 51
8.061960083981905
  0
LINE
  5
2F07
330
2
100
AcDbEntity
  8
0
100
AcDbLine
 10
630.445165976894
 20
364.6817280505227
 30
0.0
 11
665.445074976894
 21
364.6817280505227
 31
0.0
  0
LINE
  5
2F08
330
2
100
AcDbEntity
  8
0
100
AcDbLine
 10
630.445165976894
 20
363.1818200505227
 30
0.0
 11
630.445165976894
 21
366.6817280505227
 31
0.0
  0
LINE
  5
2F09
330
2
100
AcDbEntity
  8
0
100
AcDbLine
 10
672.945074976894
 20
364.6817280505227
 30
0.0
 11
672.945074976894
 21
318.6817280505227
 31
0.0
  0
LINE
  5
2F0A
330
2
100
AcDbEntity
  8
0
100
AcDbLine
 10
670.945074976894
 20
324.1817280505228
 30
0.0
 11
670.9450749768939
 21
359.1817280505228
 31
0.0
  0
ARC
  5
2F0B
330
2
100
AcDbEntity
  8
0
100
AcDbCircle
 10
667.415374976894
 20
322.2114280505227
 30
0.0
 40
1.742199999999999
100
AcDbArc
 50
269.9986903345035
 51
0.0013096654997424
  0
ARC
  5
2F0C
330
2
100
AcDbEntity
  8
0
100
AcDbCircle
 10
667.415374976894
 20
318.1520280505228
 30
0.0
 40
1.742199999999999
100
AcDbArc
 50
359.9986903345002
 51
90.00130966549974
  0
ARC
  5
2F0D
330
2
100
AcDbEntity
  8
0
100
AcDbCircle
 10
669.445074976894
 20
320.1817280505228
 30
0.0
 40
4.0
100
AcDbArc
 50
90.0
 51
180.0
  0
CIRCLE
  5
2F0E
330
2
100
AcDbEntity
  8
0
100
AcDbCircle
 10
669.445074976894
 20
320.1817280505228
 30
0.0
 40
3.500000000000028
  0
LINE
  5
2F0F
330
2
100
AcDbEntity
  8
0
100
AcDbLine
 10
665.445074976894
 20
320.1817280505228
 30
0.0
 11
665.445074976894
 21
316.6819120505228
 31
0.0
  0
ARC
  5
2F10
330
2
100
AcDbEntity
  8
0
100
AcDbCircle
 10
669.445074976894
 20
320.1817280505228
 30
0.0
 40
2.049999999999998
100
AcDbArc
 50
180.0
 51
188.0619600839818
  0
ARC
  5
2F11
330
2
100
AcDbEntity
  8
0
100
AcDbCircle
 10
669.445074976894
 20
320.1817280505228
 30
0.0
 40
2.049999999999998
100
AcDbArc
 50
171.938039916018
 51
180.0
  0
LINE
  5
2F12
330
2
100
AcDbEntity
  8
0
100
AcDbLine
 10
672.945074976894
 20
318.6817280505227
 30
0.0
 11
670.945074976894
 21
316.6817280505227
 31
0.0
  0
LINE
  5
2F13
330
2
100
AcDbEntity
  8
0
100
AcDbLine
 10
672.945074976894
 20
318.6817280505227
 30
0.0
 11
670.945074976894
 21
316.6817280505227
 31
0.0
  0
LINE
  5
2F14
330
2
100
AcDbEntity
  8
0
100
AcDbLine
 10
669.445074976894
 20
324.1817280505228
 30
0.0
 11
672.945074976894
 21
324.1817280505228
 31
0.0
  0
ARC
  5
2F15
330
2
100
AcDbEntity
  8
0
100
AcDbCircle
 10
669.445074976894
 20
320.1817280505228
 30
0.0
 40
2.049999999999998
100
AcDbArc
 50
90.0
 51
98.06196008398211
  0
ARC
  5
2F16
330
2
100
AcDbEntity
  8
0
100
AcDbCircle
 10
669.445074976894
 20
320.1817280505228
 30
0.0
 40
2.049999999999998
100
AcDbArc
 50
81.93803991601789
 51
90.0
  0
ARC
  5
2F17
330
2
100
AcDbEntity
  8
0
100
AcDbCircle
 10
669.445074976894
 20
320.1817280505228
 30
0.0
 40
2.049999999999998
100
AcDbArc
 50
261.9380399160178
 51
270.0
  0
ARC
  5
2F18
330
2
100
AcDbEntity
  8
0
100
AcDbCircle
 10
669.445074976894
 20
320.1817280505228
 30
0.0
 40
2.049999999999998
100
AcDbArc
 50
270.0
 51
278.061960083982
  0
ARC
  5
2F19
330
2
100
AcDbEntity
  8
0
100
AcDbCircle
 10
669.445074976894
 20
320.1817280505228
 30
0.0
 40
2.049999999999998
100
AcDbArc
 50
351.9380399160181
 51
0.0
  0
ARC
  5
2F1A
330
2
100
AcDbEntity
  8
0
100
AcDbCircle
 10
669.445074976894
 20
320.1817280505228
 30
0.0
 40
2.049999999999998
100
AcDbArc
 50
0.0
 51
8.061960083981905
  0
ARC
  5
2F1B
330
2
100
AcDbEntity
  8
0
100
AcDbCircle
 10
671.4747749768942
 20
322.2114280505227
 30
0.0
 40
1.742199999999999
100
AcDbArc
 50
179.9986903345002
 51
270.0013096654964
  0
ARC
  5
2F1C
330
2
100
AcDbEntity
  8
0
100
AcDbCircle
 10
671.4747749768942
 20
318.1520280505228
 30
0.0
 40
1.742199999999999
100
AcDbArc
 50
89.9986903345035
 51
180.0013096654997
  0
ARC
  5
2F1D
330
2
100
AcDbEntity
  8
0
100
AcDbCircle
 10
667.415374976894
 20
365.2115200505227
 30
0.0
 40
1.742199999999999
100
AcDbArc
 50
269.9986903345035
 51
0.0013096654997424
  0
ARC
  5
2F1E
330
2
100
AcDbEntity
  8
0
100
AcDbCircle
 10
669.445074976894
 20
363.1818200505227
 30
0.0
 40
4.0
100
AcDbArc
 50
180.0
 51
270.0
  0
CIRCLE
  5
2F1F
330
2
100
AcDbEntity
  8
0
100
AcDbCircle
 10
669.445074976894
 20
363.1818200505227
 30
0.0
 40
3.500000000000028
  0
ARC
  5
2F20
330
2
100
AcDbEntity
  8
0
100
AcDbCircle
 10
667.415374976894
 20
361.1521200505228
 30
0.0
 40
1.742199999999999
100
AcDbArc
 50
359.9986903345002
 51
90.00130966549974
  0
ARC
  5
2F21
330
2
100
AcDbEntity
  8
0
100
AcDbCircle
 10
669.445074976894
 20
363.1818200505227
 30
0.0
 40
2.049999999999998
100
AcDbArc
 50
180.0
 51
188.0619600839818
  0
LINE
  5
2F22
330
2
100
AcDbEntity
  8
0
100
AcDbLine
 10
665.445074976894
 20
363.1818200505227
 30
0.0
 11
665.445074976894
 21
366.6817280505227
 31
0.0
  0
ARC
  5
2F23
330
2
100
AcDbEntity
  8
0
100
AcDbCircle
 10
669.445074976894
 20
363.1818200505227
 30
0.0
 40
2.049999999999998
100
AcDbArc
 50
171.938039916018
 51
180.0
  0
ARC
  5
2F24
330
2
100
AcDbEntity
  8
0
100
AcDbCircle
 10
669.445074976894
 20
363.1818200505227
 30
0.0
 40
2.049999999999998
100
AcDbArc
 50
351.9380399160181
 51
0.0
  0
ARC
  5
2F25
330
2
100
AcDbEntity
  8
0
100
AcDbCircle
 10
671.4747749768942
 20
361.1521200505228
 30
0.0
 40
1.742199999999999
100
AcDbArc
 50
89.9986903345035
 51
180.0013096654997
  0
LINE
  5
2F27
330
2
100
AcDbEntity
  8
0
100
AcDbLine
 10
669.445074976894
 20
359.1817280505228
 30
0.0
 11
672.945074976894
 21
359.1817280505228
 31
0.0
  0
ARC
  5
2F28
330
2
100
AcDbEntity
  8
0
100
AcDbCircle
 10
669.445074976894
 20
363.1818200505227
 30
0.0
 40
2.049999999999998
100
AcDbArc
 50
261.9380399160178
 51
270.0
  0
ARC
  5
2F29
330
2
100
AcDbEntity
  8
0
100
AcDbCircle
 10
669.445074976894
 20
363.1818200505227
 30
0.0
 40
2.049999999999998
100
AcDbArc
 50
270.0
 51
278.061960083982
  0
LINE
  5
2F2A
330
2
100
AcDbEntity
  8
0
100
AcDbLine
 10
672.945074976894
 20
364.6817280505227
 30
0.0
 11
670.945074976894
 21
366.6817280505227
 31
0.0
  0
ARC
  5
2F2B
330
2
100
AcDbEntity
  8
0
100
AcDbCircle
 10
669.445074976894
 20
363.1818200505227
 30
0.0
 40
2.049999999999998
100
AcDbArc
 50
90.0
 51
98.06196008398211
  0
ARC
  5
2F2C
330
2
100
AcDbEntity
  8
0
100
AcDbCircle
 10
669.445074976894
 20
363.1818200505227
 30
0.0
 40
2.049999999999998
100
AcDbArc
 50
81.93803991601789
 51
90.0
  0
ARC
  5
2F2D
330
2
100
AcDbEntity
  8
0
100
AcDbCircle
 10
669.445074976894
 20
363.1818200505227
 30
0.0
 40
2.049999999999998
100
AcDbArc
 50
0.0
 51
8.061960083981905
  0
ARC
  5
2F2E
330
2
100
AcDbEntity
  8
0
100
AcDbCircle
 10
671.4747749768942
 20
365.2115200505227
 30
0.0
 40
1.742199999999999
100
AcDbArc
 50
179.9986903345002
 51
270.0013096654964
  0
VIEWPORT
  5
2A05
330
2A04
100
AcDbEntity
 67
     1
  8
0
100
AcDbViewport
 10
145.4886033553225
 20
98.18346916518917
 30
0.0
 40
337.0782170441072
 41
215.1146463957829
 68
     1
 69
     1
1001
ACAD
1000
MVIEW
1002
{
1070
    16
1010
0.0
1020
0.0
1030
0.0
1010
0.0
1020
0.0
1030
1.0
1040
0.0
1040
215.1146463957829
1040
145.4886033553225
1040
98.18346916518917
1040
50.0
1040
0.0
1040
0.0
1070
     0
1070
   100
1070
     1
1070
     1
1070
     0
1070
     0
1070
     0
1070
     0
1040
0.0
1040
0.0
1040
0.0
1040
10.0
1040
10.0
1040
10.0
1040
10.0
1070
     0
1002
{
1002
}
1002
}
  0
TEXT
  5
2A06
330
2A04
100
AcDbEntity
 67
     1
  8
TEXT
100
AcDbText
 10
266.4665517915716
 20
9.492177985111482
 30
0.0
 40
2.0
  1
2005.07.12
 41
0.7
100
AcDbText
  0
TEXT
  5
2A07
330
2A04
100
AcDbEntity
 67
     1
  8
TEXT
100
AcDbText
 10
221.2876186247744
 20
25.81289445791026
 30
0.0
 40
2.0
  1
F2FM15L-T40K
100
AcDbText
  0
INSERT
  5
2A08
330
2A04
100
AcDbEntity
 67
     1
  8
0
100
AcDbBlockReference
 66
     1
  2
外寸枠A4テンプレート
 10
0.0
 20
0.0
 30
0.0
  0
ATTRIB
  5
2A09
330
2A08
100
AcDbEntity
 67
     1
  8
TEXT
100
AcDbText
 10
217.9951714285713
 20
34.33735183158626
 30
0.0
 40
2.500000000000001
  1
F2FM-15L-10～120-T40K
 72
     4
 11
241.8165999999999
 21
35.58735183158626
 31
0.0
100
AcDbAttribute
  2
T　I　T　L　E
 70
     0
  0
ATTRIB
  5
2A0A
330
2A08
100
AcDbEntity
 67
     1
  8
TEXT
100
AcDbText
 10
231.4275923057046
 20
7.13444951887557
 30
0.0
 40
2.0
  1
1：2
 72
     4
 11
234.056163734276
 21
8.13444951887557
 31
0.0
100
AcDbAttribute
  2
FREE
 70
     0
  0
ATTRIB
  5
2A0B
330
2A08
100
AcDbEntity
 67
     1
  8
TEXT
100
AcDbText
 10
205.1985180173093
 20
6.884449518875568
 30
0.0
 40
2.500000000000004
  1
海野
 72
     4
 11
207.865184683976
 21
8.13444951887557
 31
0.0
100
AcDbAttribute
  2
海野
 70
     0
  0
ATTRIB
  5
2A0C
330
2A08
100
AcDbEntity
 67
     1
  8
TEXT
100
AcDbText
 10
222.6686227589094
 20
6.884449518875568
 30
0.0
 40
2.500000000000004
  1
川上
 72
     4
 11
225.3352894255761
 21
8.13444951887557
 31
0.0
100
AcDbAttribute
  2
鳥居
 70
     0
  0
ATTRIB
  5
2A0D
330
2A08
100
AcDbEntity
 67
     1
  8
TEXT
100
AcDbText
 10
213.9476826899094
 20
6.884449518875567
 30
0.0
 40
2.500000000000004
  1
永坂
 72
     4
 11
216.6143493565761
 21
8.13444951887557
 31
0.0
100
AcDbAttribute
  2
永坂
 70
     0
  0
SEQEND
  5
2A0E
330
2A08
100
AcDbEntity
 67
     1
  8
0
  0
VIEWPORT
  5
2A0F
330
2A04
100
AcDbEntity
 67
     1
  8
DEFPOINTS
100
AcDbViewport
 10
149.6469488579824
 20
122.4216027741307
 30
0.0
 40
260.7061022840351
 41
119.1567944517385
 68
    -1
 69
     2
1001
ACAD
1000
MVIEW
1002
{
1070
    16
1010
0.0
1020
0.0
1030
0.0
1010
0.0
1020
0.0
1030
1.0
1040
0.0
1040
238.3135895815192
1040
503.4228154226475
1040
145.1813531975725
1040
50.0
1040
0.0
1040
0.0
1070
     0
1070
   100
1070
     1
1070
     3
1070
     0
1070
     0
1070
     0
1070
     0
1040
0.0
1040
0.0
1040
0.0
1040
10.0
1040
10.0
1040
10.0
1040
10.0
1070
     0
1002
{
1003
TITLE
1002
}
1002
}
  0
INSERT
  5
2A10
330
2A04
100
AcDbEntity
 67
     1
  8
TEXT
100
AcDbBlockReference
  2
1
 10
202.0
 20
40.0
 30
0.0
  0
INSERT
  5
2AFC
330
2A04
100
AcDbEntity
 67
     1
  8
TEXT
100
AcDbBlockReference
  2
GSPEC_F2F-15L-10-120
 10
3.0
 20
4.0
 30
0.0
  0
INSERT
  5
2BBB
330
2A04
100
AcDbEntity
 67
     1
  8
TEXT
100
AcDbBlockReference
  2
MSPEC_T40-75
 10
3.0
 20
4.0
 30
0.0
  0
INSERT
  5
2C92
330
2A04
100
AcDbEntity
 67
     1
  8
TEXT
100
AcDbBlockReference
  2
17
 10
202.0
 20
43.5
 30
0.0
  0
ENDSEC
  0
SECTION
  2
OBJECTS
  0
DICTIONARY
  5
7
330
0
100
AcDbDictionary
  3
ACAD_GROUP
350
75
  3
ACAD_LAYOUT
350
61
  3
ACAD_MLINESTYLE
350
76
  3
ACAD_PLOTSETTINGS
350
77
  3
ACAD_PLOTSTYLENAME
350
6
  3
ACADDIM
350
480
  3
ACDBHEADERROUNDTRIPXREC
350
30AF
  3
ACDBVARIABLEDICTIONARY
350
102
  3
DWGPROPS
350
3D2
  0
DICTIONARY
  5
30D0
330
2
100
AcDbDictionary
280
     1
  3
ACAD_LAYOUTSELFREF
360
30D1
  0
DICTIONARY
  5
30D3
330
2A04
100
AcDbDictionary
280
     1
  3
ACAD_LAYOUTSELFREF
360
30D4
  0
DICTIONARY
  5
75
102
{ACAD_REACTORS
330
7
102
}
330
7
100
AcDbDictionary
  0
DICTIONARY
  5
61
102
{ACAD_REACTORS
330
7
102
}
330
7
100
AcDbDictionary
  0
DICTIONARY
  5
76
102
{ACAD_REACTORS
330
7
102
}
330
7
100
AcDbDictionary
  3
STANDARD
350
78
  0
DICTIONARY
  5
77
102
{ACAD_REACTORS
330
7
102
}
330
7
100
AcDbDictionary
  0
ACDBDICTIONARYWDFLT
  5
6
102
{ACAD_REACTORS
330
7
102
}
330
7
100
AcDbDictionary
281
     1
  3
Normal
350
5
100
AcDbDictionaryWithDefault
340
5
  0
XRECORD
  5
480
102
{ACAD_REACTORS
330
7
102
}
330
7
100
AcDbXrecord
 90
   990106
  3

 60
     0
 61
     0
 62
     1
 63
     3
 64
     1
 65
     0
 66
     0
 67
     3
 68
     1
 69
     0
 70
     0
 71
     0
 72
     0
 40
0.0
170
     2
340
0
  0
DICTIONARY
  5
30AF
102
{ACAD_REACTORS
330
7
102
}
330
7
100
AcDbDictionary
  3
CEPSNTYPE
350
30B9
  3
DIMSTYLEDATA
350
30BD
  3
FINGERPRINTGUID
350
30BA
  3
HYPERLINKBASE
350
30B2
  3
INSUNITS
350
30B8
  3
LAYOUTDICT
350
30B4
  3
LWETCUNION
350
30B7
  3
PLOTSETDICT
350
30B5
  3
PLOTSTYLNAMDICT
350
30B6
  3
PSVPSCALE
350
30BC
  3
PUCSBASE
350
30C0
  3
PUCSORGBACK
350
30C6
  3
PUCSORGBOTTOM
350
30C2
  3
PUCSORGFRONT
350
30C5
  3
PUCSORGLEFT
350
30C3
  3
PUCSORGRIGHT
350
30C4
  3
PUCSORGTOP
350
30C1
  3
PUCSORTHOREF
350
30BE
  3
PUCSORTHOVIEW
350
30BF
  3
STYLESHEET
350
30B3
  3
TSTACKALIGN
350
30B0
  3
TSTACKSIZE
350
30B1
  3
UCSBASE
350
30C9
  3
UCSORGBACK
350
30CF
  3
UCSORGBOTTOM
350
30CB
  3
UCSORGFRONT
350
30CE
  3
UCSORGLEFT
350
30CC
  3
UCSORGRIGHT
350
30CD
  3
UCSORGTOP
350
30CA
  3
UCSORTHOREF
350
30C7
  3
UCSORTHOVIEW
350
30C8
  3
VERSIONGUID
350
30BB
  0
DICTIONARY
  5
102
102
{ACAD_REACTORS
330
7
102
}
330
7
100
AcDbDictionary
  3
DIMASSOC
350
103
  0
XRECORD
  5
3D2
102
{ACAD_REACTORS
330
7
102
}
330
7
100
AcDbXrecord
  1
DWGPROPS COOKIE
  2

  3

  4

  6

  7

  8

  9

300
=
301
=
302
=
303
=
304
=
305
=
306
=
307
=
308
=
309
=
 40
0.5353330671296296
 41
2452052.431989363
 42
2453406.550756377
  1

 90
        0
  0
XRECORD
  5
30D1
102
{ACAD_REACTORS
330
30D0
102
}
330
30D0
100
AcDbXrecord
340
2
  0
XRECORD
  5
30D4
102
{ACAD_REACTORS
330
30D3
102
}
330
30D3
100
AcDbXrecord
340
2A04
  0
MLINESTYLE
  5
78
102
{ACAD_REACTORS
330
76
102
}
330
76
100
AcDbMlineStyle
  2
STANDARD
 70
     0
  3

 62
     0
 51
90.0
 52
90.0
 71
     2
 49
0.5
 62
   256
  6
BYLAYER
 49
-0.5
 62
   256
  6
BYLAYER
  0
ACDBPLACEHOLDER
  5
5
102
{ACAD_REACTORS
330
6
102
}
330
6
100
AcDbPlaceHolder
280
     0
  0
XRECORD
  5
30B9
102
{ACAD_REACTORS
330
30AF
102
}
330
30AF
100
AcDbXrecord
 90
        0
  0
XRECORD
  5
30BD
102
{ACAD_REACTORS
330
30AF
102
}
330
30AF
100
AcDbXrecord
1000
DSTYLE
1002
{
1070
   179
 70
     2
1070
   277
 70
     6
1002
}
  0
XRECORD
  5
30BA
102
{ACAD_REACTORS
330
30AF
102
}
330
30AF
100
AcDbXrecord
  1
{6385560B-F4B1-4644-A7C2-A3E32AC3D232}
  0
XRECORD
  5
30B2
102
{ACAD_REACTORS
330
30AF
102
}
330
30AF
100
AcDbXrecord
  1

  0
XRECORD
  5
30B8
102
{ACAD_REACTORS
330
30AF
102
}
330
30AF
100
AcDbXrecord
 90
        0
  0
XRECORD
  5
30B4
102
{ACAD_REACTORS
330
30AF
102
}
330
30AF
100
AcDbXrecord
340
61
  0
XRECORD
  5
30B7
102
{ACAD_REACTORS
330
30AF
102
}
330
30AF
100
AcDbXrecord
 90
    10781
  0
XRECORD
  5
30B5
102
{ACAD_REACTORS
330
30AF
102
}
330
30AF
100
AcDbXrecord
340
77
  0
XRECORD
  5
30B6
102
{ACAD_REACTORS
330
30AF
102
}
330
30AF
100
AcDbXrecord
340
6
  0
XRECORD
  5
30BC
102
{ACAD_REACTORS
330
30AF
102
}
330
30AF
100
AcDbXrecord
 40
0.0
  0
XRECORD
  5
30C0
102
{ACAD_REACTORS
330
30AF
102
}
330
30AF
100
AcDbXrecord
340
0
  0
XRECORD
  5
30C6
102
{ACAD_REACTORS
330
30AF
102
}
330
30AF
100
AcDbXrecord
 10
0.0
 20
0.0
 30
0.0
  0
XRECORD
  5
30C2
102
{ACAD_REACTORS
330
30AF
102
}
330
30AF
100
AcDbXrecord
 10
0.0
 20
0.0
 30
0.0
  0
XRECORD
  5
30C5
102
{ACAD_REACTORS
330
30AF
102
}
330
30AF
100
AcDbXrecord
 10
0.0
 20
0.0
 30
0.0
  0
XRECORD
  5
30C3
102
{ACAD_REACTORS
330
30AF
102
}
330
30AF
100
AcDbXrecord
 10
0.0
 20
0.0
 30
0.0
  0
XRECORD
  5
30C4
102
{ACAD_REACTORS
330
30AF
102
}
330
30AF
100
AcDbXrecord
 10
0.0
 20
0.0
 30
0.0
  0
XRECORD
  5
30C1
102
{ACAD_REACTORS
330
30AF
102
}
330
30AF
100
AcDbXrecord
 10
0.0
 20
0.0
 30
0.0
  0
XRECORD
  5
30BE
102
{ACAD_REACTORS
330
30AF
102
}
330
30AF
100
AcDbXrecord
340
0
  0
XRECORD
  5
30BF
102
{ACAD_REACTORS
330
30AF
102
}
330
30AF
100
AcDbXrecord
 70
     0
  0
XRECORD
  5
30B3
102
{ACAD_REACTORS
330
30AF
102
}
330
30AF
100
AcDbXrecord
  1
Sekkei.ctb
  0
XRECORD
  5
30B0
102
{ACAD_REACTORS
330
30AF
102
}
330
30AF
100
AcDbXrecord
 90
        1
  0
XRECORD
  5
30B1
102
{ACAD_REACTORS
330
30AF
102
}
330
30AF
100
AcDbXrecord
 90
       70
  0
XRECORD
  5
30C9
102
{ACAD_REACTORS
330
30AF
102
}
330
30AF
100
AcDbXrecord
340
0
  0
XRECORD
  5
30CF
102
{ACAD_REACTORS
330
30AF
102
}
330
30AF
100
AcDbXrecord
 10
0.0
 20
0.0
 30
0.0
  0
XRECORD
  5
30CB
102
{ACAD_REACTORS
330
30AF
102
}
330
30AF
100
AcDbXrecord
 10
0.0
 20
0.0
 30
0.0
  0
XRECORD
  5
30CE
102
{ACAD_REACTORS
330
30AF
102
}
330
30AF
100
AcDbXrecord
 10
0.0
 20
0.0
 30
0.0
  0
XRECORD
  5
30CC
102
{ACAD_REACTORS
330
30AF
102
}
330
30AF
100
AcDbXrecord
 10
0.0
 20
0.0
 30
0.0
  0
XRECORD
  5
30CD
102
{ACAD_REACTORS
330
30AF
102
}
330
30AF
100
AcDbXrecord
 10
0.0
 20
0.0
 30
0.0
  0
XRECORD
  5
30CA
102
{ACAD_REACTORS
330
30AF
102
}
330
30AF
100
AcDbXrecord
 10
0.0
 20
0.0
 30
0.0
  0
XRECORD
  5
30C7
102
{ACAD_REACTORS
330
30AF
102
}
330
30AF
100
AcDbXrecord
340
0
  0
XRECORD
  5
30C8
102
{ACAD_REACTORS
330
30AF
102
}
330
30AF
100
AcDbXrecord
 70
     0
  0
XRECORD
  5
30BB
102
{ACAD_REACTORS
330
30AF
102
}
330
30AF
100
AcDbXrecord
  1
{801E967B-1BAD-4C80-87B7-EEE92A1383C1}
  0
DICTIONARYVAR
  5
103
102
{ACAD_REACTORS
330
102
102
}
330
102
100
DictionaryVariables
280
     0
  1
1
  0
ENDSEC
  0
EOF
