  0
SECTION
  2
HEADER
  9
$CLAYER
  8
1
  9
$LTSCALE
 40
3.0
  0
ENDSEC
  0
SECTION
  2
TABLES
  0
TABLE
  2
LTYPE
 70
     4
  0
LTYPE
  2
CONTINUOUS
  3
solid line
 70
    64
 72
    65
 73
     0
 40
0.0
  0
LTYPE
  2
DASHED
  3
__ __ __ __ __ __ __ __ __ __ __ __ __ __ __
 70
    64
 72
    65
 73
     2
 40
0.75
 49
0.5
 49
-0.25
  0
LTYPE
  2
CENTER
  3
____ _ ____ _ ____ _ ____ _ ____ _ ____ _ ____
 70
    64
 72
    65
 73
     4
 40
2.0
 49
1.25
 49
-0.25
 49
0.25
 49
-0.25
  0
LTYPE
  2
PHANTOM
  3
_____ _ _ _____ _ _ _____ _ _ _____ _ _ ____
 70
    64
 72
    65
 73
     6
 40
2.5
 49
1.25
 49
-0.25
 49
0.25
 49
-0.25
 49
0.25
 49
-0.25
  0
ENDTAB
  0
TABLE
  2
LAYER
 70
     1
  0
LAYER
  2
0
 70
    64
 62
     7
  6
CONTINUOUS
  0
ENDTAB
  0
TABLE
  2
STYLE
 70
     1
  0
STYLE
  2
STANDARD
 70
     0
 40
0.000000
 41
1.000000
 50
0.000000
 71
     0
 42
3.000000
  3
txt
  4
BIGFONT
  0
ENDTAB
  0
ENDSEC
  0
SECTION
  2
BLOCKS
  0
ENDSEC
  0
SECTION
  2
ENTITIES
  0
LINE
  8
0
  6
CONTINUOUS
 10
710.555420
 20
464.000000
 11
710.555420
 21
476.000000
  0
LINE
  8
0
  6
CONTINUOUS
 10
703.555420
 20
464.000000
 11
703.555420
 21
476.000000
  0
LINE
  8
0
  6
CONTINUOUS
 10
709.555420
 20
477.000000
 11
704.555420
 21
477.000000
  0
LINE
  8
0
  6
CONTINUOUS
 10
704.555420
 20
463.000000
 11
709.555420
 21
463.000000
  0
ARC
  8
0
  6
CONTINUOUS
 10
704.555420
 20
476.000000
 40
1.000000
 50
90.000000
 51
180.000000
  0
ARC
  8
0
  6
CONTINUOUS
 10
709.555420
 20
476.000000
 40
1.000000
 50
0.000000
 51
90.000000
  0
ARC
  8
0
  6
CONTINUOUS
 10
709.555420
 20
464.000000
 40
1.000000
 50
-90.000000
 51
0.000000
  0
ARC
  8
0
  6
CONTINUOUS
 10
704.555420
 20
464.000000
 40
1.000000
 50
180.000000
 51
270.000000
  0
LINE
  8
0
  6
CONTINUOUS
 10
706.055420
 20
473.500000
 11
706.055420
 21
466.500000
  0
LINE
  8
0
  6
CONTINUOUS
 10
708.055420
 20
473.500000
 11
708.055420
 21
466.500000
  0
ARC
  8
0
  6
CONTINUOUS
 10
707.055420
 20
473.500000
 40
1.000000
 50
0.000000
 51
180.000000
  0
ARC
  8
0
  6
CONTINUOUS
 10
707.055420
 20
466.500000
 40
1.000000
 50
-180.000000
 51
0.000000
  0
LINE
  8
0
  6
CENTER
 10
378.000000
 20
336.076202
 11
378.000000
 21
242.451797
  0
LINE
  8
0
  6
CENTER
 10
332.333801
 20
290.000000
 11
448.979401
 21
290.000000
  0
LINE
  8
0
  6
CONTINUOUS
 10
350.000000
 20
330.011200
 11
350.000000
 21
249.988800
  0
LINE
  8
0
  6
CONTINUOUS
 10
418.500000
 20
329.792999
 11
418.500000
 21
250.207001
  0
LINE
  8
0
  6
CONTINUOUS
 10
378.000000
 20
330.500000
 11
418.500000
 21
329.792999
  0
LINE
  8
0
  6
CONTINUOUS
 10
378.000000
 20
330.500000
 11
337.500000
 21
329.792999
  0
LINE
  8
0
  6
CONTINUOUS
 10
378.000000
 20
249.500000
 11
337.500000
 21
250.207001
  0
LINE
  8
0
  6
CONTINUOUS
 10
378.000000
 20
249.500000
 11
418.500000
 21
250.207001
  0
LINE
  8
0
  6
DASHED
 10
355.000000
 20
254.366806
 11
355.000000
 21
258.298187
  0
LINE
  8
0
  6
DASHED
 10
401.000000
 20
254.366806
 11
401.000000
 21
258.298187
  0
LINE
  8
0
  6
DASHED
 10
399.035004
 20
327.632812
 11
378.000000
 21
328.000000
  0
LINE
  8
0
  6
DASHED
 10
356.964996
 20
327.632812
 11
378.000000
 21
328.000000
  0
LINE
  8
0
  6
DASHED
 10
399.035004
 20
252.367203
 11
378.000000
 21
252.000000
  0
LINE
  8
0
  6
DASHED
 10
356.964996
 20
252.367203
 11
378.000000
 21
252.000000
  0
ARC
  8
0
  6
DASHED
 10
378.000000
 20
290.000000
 40
38.000000
 50
-50.643299
 51
50.643299
  0
ARC
  8
0
  6
DASHED
 10
404.000000
 20
321.701813
 40
3.000000
 50
180.000000
 51
230.643295
  0
ARC
  8
0
  6
DASHED
 10
352.000000
 20
321.701813
 40
3.000000
 50
-50.643299
 51
0.000000
  0
ARC
  8
0
  6
DASHED
 10
352.000000
 20
258.298187
 40
3.000000
 50
0.000000
 51
50.643299
  0
ARC
  8
0
  6
DASHED
 10
404.000000
 20
258.298187
 40
3.000000
 50
129.356705
 51
180.000000
  0
ARC
  8
0
  6
DASHED
 10
357.000000
 20
325.633209
 40
2.000000
 50
91.000000
 51
180.000000
  0
ARC
  8
0
  6
DASHED
 10
399.000000
 20
325.633209
 40
2.000000
 50
0.000000
 51
89.000000
  0
ARC
  8
0
  6
DASHED
 10
357.000000
 20
254.366806
 40
2.000000
 50
180.000000
 51
269.000000
  0
ARC
  8
0
  6
DASHED
 10
399.000000
 20
254.366806
 40
2.000000
 50
-89.000000
 51
0.000000
  0
LINE
  8
0
  6
DASHED
 10
355.000000
 20
325.633209
 11
355.000000
 21
321.701813
  0
LINE
  8
0
  6
DASHED
 10
401.000000
 20
325.633209
 11
401.000000
 21
321.701813
  0
ARC
  8
0
  6
DASHED
 10
378.000000
 20
290.000000
 40
38.000000
 50
129.356705
 51
230.643295
  0
LINE
  8
0
  6
CENTER
 10
523.459229
 20
290.000000
 11
730.237427
 21
290.000000
  0
LINE
  8
0
  6
CENTER
 10
570.000000
 20
259.693787
 11
570.000000
 21
320.106812
  0
LINE
  8
0
  6
CONTINUOUS
 10
704.055420
 20
328.000000
 11
632.358826
 21
328.000000
  0
LINE
  8
0
  6
CONTINUOUS
 10
704.055420
 20
252.000000
 11
632.358826
 21
252.000000
  0
LINE
  8
0
  6
CENTER
 10
624.000000
 20
246.783005
 11
624.000000
 21
263.231812
  0
LINE
  8
0
  6
CENTER
 10
631.978577
 20
256.500000
 11
616.791199
 21
256.500000
  0
LINE
  8
0
  6
CONTINUOUS
 10
631.000000
 20
323.500000
 11
631.000000
 21
306.328400
  0
LINE
  8
0
  6
CONTINUOUS
 10
624.000000
 20
249.500000
 11
538.000000
 21
249.500000
  0
LINE
  8
0
  6
CENTER
 10
624.000000
 20
333.565613
 11
624.000000
 21
316.768188
  0
LINE
  8
0
  6
CENTER
 10
631.978577
 20
323.500000
 11
616.791199
 21
323.500000
  0
LINE
  8
0
  6
CONTINUOUS
 10
624.000000
 20
330.500000
 11
538.000000
 21
330.500000
  0
LINE
  8
0
  6
CENTER
 10
538.000000
 20
246.783005
 11
538.000000
 21
263.231812
  0
LINE
  8
0
  6
CENTER
 10
529.638428
 20
256.500000
 11
545.208801
 21
256.500000
  0
LINE
  8
0
  6
CONTINUOUS
 10
531.000000
 20
256.500000
 11
531.000000
 21
323.500000
  0
LINE
  8
0
  6
CENTER
 10
538.000000
 20
333.565613
 11
538.000000
 21
316.768188
  0
LINE
  8
0
  6
CENTER
 10
530.021423
 20
323.500000
 11
545.208801
 21
323.500000
  0
ARC
  8
0
  6
CONTINUOUS
 10
538.000000
 20
323.500000
 40
7.000000
 50
47.364071
 51
180.000000
  0
ARC
  8
0
  6
CONTINUOUS
 10
538.000000
 20
256.500000
 40
7.000000
 50
180.000000
 51
312.635895
  0
ARC
  8
0
  6
CONTINUOUS
 10
624.000000
 20
256.500000
 40
7.000000
 50
-132.635895
 51
0.000000
  0
ARC
  8
0
  6
CONTINUOUS
 10
624.000000
 20
323.500000
 40
7.000000
 50
0.000000
 51
132.635895
  0
LINE
  8
0
  6
CONTINUOUS
 10
535.000000
 20
279.328400
 11
535.000000
 21
300.671600
  0
LINE
  8
0
  6
CONTINUOUS
 10
534.414185
 20
277.914215
 11
531.585815
 21
275.085785
  0
ARC
  8
0
  6
CONTINUOUS
 10
533.000000
 20
273.671600
 40
2.000000
 50
135.000000
 51
180.000000
  0
ARC
  8
0
  6
CONTINUOUS
 10
533.000000
 20
279.328400
 40
2.000000
 50
-45.000000
 51
0.000000
  0
LINE
  8
0
  6
CONTINUOUS
 10
534.414185
 20
302.085785
 11
531.585815
 21
304.914215
  0
ARC
  8
0
  6
CONTINUOUS
 10
533.000000
 20
306.328400
 40
2.000000
 50
180.000000
 51
225.000000
  0
ARC
  8
0
  6
CONTINUOUS
 10
533.000000
 20
300.671600
 40
2.000000
 50
0.000000
 51
45.000000
  0
LINE
  8
0
  6
CONTINUOUS
 10
631.663574
 20
251.875397
 11
626.432983
 21
249.936401
  0
ARC
  8
0
  6
CONTINUOUS
 10
632.358826
 20
250.000000
 40
2.000000
 50
90.000000
 51
110.338699
  0
LINE
  8
0
  6
CONTINUOUS
 10
631.663574
 20
328.124603
 11
626.432983
 21
330.063599
  0
ARC
  8
0
  6
CONTINUOUS
 10
632.358826
 20
330.000000
 40
2.000000
 50
249.661301
 51
270.000000
  0
LINE
  8
0
  6
CONTINUOUS
 10
704.055420
 20
259.751007
 11
631.000000
 21
259.751007
  0
LINE
  8
0
  6
CONTINUOUS
 10
704.055420
 20
320.248993
 11
631.000000
 21
320.248993
  0
LINE
  8
0
  6
CONTINUOUS
 10
178.500000
 20
315.690399
 11
178.500000
 21
264.309601
  0
LINE
  8
0
  6
CONTINUOUS
 10
178.500000
 20
315.690399
 11
179.000000
 21
315.690399
  0
LINE
  8
0
  6
CONTINUOUS
 10
627.000000
 20
279.328400
 11
627.000000
 21
300.671600
  0
LINE
  8
0
  6
CONTINUOUS
 10
627.585815
 20
277.914215
 11
630.414185
 21
275.085785
  0
ARC
  8
0
  6
CONTINUOUS
 10
629.000000
 20
273.671600
 40
2.000000
 50
0.000000
 51
45.000000
  0
ARC
  8
0
  6
CONTINUOUS
 10
629.000000
 20
279.328400
 40
2.000000
 50
180.000000
 51
225.000000
  0
LINE
  8
0
  6
CONTINUOUS
 10
627.585815
 20
302.085785
 11
630.414185
 21
304.914215
  0
ARC
  8
0
  6
CONTINUOUS
 10
629.000000
 20
306.328400
 40
2.000000
 50
-45.000000
 51
0.000000
  0
ARC
  8
0
  6
CONTINUOUS
 10
629.000000
 20
300.671600
 40
2.000000
 50
135.000000
 51
180.000000
  0
LINE
  8
0
  6
CONTINUOUS
 10
631.000000
 20
273.671600
 11
631.000000
 21
256.500000
  0
ARC
  8
0
  6
CONTINUOUS
 10
597.000000
 20
278.000000
 40
30.000000
 50
292.331604
 51
300.358307
  0
ARC
  8
0
  6
CONTINUOUS
 10
604.599426
 20
259.500000
 40
10.000000
 50
270.000000
 51
292.331604
  0
ARC
  8
0
  6
CONTINUOUS
 10
597.000000
 20
302.000000
 40
30.000000
 50
59.641701
 51
67.668358
  0
ARC
  8
0
  6
CONTINUOUS
 10
604.599426
 20
320.500000
 40
10.000000
 50
67.668358
 51
90.000000
  0
ARC
  8
0
  6
CONTINUOUS
 10
565.000000
 20
278.000000
 40
30.000000
 50
239.641693
 51
247.668396
  0
ARC
  8
0
  6
CONTINUOUS
 10
557.400574
 20
259.500000
 40
10.000000
 50
247.668396
 51
270.000000
  0
ARC
  8
0
  6
CONTINUOUS
 10
565.000000
 20
302.000000
 40
30.000000
 50
112.331596
 51
120.358299
  0
ARC
  8
0
  6
CONTINUOUS
 10
557.400574
 20
320.500000
 40
10.000000
 50
90.000000
 51
112.331596
  0
LINE
  8
0
  6
CONTINUOUS
 10
540.000000
 20
303.500000
 11
540.000000
 21
276.500000
  0
LINE
  8
0
  6
CONTINUOUS
 10
562.000000
 20
325.500000
 11
600.000000
 21
325.500000
  0
ARC
  8
0
  6
CONTINUOUS
 10
562.000000
 20
303.500000
 40
22.000000
 50
90.000000
 51
110.487297
  0
LINE
  8
0
  6
CONTINUOUS
 10
553.000000
 20
321.739807
 11
553.000000
 21
322.234985
  0
LINE
  8
0
  6
CONTINUOUS
 10
555.000000
 20
321.000000
 11
555.000000
 21
322.864990
  0
LINE
  8
0
  6
CONTINUOUS
 10
544.598572
 20
311.198395
 11
552.518372
 21
320.438202
  0
LINE
  8
0
  6
CONTINUOUS
 10
545.518372
 20
309.198395
 11
554.518372
 21
319.698395
  0
ARC
  8
0
  6
CONTINUOUS
 10
553.000000
 20
321.000000
 40
2.000000
 50
-40.601299
 51
0.000000
  0
ARC
  8
0
  6
CONTINUOUS
 10
551.000000
 20
321.739807
 40
2.000000
 50
-40.601299
 51
0.000000
  0
ARC
  8
0
  6
CONTINUOUS
 10
543.080200
 20
312.500000
 40
2.000000
 50
-90.000000
 51
-40.601299
  0
ARC
  8
0
  6
CONTINUOUS
 10
544.000000
 20
310.500000
 40
2.000000
 50
-90.000000
 51
-40.601299
  0
LINE
  8
0
  6
CONTINUOUS
 10
554.875793
 20
320.306213
 11
552.875793
 21
321.045990
  0
LINE
  8
0
  6
CONTINUOUS
 10
544.835571
 20
308.683014
 11
543.915771
 21
310.683014
  0
LINE
  8
0
  6
CONTINUOUS
 10
544.000000
 20
308.500000
 11
542.226196
 21
308.500000
  0
LINE
  8
0
  6
CONTINUOUS
 10
543.080200
 20
310.500000
 11
542.635010
 21
310.500000
  0
ARC
  8
0
  6
CONTINUOUS
 10
542.226196
 20
306.500000
 40
2.000000
 50
90.000000
 51
171.373093
  0
ARC
  8
0
  6
CONTINUOUS
 10
542.635010
 20
308.500000
 40
2.000000
 50
90.000000
 51
165.522507
  0
ARC
  8
0
  6
CONTINUOUS
 10
557.000000
 20
322.864990
 40
2.000000
 50
104.477501
 51
180.000000
  0
ARC
  8
0
  6
CONTINUOUS
 10
555.000000
 20
322.234985
 40
2.000000
 50
110.487297
 51
180.000000
  0
ARC
  8
0
  6
CONTINUOUS
 10
562.000000
 20
303.500000
 40
22.000000
 50
165.522507
 51
180.000000
  0
ARC
  8
0
  6
CONTINUOUS
 10
600.000000
 20
303.500000
 40
22.000000
 50
69.512688
 51
90.000000
  0
LINE
  8
0
  6
CONTINUOUS
 10
609.000000
 20
321.739807
 11
609.000000
 21
322.234985
  0
LINE
  8
0
  6
CONTINUOUS
 10
607.000000
 20
321.000000
 11
607.000000
 21
322.864990
  0
LINE
  8
0
  6
CONTINUOUS
 10
617.401428
 20
311.198395
 11
609.481628
 21
320.438202
  0
LINE
  8
0
  6
CONTINUOUS
 10
616.481628
 20
309.198395
 11
607.481628
 21
319.698395
  0
ARC
  8
0
  6
CONTINUOUS
 10
609.000000
 20
321.000000
 40
2.000000
 50
180.000000
 51
220.601303
  0
ARC
  8
0
  6
CONTINUOUS
 10
611.000000
 20
321.739807
 40
2.000000
 50
180.000000
 51
220.601303
  0
ARC
  8
0
  6
CONTINUOUS
 10
618.919800
 20
312.500000
 40
2.000000
 50
220.601303
 51
270.000000
  0
ARC
  8
0
  6
CONTINUOUS
 10
618.000000
 20
310.500000
 40
2.000000
 50
220.601303
 51
270.000000
  0
LINE
  8
0
  6
CONTINUOUS
 10
607.124207
 20
320.306213
 11
609.124207
 21
321.045990
  0
LINE
  8
0
  6
CONTINUOUS
 10
617.164429
 20
308.683014
 11
618.084229
 21
310.683014
  0
LINE
  8
0
  6
CONTINUOUS
 10
618.000000
 20
308.500000
 11
619.773804
 21
308.500000
  0
LINE
  8
0
  6
CONTINUOUS
 10
618.919800
 20
310.500000
 11
619.364990
 21
310.500000
  0
ARC
  8
0
  6
CONTINUOUS
 10
619.773804
 20
306.500000
 40
2.000000
 50
8.626927
 51
90.000000
  0
ARC
  8
0
  6
CONTINUOUS
 10
619.364990
 20
308.500000
 40
2.000000
 50
14.477510
 51
90.000000
  0
ARC
  8
0
  6
CONTINUOUS
 10
605.000000
 20
322.864990
 40
2.000000
 50
0.000000
 51
75.522491
  0
ARC
  8
0
  6
CONTINUOUS
 10
607.000000
 20
322.234985
 40
2.000000
 50
0.000000
 51
69.512688
  0
ARC
  8
0
  6
CONTINUOUS
 10
600.000000
 20
303.500000
 40
22.000000
 50
0.000000
 51
14.477510
  0
LINE
  8
0
  6
CONTINUOUS
 10
622.000000
 20
303.500000
 11
622.000000
 21
276.500000
  0
LINE
  8
0
  6
CONTINUOUS
 10
562.000000
 20
254.500000
 11
600.000000
 21
254.500000
  0
ARC
  8
0
  6
CONTINUOUS
 10
562.000000
 20
276.500000
 40
22.000000
 50
-110.487297
 51
-90.000000
  0
LINE
  8
0
  6
CONTINUOUS
 10
553.000000
 20
258.260193
 11
553.000000
 21
257.765015
  0
LINE
  8
0
  6
CONTINUOUS
 10
555.000000
 20
259.000000
 11
555.000000
 21
257.135010
  0
LINE
  8
0
  6
CONTINUOUS
 10
544.598572
 20
268.801605
 11
552.518372
 21
259.561798
  0
LINE
  8
0
  6
CONTINUOUS
 10
545.518372
 20
270.801605
 11
554.518372
 21
260.301605
  0
ARC
  8
0
  6
CONTINUOUS
 10
553.000000
 20
259.000000
 40
2.000000
 50
0.000000
 51
40.601299
  0
ARC
  8
0
  6
CONTINUOUS
 10
551.000000
 20
258.260193
 40
2.000000
 50
0.000000
 51
40.601299
  0
ARC
  8
0
  6
CONTINUOUS
 10
543.080200
 20
267.500000
 40
2.000000
 50
40.601299
 51
90.000000
  0
ARC
  8
0
  6
CONTINUOUS
 10
544.000000
 20
269.500000
 40
2.000000
 50
40.601299
 51
90.000000
  0
LINE
  8
0
  6
CONTINUOUS
 10
554.875793
 20
259.693787
 11
552.875793
 21
258.954010
  0
LINE
  8
0
  6
CONTINUOUS
 10
544.835571
 20
271.316986
 11
543.915771
 21
269.316986
  0
LINE
  8
0
  6
CONTINUOUS
 10
544.000000
 20
271.500000
 11
542.226196
 21
271.500000
  0
LINE
  8
0
  6
CONTINUOUS
 10
543.080200
 20
269.500000
 11
542.635010
 21
269.500000
  0
ARC
  8
0
  6
CONTINUOUS
 10
542.226196
 20
273.500000
 40
2.000000
 50
-171.373093
 51
-90.000000
  0
ARC
  8
0
  6
CONTINUOUS
 10
542.635010
 20
271.500000
 40
2.000000
 50
-165.522507
 51
-90.000000
  0
ARC
  8
0
  6
CONTINUOUS
 10
557.000000
 20
257.135010
 40
2.000000
 50
180.000000
 51
255.522507
  0
ARC
  8
0
  6
CONTINUOUS
 10
555.000000
 20
257.765015
 40
2.000000
 50
180.000000
 51
249.512695
  0
ARC
  8
0
  6
CONTINUOUS
 10
600.000000
 20
276.500000
 40
22.000000
 50
270.000000
 51
290.487305
  0
LINE
  8
0
  6
CONTINUOUS
 10
609.000000
 20
258.260193
 11
609.000000
 21
257.765015
  0
LINE
  8
0
  6
CONTINUOUS
 10
607.000000
 20
259.000000
 11
607.000000
 21
257.135010
  0
LINE
  8
0
  6
CONTINUOUS
 10
617.401428
 20
268.801605
 11
609.481628
 21
259.561798
  0
LINE
  8
0
  6
CONTINUOUS
 10
616.481628
 20
270.801605
 11
607.481628
 21
260.301605
  0
ARC
  8
0
  6
CONTINUOUS
 10
609.000000
 20
259.000000
 40
2.000000
 50
139.398697
 51
180.000000
  0
ARC
  8
0
  6
CONTINUOUS
 10
611.000000
 20
258.260193
 40
2.000000
 50
139.398697
 51
180.000000
  0
ARC
  8
0
  6
CONTINUOUS
 10
618.919800
 20
267.500000
 40
2.000000
 50
90.000000
 51
139.398697
  0
ARC
  8
0
  6
CONTINUOUS
 10
618.000000
 20
269.500000
 40
2.000000
 50
90.000000
 51
139.398697
  0
LINE
  8
0
  6
CONTINUOUS
 10
607.124207
 20
259.693787
 11
609.124207
 21
258.954010
  0
LINE
  8
0
  6
CONTINUOUS
 10
617.164429
 20
271.316986
 11
618.084229
 21
269.316986
  0
LINE
  8
0
  6
CONTINUOUS
 10
618.000000
 20
271.500000
 11
619.773804
 21
271.500000
  0
LINE
  8
0
  6
CONTINUOUS
 10
618.919800
 20
269.500000
 11
619.364990
 21
269.500000
  0
ARC
  8
0
  6
CONTINUOUS
 10
619.773804
 20
273.500000
 40
2.000000
 50
270.000000
 51
351.373108
  0
ARC
  8
0
  6
CONTINUOUS
 10
619.364990
 20
271.500000
 40
2.000000
 50
270.000000
 51
345.522491
  0
ARC
  8
0
  6
CONTINUOUS
 10
605.000000
 20
257.135010
 40
2.000000
 50
-75.522491
 51
0.000000
  0
ARC
  8
0
  6
CONTINUOUS
 10
607.000000
 20
257.765015
 40
2.000000
 50
-69.512688
 51
0.000000
  0
ARC
  8
0
  6
CONTINUOUS
 10
562.000000
 20
276.500000
 40
22.000000
 50
180.000000
 51
194.477493
  0
ARC
  8
0
  6
CONTINUOUS
 10
600.000000
 20
276.500000
 40
22.000000
 50
-14.477510
 51
0.000000
  0
LINE
  8
0
  6
CONTINUOUS
 10
384.964996
 20
275.085388
 11
418.500000
 21
274.500000
  0
LINE
  8
0
  6
CONTINUOUS
 10
387.298004
 20
279.044586
 11
418.500000
 21
278.500000
  0
LINE
  8
0
  6
CONTINUOUS
 10
383.000000
 20
302.915009
 11
383.000000
 21
277.084991
  0
LINE
  8
0
  6
CONTINUOUS
 10
384.964996
 20
304.914612
 11
418.500000
 21
305.500000
  0
LINE
  8
0
  6
CONTINUOUS
 10
387.298004
 20
300.955414
 11
418.500000
 21
301.500000
  0
LINE
  8
0
  6
CONTINUOUS
 10
372.571198
 20
275.629395
 11
370.238190
 21
279.588593
  0
LINE
  8
0
  6
CONTINUOUS
 10
370.238190
 20
300.411407
 11
372.571198
 21
304.370605
  0
LINE
  8
0
  6
CONTINUOUS
 10
385.761810
 20
300.193207
 11
383.428802
 21
304.152405
  0
LINE
  8
0
  6
CONTINUOUS
 10
385.761810
 20
279.806793
 11
383.428802
 21
275.847595
  0
ARC
  8
0
  6
CONTINUOUS
 10
385.000000
 20
277.084991
 40
2.000000
 50
180.000000
 51
269.000000
  0
ARC
  8
0
  6
CONTINUOUS
 10
387.333008
 20
281.044403
 40
2.000000
 50
180.000000
 51
269.000000
  0
ARC
  8
0
  6
CONTINUOUS
 10
387.333008
 20
298.955597
 40
2.000000
 50
91.000000
 51
180.000000
  0
ARC
  8
0
  6
CONTINUOUS
 10
385.000000
 20
302.915009
 40
2.000000
 50
91.000000
 51
180.000000
  0
ARC
  8
0
  6
CONTINUOUS
 10
371.000000
 20
303.133209
 40
2.000000
 50
0.000000
 51
89.000000
  0
ARC
  8
0
  6
CONTINUOUS
 10
368.666992
 20
280.826202
 40
2.000000
 50
-89.000000
 51
0.000000
  0
ARC
  8
0
  6
CONTINUOUS
 10
371.000000
 20
276.866791
 40
2.000000
 50
-89.000000
 51
0.000000
  0
LINE
  8
0
  6
CENTER
 10
527.378418
 20
470.000000
 11
730.237427
 21
470.000000
  0
LINE
  8
0
  6
CENTER
 10
570.000000
 20
516.609985
 11
570.000000
 21
397.128387
  0
LINE
  8
0
  6
CONTINUOUS
 10
632.302185
 20
432.000000
 11
704.055420
 21
432.000000
  0
LINE
  8
0
  6
CONTINUOUS
 10
633.448425
 20
508.000000
 11
704.055420
 21
508.000000
  0
LINE
  8
0
  6
CONTINUOUS
 10
704.055420
 20
432.000000
 11
704.055420
 21
463.134003
  0
LINE
  8
0
  6
CENTER
 10
624.000000
 20
426.140991
 11
624.000000
 21
513.816223
  0
LINE
  8
0
  6
CENTER
 10
538.000000
 20
426.140991
 11
538.000000
 21
513.816223
  0
LINE
  8
0
  6
CONTINUOUS
 10
704.055420
 20
493.000000
 11
627.996826
 21
493.000000
  0
LINE
  8
0
  6
CONTINUOUS
 10
704.055420
 20
447.000000
 11
627.996826
 21
447.000000
  0
LINE
  8
0
  6
CONTINUOUS
 10
531.000000
 20
470.000000
 11
531.706970
 21
510.500000
  0
LINE
  8
0
  6
CONTINUOUS
 10
531.000000
 20
470.000000
 11
531.706970
 21
429.500000
  0
LINE
  8
0
  6
CONTINUOUS
 10
630.293030
 20
429.500000
 11
531.706970
 21
429.500000
  0
LINE
  8
0
  6
CONTINUOUS
 10
632.000000
 20
498.000000
 11
531.488770
 21
498.000000
  0
LINE
  8
0
  6
CONTINUOUS
 10
632.000000
 20
507.379211
 11
632.000000
 21
498.000000
  0
ARC
  8
0
  6
CONTINUOUS
 10
633.448425
 20
506.000000
 40
2.000000
 50
90.000000
 51
136.398804
  0
ARC
  8
0
  6
CONTINUOUS
 10
632.302185
 20
430.000000
 40
2.000000
 50
90.000000
 51
179.000000
  0
LINE
  8
0
  6
CONTINUOUS
 10
632.000000
 20
493.000000
 11
632.000000
 21
447.000000
  0
LINE
  8
0
  6
CONTINUOUS
 10
630.293030
 20
510.500000
 11
630.598572
 21
493.000000
  0
LINE
  8
0
  6
CONTINUOUS
 10
630.293030
 20
429.500000
 11
630.598572
 21
447.000000
  0
LINE
  8
0
  6
CONTINUOUS
 10
626.432983
 20
470.000000
 11
625.997192
 21
494.964996
  0
LINE
  8
0
  6
CONTINUOUS
 10
626.432983
 20
470.000000
 11
625.997192
 21
445.035004
  0
ARC
  8
0
  6
CONTINUOUS
 10
627.996826
 20
495.000000
 40
2.000000
 50
-179.000000
 51
-90.000000
  0
ARC
  8
0
  6
CONTINUOUS
 10
627.996826
 20
445.000000
 40
2.000000
 50
90.000000
 51
179.000000
  0
LINE
  8
0
  6
CONTINUOUS
 10
555.632629
 20
510.500000
 11
555.632629
 21
475.000000
  0
LINE
  8
0
  6
CONTINUOUS
 10
546.658020
 20
510.500000
 11
546.658020
 21
477.204010
  0
LINE
  8
0
  6
CONTINUOUS
 10
546.658020
 20
462.795990
 11
546.658020
 21
429.500000
  0
LINE
  8
0
  6
CONTINUOUS
 10
555.632629
 20
475.000000
 11
538.087219
 21
475.000000
  0
ARC
  8
0
  6
CONTINUOUS
 10
546.658020
 20
466.204010
 40
11.000000
 50
68.924667
 51
115.717697
  0
ARC
  8
0
  6
CONTINUOUS
 10
538.087219
 20
481.500000
 40
6.500000
 50
-90.000000
 51
-64.282272
  0
LINE
  8
0
  6
CONTINUOUS
 10
553.295227
 20
475.434814
 11
550.613586
 21
476.468201
  0
LINE
  8
0
  6
CONTINUOUS
 10
541.884827
 20
476.114410
 11
540.907776
 21
475.643799
  0
ARC
  8
0
  6
CONTINUOUS
 10
555.632629
 20
481.500000
 40
6.500000
 50
-111.075302
 51
-90.000000
  0
LINE
  8
0
  6
CONTINUOUS
 10
555.632629
 20
465.000000
 11
538.087219
 21
465.000000
  0
ARC
  8
0
  6
CONTINUOUS
 10
546.658020
 20
473.795990
 40
11.000000
 50
244.282303
 51
291.075287
  0
ARC
  8
0
  6
CONTINUOUS
 10
538.087219
 20
458.500000
 40
6.500000
 50
64.282272
 51
90.000000
  0
LINE
  8
0
  6
CONTINUOUS
 10
553.295227
 20
464.565186
 11
550.613586
 21
463.531799
  0
LINE
  8
0
  6
CONTINUOUS
 10
541.884827
 20
463.885590
 11
540.907776
 21
464.356201
  0
ARC
  8
0
  6
CONTINUOUS
 10
555.632629
 20
458.500000
 40
6.500000
 50
90.000000
 51
111.075302
  0
LINE
  8
0
  6
CONTINUOUS
 10
555.632629
 20
465.000000
 11
555.632629
 21
429.500000
  0
LINE
  8
0
  6
CONTINUOUS
 10
606.367371
 20
475.000000
 11
623.912781
 21
475.000000
  0
ARC
  8
0
  6
CONTINUOUS
 10
615.341980
 20
466.204010
 40
11.000000
 50
64.282272
 51
111.075302
  0
ARC
  8
0
  6
CONTINUOUS
 10
623.912781
 20
481.500000
 40
6.500000
 50
244.282303
 51
270.000000
  0
LINE
  8
0
  6
CONTINUOUS
 10
608.704773
 20
475.434814
 11
611.386414
 21
476.468201
  0
LINE
  8
0
  6
CONTINUOUS
 10
620.115173
 20
476.114410
 11
621.092224
 21
475.643799
  0
ARC
  8
0
  6
CONTINUOUS
 10
606.367371
 20
481.500000
 40
6.500000
 50
270.000000
 51
291.075287
  0
LINE
  8
0
  6
CONTINUOUS
 10
606.367371
 20
465.000000
 11
623.912781
 21
465.000000
  0
ARC
  8
0
  6
CONTINUOUS
 10
615.341980
 20
473.795990
 40
11.000000
 50
-111.075302
 51
-64.282272
  0
ARC
  8
0
  6
CONTINUOUS
 10
623.912781
 20
458.500000
 40
6.500000
 50
90.000000
 51
115.717697
  0
LINE
  8
0
  6
CONTINUOUS
 10
608.704773
 20
464.565186
 11
611.386414
 21
463.531799
  0
LINE
  8
0
  6
CONTINUOUS
 10
620.115173
 20
463.885590
 11
621.092224
 21
464.356201
  0
ARC
  8
0
  6
CONTINUOUS
 10
606.367371
 20
458.500000
 40
6.500000
 50
68.924667
 51
90.000000
  0
LINE
  8
0
  6
CONTINUOUS
 10
606.367371
 20
465.000000
 11
606.367371
 21
429.500000
  0
LINE
  8
0
  6
CONTINUOUS
 10
615.341980
 20
462.795990
 11
615.341980
 21
429.500000
  0
LINE
  8
0
  6
CONTINUOUS
 10
606.367371
 20
510.500000
 11
606.367371
 21
475.000000
  0
LINE
  8
0
  6
CONTINUOUS
 10
615.341980
 20
510.500000
 11
615.341980
 21
477.204010
  0
ARC
  8
0
  6
CONTINUOUS
 10
546.805420
 20
246.936203
 40
6.000000
 50
59.641701
 51
132.635895
  0
ARC
  8
0
  6
CONTINUOUS
 10
546.805420
 20
333.063812
 40
6.000000
 50
227.364105
 51
300.358307
  0
ARC
  8
0
  6
CONTINUOUS
 10
615.194580
 20
333.063812
 40
6.000000
 50
239.641693
 51
312.635895
  0
ARC
  8
0
  6
CONTINUOUS
 10
615.194580
 20
246.936203
 40
6.000000
 50
47.364071
 51
120.358299
  0
LINE
  8
0
  6
CONTINUOUS
 10
178.500000
 20
264.309601
 11
179.000000
 21
264.309601
  0
LINE
  8
0
  6
CONTINUOUS
 10
337.500000
 20
329.792999
 11
337.500000
 21
250.207001
  0
LINE
  8
0
  6
CENTER
 10
286.540802
 20
290.000000
 11
75.570000
 21
290.000000
  0
LINE
  8
0
  6
CENTER
 10
240.000000
 20
258.421204
 11
240.000000
 21
320.106812
  0
LINE
  8
0
  6
CONTINUOUS
 10
105.944504
 20
328.000000
 11
177.641266
 21
328.000000
  0
LINE
  8
0
  6
CONTINUOUS
 10
105.944504
 20
252.000000
 11
177.641266
 21
252.000000
  0
LINE
  8
0
  6
CENTER
 10
186.000000
 20
246.783005
 11
186.000000
 21
263.231812
  0
LINE
  8
0
  6
CENTER
 10
178.021347
 20
256.500000
 11
193.208847
 21
256.500000
  0
LINE
  8
0
  6
CONTINUOUS
 10
179.000000
 20
323.500000
 11
179.000000
 21
306.328400
  0
LINE
  8
0
  6
CONTINUOUS
 10
186.000000
 20
249.500000
 11
272.000000
 21
249.500000
  0
LINE
  8
0
  6
CENTER
 10
186.000000
 20
333.565613
 11
186.000000
 21
316.768188
  0
LINE
  8
0
  6
CENTER
 10
178.021347
 20
323.500000
 11
193.208847
 21
323.500000
  0
LINE
  8
0
  6
CONTINUOUS
 10
186.000000
 20
330.500000
 11
272.000000
 21
330.500000
  0
LINE
  8
0
  6
CENTER
 10
272.000000
 20
246.783005
 11
272.000000
 21
263.231812
  0
LINE
  8
0
  6
CENTER
 10
280.361603
 20
256.500000
 11
264.791199
 21
256.500000
  0
LINE
  8
0
  6
CONTINUOUS
 10
279.000000
 20
256.500000
 11
279.000000
 21
323.500000
  0
LINE
  8
0
  6
CENTER
 10
272.000000
 20
333.565613
 11
272.000000
 21
316.768188
  0
LINE
  8
0
  6
CENTER
 10
279.978607
 20
323.500000
 11
264.791199
 21
323.500000
  0
ARC
  8
0
  6
CONTINUOUS
 10
272.000000
 20
323.500000
 40
7.000000
 50
0.000000
 51
132.635895
  0
ARC
  8
0
  6
CONTINUOUS
 10
272.000000
 20
256.500000
 40
7.000000
 50
-132.635895
 51
0.000000
  0
ARC
  8
0
  6
CONTINUOUS
 10
186.000000
 20
256.500000
 40
7.000000
 50
180.000000
 51
312.635895
  0
ARC
  8
0
  6
CONTINUOUS
 10
186.000000
 20
323.500000
 40
7.000000
 50
47.364071
 51
180.000000
  0
LINE
  8
0
  6
CONTINUOUS
 10
275.000000
 20
279.328400
 11
275.000000
 21
300.671600
  0
LINE
  8
0
  6
CONTINUOUS
 10
275.585785
 20
277.914215
 11
278.414215
 21
275.085785
  0
ARC
  8
0
  6
CONTINUOUS
 10
277.000000
 20
273.671600
 40
2.000000
 50
0.000000
 51
45.000000
  0
ARC
  8
0
  6
CONTINUOUS
 10
277.000000
 20
279.328400
 40
2.000000
 50
180.000000
 51
225.000000
  0
LINE
  8
0
  6
CONTINUOUS
 10
275.585785
 20
302.085785
 11
278.414215
 21
304.914215
  0
ARC
  8
0
  6
CONTINUOUS
 10
277.000000
 20
306.328400
 40
2.000000
 50
-45.000000
 51
0.000000
  0
ARC
  8
0
  6
CONTINUOUS
 10
277.000000
 20
300.671600
 40
2.000000
 50
135.000000
 51
180.000000
  0
LINE
  8
0
  6
CONTINUOUS
 10
178.336380
 20
251.875397
 11
183.567017
 21
249.936401
  0
ARC
  8
0
  6
CONTINUOUS
 10
177.641266
 20
250.000000
 40
2.000000
 50
69.661270
 51
90.000000
  0
LINE
  8
0
  6
CONTINUOUS
 10
178.336380
 20
328.124603
 11
183.567017
 21
330.063599
  0
ARC
  8
0
  6
CONTINUOUS
 10
177.641266
 20
330.000000
 40
2.000000
 50
-90.000000
 51
-69.661270
  0
LINE
  8
0
  6
CONTINUOUS
 10
105.944504
 20
259.751007
 11
179.000000
 21
259.751007
  0
LINE
  8
0
  6
CONTINUOUS
 10
105.944504
 20
320.248993
 11
179.000000
 21
320.248993
  0
LINE
  8
0
  6
CONTINUOUS
 10
183.000000
 20
279.328400
 11
183.000000
 21
300.671600
  0
LINE
  8
0
  6
CONTINUOUS
 10
182.414215
 20
277.914215
 11
179.585785
 21
275.085785
  0
ARC
  8
0
  6
CONTINUOUS
 10
181.000000
 20
273.671600
 40
2.000000
 50
135.000000
 51
180.000000
  0
ARC
  8
0
  6
CONTINUOUS
 10
181.000000
 20
279.328400
 40
2.000000
 50
-45.000000
 51
0.000000
  0
LINE
  8
0
  6
CONTINUOUS
 10
182.414215
 20
302.085785
 11
179.585785
 21
304.914215
  0
ARC
  8
0
  6
CONTINUOUS
 10
181.000000
 20
306.328400
 40
2.000000
 50
180.000000
 51
225.000000
  0
ARC
  8
0
  6
CONTINUOUS
 10
181.000000
 20
300.671600
 40
2.000000
 50
0.000000
 51
45.000000
  0
LINE
  8
0
  6
CONTINUOUS
 10
179.000000
 20
273.671600
 11
179.000000
 21
256.500000
  0
ARC
  8
0
  6
CONTINUOUS
 10
213.000000
 20
278.000000
 40
30.000000
 50
-120.358299
 51
-112.331596
  0
ARC
  8
0
  6
CONTINUOUS
 10
205.400604
 20
259.500000
 40
10.000000
 50
-112.331596
 51
-90.000000
  0
ARC
  8
0
  6
CONTINUOUS
 10
213.000000
 20
302.000000
 40
30.000000
 50
112.331596
 51
120.358299
  0
ARC
  8
0
  6
CONTINUOUS
 10
205.400604
 20
320.500000
 40
10.000000
 50
90.000000
 51
112.331596
  0
ARC
  8
0
  6
CONTINUOUS
 10
245.000000
 20
278.000000
 40
30.000000
 50
-67.668358
 51
-59.641701
  0
ARC
  8
0
  6
CONTINUOUS
 10
252.599396
 20
259.500000
 40
10.000000
 50
-90.000000
 51
-67.668358
  0
ARC
  8
0
  6
CONTINUOUS
 10
245.000000
 20
302.000000
 40
30.000000
 50
59.641701
 51
67.668358
  0
ARC
  8
0
  6
CONTINUOUS
 10
252.599396
 20
320.500000
 40
10.000000
 50
67.668358
 51
90.000000
  0
LINE
  8
0
  6
CONTINUOUS
 10
270.000000
 20
303.500000
 11
270.000000
 21
276.500000
  0
LINE
  8
0
  6
CONTINUOUS
 10
248.000000
 20
325.500000
 11
210.000000
 21
325.500000
  0
ARC
  8
0
  6
CONTINUOUS
 10
248.000000
 20
303.500000
 40
22.000000
 50
69.512688
 51
90.000000
  0
LINE
  8
0
  6
CONTINUOUS
 10
257.000000
 20
321.739807
 11
257.000000
 21
322.234985
  0
LINE
  8
0
  6
CONTINUOUS
 10
255.000000
 20
321.000000
 11
255.000000
 21
322.864990
  0
LINE
  8
0
  6
CONTINUOUS
 10
265.401398
 20
311.198395
 11
257.481415
 21
320.438202
  0
LINE
  8
0
  6
CONTINUOUS
 10
264.481415
 20
309.198395
 11
255.481400
 21
319.698395
  0
ARC
  8
0
  6
CONTINUOUS
 10
257.000000
 20
321.000000
 40
2.000000
 50
180.000000
 51
220.601303
  0
ARC
  8
0
  6
CONTINUOUS
 10
259.000000
 20
321.739807
 40
2.000000
 50
180.000000
 51
220.601303
  0
ARC
  8
0
  6
CONTINUOUS
 10
266.919800
 20
312.500000
 40
2.000000
 50
220.601303
 51
270.000000
  0
ARC
  8
0
  6
CONTINUOUS
 10
266.000000
 20
310.500000
 40
2.000000
 50
220.601303
 51
270.000000
  0
LINE
  8
0
  6
CONTINUOUS
 10
255.124207
 20
320.306213
 11
257.124207
 21
321.045990
  0
LINE
  8
0
  6
CONTINUOUS
 10
265.164215
 20
308.683014
 11
266.084198
 21
310.683014
  0
LINE
  8
0
  6
CONTINUOUS
 10
266.000000
 20
308.500000
 11
267.773804
 21
308.500000
  0
LINE
  8
0
  6
CONTINUOUS
 10
266.919800
 20
310.500000
 11
267.364990
 21
310.500000
  0
ARC
  8
0
  6
CONTINUOUS
 10
267.773804
 20
306.500000
 40
2.000000
 50
8.626927
 51
90.000000
  0
ARC
  8
0
  6
CONTINUOUS
 10
267.364990
 20
308.500000
 40
2.000000
 50
14.477510
 51
90.000000
  0
ARC
  8
0
  6
CONTINUOUS
 10
253.000000
 20
322.864990
 40
2.000000
 50
0.000000
 51
75.522491
  0
ARC
  8
0
  6
CONTINUOUS
 10
255.000000
 20
322.234985
 40
2.000000
 50
0.000000
 51
69.512688
  0
ARC
  8
0
  6
CONTINUOUS
 10
248.000000
 20
303.500000
 40
22.000000
 50
0.000000
 51
14.477510
  0
ARC
  8
0
  6
CONTINUOUS
 10
210.000000
 20
303.500000
 40
22.000000
 50
90.000000
 51
110.487297
  0
LINE
  8
0
  6
CONTINUOUS
 10
201.000000
 20
321.739807
 11
201.000000
 21
322.234985
  0
LINE
  8
0
  6
CONTINUOUS
 10
203.000000
 20
321.000000
 11
203.000000
 21
322.864990
  0
LINE
  8
0
  6
CONTINUOUS
 10
192.598633
 20
311.198395
 11
200.518600
 21
320.438202
  0
LINE
  8
0
  6
CONTINUOUS
 10
193.518494
 20
309.198395
 11
202.518600
 21
319.698395
  0
ARC
  8
0
  6
CONTINUOUS
 10
201.000000
 20
321.000000
 40
2.000000
 50
-40.601299
 51
0.000000
  0
ARC
  8
0
  6
CONTINUOUS
 10
199.000000
 20
321.739807
 40
2.000000
 50
-40.601299
 51
0.000000
  0
ARC
  8
0
  6
CONTINUOUS
 10
191.080124
 20
312.500000
 40
2.000000
 50
-90.000000
 51
-40.601299
  0
ARC
  8
0
  6
CONTINUOUS
 10
192.000000
 20
310.500000
 40
2.000000
 50
-90.000000
 51
-40.601299
  0
LINE
  8
0
  6
CONTINUOUS
 10
202.875793
 20
320.306213
 11
200.875793
 21
321.045990
  0
LINE
  8
0
  6
CONTINUOUS
 10
192.835693
 20
308.683014
 11
191.915833
 21
310.683014
  0
LINE
  8
0
  6
CONTINUOUS
 10
192.000000
 20
308.500000
 11
190.226273
 21
308.500000
  0
LINE
  8
0
  6
CONTINUOUS
 10
191.080124
 20
310.500000
 11
190.635086
 21
310.500000
  0
ARC
  8
0
  6
CONTINUOUS
 10
190.226273
 20
306.500000
 40
2.000000
 50
90.000000
 51
171.373093
  0
ARC
  8
0
  6
CONTINUOUS
 10
190.635086
 20
308.500000
 40
2.000000
 50
90.000000
 51
165.522507
  0
ARC
  8
0
  6
CONTINUOUS
 10
205.000000
 20
322.864990
 40
2.000000
 50
104.477501
 51
180.000000
  0
ARC
  8
0
  6
CONTINUOUS
 10
203.000000
 20
322.234985
 40
2.000000
 50
110.487297
 51
180.000000
  0
ARC
  8
0
  6
CONTINUOUS
 10
210.000000
 20
303.500000
 40
22.000000
 50
165.522507
 51
180.000000
  0
LINE
  8
0
  6
CONTINUOUS
 10
188.000000
 20
303.500000
 11
188.000000
 21
276.500000
  0
LINE
  8
0
  6
CONTINUOUS
 10
248.000000
 20
254.500000
 11
210.000000
 21
254.500000
  0
ARC
  8
0
  6
CONTINUOUS
 10
248.000000
 20
276.500000
 40
22.000000
 50
270.000000
 51
290.487305
  0
LINE
  8
0
  6
CONTINUOUS
 10
257.000000
 20
258.260193
 11
257.000000
 21
257.765015
  0
LINE
  8
0
  6
CONTINUOUS
 10
255.000000
 20
259.000000
 11
255.000000
 21
257.135010
  0
LINE
  8
0
  6
CONTINUOUS
 10
265.401398
 20
268.801605
 11
257.481415
 21
259.561798
  0
LINE
  8
0
  6
CONTINUOUS
 10
264.481415
 20
270.801605
 11
255.481400
 21
260.301605
  0
ARC
  8
0
  6
CONTINUOUS
 10
257.000000
 20
259.000000
 40
2.000000
 50
139.398697
 51
180.000000
  0
ARC
  8
0
  6
CONTINUOUS
 10
259.000000
 20
258.260193
 40
2.000000
 50
139.398697
 51
180.000000
  0
ARC
  8
0
  6
CONTINUOUS
 10
266.919800
 20
267.500000
 40
2.000000
 50
90.000000
 51
139.398697
  0
ARC
  8
0
  6
CONTINUOUS
 10
266.000000
 20
269.500000
 40
2.000000
 50
90.000000
 51
139.398697
  0
LINE
  8
0
  6
CONTINUOUS
 10
255.124207
 20
259.693787
 11
257.124207
 21
258.954010
  0
LINE
  8
0
  6
CONTINUOUS
 10
265.164215
 20
271.316986
 11
266.084198
 21
269.316986
  0
LINE
  8
0
  6
CONTINUOUS
 10
266.000000
 20
271.500000
 11
267.773804
 21
271.500000
  0
LINE
  8
0
  6
CONTINUOUS
 10
266.919800
 20
269.500000
 11
267.364990
 21
269.500000
  0
ARC
  8
0
  6
CONTINUOUS
 10
267.773804
 20
273.500000
 40
2.000000
 50
270.000000
 51
351.373108
  0
ARC
  8
0
  6
CONTINUOUS
 10
267.364990
 20
271.500000
 40
2.000000
 50
270.000000
 51
345.522491
  0
ARC
  8
0
  6
CONTINUOUS
 10
253.000000
 20
257.135010
 40
2.000000
 50
-75.522491
 51
0.000000
  0
ARC
  8
0
  6
CONTINUOUS
 10
255.000000
 20
257.765015
 40
2.000000
 50
-69.512688
 51
0.000000
  0
ARC
  8
0
  6
CONTINUOUS
 10
210.000000
 20
276.500000
 40
22.000000
 50
-110.487297
 51
-90.000000
  0
LINE
  8
0
  6
CONTINUOUS
 10
201.000000
 20
258.260193
 11
201.000000
 21
257.765015
  0
LINE
  8
0
  6
CONTINUOUS
 10
203.000000
 20
259.000000
 11
203.000000
 21
257.135010
  0
LINE
  8
0
  6
CONTINUOUS
 10
192.598633
 20
268.801605
 11
200.518600
 21
259.561798
  0
LINE
  8
0
  6
CONTINUOUS
 10
193.518494
 20
270.801605
 11
202.518600
 21
260.301605
  0
ARC
  8
0
  6
CONTINUOUS
 10
201.000000
 20
259.000000
 40
2.000000
 50
0.000000
 51
40.601299
  0
ARC
  8
0
  6
CONTINUOUS
 10
199.000000
 20
258.260193
 40
2.000000
 50
0.000000
 51
40.601299
  0
ARC
  8
0
  6
CONTINUOUS
 10
191.080124
 20
267.500000
 40
2.000000
 50
40.601299
 51
90.000000
  0
ARC
  8
0
  6
CONTINUOUS
 10
192.000000
 20
269.500000
 40
2.000000
 50
40.601299
 51
90.000000
  0
LINE
  8
0
  6
CONTINUOUS
 10
202.875793
 20
259.693787
 11
200.875793
 21
258.954010
  0
LINE
  8
0
  6
CONTINUOUS
 10
192.835693
 20
271.316986
 11
191.915833
 21
269.316986
  0
LINE
  8
0
  6
CONTINUOUS
 10
192.000000
 20
271.500000
 11
190.226273
 21
271.500000
  0
LINE
  8
0
  6
CONTINUOUS
 10
191.080124
 20
269.500000
 11
190.635086
 21
269.500000
  0
ARC
  8
0
  6
CONTINUOUS
 10
190.226273
 20
273.500000
 40
2.000000
 50
-171.373093
 51
-90.000000
  0
ARC
  8
0
  6
CONTINUOUS
 10
190.635086
 20
271.500000
 40
2.000000
 50
-165.522507
 51
-90.000000
  0
ARC
  8
0
  6
CONTINUOUS
 10
205.000000
 20
257.135010
 40
2.000000
 50
180.000000
 51
255.522507
  0
ARC
  8
0
  6
CONTINUOUS
 10
203.000000
 20
257.765015
 40
2.000000
 50
180.000000
 51
249.512695
  0
ARC
  8
0
  6
CONTINUOUS
 10
248.000000
 20
276.500000
 40
22.000000
 50
-14.477510
 51
0.000000
  0
ARC
  8
0
  6
CONTINUOUS
 10
210.000000
 20
276.500000
 40
22.000000
 50
180.000000
 51
194.477493
  0
ARC
  8
0
  6
CONTINUOUS
 10
263.194611
 20
246.936203
 40
6.000000
 50
47.364071
 51
120.358299
  0
ARC
  8
0
  6
CONTINUOUS
 10
263.194611
 20
333.063812
 40
6.000000
 50
-120.358299
 51
-47.364071
  0
ARC
  8
0
  6
CONTINUOUS
 10
194.805374
 20
333.063812
 40
6.000000
 50
-132.635895
 51
-59.641701
  0
ARC
  8
0
  6
CONTINUOUS
 10
194.805374
 20
246.936203
 40
6.000000
 50
59.641701
 51
132.635895
  0
LINE
  8
0
  6
CENTER
 10
334.994995
 20
256.500000
 11
422.043793
 21
256.500000
  0
LINE
  8
0
  6
CENTER
 10
334.994995
 20
323.500000
 11
422.043793
 21
323.500000
  0
CIRCLE
  8
0
  6
CONTINUOUS
 10
274.500000
 20
266.500000
 40
3.800000
  0
CIRCLE
  8
0
  6
CONTINUOUS
 10
274.500000
 20
266.500000
 40
3.500000
  0
LINE
  8
0
  6
CONTINUOUS
 10
273.000000
 20
267.433990
 11
273.000000
 21
265.566010
  0
LINE
  8
0
  6
CONTINUOUS
 10
276.000000
 20
267.433990
 11
276.000000
 21
265.566010
  0
LINE
  8
0
  6
CONTINUOUS
 10
274.500000
 20
264.700012
 11
273.000000
 21
265.566010
  0
LINE
  8
0
  6
CONTINUOUS
 10
274.500000
 20
264.700012
 11
276.000000
 21
265.566010
  0
LINE
  8
0
  6
CONTINUOUS
 10
274.500000
 20
268.299988
 11
276.000000
 21
267.433990
  0
LINE
  8
0
  6
CONTINUOUS
 10
274.500000
 20
268.299988
 11
273.000000
 21
267.433990
  0
LINE
  8
0
  6
CENTER
 10
268.948608
 20
266.500000
 11
279.353607
 21
266.500000
  0
LINE
  8
0
  6
CENTER
 10
274.500000
 20
272.043610
 11
274.500000
 21
260.927612
  0
ARC
  8
0
  6
CONTINUOUS
 10
277.000000
 20
260.000000
 40
2.000000
 50
0.000000
 51
90.000000
  0
LINE
  8
0
  6
CONTINUOUS
 10
277.000000
 20
262.000000
 11
274.500000
 21
262.000000
  0
ARC
  8
0
  6
CONTINUOUS
 10
277.000000
 20
273.000000
 40
2.000000
 50
-90.000000
 51
0.000000
  0
LINE
  8
0
  6
CONTINUOUS
 10
277.000000
 20
271.000000
 11
274.500000
 21
271.000000
  0
ARC
  8
0
  6
CONTINUOUS
 10
274.500000
 20
266.500000
 40
4.500000
 50
90.000000
 51
270.000000
  0
CIRCLE
  8
0
  6
CONTINUOUS
 10
274.500000
 20
313.500000
 40
3.800000
  0
CIRCLE
  8
0
  6
CONTINUOUS
 10
274.500000
 20
313.500000
 40
3.500000
  0
LINE
  8
0
  6
CONTINUOUS
 10
273.000000
 20
312.566010
 11
273.000000
 21
314.433990
  0
LINE
  8
0
  6
CONTINUOUS
 10
276.000000
 20
312.566010
 11
276.000000
 21
314.433990
  0
LINE
  8
0
  6
CONTINUOUS
 10
274.500000
 20
315.299988
 11
273.000000
 21
314.433990
  0
LINE
  8
0
  6
CONTINUOUS
 10
274.500000
 20
315.299988
 11
276.000000
 21
314.433990
  0
LINE
  8
0
  6
CONTINUOUS
 10
274.500000
 20
311.700012
 11
276.000000
 21
312.566010
  0
LINE
  8
0
  6
CONTINUOUS
 10
274.500000
 20
311.700012
 11
273.000000
 21
312.566010
  0
LINE
  8
0
  6
CENTER
 10
274.500000
 20
307.956390
 11
274.500000
 21
319.072388
  0
LINE
  8
0
  6
CONTINUOUS
 10
277.000000
 20
318.000000
 11
274.500000
 21
318.000000
  0
LINE
  8
0
  6
CONTINUOUS
 10
277.000000
 20
309.000000
 11
274.500000
 21
309.000000
  0
ARC
  8
0
  6
CONTINUOUS
 10
274.500000
 20
313.500000
 40
4.500000
 50
-270.000000
 51
-90.000000
  0
LINE
  8
0
  6
CENTER
 10
268.948608
 20
313.500000
 11
279.353607
 21
313.500000
  0
ARC
  8
0
  6
CONTINUOUS
 10
277.000000
 20
320.000000
 40
2.000000
 50
-90.000000
 51
0.000000
  0
ARC
  8
0
  6
CONTINUOUS
 10
277.000000
 20
307.000000
 40
2.000000
 50
0.000000
 51
90.000000
  0
CIRCLE
  8
0
  6
CONTINUOUS
 10
183.500000
 20
313.500000
 40
3.800000
  0
CIRCLE
  8
0
  6
CONTINUOUS
 10
183.500000
 20
313.500000
 40
3.500000
  0
LINE
  8
0
  6
CONTINUOUS
 10
185.000000
 20
312.566010
 11
185.000000
 21
314.433990
  0
LINE
  8
0
  6
CONTINUOUS
 10
182.000000
 20
312.566010
 11
182.000000
 21
314.433990
  0
LINE
  8
0
  6
CONTINUOUS
 10
183.500000
 20
315.299988
 11
185.000000
 21
314.433990
  0
LINE
  8
0
  6
CONTINUOUS
 10
183.500000
 20
315.299988
 11
182.000000
 21
314.433990
  0
LINE
  8
0
  6
CONTINUOUS
 10
183.500000
 20
311.700012
 11
182.000000
 21
312.566010
  0
LINE
  8
0
  6
CONTINUOUS
 10
183.500000
 20
311.700012
 11
185.000000
 21
312.566010
  0
LINE
  8
0
  6
CONTINUOUS
 10
181.000000
 20
318.000000
 11
183.500000
 21
318.000000
  0
LINE
  8
0
  6
CONTINUOUS
 10
181.000000
 20
309.000000
 11
183.500000
 21
309.000000
  0
ARC
  8
0
  6
CONTINUOUS
 10
183.500000
 20
313.500000
 40
4.500000
 50
-90.000000
 51
90.000000
  0
ARC
  8
0
  6
CONTINUOUS
 10
181.000000
 20
307.000000
 40
2.000000
 50
90.000000
 51
180.000000
  0
LINE
  8
0
  6
CENTER
 10
183.500000
 20
307.956390
 11
183.500000
 21
319.072388
  0
LINE
  8
0
  6
CENTER
 10
189.051407
 20
313.500000
 11
178.646347
 21
313.500000
  0
ARC
  8
0
  6
CONTINUOUS
 10
181.000000
 20
320.000000
 40
2.000000
 50
180.000000
 51
270.000000
  0
ARC
  8
0
  6
CONTINUOUS
 10
183.500000
 20
266.500000
 40
4.500000
 50
-90.000000
 51
90.000000
  0
LINE
  8
0
  6
CONTINUOUS
 10
181.000000
 20
262.000000
 11
183.500000
 21
262.000000
  0
ARC
  8
0
  6
CONTINUOUS
 10
181.000000
 20
260.000000
 40
2.000000
 50
90.000000
 51
180.000000
  0
CIRCLE
  8
0
  6
CONTINUOUS
 10
183.500000
 20
266.500000
 40
3.800000
  0
CIRCLE
  8
0
  6
CONTINUOUS
 10
183.500000
 20
266.500000
 40
3.500000
  0
LINE
  8
0
  6
CONTINUOUS
 10
183.500000
 20
264.700012
 11
182.000000
 21
265.566010
  0
LINE
  8
0
  6
CONTINUOUS
 10
182.000000
 20
267.433990
 11
182.000000
 21
265.566010
  0
LINE
  8
0
  6
CENTER
 10
189.051407
 20
266.500000
 11
178.646347
 21
266.500000
  0
LINE
  8
0
  6
CENTER
 10
183.500000
 20
272.043610
 11
183.500000
 21
260.927612
  0
LINE
  8
0
  6
CONTINUOUS
 10
183.500000
 20
268.299988
 11
182.000000
 21
267.433990
  0
LINE
  8
0
  6
CONTINUOUS
 10
183.500000
 20
268.299988
 11
185.000000
 21
267.433990
  0
LINE
  8
0
  6
CONTINUOUS
 10
185.000000
 20
267.433990
 11
185.000000
 21
265.566010
  0
LINE
  8
0
  6
CONTINUOUS
 10
183.500000
 20
264.700012
 11
185.000000
 21
265.566010
  0
LINE
  8
0
  6
CONTINUOUS
 10
181.000000
 20
271.000000
 11
183.500000
 21
271.000000
  0
ARC
  8
0
  6
CONTINUOUS
 10
181.000000
 20
273.000000
 40
2.000000
 50
180.000000
 51
270.000000
  0
CIRCLE
  8
0
  6
CONTINUOUS
 10
570.000000
 20
290.000000
 40
19.000000
  0
CIRCLE
  8
0
  6
CONTINUOUS
 10
570.000000
 20
290.000000
 40
15.000000
  0
CIRCLE
  8
0
  6
CONTINUOUS
 10
570.000000
 20
290.000000
 40
23.000000
  0
CIRCLE
  8
0
  6
CONTINUOUS
 10
570.000000
 20
290.000000
 40
25.002001
  0
ARC
  8
0
  6
CONTINUOUS
 10
570.000000
 20
290.000000
 40
8.500000
 50
-162.895401
 51
162.895401
  0
CIRCLE
  8
0
  6
CONTINUOUS
 10
240.000000
 20
290.000000
 40
19.000000
  0
CIRCLE
  8
0
  6
CONTINUOUS
 10
240.000000
 20
290.000000
 40
15.000000
  0
CIRCLE
  8
0
  6
CONTINUOUS
 10
240.000000
 20
290.000000
 40
23.000000
  0
CIRCLE
  8
0
  6
CONTINUOUS
 10
240.000000
 20
290.000000
 40
25.002001
  0
LINE
  8
0
  6
CONTINUOUS
 10
531.706970
 20
510.500000
 11
630.293030
 21
510.500000
  0
LINE
  8
0
  6
CONTINUOUS
 10
704.055420
 20
476.865997
 11
704.055420
 21
508.000000
  0
LINE
  8
0
  6
CONTINUOUS
 10
373.000000
 20
276.866791
 11
373.000000
 21
303.133209
  0
LINE
  8
0
  6
CONTINUOUS
 10
703.555420
 20
329.500000
 11
703.555420
 21
328.000000
  0
LINE
  8
0
  6
CONTINUOUS
 10
710.555420
 20
329.500000
 11
710.555420
 21
328.000000
  0
LINE
  8
0
  6
CONTINUOUS
 10
710.555420
 20
329.500000
 11
703.555420
 21
329.500000
  0
LINE
  8
0
  6
CONTINUOUS
 10
706.155579
 20
342.500000
 11
706.155579
 21
329.500000
  0
LINE
  8
0
  6
CONTINUOUS
 10
707.955627
 20
343.125000
 11
707.955627
 21
329.500000
  0
LINE
  8
0
  6
CONTINUOUS
 10
709.755371
 20
341.062592
 11
709.755371
 21
329.500000
  0
LINE
  8
0
  6
CONTINUOUS
 10
704.355591
 20
341.875000
 11
704.355591
 21
329.500000
  0
LINE
  8
0
  6
CONTINUOUS
 10
707.955627
 20
343.125000
 11
706.155579
 21
342.500000
  0
LINE
  8
0
  6
CONTINUOUS
 10
709.755371
 20
341.062592
 11
707.955627
 21
341.687592
  0
LINE
  8
0
  6
CONTINUOUS
 10
704.355591
 20
341.875000
 11
706.154419
 21
341.427185
  0
LINE
  8
0
  6
CONTINUOUS
 10
704.055420
 20
328.000000
 11
703.555420
 21
328.000000
  0
LINE
  8
0
  6
CONTINUOUS
 10
704.055420
 20
328.000000
 11
704.055420
 21
252.000000
  0
LINE
  8
0
  6
CONTINUOUS
 10
722.473816
 20
493.000000
 11
704.055420
 21
493.000000
  0
LINE
  8
0
  6
CONTINUOUS
 10
722.473816
 20
447.000000
 11
704.055420
 21
447.000000
  0
LINE
  8
0
  6
CONTINUOUS
 10
106.444504
 20
329.500000
 11
106.444504
 21
328.000000
  0
LINE
  8
0
  6
CONTINUOUS
 10
99.444504
 20
329.500000
 11
99.444504
 21
328.000000
  0
LINE
  8
0
  6
CONTINUOUS
 10
99.444504
 20
329.500000
 11
106.444504
 21
329.500000
  0
LINE
  8
0
  6
CONTINUOUS
 10
103.844498
 20
342.500000
 11
103.844498
 21
329.500000
  0
LINE
  8
0
  6
CONTINUOUS
 10
102.044502
 20
343.125000
 11
102.044502
 21
329.500000
  0
LINE
  8
0
  6
CONTINUOUS
 10
100.244499
 20
341.062592
 11
100.244499
 21
329.500000
  0
LINE
  8
0
  6
CONTINUOUS
 10
105.644501
 20
341.875000
 11
105.644501
 21
329.500000
  0
LINE
  8
0
  6
CONTINUOUS
 10
102.044502
 20
343.125000
 11
103.844498
 21
342.500000
  0
LINE
  8
0
  6
CONTINUOUS
 10
100.244499
 20
341.062592
 11
102.044502
 21
341.687592
  0
LINE
  8
0
  6
CONTINUOUS
 10
105.644501
 20
341.875000
 11
103.845497
 21
341.427185
  0
LINE
  8
0
  6
CONTINUOUS
 10
105.944504
 20
328.000000
 11
106.444504
 21
328.000000
  0
LINE
  8
0
  6
CONTINUOUS
 10
105.944504
 20
328.000000
 11
105.944504
 21
252.000000
  0
LINE
  8
0
  6
CONTINUOUS
 10
720.591370
 20
508.000000
 11
704.055420
 21
508.000000
  0
LINE
  8
0
  6
CONTINUOUS
 10
720.591370
 20
432.000000
 11
704.055420
 21
432.000000
  0
LINE
  8
0
  6
CONTINUOUS
 10
720.591370
 20
252.000000
 11
704.055420
 21
252.000000
  0
LINE
  8
0
  6
CONTINUOUS
 10
720.591370
 20
328.000000
 11
704.055420
 21
328.000000
  0
LINE
  8
0
  6
CONTINUOUS
 10
722.473816
 20
259.751007
 11
704.055420
 21
259.751007
  0
LINE
  8
0
  6
CONTINUOUS
 10
722.473816
 20
320.248993
 11
704.055420
 21
320.248993
  0
LINE
  8
0
  6
CONTINUOUS
 10
724.555420
 20
322.000000
 11
724.555420
 21
258.000000
  0
LINE
  8
0
  6
CONTINUOUS
 10
724.055420
 20
325.000000
 11
724.055420
 21
255.000000
  0
LINE
  8
0
  6
CONTINUOUS
 10
724.555420
 20
258.000000
 11
724.055420
 21
257.500000
  0
LINE
  8
0
  6
CONTINUOUS
 10
724.555420
 20
322.000000
 11
724.055420
 21
322.500000
  0
LINE
  8
0
  6
CONTINUOUS
 10
723.189575
 20
253.500000
 11
724.055420
 21
255.000000
  0
ARC
  8
0
  6
CONTINUOUS
 10
720.591370
 20
255.000000
 40
3.000000
 50
270.000000
 51
330.000397
  0
LINE
  8
0
  6
CONTINUOUS
 10
723.189575
 20
326.500000
 11
724.055420
 21
325.000000
  0
ARC
  8
0
  6
CONTINUOUS
 10
720.591370
 20
325.000000
 40
3.000000
 50
29.999599
 51
90.000000
  0
LINE
  8
0
  6
CONTINUOUS
 10
89.408600
 20
252.000000
 11
105.944504
 21
252.000000
  0
LINE
  8
0
  6
CONTINUOUS
 10
89.408600
 20
328.000000
 11
105.944504
 21
328.000000
  0
LINE
  8
0
  6
CONTINUOUS
 10
87.526100
 20
259.751007
 11
105.944504
 21
259.751007
  0
LINE
  8
0
  6
CONTINUOUS
 10
87.526100
 20
320.248993
 11
105.944504
 21
320.248993
  0
LINE
  8
0
  6
CONTINUOUS
 10
85.444504
 20
322.000000
 11
85.444504
 21
258.000000
  0
LINE
  8
0
  6
CONTINUOUS
 10
85.944504
 20
325.000000
 11
85.944504
 21
255.000000
  0
LINE
  8
0
  6
CONTINUOUS
 10
85.444504
 20
258.000000
 11
85.944504
 21
257.500000
  0
LINE
  8
0
  6
CONTINUOUS
 10
85.444504
 20
322.000000
 11
85.944504
 21
322.500000
  0
LINE
  8
0
  6
CONTINUOUS
 10
86.810501
 20
253.500000
 11
85.944504
 21
255.000000
  0
ARC
  8
0
  6
CONTINUOUS
 10
89.408600
 20
255.000000
 40
3.000000
 50
-150.000397
 51
-90.000000
  0
LINE
  8
0
  6
CONTINUOUS
 10
86.810501
 20
326.500000
 11
85.944504
 21
325.000000
  0
ARC
  8
0
  6
CONTINUOUS
 10
89.408600
 20
325.000000
 40
3.000000
 50
90.000000
 51
150.000397
  0
LINE
  8
0
  6
CONTINUOUS
 10
724.555420
 20
502.000000
 11
724.555420
 21
438.000000
  0
LINE
  8
0
  6
CONTINUOUS
 10
724.055420
 20
505.000000
 11
724.055420
 21
435.000000
  0
LINE
  8
0
  6
CONTINUOUS
 10
724.555420
 20
438.000000
 11
724.055420
 21
437.500000
  0
LINE
  8
0
  6
CONTINUOUS
 10
724.555420
 20
502.000000
 11
724.055420
 21
502.500000
  0
LINE
  8
0
  6
CONTINUOUS
 10
723.189575
 20
433.500000
 11
724.055420
 21
435.000000
  0
ARC
  8
0
  6
CONTINUOUS
 10
720.591370
 20
435.000000
 40
3.000000
 50
270.000000
 51
330.000397
  0
LINE
  8
0
  6
CONTINUOUS
 10
723.189575
 20
506.500000
 11
724.055420
 21
505.000000
  0
ARC
  8
0
  6
CONTINUOUS
 10
720.591370
 20
505.000000
 40
3.000000
 50
29.999599
 51
90.000000
  0
LINE
  8
0
  6
CONTINUOUS
 10
560.500000
 20
292.500000
 11
560.500000
 21
287.500000
  0
LINE
  8
0
  6
CONTINUOUS
 10
565.500000
 20
292.500000
 11
565.500000
 21
287.500000
  0
LINE
  8
0
  6
CONTINUOUS
 10
565.500000
 20
292.500000
 11
560.500000
 21
292.500000
  0
LINE
  8
0
  6
CONTINUOUS
 10
565.500000
 20
287.500000
 11
560.500000
 21
287.500000
  0
ARC
  8
0
  6
CONTINUOUS
 10
570.000000
 20
290.000000
 40
7.500000
 50
-160.528793
 51
160.528793
  0
ARC
  8
0
  6
CONTINUOUS
 10
368.666992
 20
299.173798
 40
2.000000
 50
0.000000
 51
89.000000
  0
LINE
  8
0
  6
CONTINUOUS
 10
370.666992
 20
299.173798
 11
370.666992
 21
280.826202
  0
LINE
  8
0
  6
CONTINUOUS
 10
385.333008
 20
298.955597
 11
385.333008
 21
281.044403
  0
LINE
  8
0
  6
CONTINUOUS
 10
446.500000
 20
297.500000
 11
419.500000
 21
297.500000
  0
LINE
  8
0
  6
CONTINUOUS
 10
446.500000
 20
282.500000
 11
419.500000
 21
282.500000
  0
LINE
  8
0
  6
CONTINUOUS
 10
446.500000
 20
297.500000
 11
446.500000
 21
282.500000
  0
LINE
  8
0
  6
CONTINUOUS
 10
446.500000
 20
292.500000
 11
425.000000
 21
292.500000
  0
LINE
  8
0
  6
CONTINUOUS
 10
446.500000
 20
287.500000
 11
425.000000
 21
287.500000
  0
ARC
  8
0
  6
CONTINUOUS
 10
425.000000
 20
290.000000
 40
2.500000
 50
-270.000000
 51
-90.000000
  0
LINE
  8
0
  6
CONTINUOUS
 10
560.500000
 20
401.500000
 11
577.500000
 21
401.500000
  0
LINE
  8
0
  6
CONTINUOUS
 10
577.500000
 20
428.500000
 11
577.500000
 21
401.500000
  0
LINE
  8
0
  6
CONTINUOUS
 10
560.500000
 20
425.500000
 11
562.500000
 21
425.500000
  0
LINE
  8
0
  6
CONTINUOUS
 10
562.500000
 20
425.500000
 11
562.500000
 21
428.500000
  0
LINE
  8
0
  6
CONTINUOUS
 10
560.500000
 20
401.500000
 11
560.500000
 21
425.500000
  0
LINE
  8
0
  6
CONTINUOUS
 10
562.929016
 20
401.500000
 11
562.929016
 21
423.000000
  0
LINE
  8
0
  6
CONTINUOUS
 10
371.035004
 20
274.867188
 11
350.000000
 21
274.500000
  0
LINE
  8
0
  6
CONTINUOUS
 10
371.035004
 20
305.132812
 11
350.000000
 21
305.500000
  0
LINE
  8
0
  6
CONTINUOUS
 10
368.701996
 20
301.173615
 11
350.000000
 21
301.500000
  0
LINE
  8
0
  6
CONTINUOUS
 10
343.000000
 20
317.299988
 11
343.000000
 21
309.700012
  0
LINE
  8
0
  6
CONTINUOUS
 10
339.000000
 20
317.000000
 11
343.000000
 21
317.000000
  0
LINE
  8
0
  6
CONTINUOUS
 10
339.000000
 20
317.000000
 11
339.000000
 21
310.000000
  0
LINE
  8
0
  6
CONTINUOUS
 10
343.000000
 20
317.299988
 11
344.000000
 21
317.299988
  0
LINE
  8
0
  6
CONTINUOUS
 10
344.000000
 20
318.000000
 11
344.000000
 21
309.000000
  0
LINE
  8
0
  6
CONTINUOUS
 10
337.500000
 20
318.170197
 11
344.000000
 21
318.000000
  0
LINE
  8
0
  6
CONTINUOUS
 10
368.701996
 20
278.826385
 11
350.000000
 21
278.500000
  0
LINE
  8
0
  6
CENTER
 10
337.060394
 20
313.500000
 11
345.045013
 21
313.500000
  0
LINE
  8
0
  6
CONTINUOUS
 10
339.000000
 20
310.000000
 11
343.000000
 21
310.000000
  0
LINE
  8
0
  6
CONTINUOUS
 10
343.000000
 20
309.700012
 11
344.000000
 21
309.700012
  0
LINE
  8
0
  6
CONTINUOUS
 10
337.500000
 20
308.829803
 11
344.000000
 21
309.000000
  0
LINE
  8
0
  6
CONTINUOUS
 10
343.000000
 20
262.700012
 11
343.000000
 21
270.299988
  0
LINE
  8
0
  6
CONTINUOUS
 10
339.000000
 20
263.000000
 11
343.000000
 21
263.000000
  0
LINE
  8
0
  6
CONTINUOUS
 10
339.000000
 20
263.000000
 11
339.000000
 21
270.000000
  0
LINE
  8
0
  6
CONTINUOUS
 10
343.000000
 20
262.700012
 11
344.000000
 21
262.700012
  0
LINE
  8
0
  6
CONTINUOUS
 10
344.000000
 20
262.000000
 11
344.000000
 21
271.000000
  0
LINE
  8
0
  6
CONTINUOUS
 10
337.500000
 20
261.829803
 11
344.000000
 21
262.000000
  0
LINE
  8
0
  6
CENTER
 10
337.060394
 20
266.500000
 11
345.045013
 21
266.500000
  0
LINE
  8
0
  6
CONTINUOUS
 10
339.000000
 20
270.000000
 11
343.000000
 21
270.000000
  0
LINE
  8
0
  6
CONTINUOUS
 10
343.000000
 20
270.299988
 11
344.000000
 21
270.299988
  0
LINE
  8
0
  6
CONTINUOUS
 10
337.500000
 20
271.170197
 11
344.000000
 21
271.000000
  0
LINE
  8
0
  6
CONTINUOUS
 10
350.000000
 20
305.500000
 11
337.500000
 21
305.500000
  0
LINE
  8
0
  6
CONTINUOUS
 10
350.000000
 20
301.500000
 11
337.500000
 21
301.500000
  0
LINE
  8
0
  6
CONTINUOUS
 10
350.000000
 20
278.500000
 11
337.500000
 21
278.500000
  0
LINE
  8
0
  6
CONTINUOUS
 10
350.000000
 20
274.500000
 11
337.500000
 21
274.500000
  0
ARC
  8
0
  6
CONTINUOUS
 10
555.429016
 20
423.000000
 40
7.500004
 50
0.000000
 51
19.471210
  0
LINE
  8
0
  6
CONTINUOUS
 10
562.188599
 20
428.500000
 11
577.811401
 21
428.500000
  0
LINE
  8
0
  6
CONTINUOUS
 10
578.244385
 20
428.750000
 11
578.331970
 21
428.902008
  0
ARC
  8
0
  6
CONTINUOUS
 10
577.811401
 20
429.000000
 40
0.500000
 50
-90.000000
 51
-30.000000
  0
ARC
  8
0
  6
CONTINUOUS
 10
576.599976
 20
429.902008
 40
2.000000
 50
-30.000000
 51
-18.194870
  0
LINE
  8
0
  6
CONTINUOUS
 10
561.755615
 20
428.750000
 11
561.668030
 21
428.902008
  0
ARC
  8
0
  6
CONTINUOUS
 10
562.188599
 20
429.000000
 40
0.500000
 50
-150.000000
 51
-90.000000
  0
ARC
  8
0
  6
CONTINUOUS
 10
563.400024
 20
429.902008
 40
2.000000
 50
-161.805099
 51
-150.000000
  0
LINE
  8
0
  6
CONTINUOUS
 10
561.500000
 20
429.277405
 11
561.500000
 21
429.500000
  0
LINE
  8
0
  6
CONTINUOUS
 10
578.500000
 20
429.277405
 11
578.500000
 21
429.500000
  0
LINE
  8
0
  6
CONTINUOUS
 10
419.500000
 20
282.188599
 11
419.500000
 21
297.811401
  0
LINE
  8
0
  6
CONTINUOUS
 10
419.250000
 20
298.244385
 11
419.097992
 21
298.332001
  0
ARC
  8
0
  6
CONTINUOUS
 10
419.000000
 20
297.811401
 40
0.500000
 50
0.000000
 51
60.000000
  0
ARC
  8
0
  6
CONTINUOUS
 10
418.097992
 20
296.600006
 40
2.000000
 50
60.000000
 51
71.805130
  0
LINE
  8
0
  6
CONTINUOUS
 10
419.250000
 20
281.755615
 11
419.097992
 21
281.667999
  0
ARC
  8
0
  6
CONTINUOUS
 10
419.000000
 20
282.188599
 40
0.500000
 50
-60.000000
 51
0.000000
  0
ARC
  8
0
  6
CONTINUOUS
 10
418.097992
 20
283.399994
 40
2.000000
 50
-71.805130
 51
-60.000000
  0
LINE
  8
0
  6
CONTINUOUS
 10
418.722595
 20
281.500000
 11
418.500000
 21
281.500000
  0
LINE
  8
0
  6
CONTINUOUS
 10
418.722595
 20
298.500000
 11
418.500000
 21
298.500000
  0
CIRCLE
  8
0
  6
CONTINUOUS
 10
624.000000
 20
256.500000
 40
3.400000
  0
CIRCLE
  8
0
  6
CONTINUOUS
 10
624.000000
 20
323.500000
 40
3.400000
  0
CIRCLE
  8
0
  6
CONTINUOUS
 10
538.000000
 20
256.500000
 40
3.400000
  0
CIRCLE
  8
0
  6
CONTINUOUS
 10
538.000000
 20
323.500000
 40
3.400000
  0
CIRCLE
  8
0
  6
CONTINUOUS
 10
186.000000
 20
256.500000
 40
3.400000
  0
CIRCLE
  8
0
  6
CONTINUOUS
 10
186.000000
 20
323.500000
 40
3.400000
  0
CIRCLE
  8
0
  6
CONTINUOUS
 10
272.000000
 20
256.500000
 40
3.400000
  0
CIRCLE
  8
0
  6
CONTINUOUS
 10
272.000000
 20
323.500000
 40
3.400000
  0
LINE
  8
0
  6
CONTINUOUS
 10
350.000000
 20
326.899994
 11
418.500000
 21
326.899994
  0
LINE
  8
0
  6
CONTINUOUS
 10
350.000000
 20
320.100006
 11
418.500000
 21
320.100006
  0
LINE
  8
0
  6
CONTINUOUS
 10
350.000000
 20
253.100006
 11
418.500000
 21
253.100006
  0
LINE
  8
0
  6
CONTINUOUS
 10
350.000000
 20
259.899994
 11
418.500000
 21
259.899994
  0
LINE
  8
0
  6
DASHED
 10
534.599976
 20
498.000000
 11
534.599976
 21
429.500000
  0
LINE
  8
0
  6
DASHED
 10
541.400024
 20
498.000000
 11
541.400024
 21
429.500000
  0
LINE
  8
0
  6
DASHED
 10
620.599976
 20
498.000000
 11
620.599976
 21
429.500000
  0
LINE
  8
0
  6
DASHED
 10
627.400024
 20
498.000000
 11
627.400024
 21
429.500000
  0
LINE
  8
0
  6
CONTINUOUS
 10
386.000000
 20
260.500000
 11
386.000000
 21
252.500000
  0
LINE
  8
0
  6
CONTINUOUS
 10
370.000000
 20
260.500000
 11
370.000000
 21
252.500000
  0
LINE
  8
0
  6
CONTINUOUS
 10
350.000000
 20
260.500000
 11
370.000000
 21
260.500000
  0
LINE
  8
0
  6
CONTINUOUS
 10
350.000000
 20
252.500000
 11
370.000000
 21
252.500000
  0
LINE
  8
0
  6
CONTINUOUS
 10
386.000000
 20
260.500000
 11
418.500000
 21
260.500000
  0
LINE
  8
0
  6
CONTINUOUS
 10
386.000000
 20
252.500000
 11
418.500000
 21
252.500000
  0
LINE
  8
0
  6
CONTINUOUS
 10
337.500000
 20
260.750000
 11
350.000000
 21
260.750000
  0
LINE
  8
0
  6
CONTINUOUS
 10
337.500000
 20
252.250000
 11
350.000000
 21
252.250000
  0
LINE
  8
0
  6
CONTINUOUS
 10
337.500000
 20
327.750000
 11
350.000000
 21
327.750000
  0
LINE
  8
0
  6
CONTINUOUS
 10
337.500000
 20
319.250000
 11
350.000000
 21
319.250000
  0
LINE
  8
0
  6
CONTINUOUS
 10
350.000000
 20
327.500000
 11
370.000000
 21
327.500000
  0
LINE
  8
0
  6
CONTINUOUS
 10
350.000000
 20
319.500000
 11
370.000000
 21
319.500000
  0
LINE
  8
0
  6
CONTINUOUS
 10
370.000000
 20
327.500000
 11
370.000000
 21
319.500000
  0
LINE
  8
0
  6
CONTINUOUS
 10
386.000000
 20
327.500000
 11
386.000000
 21
319.500000
  0
LINE
  8
0
  6
CONTINUOUS
 10
386.000000
 20
327.500000
 11
418.500000
 21
327.500000
  0
LINE
  8
0
  6
CONTINUOUS
 10
386.000000
 20
319.500000
 11
418.500000
 21
319.500000
  0
LINE
  8
0
  6
CONTINUOUS
 10
337.500000
 20
318.385986
 11
341.031189
 21
318.625000
  0
LINE
  8
0
  6
CONTINUOUS
 10
341.031189
 20
318.625000
 11
344.750000
 21
318.156189
  0
LINE
  8
0
  6
CONTINUOUS
 10
344.750000
 20
318.156189
 11
348.531189
 21
318.562592
  0
LINE
  8
0
  6
CONTINUOUS
 10
348.531189
 20
318.562592
 11
352.031189
 21
318.062592
  0
LINE
  8
0
  6
CONTINUOUS
 10
352.031189
 20
318.062592
 11
356.062592
 21
318.593811
  0
LINE
  8
0
  6
CONTINUOUS
 10
356.062592
 20
318.593811
 11
359.593811
 21
318.031189
  0
LINE
  8
0
  6
CONTINUOUS
 10
359.593811
 20
318.031189
 11
364.125000
 21
318.531189
  0
LINE
  8
0
  6
CONTINUOUS
 10
364.125000
 20
318.531189
 11
368.812592
 21
317.906189
  0
LINE
  8
0
  6
CONTINUOUS
 10
368.812592
 20
317.906189
 11
373.500000
 21
318.500000
  0
LINE
  8
0
  6
CONTINUOUS
 10
373.500000
 20
318.500000
 11
377.312592
 21
317.875000
  0
LINE
  8
0
  6
CONTINUOUS
 10
377.312592
 20
317.875000
 11
382.625000
 21
318.375000
  0
LINE
  8
0
  6
CONTINUOUS
 10
382.625000
 20
318.375000
 11
386.531189
 21
317.718811
  0
LINE
  8
0
  6
CONTINUOUS
 10
386.531189
 20
317.718811
 11
391.156189
 21
318.562592
  0
LINE
  8
0
  6
CONTINUOUS
 10
391.156189
 20
318.562592
 11
395.562592
 21
317.718811
  0
LINE
  8
0
  6
CONTINUOUS
 10
395.562592
 20
317.718811
 11
399.625000
 21
318.593811
  0
LINE
  8
0
  6
CONTINUOUS
 10
399.625000
 20
318.593811
 11
403.000000
 21
317.750000
  0
LINE
  8
0
  6
CONTINUOUS
 10
403.000000
 20
317.750000
 11
407.281189
 21
318.500000
  0
LINE
  8
0
  6
CONTINUOUS
 10
407.281189
 20
318.500000
 11
410.906189
 21
317.781189
  0
LINE
  8
0
  6
CONTINUOUS
 10
410.906189
 20
317.781189
 11
414.781189
 21
318.500000
  0
LINE
  8
0
  6
CONTINUOUS
 10
414.781189
 20
318.500000
 11
418.500000
 21
317.957611
  0
LINE
  8
0
  6
CONTINUOUS
 10
337.500000
 20
261.614014
 11
341.031189
 21
261.375000
  0
LINE
  8
0
  6
CONTINUOUS
 10
341.031189
 20
261.375000
 11
344.750000
 21
261.843811
  0
LINE
  8
0
  6
CONTINUOUS
 10
344.750000
 20
261.843811
 11
348.531189
 21
261.437592
  0
LINE
  8
0
  6
CONTINUOUS
 10
348.531189
 20
261.437592
 11
352.031189
 21
261.937592
  0
LINE
  8
0
  6
CONTINUOUS
 10
352.031189
 20
261.937592
 11
356.062592
 21
261.406189
  0
LINE
  8
0
  6
CONTINUOUS
 10
356.062592
 20
261.406189
 11
359.593811
 21
261.968811
  0
LINE
  8
0
  6
CONTINUOUS
 10
359.593811
 20
261.968811
 11
364.125000
 21
261.468811
  0
LINE
  8
0
  6
CONTINUOUS
 10
364.125000
 20
261.468811
 11
368.812592
 21
262.093811
  0
LINE
  8
0
  6
CONTINUOUS
 10
368.812592
 20
262.093811
 11
373.500000
 21
261.500000
  0
LINE
  8
0
  6
CONTINUOUS
 10
373.500000
 20
261.500000
 11
377.312592
 21
262.125000
  0
LINE
  8
0
  6
CONTINUOUS
 10
377.312592
 20
262.125000
 11
382.625000
 21
261.625000
  0
LINE
  8
0
  6
CONTINUOUS
 10
382.625000
 20
261.625000
 11
386.531189
 21
262.281189
  0
LINE
  8
0
  6
CONTINUOUS
 10
386.531189
 20
262.281189
 11
391.156189
 21
261.437592
  0
LINE
  8
0
  6
CONTINUOUS
 10
391.156189
 20
261.437592
 11
395.562592
 21
262.281189
  0
LINE
  8
0
  6
CONTINUOUS
 10
395.562592
 20
262.281189
 11
399.625000
 21
261.406189
  0
LINE
  8
0
  6
CONTINUOUS
 10
399.625000
 20
261.406189
 11
403.000000
 21
262.250000
  0
LINE
  8
0
  6
CONTINUOUS
 10
403.000000
 20
262.250000
 11
407.281189
 21
261.500000
  0
LINE
  8
0
  6
CONTINUOUS
 10
407.281189
 20
261.500000
 11
410.906189
 21
262.218811
  0
LINE
  8
0
  6
CONTINUOUS
 10
410.906189
 20
262.218811
 11
414.781189
 21
261.500000
  0
LINE
  8
0
  6
CONTINUOUS
 10
414.781189
 20
261.500000
 11
418.500000
 21
262.042389
  0
CIRCLE
  8
0
  6
CONTINUOUS
 10
272.000000
 20
256.500000
 40
4.250000
  0
CIRCLE
  8
0
  6
CONTINUOUS
 10
272.000000
 20
256.500000
 40
4.000000
  0
CIRCLE
  8
0
  6
CONTINUOUS
 10
186.000000
 20
256.500000
 40
4.250000
  0
CIRCLE
  8
0
  6
CONTINUOUS
 10
186.000000
 20
256.500000
 40
4.000000
  0
CIRCLE
  8
0
  6
CONTINUOUS
 10
186.000000
 20
323.500000
 40
4.250000
  0
CIRCLE
  8
0
  6
CONTINUOUS
 10
186.000000
 20
323.500000
 40
4.000000
  0
CIRCLE
  8
0
  6
CONTINUOUS
 10
272.000000
 20
323.500000
 40
4.250000
  0
CIRCLE
  8
0
  6
CONTINUOUS
 10
272.000000
 20
323.500000
 40
4.000000
  0
CIRCLE
  8
0
  6
CONTINUOUS
 10
538.000000
 20
323.500000
 40
4.000000
  0
CIRCLE
  8
0
  6
CONTINUOUS
 10
538.000000
 20
256.500000
 40
4.000000
  0
CIRCLE
  8
0
  6
CONTINUOUS
 10
624.000000
 20
256.500000
 40
4.000000
  0
CIRCLE
  8
0
  6
CONTINUOUS
 10
624.000000
 20
323.500000
 40
4.000000
  0
LINE
  8
0
  6
DASHED
 10
533.750000
 20
498.000000
 11
533.750000
 21
510.500000
  0
LINE
  8
0
  6
DASHED
 10
542.250000
 20
498.000000
 11
542.250000
 21
510.500000
  0
LINE
  8
0
  6
DASHED
 10
534.000000
 20
478.000000
 11
542.000000
 21
478.000000
  0
LINE
  8
0
  6
DASHED
 10
534.000000
 20
462.000000
 11
542.000000
 21
462.000000
  0
LINE
  8
0
  6
DASHED
 10
542.000000
 20
498.000000
 11
542.000000
 21
478.000000
  0
LINE
  8
0
  6
DASHED
 10
534.000000
 20
498.000000
 11
534.000000
 21
478.000000
  0
LINE
  8
0
  6
DASHED
 10
534.000000
 20
429.500000
 11
534.000000
 21
462.000000
  0
LINE
  8
0
  6
DASHED
 10
542.000000
 20
429.500000
 11
542.000000
 21
462.000000
  0
LINE
  8
0
  6
DASHED
 10
619.750000
 20
498.000000
 11
619.750000
 21
510.500000
  0
LINE
  8
0
  6
DASHED
 10
628.250000
 20
498.000000
 11
628.250000
 21
510.500000
  0
LINE
  8
0
  6
DASHED
 10
628.000000
 20
498.000000
 11
628.000000
 21
478.000000
  0
LINE
  8
0
  6
DASHED
 10
620.000000
 20
498.000000
 11
620.000000
 21
478.000000
  0
LINE
  8
0
  6
DASHED
 10
620.000000
 20
478.000000
 11
628.000000
 21
478.000000
  0
LINE
  8
0
  6
DASHED
 10
620.000000
 20
462.000000
 11
628.000000
 21
462.000000
  0
LINE
  8
0
  6
DASHED
 10
620.000000
 20
429.500000
 11
620.000000
 21
462.000000
  0
LINE
  8
0
  6
DASHED
 10
628.000000
 20
429.500000
 11
628.000000
 21
462.000000
  0
TEXT
  8
0
 10
74.000000
 20
186.000000
 40
4.000000
 41
1.000000
  1
F2FM-15L-10~240-T25
 50
0.000000
  0
ENDSEC
  0
EOF
