  0
SECTION
  2
HEADER
  9
$ACADVER
  1
AC1014
  9
$ACADMAINTVER
 70
     9
  9
$DWGCODEPAGE
  3
ANSI_932
  9
$INSBASE
 10
0.0
 20
0.0
 30
0.0
  9
$EXTMIN
 10
25.69544621860108
 20
25.10389444724097
 30
0.0
  9
$EXTMAX
 10
692.9655049451281
 20
379.4567509467493
 30
0.0
  9
$LIMMIN
 10
-25.70168879130005
 20
-28.42889865057451
  9
$LIMMAX
 10
976.8987518791526
 20
647.4257556927767
  9
$ORTHOMODE
 70
     1
  9
$REGENMODE
 70
     1
  9
$FILLMODE
 70
     1
  9
$QTEXTMODE
 70
     0
  9
$MIRRTEXT
 70
     0
  9
$DRAGMODE
 70
     2
  9
$LTSCALE
 40
2.0
  9
$OSMODE
 70
    37
  9
$ATTMODE
 70
     1
  9
$TEXTSIZE
 40
2.0
  9
$TRACEWID
 40
1.0
  9
$TEXTSTYLE
  7
STANDARD
  9
$CLAYER
  8
0
  9
$CELTYPE
  6
BYLAYER
  9
$CECOLOR
 62
   256
  9
$CELTSCALE
 40
1.0
  9
$DELOBJ
 70
     1
  9
$DISPSILH
 70
     0
  9
$DIMSCALE
 40
2.0
  9
$DIMASZ
 40
1.8
  9
$DIMEXO
 40
0.625
  9
$DIMDLI
 40
3.75
  9
$DIMRND
 40
0.0
  9
$DIMDLE
 40
0.0
  9
$DIMEXE
 40
1.25
  9
$DIMTP
 40
0.0
  9
$DIMTM
 40
0.0
  9
$DIMTXT
 40
1.8
  9
$DIMCEN
 40
2.5
  9
$DIMTSZ
 40
0.0
  9
$DIMTOL
 70
     0
  9
$DIMLIM
 70
     0
  9
$DIMTIH
 70
     0
  9
$DIMTOH
 70
     0
  9
$DIMSE1
 70
     0
  9
$DIMSE2
 70
     0
  9
$DIMTAD
 70
     1
  9
$DIMZIN
 70
     8
  9
$DIMBLK
  1

  9
$DIMASO
 70
     1
  9
$DIMSHO
 70
     1
  9
$DIMPOST
  1

  9
$DIMAPOST
  1

  9
$DIMALT
 70
     0
  9
$DIMALTD
 70
     4
  9
$DIMALTF
 40
0.0394
  9
$DIMLFAC
 40
1.0
  9
$DIMTOFL
 70
     1
  9
$DIMTVP
 40
0.0
  9
$DIMTIX
 70
     0
  9
$DIMSOXD
 70
     0
  9
$DIMSAH
 70
     0
  9
$DIMBLK1
  1

  9
$DIMBLK2
  1

  9
$DIMSTYLE
  2
STANDARD
  9
$DIMCLRD
 70
     0
  9
$DIMCLRE
 70
     0
  9
$DIMCLRT
 70
     0
  9
$DIMTFAC
 40
1.0
  9
$DIMGAP
 40
0.75
  9
$DIMJUST
 70
     0
  9
$DIMSD1
 70
     0
  9
$DIMSD2
 70
     0
  9
$DIMTOLJ
 70
     1
  9
$DIMTZIN
 70
     0
  9
$DIMALTZ
 70
     0
  9
$DIMALTTZ
 70
     0
  9
$DIMFIT
 70
     3
  9
$DIMUPT
 70
     0
  9
$DIMUNIT
 70
     2
  9
$DIMDEC
 70
     2
  9
$DIMTDEC
 70
     2
  9
$DIMALTU
 70
     8
  9
$DIMALTTD
 70
     4
  9
$DIMTXSTY
  7
STANDARD
  9
$DIMAUNIT
 70
     0
  9
$LUNITS
 70
     2
  9
$LUPREC
 70
     3
  9
$SKETCHINC
 40
1.0
  9
$FILLETRAD
 40
10.0
  9
$AUNITS
 70
     0
  9
$AUPREC
 70
     2
  9
$MENU
  1
.
  9
$ELEVATION
 40
0.0
  9
$PELEVATION
 40
0.0
  9
$THICKNESS
 40
0.0
  9
$LIMCHECK
 70
     0
  9
$BLIPMODE
 70
     0
  9
$CHAMFERA
 40
0.0
  9
$CHAMFERB
 40
0.0
  9
$CHAMFERC
 40
20.0
  9
$CHAMFERD
 40
0.0
  9
$SKPOLY
 70
     0
  9
$TDCREATE
 40
2453557.579687129
  9
$TDUPDATE
 40
2453676.388086111
  9
$TDINDWG
 40
0.4302725231
  9
$TDUSRTIMER
 40
0.4302725231
  9
$USRTIMER
 70
     1
  9
$ANGBASE
 50
0.0
  9
$ANGDIR
 70
     0
  9
$PDMODE
 70
     0
  9
$PDSIZE
 40
-10.0
  9
$PLINEWID
 40
0.0
  9
$COORDS
 70
     0
  9
$SPLFRAME
 70
     0
  9
$SPLINETYPE
 70
     6
  9
$SPLINESEGS
 70
     8
  9
$ATTDIA
 70
     0
  9
$ATTREQ
 70
     1
  9
$HANDLING
 70
-16383
  9
$HANDSEED
  5
2F7F
  9
$SURFTAB1
 70
     6
  9
$SURFTAB2
 70
     6
  9
$SURFTYPE
 70
     6
  9
$SURFU
 70
     6
  9
$SURFV
 70
     6
  9
$UCSNAME
  2

  9
$UCSORG
 10
0.0
 20
0.0
 30
0.0
  9
$UCSXDIR
 10
1.0
 20
0.0
 30
0.0
  9
$UCSYDIR
 10
0.0
 20
1.0
 30
0.0
  9
$PUCSNAME
  2

  9
$PUCSORG
 10
0.0
 20
0.0
 30
0.0
  9
$PUCSXDIR
 10
1.0
 20
0.0
 30
0.0
  9
$PUCSYDIR
 10
0.0
 20
1.0
 30
0.0
  9
$USERI1
 70
     0
  9
$USERI2
 70
     0
  9
$USERI3
 70
     0
  9
$USERI4
 70
     0
  9
$USERI5
 70
     0
  9
$USERR1
 40
0.0
  9
$USERR2
 40
0.0
  9
$USERR3
 40
0.0
  9
$USERR4
 40
0.0
  9
$USERR5
 40
0.0
  9
$WORLDVIEW
 70
     1
  9
$SHADEDGE
 70
     3
  9
$SHADEDIF
 70
    70
  9
$TILEMODE
 70
     1
  9
$MAXACTVP
 70
    48
  9
$PINSBASE
 10
0.0
 20
0.0
 30
0.0
  9
$PLIMCHECK
 70
     0
  9
$PEXTMIN
 10
0.0
 20
0.0
 30
0.0
  9
$PEXTMAX
 10
0.0
 20
0.0
 30
0.0
  9
$PLIMMIN
 10
0.0
 20
0.0
  9
$PLIMMAX
 10
12.0
 20
9.0
  9
$UNITMODE
 70
     0
  9
$VISRETAIN
 70
     1
  9
$PLINEGEN
 70
     0
  9
$PSLTSCALE
 70
     1
  9
$TREEDEPTH
 70
  3020
  9
$PICKSTYLE
 70
     1
  9
$CMLSTYLE
  2
STANDARD
  9
$CMLJUST
 70
     0
  9
$CMLSCALE
 40
1.0
  9
$PROXYGRAPHICS
 70
     1
  9
$MEASUREMENT
 70
     0
  0
ENDSEC
  0
SECTION
  2
CLASSES
  0
CLASS
  1
DICTIONARYVAR
  2
AcDbDictionaryVar
  3
AutoCAD 2000
 90
        0
280
     0
281
     0
  0
CLASS
  1
ACDBDICTIONARYWDFLT
  2
AcDbDictionaryWithDefault
  3
AutoCAD 2000
 90
        0
280
     0
281
     0
  0
CLASS
  1
ACDBPLACEHOLDER
  2
AcDbPlaceHolder
  3
AutoCAD 2000
 90
        0
280
     0
281
     0
  0
CLASS
  1
LAYOUT
  2
AcDbLayout
  3
AutoCAD 2000
 90
        0
280
     0
281
     0
  0
CLASS
  1
LONG_TRANSACTION
  2
AcDbLongTransaction
  3
AutoCAD 2000
 90
        0
280
     0
281
     0
  0
CLASS
  1
LWPOLYLINE
  2
AcDbPolyline
  3
AutoCAD 2000
 90
        0
280
     0
281
     1
  0
CLASS
  1
HATCH
  2
AcDbHatch
  3
AutoCAD 2000
 90
        0
280
     0
281
     1
  0
CLASS
  1
XRECORD
  2
AcDbXrecord
  3
AutoCAD 2000
 90
        0
280
     0
281
     0
  0
CLASS
  1
LONG_TRANSACTION
  2
AcDbLongTransaction
  3
AutoCAD 2000
 90
        0
280
     0
281
     0
  0
CLASS
  1
LWPOLYLINE
  2
AcDbPolyline
  3
AutoCAD 2000
 90
        0
280
     0
281
     1
  0
CLASS
  1
HATCH
  2
AcDbHatch
  3
AutoCAD 2000
 90
        0
280
     0
281
     1
  0
CLASS
  1
XRECORD
  2
AcDbXrecord
  3
AutoCAD 2000
 90
        0
280
     0
281
     0
  0
ENDSEC
  0
SECTION
  2
TABLES
  0
TABLE
  2
VPORT
  5
6E
330
0
100
AcDbSymbolTable
 70
     2
  0
VPORT
  5
2F5A
330
6E
100
AcDbSymbolTableRecord
100
AcDbViewportTableRecord
  2
*ACTIVE
 70
     0
 10
0.0
 20
0.0
 11
1.0
 21
1.0
 12
365.0288516672663
 22
202.2718862605343
 13
0.0
 23
0.0
 14
10.0
 24
10.0
 15
12.0
 25
12.0
 16
0.0
 26
0.0
 36
1.0
 17
0.0
 27
0.0
 37
0.0
 40
435.381084789819
 41
1.566970091027308
 42
50.0
 43
0.0
 44
0.0
 50
0.0
 51
0.0
 71
     0
 72
   100
 73
     1
 74
     3
 75
     0
 76
     0
 77
     0
 78
     0
  0
ENDTAB
  0
TABLE
  2
LTYPE
  5
69
330
0
100
AcDbSymbolTable
 70
     3
  0
LTYPE
  5
6A
330
69
100
AcDbSymbolTableRecord
100
AcDbLinetypeTableRecord
  2
BYBLOCK
 70
     0
  3

 72
    65
 73
     0
 40
0.0
  0
LTYPE
  5
6B
330
69
100
AcDbSymbolTableRecord
100
AcDbLinetypeTableRecord
  2
BYLAYER
 70
     0
  3

 72
    65
 73
     0
 40
0.0
  0
LTYPE
  5
8
330
69
100
AcDbSymbolTableRecord
100
AcDbLinetypeTableRecord
  2
CONTINUOUS
 70
     0
  3
Solid line
 72
    65
 73
     0
 40
0.0
  0
LTYPE
  5
27C
330
69
100
AcDbSymbolTableRecord
100
AcDbLinetypeTableRecord
  2
SEKKEI_A2_
 70
     0
  3
center(A2)  ____ _ ____ _ ____ _ ____ _ ____ _ 
 72
    65
 73
     4
 40
14.28749999999999
 49
9.525
 74
     0
 49
-1.587499999999999
 74
     0
 49
1.587499999999999
 74
     0
 49
-1.587499999999999
 74
     0
  0
LTYPE
  5
2B4
330
69
100
AcDbSymbolTableRecord
100
AcDbLinetypeTableRecord
  2
HIDDEN2
 70
     0
  3
Hidden (.5x) _ _ _ _ _ _ _ _ _ _ _ _ _ _ _ _ _
 72
    65
 73
     2
 40
4.762499999999998
 49
3.174999999999998
 74
     0
 49
-1.587499999999999
 74
     0
  0
ENDTAB
  0
TABLE
  2
LAYER
  5
66
330
0
100
AcDbSymbolTable
 70
     8
  0
LAYER
  5
5E
330
66
100
AcDbSymbolTableRecord
100
AcDbLayerTableRecord
  2
0
 70
     0
 62
     7
  6
CONTINUOUS
  0
LAYER
  5
3E
330
66
100
AcDbSymbolTableRecord
100
AcDbLayerTableRecord
  2
CENTER
 70
     0
 62
     3
  6
SEKKEI_A2_
  0
LAYER
  5
135
330
66
100
AcDbSymbolTableRecord
100
AcDbLayerTableRecord
  2
DEFPOINTS
 70
     0
 62
     7
  6
CONTINUOUS
  0
LAYER
  5
2B5
330
66
100
AcDbSymbolTableRecord
100
AcDbLayerTableRecord
  2
HIDS
 70
     0
 62
     1
  6
HIDDEN2
  0
LAYER
  5
2BA
330
66
100
AcDbSymbolTableRecord
100
AcDbLayerTableRecord
  2
HOJO
 70
     0
 62
     4
  6
CONTINUOUS
  0
LAYER
  5
3FA
330
66
100
AcDbSymbolTableRecord
100
AcDbLayerTableRecord
  2
TITLE
 70
     0
 62
     4
  6
CONTINUOUS
  0
ENDTAB
  0
TABLE
  2
STYLE
  5
67
330
0
100
AcDbSymbolTable
 70
     1
  0
STYLE
  5
16
330
67
100
AcDbSymbolTableRecord
100
AcDbTextStyleTableRecord
  2
STANDARD
 70
     0
 40
0.0
 41
1.0
 50
0.0
 71
     0
 42
2.0
  3
simplex.shx
  4
extfont.shx
  0
ENDTAB
  0
TABLE
  2
VIEW
  5
6C
330
0
100
AcDbSymbolTable
 70
     0
  0
ENDTAB
  0
TABLE
  2
UCS
  5
6D
330
0
100
AcDbSymbolTable
 70
     0
  0
ENDTAB
  0
TABLE
  2
APPID
  5
70
330
0
100
AcDbSymbolTable
 70
     2
  0
APPID
  5
71
330
70
100
AcDbSymbolTableRecord
100
AcDbRegAppTableRecord
  2
ACAD
 70
     0
  0
APPID
  5
2F43
330
70
100
AcDbSymbolTableRecord
100
AcDbRegAppTableRecord
  2
CONTENTBLOCKICON
 70
     0
  0
ENDTAB
  0
TABLE
  2
DIMSTYLE
  5
72
330
0
100
AcDbSymbolTable
 70
     1
  0
DIMSTYLE
105
73
330
72
100
AcDbSymbolTableRecord
100
AcDbDimStyleTableRecord
  2
STANDARD
 70
     0
  3

  4

  5

  6

  7

 40
2.0
 41
1.8
 42
0.625
 43
3.75
 44
1.25
 45
0.0
 46
0.0
 47
0.0
 48
0.0
140
1.8
141
2.5
142
0.0
143
0.0394
144
1.0
145
0.0
146
1.0
147
0.75
 71
     0
 72
     0
 73
     0
 74
     0
 75
     0
 76
     0
 77
     1
 78
     8
170
     0
171
     4
172
     1
173
     0
174
     0
175
     0
176
     0
177
     0
178
     0
270
     2
271
     2
272
     2
273
     8
274
     4
340
16
275
     0
280
     0
281
     0
282
     0
283
     1
284
     0
285
     0
286
     0
287
     3
288
     0
  0
ENDTAB
  0
TABLE
  2
BLOCK_RECORD
  5
1
330
0
100
AcDbSymbolTable
 70
    10
  0
BLOCK_RECORD
  5
2
102
{ACAD_XDICTIONARY
360
2F3F
102
}
330
1
100
AcDbSymbolTableRecord
100
AcDbBlockTableRecord
  2
*MODEL_SPACE
  0
BLOCK_RECORD
  5
2F55
102
{ACAD_XDICTIONARY
360
2F7D
102
}
330
1
100
AcDbSymbolTableRecord
100
AcDbBlockTableRecord
  2
*PAPER_SPACE
  0
ENDTAB
  0
ENDSEC
  0
SECTION
  2
BLOCKS
  0
BLOCK
  5
5D
330
2
100
AcDbEntity
  8
0
100
AcDbBlockBegin
  2
*MODEL_SPACE
 70
     0
 10
0.0
 20
0.0
 30
0.0
  3
*MODEL_SPACE
  1

  0
ENDBLK
  5
5F
330
2
100
AcDbEntity
  8
0
100
AcDbBlockEnd
  0
BLOCK
  5
2F57
330
2F55
100
AcDbEntity
 67
     1
  8
0
100
AcDbBlockBegin
  2
*PAPER_SPACE
 70
     0
 10
0.0
 20
0.0
 30
0.0
  3
*PAPER_SPACE
  1

  0
ENDBLK
  5
2F58
330
2F55
100
AcDbEntity
 67
     1
  8
0
100
AcDbBlockEnd
  0
ENDSEC
  0
SECTION
  2
ENTITIES
  0
LINE
  5
762
330
2
100
AcDbEntity
  8
HIDS
100
AcDbLine
 10
307.5737074322042
 20
162.4414558457759
 30
0.0
 11
327.5737074322041
 21
162.4414558457759
 31
0.0
  0
LINE
  5
763
330
2
100
AcDbEntity
  8
HIDS
100
AcDbLine
 10
307.5737074322042
 20
170.4414558457759
 30
0.0
 11
327.5737074322041
 21
170.4414558457759
 31
0.0
  0
LINE
  5
764
330
2
100
AcDbEntity
  8
HOJO
100
AcDbLine
 10
307.5737074322042
 20
95.44145584577593
 30
0.0
 11
327.5737074322041
 21
95.44145584577593
 31
0.0
  0
LINE
  5
765
330
2
100
AcDbEntity
  8
HOJO
100
AcDbLine
 10
307.5737074322042
 20
103.4414558457759
 30
0.0
 11
327.5737074322041
 21
103.4414558457759
 31
0.0
  0
LINE
  5
766
330
2
100
AcDbEntity
  8
0
100
AcDbLine
 10
307.5737074322042
 20
102.8414498457759
 30
0.0
 11
376.0737074322041
 21
102.8414498457759
 31
0.0
  0
LINE
  5
767
330
2
100
AcDbEntity
  8
0
100
AcDbLine
 10
307.5737074322042
 20
96.04146184577594
 30
0.0
 11
376.0737074322041
 21
96.04146184577594
 31
0.0
  0
LINE
  5
768
330
2
100
AcDbEntity
  8
HIDS
100
AcDbLine
 10
307.5737074322042
 20
163.0414618457758
 30
0.0
 11
376.0737074322041
 21
163.0414618457758
 31
0.0
  0
LINE
  5
769
330
2
100
AcDbEntity
  8
HIDS
100
AcDbLine
 10
307.5737074322042
 20
169.8414498457759
 30
0.0
 11
376.0737074322041
 21
169.8414498457759
 31
0.0
  0
LINE
  5
76A
330
2
100
AcDbEntity
  8
0
100
AcDbLine
 10
326.2757034322041
 20
121.7678408457759
 30
0.0
 11
307.5737074322042
 21
121.4414558457759
 31
0.0
  0
LINE
  5
76B
330
2
100
AcDbEntity
  8
0
100
AcDbLine
 10
326.2757034322041
 20
144.1150708457759
 30
0.0
 11
307.5737074322042
 21
144.4414558457759
 31
0.0
  0
LINE
  5
76C
330
2
100
AcDbEntity
  8
0
100
AcDbLine
 10
328.6087114322041
 20
148.0742678457759
 30
0.0
 11
307.5737074322042
 21
148.4414558457759
 31
0.0
  0
LINE
  5
76D
330
2
100
AcDbEntity
  8
0
100
AcDbLine
 10
328.6087114322041
 20
117.8086438457759
 30
0.0
 11
307.5737074322042
 21
117.4414558457758
 31
0.0
  0
LINE
  5
76E
330
2
100
AcDbEntity
  8
CENTER
100
AcDbLine
 10
292.5687024322042
 20
166.4414558457759
 30
0.0
 11
379.6175004322041
 21
166.4414558457759
 31
0.0
  0
LINE
  5
76F
330
2
100
AcDbEntity
  8
CENTER
100
AcDbLine
 10
292.5687024322042
 20
99.44145584577594
 30
0.0
 11
379.6175004322041
 21
99.44145584577594
 31
0.0
  0
LINE
  5
770
330
2
100
AcDbEntity
  8
HIDS
100
AcDbLine
 10
314.5387034322041
 20
95.30865884577586
 30
0.0
 11
335.5737074322041
 21
94.94145584577593
 31
0.0
  0
LINE
  5
771
330
2
100
AcDbEntity
  8
HIDS
100
AcDbLine
 10
314.5387034322041
 20
170.5742678457759
 30
0.0
 11
335.5737074322041
 21
170.9414558457759
 31
0.0
  0
LINE
  5
772
330
2
100
AcDbEntity
  8
0
100
AcDbLine
 10
335.5737074322041
 20
92.44145584577593
 30
0.0
 11
295.0737074322041
 21
93.14845684577592
 31
0.0
  0
LINE
  5
773
330
2
100
AcDbEntity
  8
0
100
AcDbLine
 10
335.5737074322041
 20
173.4414558457759
 30
0.0
 11
295.0737074322041
 21
172.7344548457758
 31
0.0
  0
LINE
  5
774
330
2
100
AcDbEntity
  8
CENTER
100
AcDbLine
 10
286.0785604322041
 20
132.9414558457759
 30
0.0
 11
406.5531084322042
 21
132.9414558457759
 31
0.0
  0
CIRCLE
  5
775
330
2
100
AcDbEntity
  8
HOJO
100
AcDbCircle
 10
134.771472186835
 20
99.44145584577594
 30
0.0
 40
4.0
  0
CIRCLE
  5
776
330
2
100
AcDbEntity
  8
0
100
AcDbCircle
 10
134.771472186835
 20
99.44145584577594
 30
0.0
 40
4.25
  0
CIRCLE
  5
777
330
2
100
AcDbEntity
  8
HOJO
100
AcDbCircle
 10
220.7714721868351
 20
99.44145584577594
 30
0.0
 40
4.0
  0
CIRCLE
  5
778
330
2
100
AcDbEntity
  8
0
100
AcDbCircle
 10
220.7714721868351
 20
99.44145584577594
 30
0.0
 40
4.25
  0
CIRCLE
  5
779
330
2
100
AcDbEntity
  8
0
100
AcDbCircle
 10
220.7714721868351
 20
99.44145584577594
 30
0.0
 40
3.399999999999999
  0
CIRCLE
  5
77A
330
2
100
AcDbEntity
  8
0
100
AcDbCircle
 10
134.771472186835
 20
99.44145584577594
 30
0.0
 40
3.399999999999999
  0
LINE
  5
77B
330
2
100
AcDbEntity
  8
0
100
AcDbLine
 10
34.71597618683517
 20
167.9414558457759
 30
0.0
 11
34.71597618683517
 21
97.94145584577593
 31
0.0
  0
LINE
  5
77C
330
2
100
AcDbEntity
  8
0
100
AcDbLine
 10
34.21597618683517
 20
164.9414558457759
 30
0.0
 11
34.21597618683517
 21
100.9414558457759
 31
0.0
  0
LINE
  5
77D
330
2
100
AcDbEntity
  8
0
100
AcDbLine
 10
54.71597618683517
 20
170.9414558457759
 30
0.0
 11
54.71597618683517
 21
94.94145584577593
 31
0.0
  0
ARC
  5
77E
330
2
100
AcDbEntity
  8
0
100
AcDbCircle
 10
147.7714721868351
 20
101.2016488457759
 30
0.0
 40
2.0
100
AcDbArc
 50
0.0
 51
40.60129899999997
  0
LINE
  5
77F
330
2
100
AcDbEntity
  8
0
100
AcDbLine
 10
151.7714721868351
 20
101.9414558457758
 30
0.0
 11
151.7714721868351
 21
100.0764658457759
 31
0.0
  0
ARC
  5
780
330
2
100
AcDbEntity
  8
0
100
AcDbCircle
 10
207.7714721868351
 20
101.2016488457759
 30
0.0
 40
2.0
100
AcDbArc
 50
139.3986970000003
 51
180.0
  0
LINE
  5
781
330
2
100
AcDbEntity
  8
0
100
AcDbLine
 10
203.7714721868351
 20
101.9414558457758
 30
0.0
 11
203.7714721868351
 21
100.0764658457759
 31
0.0
  0
LINE
  5
782
330
2
100
AcDbEntity
  8
0
100
AcDbLine
 10
127.7714721868351
 20
116.6130558457759
 30
0.0
 11
127.7714721868351
 21
99.44145584577594
 31
0.0
  0
LINE
  5
783
330
2
100
AcDbEntity
  8
0
100
AcDbLine
 10
227.771472186835
 20
99.44145584577594
 30
0.0
 11
227.771472186835
 21
166.4414558457759
 31
0.0
  0
LINE
  5
786
330
2
100
AcDbEntity
  8
0
100
AcDbLine
 10
295.0737074322041
 20
172.7344548457758
 30
0.0
 11
295.0737074322041
 21
93.14845684577592
 31
0.0
  0
ARC
  5
787
330
2
100
AcDbEntity
  8
HIDS
100
AcDbCircle
 10
309.5737074322041
 20
101.2396428457759
 30
0.0
 40
3.0
100
AcDbArc
 50
0.0
 51
50.64329900000029
  0
LINE
  5
788
330
2
100
AcDbEntity
  8
0
100
AcDbLine
 10
307.5737074322042
 20
172.9526558457759
 30
0.0
 11
307.5737074322042
 21
92.93025584577595
 31
0.0
  0
LINE
  5
78A
330
2
100
AcDbEntity
  8
0
100
AcDbLine
 10
54.71597618683517
 20
94.94145584577593
 30
0.0
 11
126.412738186835
 21
94.94145584577593
 31
0.0
  0
LINE
  5
78B
330
2
100
AcDbEntity
  8
0
100
AcDbLine
 10
38.1800721868351
 20
94.94145584577593
 30
0.0
 11
54.71597618683517
 21
94.94145584577593
 31
0.0
  0
ARC
  5
78C
330
2
100
AcDbEntity
  8
0
100
AcDbCircle
 10
38.1800721868351
 20
97.94145584577593
 30
0.0
 40
3.0
100
AcDbArc
 50
209.999602999999
 51
270.0
  0
LINE
  5
78D
330
2
100
AcDbEntity
  8
0
100
AcDbLine
 10
35.58197318683517
 20
96.44145584577593
 30
0.0
 11
34.71597618683517
 21
97.94145584577593
 31
0.0
  0
LINE
  5
78E
330
2
100
AcDbEntity
  8
0
100
AcDbLine
 10
34.21597618683517
 20
100.9414558457759
 30
0.0
 11
34.71597618683517
 21
100.4414558457759
 31
0.0
  0
ARC
  5
78F
330
2
100
AcDbEntity
  8
0
100
AcDbCircle
 10
196.7714721868351
 20
119.4414558457759
 30
0.0
 40
22.0
100
AcDbArc
 50
270.0
 51
290.4873049999995
  0
LINE
  5
790
330
2
100
AcDbEntity
  8
0
100
AcDbLine
 10
134.771472186835
 20
92.44145584577593
 30
0.0
 11
220.7714721868351
 21
92.44145584577593
 31
0.0
  0
ARC
  5
791
330
2
100
AcDbEntity
  8
0
100
AcDbCircle
 10
143.5768461868351
 20
89.87765884577589
 30
0.0
 40
6.0
100
AcDbArc
 50
59.6417009999995
 51
132.6358950000002
  0
LINE
  5
792
330
2
100
AcDbEntity
  8
0
100
AcDbLine
 10
127.107852186835
 20
94.81685284577592
 30
0.0
 11
132.338489186835
 21
92.8778568457759
 31
0.0
  0
ARC
  5
793
330
2
100
AcDbEntity
  8
0
100
AcDbCircle
 10
134.771472186835
 20
99.44145584577594
 30
0.0
 40
7.0
100
AcDbArc
 50
180.0
 51
312.6358950000002
  0
ARC
  5
795
330
2
100
AcDbEntity
  8
0
100
AcDbCircle
 10
126.412738186835
 20
92.94145584577593
 30
0.0
 40
2.0
100
AcDbArc
 50
69.66127000000027
 51
90.0
  0
LINE
  5
796
330
2
100
AcDbEntity
  8
0
100
AcDbLine
 10
196.7714721868351
 20
97.44145584577594
 30
0.0
 11
158.771472186835
 21
97.44145584577594
 31
0.0
  0
ARC
  5
797
330
2
100
AcDbEntity
  8
0
100
AcDbCircle
 10
158.771472186835
 20
119.4414558457759
 30
0.0
 40
22.0
100
AcDbArc
 50
249.5127030000004
 51
270.0
  0
ARC
  5
798
330
2
100
AcDbEntity
  8
0
100
AcDbCircle
 10
151.7714721868351
 20
100.7064708457759
 30
0.0
 40
2.0
100
AcDbArc
 50
180.0
 51
249.5126950000003
  0
ARC
  5
799
330
2
100
AcDbEntity
  8
0
100
AcDbCircle
 10
161.7714721868351
 20
120.9414558457759
 30
0.0
 40
30.0
100
AcDbArc
 50
239.6417009999995
 51
247.6684039999998
  0
LINE
  5
79A
330
2
100
AcDbEntity
  8
0
100
AcDbLine
 10
149.7714721868351
 20
101.2016488457759
 30
0.0
 11
149.7714721868351
 21
100.7064708457759
 31
0.0
  0
ARC
  5
79B
330
2
100
AcDbEntity
  8
0
100
AcDbCircle
 10
153.7714721868351
 20
100.0764658457759
 30
0.0
 40
2.0
100
AcDbArc
 50
180.0
 51
255.5225069999996
  0
ARC
  5
79C
330
2
100
AcDbEntity
  8
0
100
AcDbCircle
 10
154.172076186835
 20
102.4414558457759
 30
0.0
 40
10.0
100
AcDbArc
 50
247.6684039999998
 51
270.0
  0
ARC
  5
79D
330
2
100
AcDbEntity
  8
0
100
AcDbCircle
 10
220.7714721868351
 20
99.44145584577594
 30
0.0
 40
7.0
100
AcDbArc
 50
227.3641049999997
 51
0.0
  0
ARC
  5
79F
330
2
100
AcDbEntity
  8
0
100
AcDbCircle
 10
211.9660831868351
 20
89.87765884577589
 30
0.0
 40
6.0
100
AcDbArc
 50
47.364071
 51
120.3582990000005
  0
ARC
  5
7A0
330
2
100
AcDbEntity
  8
0
100
AcDbCircle
 10
193.7714721868351
 20
120.9414558457759
 30
0.0
 40
30.0
100
AcDbArc
 50
292.3316420000002
 51
300.358299
  0
ARC
  5
7A1
330
2
100
AcDbEntity
  8
0
100
AcDbCircle
 10
203.7714721868351
 20
100.7064708457759
 30
0.0
 40
2.0
100
AcDbArc
 50
290.4873120000003
 51
0.0
  0
ARC
  5
7A2
330
2
100
AcDbEntity
  8
0
100
AcDbCircle
 10
201.7714721868351
 20
100.0764658457759
 30
0.0
 40
2.0
100
AcDbArc
 50
284.4775090000004
 51
0.0
  0
LINE
  5
7A3
330
2
100
AcDbEntity
  8
0
100
AcDbLine
 10
205.7714721868351
 20
101.2016488457759
 30
0.0
 11
205.7714721868351
 21
100.7064708457759
 31
0.0
  0
ARC
  5
7A4
330
2
100
AcDbEntity
  8
0
100
AcDbCircle
 10
201.370868186835
 20
102.4414558457759
 30
0.0
 40
10.0
100
AcDbArc
 50
270.0
 51
292.3316420000002
  0
LINE
  5
7A5
330
2
100
AcDbEntity
  8
0
100
AcDbLine
 10
295.0737074322041
 20
95.19145584577593
 30
0.0
 11
307.5737074322042
 21
95.19145584577593
 31
0.0
  0
ARC
  5
7A6
330
2
100
AcDbEntity
  8
HIDS
100
AcDbCircle
 10
314.5737074322041
 20
97.30826184577594
 30
0.0
 40
2.0
100
AcDbArc
 50
180.0
 51
268.9999999999998
  0
LINE
  5
7A7
330
2
100
AcDbEntity
  8
HIDS
100
AcDbLine
 10
312.5737074322041
 20
97.30826184577594
 30
0.0
 11
312.5737074322041
 21
101.2396428457759
 31
0.0
  0
LINE
  5
7A8
330
2
100
AcDbEntity
  8
0
100
AcDbLine
 10
54.71597618683517
 20
163.1904488457759
 30
0.0
 11
127.7714721868351
 21
163.1904488457759
 31
0.0
  0
LINE
  5
7A9
330
2
100
AcDbEntity
  8
0
100
AcDbLine
 10
54.71597618683517
 20
102.6924628457758
 30
0.0
 11
127.7714721868351
 21
102.6924628457758
 31
0.0
  0
LINE
  5
7AA
330
2
100
AcDbEntity
  8
0
100
AcDbLine
 10
54.71597618683517
 20
170.9414558457759
 30
0.0
 11
126.412738186835
 21
170.9414558457759
 31
0.0
  0
LINE
  5
7AB
330
2
100
AcDbEntity
  8
CENTER
100
AcDbLine
 10
235.3122431868349
 20
132.9414558457759
 30
0.0
 11
25.69544621860108
 21
132.9414558457759
 31
0.0
  0
LINE
  5
7B0
330
2
100
AcDbEntity
  8
0
100
AcDbLine
 10
36.29757218683517
 20
102.6924628457758
 30
0.0
 11
54.71597618683517
 21
102.6924628457758
 31
0.0
  0
LINE
  5
7B1
330
2
100
AcDbEntity
  8
0
100
AcDbLine
 10
36.29757218683517
 20
163.1904488457759
 30
0.0
 11
54.71597618683517
 21
163.1904488457759
 31
0.0
  0
LINE
  5
7B2
330
2
100
AcDbEntity
  8
0
100
AcDbLine
 10
38.1800721868351
 20
170.9414558457759
 30
0.0
 11
54.71597618683517
 21
170.9414558457759
 31
0.0
  0
ARC
  5
7B3
330
2
100
AcDbEntity
  8
0
100
AcDbCircle
 10
38.1800721868351
 20
167.9414558457759
 30
0.0
 40
3.0
100
AcDbArc
 50
90.0
 51
150.0003970000008
  0
LINE
  5
7B4
330
2
100
AcDbEntity
  8
0
100
AcDbLine
 10
35.58197318683517
 20
169.4414558457759
 30
0.0
 11
34.71597618683517
 21
167.9414558457759
 31
0.0
  0
LINE
  5
7B5
330
2
100
AcDbEntity
  8
0
100
AcDbLine
 10
34.21597618683517
 20
164.9414558457759
 30
0.0
 11
34.71597618683517
 21
165.4414558457759
 31
0.0
  0
CIRCLE
  5
7BD
330
2
100
AcDbEntity
  8
0
100
AcDbCircle
 10
188.771472186835
 20
132.9414558457759
 30
0.0
 40
25.002001
  0
CIRCLE
  5
7BE
330
2
100
AcDbEntity
  8
0
100
AcDbCircle
 10
188.771472186835
 20
132.9414558457759
 30
0.0
 40
23.0
  0
CIRCLE
  5
7BF
330
2
100
AcDbEntity
  8
0
100
AcDbCircle
 10
188.771472186835
 20
132.9414558457759
 30
0.0
 40
15.0
  0
CIRCLE
  5
7C0
330
2
100
AcDbEntity
  8
0
100
AcDbCircle
 10
188.771472186835
 20
132.9414558457759
 30
0.0
 40
19.0
  0
ARC
  5
7C1
330
2
100
AcDbEntity
  8
0
100
AcDbCircle
 10
196.7714721868351
 20
146.4414558457759
 30
0.0
 40
22.0
100
AcDbArc
 50
69.51268799999964
 51
90.0
  0
LINE
  5
7C2
330
2
100
AcDbEntity
  8
0
100
AcDbLine
 10
134.771472186835
 20
173.4414558457759
 30
0.0
 11
220.7714721868351
 21
173.4414558457759
 31
0.0
  0
ARC
  5
7C3
330
2
100
AcDbEntity
  8
0
100
AcDbCircle
 10
143.5768461868351
 20
176.0052678457759
 30
0.0
 40
6.0
100
AcDbArc
 50
227.3641049999997
 51
300.358299
  0
LINE
  5
7C4
330
2
100
AcDbEntity
  8
0
100
AcDbLine
 10
142.2899661868351
 20
113.7430608457759
 30
0.0
 11
151.2900721868351
 21
103.2430608457759
 31
0.0
  0
LINE
  5
7C5
330
2
100
AcDbEntity
  8
0
100
AcDbLine
 10
141.3701051868351
 20
111.7430608457759
 30
0.0
 11
149.290072186835
 21
102.5032538457759
 31
0.0
  0
LINE
  5
7C6
330
2
100
AcDbEntity
  8
0
100
AcDbLine
 10
142.2899661868351
 20
152.1398508457759
 30
0.0
 11
151.2900721868351
 21
162.6398508457759
 31
0.0
  0
LINE
  5
7C7
330
2
100
AcDbEntity
  8
0
100
AcDbLine
 10
141.3701051868351
 20
154.1398508457759
 30
0.0
 11
149.290072186835
 21
163.3796578457759
 31
0.0
  0
LINE
  5
7C8
330
2
100
AcDbEntity
  8
0
100
AcDbLine
 10
136.771472186835
 20
146.4414558457759
 30
0.0
 11
136.771472186835
 21
119.4414558457759
 31
0.0
  0
LINE
  5
7C9
330
2
100
AcDbEntity
  8
0
100
AcDbLine
 10
131.771472186835
 20
122.2698558457759
 30
0.0
 11
131.771472186835
 21
143.6130558457759
 31
0.0
  0
LINE
  5
7CA
330
2
100
AcDbEntity
  8
0
100
AcDbLine
 10
127.271472186835
 20
158.6318548457759
 30
0.0
 11
127.271472186835
 21
107.2510568457759
 31
0.0
  0
ARC
  5
7CB
330
2
100
AcDbEntity
  8
0
100
AcDbCircle
 10
129.771472186835
 20
122.2698558457759
 30
0.0
 40
2.0
100
AcDbArc
 50
315.0
 51
0.0
  0
ARC
  5
7CC
330
2
100
AcDbEntity
  8
0
100
AcDbCircle
 10
129.771472186835
 20
115.9414558457759
 30
0.0
 40
2.0
100
AcDbArc
 50
180.0
 51
270.0
  0
CIRCLE
  5
7CE
330
2
100
AcDbEntity
  8
0
100
AcDbCircle
 10
132.2714721868351
 20
109.4414558457759
 30
0.0
 40
3.799999999999998
  0
ARC
  5
7CF
330
2
100
AcDbEntity
  8
0
100
AcDbCircle
 10
129.771472186835
 20
102.9414558457758
 30
0.0
 40
2.0
100
AcDbArc
 50
90.0
 51
180.0
  0
LINE
  5
7D0
330
2
100
AcDbEntity
  8
0
100
AcDbLine
 10
131.1856871868351
 20
120.8556708457759
 30
0.0
 11
128.357257186835
 21
118.0272408457759
 31
0.0
  0
LINE
  5
7D1
330
2
100
AcDbEntity
  8
0
100
AcDbLine
 10
127.271472186835
 20
107.2510568457759
 30
0.0
 11
127.7714721868351
 21
107.2510568457759
 31
0.0
  0
ARC
  5
7D2
330
2
100
AcDbEntity
  8
0
100
AcDbCircle
 10
129.771472186835
 20
116.6130558457759
 30
0.0
 40
2.0
100
AcDbArc
 50
135.0
 51
180.0
  0
CIRCLE
  5
7D4
330
2
100
AcDbEntity
  8
0
100
AcDbCircle
 10
132.2714721868351
 20
109.4414558457759
 30
0.0
 40
3.5
  0
ARC
  5
7D5
330
2
100
AcDbEntity
  8
0
100
AcDbCircle
 10
132.2714721868351
 20
109.4414558457759
 30
0.0
 40
4.5
100
AcDbArc
 50
270.0
 51
90.0
  0
LINE
  5
7D6
330
2
100
AcDbEntity
  8
0
100
AcDbLine
 10
132.2714721868351
 20
107.6414678457759
 30
0.0
 11
133.771472186835
 21
108.5074658457759
 31
0.0
  0
LINE
  5
7D7
330
2
100
AcDbEntity
  8
0
100
AcDbLine
 10
133.771472186835
 20
110.3754458457759
 30
0.0
 11
133.771472186835
 21
108.5074658457759
 31
0.0
  0
LINE
  5
7D8
330
2
100
AcDbEntity
  8
0
100
AcDbLine
 10
132.2714721868351
 20
111.2414438457759
 30
0.0
 11
133.771472186835
 21
110.3754458457759
 31
0.0
  0
LINE
  5
7D9
330
2
100
AcDbEntity
  8
0
100
AcDbLine
 10
132.2714721868351
 20
111.2414438457759
 30
0.0
 11
130.771472186835
 21
110.3754458457759
 31
0.0
  0
LINE
  5
7DA
330
2
100
AcDbEntity
  8
0
100
AcDbLine
 10
130.771472186835
 20
110.3754458457759
 30
0.0
 11
130.771472186835
 21
108.5074658457759
 31
0.0
  0
LINE
  5
7DB
330
2
100
AcDbEntity
  8
0
100
AcDbLine
 10
132.2714721868351
 20
107.6414678457759
 30
0.0
 11
130.771472186835
 21
108.5074658457759
 31
0.0
  0
LINE
  5
7DC
330
2
100
AcDbEntity
  8
0
100
AcDbLine
 10
129.771472186835
 20
104.9414558457758
 30
0.0
 11
132.2714721868351
 21
104.9414558457758
 31
0.0
  0
LINE
  5
7DD
330
2
100
AcDbEntity
  8
0
100
AcDbLine
 10
129.771472186835
 20
113.9414558457759
 30
0.0
 11
132.2714721868351
 21
113.9414558457759
 31
0.0
  0
ARC
  5
7DE
330
2
100
AcDbEntity
  8
0
100
AcDbCircle
 10
158.771472186835
 20
119.4414558457759
 30
0.0
 40
22.0
100
AcDbArc
 50
180.0
 51
194.4774929999995
  0
ARC
  5
7DF
330
2
100
AcDbEntity
  8
0
100
AcDbCircle
 10
139.406558186835
 20
114.4414558457759
 30
0.0
 40
2.0
100
AcDbArc
 50
194.4774929999995
 51
270.0
  0
ARC
  5
7E0
330
2
100
AcDbEntity
  8
0
100
AcDbCircle
 10
138.997745186835
 20
116.4414558457758
 30
0.0
 40
2.0
100
AcDbArc
 50
188.6269069999995
 51
270.0
  0
LINE
  5
7E1
330
2
100
AcDbEntity
  8
0
100
AcDbLine
 10
139.8515961868352
 20
112.4414558457759
 30
0.0
 11
139.406558186835
 21
112.4414558457759
 31
0.0
  0
LINE
  5
7E2
330
2
100
AcDbEntity
  8
0
100
AcDbLine
 10
140.7714721868351
 20
114.4414558457759
 30
0.0
 11
138.997745186835
 21
114.4414558457759
 31
0.0
  0
LINE
  5
7E3
330
2
100
AcDbEntity
  8
0
100
AcDbLine
 10
141.607165186835
 20
114.2584418457759
 30
0.0
 11
140.687305186835
 21
112.2584418457759
 31
0.0
  0
ARC
  5
7E4
330
2
100
AcDbEntity
  8
0
100
AcDbCircle
 10
140.7714721868351
 20
112.4414558457759
 30
0.0
 40
2.0
100
AcDbArc
 50
40.60129899999997
 51
90.0
  0
ARC
  5
7E5
330
2
100
AcDbEntity
  8
0
100
AcDbCircle
 10
139.8515961868352
 20
110.4414558457759
 30
0.0
 40
2.0
100
AcDbArc
 50
40.60129899999997
 51
90.0
  0
ARC
  5
7E6
330
2
100
AcDbEntity
  8
0
100
AcDbCircle
 10
129.771472186835
 20
162.9414558457759
 30
0.0
 40
2.0
100
AcDbArc
 50
180.0
 51
270.0
  0
LINE
  5
7E9
330
2
100
AcDbEntity
  8
0
100
AcDbLine
 10
127.7714721868351
 20
166.4414558457759
 30
0.0
 11
127.7714721868351
 21
149.2698558457759
 31
0.0
  0
ARC
  5
7EB
330
2
100
AcDbEntity
  8
0
100
AcDbCircle
 10
129.771472186835
 20
149.9414558457759
 30
0.0
 40
2.0
100
AcDbArc
 50
90.0
 51
180.0
  0
CIRCLE
  5
7EC
330
2
100
AcDbEntity
  8
0
100
AcDbCircle
 10
132.2714721868351
 20
156.4414558457759
 30
0.0
 40
3.799999999999998
  0
LINE
  5
7ED
330
2
100
AcDbEntity
  8
0
100
AcDbLine
 10
131.1856871868351
 20
145.0272408457759
 30
0.0
 11
128.357257186835
 21
147.8556708457759
 31
0.0
  0
ARC
  5
7EE
330
2
100
AcDbEntity
  8
0
100
AcDbCircle
 10
129.771472186835
 20
149.2698558457759
 30
0.0
 40
2.0
100
AcDbArc
 50
180.0
 51
225.0
  0
LINE
  5
7EF
330
2
100
AcDbEntity
  8
0
100
AcDbLine
 10
127.271472186835
 20
158.6318548457759
 30
0.0
 11
127.7714721868351
 21
158.6318548457759
 31
0.0
  0
ARC
  5
7F0
330
2
100
AcDbEntity
  8
0
100
AcDbCircle
 10
158.771472186835
 20
146.4414558457759
 30
0.0
 40
22.0
100
AcDbArc
 50
165.5225070000003
 51
180.0
  0
ARC
  5
7F1
330
2
100
AcDbEntity
  8
0
100
AcDbCircle
 10
138.997745186835
 20
149.4414558457759
 30
0.0
 40
2.0
100
AcDbArc
 50
90.0
 51
171.3730930000004
  0
LINE
  5
7F2
330
2
100
AcDbEntity
  8
0
100
AcDbLine
 10
141.607165186835
 20
151.6244698457759
 30
0.0
 11
140.687305186835
 21
153.6244698457759
 31
0.0
  0
ARC
  5
7F3
330
2
100
AcDbEntity
  8
0
100
AcDbCircle
 10
140.7714721868351
 20
153.4414558457759
 30
0.0
 40
2.0
100
AcDbArc
 50
270.0
 51
319.3987009999999
  0
ARC
  5
7F4
330
2
100
AcDbEntity
  8
0
100
AcDbCircle
 10
129.771472186835
 20
143.6130558457759
 30
0.0
 40
2.0
100
AcDbArc
 50
0.0
 51
45.0
  0
LINE
  5
7F5
330
2
100
AcDbEntity
  8
0
100
AcDbLine
 10
140.7714721868351
 20
151.4414558457759
 30
0.0
 11
138.997745186835
 21
151.4414558457759
 31
0.0
  0
ARC
  5
7F6
330
2
100
AcDbEntity
  8
0
100
AcDbCircle
 10
132.2714721868351
 20
156.4414558457759
 30
0.0
 40
4.5
100
AcDbArc
 50
270.0
 51
90.0
  0
CIRCLE
  5
7F7
330
2
100
AcDbEntity
  8
0
100
AcDbCircle
 10
132.2714721868351
 20
156.4414558457759
 30
0.0
 40
3.5
  0
LINE
  5
7F8
330
2
100
AcDbEntity
  8
0
100
AcDbLine
 10
129.771472186835
 20
151.9414558457759
 30
0.0
 11
132.2714721868351
 21
151.9414558457759
 31
0.0
  0
LINE
  5
7F9
330
2
100
AcDbEntity
  8
0
100
AcDbLine
 10
129.771472186835
 20
160.9414558457759
 30
0.0
 11
132.2714721868351
 21
160.9414558457759
 31
0.0
  0
LINE
  5
7FA
330
2
100
AcDbEntity
  8
0
100
AcDbLine
 10
132.2714721868351
 20
154.6414678457758
 30
0.0
 11
133.771472186835
 21
155.5074658457759
 31
0.0
  0
LINE
  5
7FB
330
2
100
AcDbEntity
  8
0
100
AcDbLine
 10
132.2714721868351
 20
154.6414678457758
 30
0.0
 11
130.771472186835
 21
155.5074658457759
 31
0.0
  0
LINE
  5
7FC
330
2
100
AcDbEntity
  8
0
100
AcDbLine
 10
132.2714721868351
 20
158.2414438457758
 30
0.0
 11
130.771472186835
 21
157.3754458457759
 31
0.0
  0
LINE
  5
7FD
330
2
100
AcDbEntity
  8
0
100
AcDbLine
 10
132.2714721868351
 20
158.2414438457758
 30
0.0
 11
133.771472186835
 21
157.3754458457759
 31
0.0
  0
LINE
  5
7FE
330
2
100
AcDbEntity
  8
0
100
AcDbLine
 10
130.771472186835
 20
155.5074658457759
 30
0.0
 11
130.771472186835
 21
157.3754458457759
 31
0.0
  0
LINE
  5
7FF
330
2
100
AcDbEntity
  8
0
100
AcDbLine
 10
133.771472186835
 20
155.5074658457759
 30
0.0
 11
133.771472186835
 21
157.3754458457759
 31
0.0
  0
ARC
  5
800
330
2
100
AcDbEntity
  8
0
100
AcDbCircle
 10
139.406558186835
 20
151.4414558457759
 30
0.0
 40
2.0
100
AcDbArc
 50
90.0
 51
165.5225070000003
  0
LINE
  5
801
330
2
100
AcDbEntity
  8
0
100
AcDbLine
 10
139.8515961868352
 20
153.4414558457759
 30
0.0
 11
139.406558186835
 21
153.4414558457759
 31
0.0
  0
ARC
  5
802
330
2
100
AcDbEntity
  8
0
100
AcDbCircle
 10
139.8515961868352
 20
155.4414558457759
 30
0.0
 40
2.0
100
AcDbArc
 50
270.0
 51
319.3987009999999
  0
LINE
  5
803
330
2
100
AcDbEntity
  8
0
100
AcDbLine
 10
127.107852186835
 20
171.0660588457758
 30
0.0
 11
132.338489186835
 21
173.0050548457759
 31
0.0
  0
ARC
  5
804
330
2
100
AcDbEntity
  8
0
100
AcDbCircle
 10
134.771472186835
 20
166.4414558457759
 30
0.0
 40
7.0
100
AcDbArc
 50
47.364071
 51
180.0
  0
ARC
  5
806
330
2
100
AcDbEntity
  8
0
100
AcDbCircle
 10
126.412738186835
 20
172.9414558457759
 30
0.0
 40
2.0
100
AcDbArc
 50
270.0
 51
290.3387299999997
  0
CIRCLE
  5
807
330
2
100
AcDbEntity
  8
HOJO
100
AcDbCircle
 10
134.771472186835
 20
166.4414558457759
 30
0.0
 40
4.0
  0
CIRCLE
  5
808
330
2
100
AcDbEntity
  8
0
100
AcDbCircle
 10
134.771472186835
 20
166.4414558457759
 30
0.0
 40
4.25
  0
CIRCLE
  5
809
330
2
100
AcDbEntity
  8
0
100
AcDbCircle
 10
134.771472186835
 20
166.4414558457759
 30
0.0
 40
3.399999999999999
  0
LINE
  5
80B
330
2
100
AcDbEntity
  8
0
100
AcDbLine
 10
151.6472651868349
 20
102.6352428457757
 30
0.0
 11
149.647265186835
 21
101.8954658457759
 31
0.0
  0
ARC
  5
80C
330
2
100
AcDbEntity
  8
0
100
AcDbCircle
 10
149.7714721868351
 20
101.9414558457758
 30
0.0
 40
2.0
100
AcDbArc
 50
0.0
 51
40.60129899999997
  0
LINE
  5
80D
330
2
100
AcDbEntity
  8
0
100
AcDbLine
 10
196.7714721868351
 20
168.4414558457759
 30
0.0
 11
158.771472186835
 21
168.4414558457759
 31
0.0
  0
ARC
  5
80E
330
2
100
AcDbEntity
  8
0
100
AcDbCircle
 10
158.771472186835
 20
146.4414558457759
 30
0.0
 40
22.0
100
AcDbArc
 50
90.0
 51
110.4872969999995
  0
ARC
  5
80F
330
2
100
AcDbEntity
  8
0
100
AcDbCircle
 10
161.7714721868351
 20
144.9414558457759
 30
0.0
 40
30.0
100
AcDbArc
 50
112.331596
 51
120.3582990000005
  0
ARC
  5
810
330
2
100
AcDbEntity
  8
0
100
AcDbCircle
 10
151.7714721868351
 20
165.1764408457759
 30
0.0
 40
2.0
100
AcDbArc
 50
110.4872969999995
 51
180.0
  0
LINE
  5
811
330
2
100
AcDbEntity
  8
0
100
AcDbLine
 10
151.6472651868349
 20
163.2476688457759
 30
0.0
 11
149.647265186835
 21
163.9874458457759
 31
0.0
  0
ARC
  5
812
330
2
100
AcDbEntity
  8
0
100
AcDbCircle
 10
147.7714721868351
 20
164.6812628457759
 30
0.0
 40
2.0
100
AcDbArc
 50
319.3987009999999
 51
0.0
  0
LINE
  5
813
330
2
100
AcDbEntity
  8
0
100
AcDbLine
 10
149.7714721868351
 20
164.6812628457759
 30
0.0
 11
149.7714721868351
 21
165.1764408457759
 31
0.0
  0
ARC
  5
814
330
2
100
AcDbEntity
  8
0
100
AcDbCircle
 10
153.7714721868351
 20
165.8064458457759
 30
0.0
 40
2.0
100
AcDbArc
 50
104.4775009999996
 51
180.0
  0
ARC
  5
815
330
2
100
AcDbEntity
  8
0
100
AcDbCircle
 10
149.7714721868351
 20
163.9414558457759
 30
0.0
 40
2.0
100
AcDbArc
 50
319.3987009999999
 51
0.0
  0
LINE
  5
816
330
2
100
AcDbEntity
  8
0
100
AcDbLine
 10
151.7714721868351
 20
163.9414558457759
 30
0.0
 11
151.7714721868351
 21
165.8064458457759
 31
0.0
  0
ARC
  5
817
330
2
100
AcDbEntity
  8
0
100
AcDbCircle
 10
154.172076186835
 20
163.4414558457759
 30
0.0
 40
10.0
100
AcDbArc
 50
90.0
 51
112.331596
  0
LINE
  5
818
330
2
100
AcDbEntity
  8
0
100
AcDbLine
 10
218.7714721868351
 20
146.4414558457759
 30
0.0
 11
218.7714721868351
 21
119.4414558457759
 31
0.0
  0
LINE
  5
819
330
2
100
AcDbEntity
  8
0
100
AcDbLine
 10
223.771472186835
 20
122.2698558457759
 30
0.0
 11
223.771472186835
 21
143.6130558457759
 31
0.0
  0
ARC
  5
81A
330
2
100
AcDbEntity
  8
0
100
AcDbCircle
 10
225.771472186835
 20
122.2698558457759
 30
0.0
 40
2.0
100
AcDbArc
 50
180.0
 51
225.0
  0
LINE
  5
81B
330
2
100
AcDbEntity
  8
0
100
AcDbLine
 10
213.9356871868351
 20
114.2584418457759
 30
0.0
 11
214.855670186835
 21
112.2584418457759
 31
0.0
  0
ARC
  5
81C
330
2
100
AcDbEntity
  8
0
100
AcDbCircle
 10
214.771472186835
 20
112.4414558457759
 30
0.0
 40
2.0
100
AcDbArc
 50
90.0
 51
139.3986970000003
  0
LINE
  5
81D
330
2
100
AcDbEntity
  8
0
100
AcDbLine
 10
214.1728701868351
 20
111.7430608457759
 30
0.0
 11
206.2528871868351
 21
102.5032538457759
 31
0.0
  0
LINE
  5
81E
330
2
100
AcDbEntity
  8
0
100
AcDbLine
 10
213.2528871868351
 20
113.7430608457759
 30
0.0
 11
204.2528721868351
 21
103.2430608457759
 31
0.0
  0
LINE
  5
81F
330
2
100
AcDbEntity
  8
0
100
AcDbLine
 10
203.895679186835
 20
102.6352428457757
 30
0.0
 11
205.8956791868349
 21
101.8954658457759
 31
0.0
  0
ARC
  5
820
330
2
100
AcDbEntity
  8
0
100
AcDbCircle
 10
205.7714721868351
 20
101.9414558457758
 30
0.0
 40
2.0
100
AcDbArc
 50
139.3986970000003
 51
180.0
  0
ARC
  5
821
330
2
100
AcDbEntity
  8
0
100
AcDbCircle
 10
223.271472186835
 20
109.4414558457759
 30
0.0
 40
4.5
100
AcDbArc
 50
90.0
 51
270.0
  0
CIRCLE
  5
823
330
2
100
AcDbEntity
  8
0
100
AcDbCircle
 10
223.271472186835
 20
109.4414558457759
 30
0.0
 40
3.5
  0
CIRCLE
  5
824
330
2
100
AcDbEntity
  8
0
100
AcDbCircle
 10
223.271472186835
 20
109.4414558457759
 30
0.0
 40
3.799999999999998
  0
LINE
  5
826
330
2
100
AcDbEntity
  8
0
100
AcDbLine
 10
225.771472186835
 20
104.9414558457758
 30
0.0
 11
223.271472186835
 21
104.9414558457758
 31
0.0
  0
ARC
  5
827
330
2
100
AcDbEntity
  8
0
100
AcDbCircle
 10
225.771472186835
 20
102.9414558457758
 30
0.0
 40
2.0
100
AcDbArc
 50
0.0
 51
90.0
  0
LINE
  5
828
330
2
100
AcDbEntity
  8
0
100
AcDbLine
 10
223.271472186835
 20
111.2414438457759
 30
0.0
 11
221.771472186835
 21
110.3754458457759
 31
0.0
  0
LINE
  5
829
330
2
100
AcDbEntity
  8
0
100
AcDbLine
 10
223.271472186835
 20
111.2414438457759
 30
0.0
 11
224.7714721868351
 21
110.3754458457759
 31
0.0
  0
LINE
  5
82A
330
2
100
AcDbEntity
  8
0
100
AcDbLine
 10
223.271472186835
 20
107.6414678457759
 30
0.0
 11
224.7714721868351
 21
108.5074658457759
 31
0.0
  0
LINE
  5
82B
330
2
100
AcDbEntity
  8
0
100
AcDbLine
 10
223.271472186835
 20
107.6414678457759
 30
0.0
 11
221.771472186835
 21
108.5074658457759
 31
0.0
  0
LINE
  5
82C
330
2
100
AcDbEntity
  8
0
100
AcDbLine
 10
224.7714721868351
 20
110.3754458457759
 30
0.0
 11
224.7714721868351
 21
108.5074658457759
 31
0.0
  0
LINE
  5
82D
330
2
100
AcDbEntity
  8
0
100
AcDbLine
 10
221.771472186835
 20
110.3754458457759
 30
0.0
 11
221.771472186835
 21
108.5074658457759
 31
0.0
  0
ARC
  5
82E
330
2
100
AcDbEntity
  8
0
100
AcDbCircle
 10
196.7714721868351
 20
119.4414558457759
 30
0.0
 40
22.0
100
AcDbArc
 50
345.5224900000004
 51
0.0
  0
ARC
  5
82F
330
2
100
AcDbEntity
  8
0
100
AcDbCircle
 10
216.136462186835
 20
114.4414558457759
 30
0.0
 40
2.0
100
AcDbArc
 50
270.0
 51
345.5224909999996
  0
ARC
  5
830
330
2
100
AcDbEntity
  8
0
100
AcDbCircle
 10
216.5452761868349
 20
116.4414558457758
 30
0.0
 40
2.0
100
AcDbArc
 50
270.0
 51
351.3731079999995
  0
LINE
  5
831
330
2
100
AcDbEntity
  8
0
100
AcDbLine
 10
215.6912721868351
 20
112.4414558457759
 30
0.0
 11
216.136462186835
 21
112.4414558457759
 31
0.0
  0
LINE
  5
832
330
2
100
AcDbEntity
  8
0
100
AcDbLine
 10
214.771472186835
 20
114.4414558457759
 30
0.0
 11
216.5452761868349
 21
114.4414558457759
 31
0.0
  0
ARC
  5
833
330
2
100
AcDbEntity
  8
0
100
AcDbCircle
 10
215.6912721868351
 20
110.4414558457759
 30
0.0
 40
2.0
100
AcDbArc
 50
90.0
 51
139.3986970000003
  0
LINE
  5
834
330
2
100
AcDbEntity
  8
0
100
AcDbLine
 10
225.771472186835
 20
113.9414558457759
 30
0.0
 11
223.271472186835
 21
113.9414558457759
 31
0.0
  0
ARC
  5
835
330
2
100
AcDbEntity
  8
0
100
AcDbCircle
 10
225.771472186835
 20
115.9414558457759
 30
0.0
 40
2.0
100
AcDbArc
 50
270.0
 51
0.0
  0
ARC
  5
836
330
2
100
AcDbEntity
  8
0
100
AcDbCircle
 10
225.771472186835
 20
116.6130558457759
 30
0.0
 40
2.0
100
AcDbArc
 50
0.0
 51
45.0
  0
LINE
  5
837
330
2
100
AcDbEntity
  8
0
100
AcDbLine
 10
224.357257186835
 20
120.8556708457759
 30
0.0
 11
227.185687186835
 21
118.0272408457759
 31
0.0
  0
ARC
  5
838
330
2
100
AcDbEntity
  8
0
100
AcDbCircle
 10
220.7714721868351
 20
166.4414558457759
 30
0.0
 40
7.0
100
AcDbArc
 50
0.0
 51
132.6358950000002
  0
ARC
  5
83A
330
2
100
AcDbEntity
  8
0
100
AcDbCircle
 10
225.771472186835
 20
162.9414558457759
 30
0.0
 40
2.0
100
AcDbArc
 50
270.0
 51
0.0
  0
LINE
  5
83C
330
2
100
AcDbEntity
  8
0
100
AcDbLine
 10
213.2528871868351
 20
152.1398508457759
 30
0.0
 11
204.2528721868351
 21
162.6398508457759
 31
0.0
  0
LINE
  5
83D
330
2
100
AcDbEntity
  8
0
100
AcDbLine
 10
214.1728701868351
 20
154.1398508457759
 30
0.0
 11
206.2528871868351
 21
163.3796578457759
 31
0.0
  0
LINE
  5
83F
330
2
100
AcDbEntity
  8
0
100
AcDbLine
 10
213.9356871868351
 20
151.6244698457759
 30
0.0
 11
214.855670186835
 21
153.6244698457759
 31
0.0
  0
ARC
  5
840
330
2
100
AcDbEntity
  8
0
100
AcDbCircle
 10
214.771472186835
 20
153.4414558457759
 30
0.0
 40
2.0
100
AcDbArc
 50
220.6013029999997
 51
270.0
  0
ARC
  5
841
330
2
100
AcDbEntity
  8
0
100
AcDbCircle
 10
225.771472186835
 20
149.9414558457759
 30
0.0
 40
2.0
100
AcDbArc
 50
0.0
 51
90.0
  0
ARC
  5
842
330
2
100
AcDbEntity
  8
0
100
AcDbCircle
 10
196.7714721868351
 20
146.4414558457759
 30
0.0
 40
22.0
100
AcDbArc
 50
0.0
 51
14.47750999999959
  0
ARC
  5
843
330
2
100
AcDbEntity
  8
0
100
AcDbCircle
 10
216.5452761868349
 20
149.4414558457759
 30
0.0
 40
2.0
100
AcDbArc
 50
8.626927000000565
 51
90.0
  0
LINE
  5
844
330
2
100
AcDbEntity
  8
0
100
AcDbLine
 10
214.771472186835
 20
151.4414558457759
 30
0.0
 11
216.5452761868349
 21
151.4414558457759
 31
0.0
  0
ARC
  5
845
330
2
100
AcDbEntity
  8
0
100
AcDbCircle
 10
225.771472186835
 20
143.6130558457759
 30
0.0
 40
2.0
100
AcDbArc
 50
135.0
 51
180.0
  0
ARC
  5
846
330
2
100
AcDbEntity
  8
0
100
AcDbCircle
 10
225.771472186835
 20
149.2698558457759
 30
0.0
 40
2.0
100
AcDbArc
 50
315.0
 51
0.0
  0
LINE
  5
847
330
2
100
AcDbEntity
  8
0
100
AcDbLine
 10
224.357257186835
 20
145.0272408457759
 30
0.0
 11
227.185687186835
 21
147.8556708457759
 31
0.0
  0
ARC
  5
849
330
2
100
AcDbEntity
  8
0
100
AcDbCircle
 10
223.271472186835
 20
156.4414558457759
 30
0.0
 40
4.5
100
AcDbArc
 50
90.0
 51
270.0
  0
CIRCLE
  5
84A
330
2
100
AcDbEntity
  8
0
100
AcDbCircle
 10
223.271472186835
 20
156.4414558457759
 30
0.0
 40
3.5
  0
CIRCLE
  5
84B
330
2
100
AcDbEntity
  8
0
100
AcDbCircle
 10
223.271472186835
 20
156.4414558457759
 30
0.0
 40
3.799999999999998
  0
ARC
  5
84C
330
2
100
AcDbEntity
  8
0
100
AcDbCircle
 10
216.136462186835
 20
151.4414558457759
 30
0.0
 40
2.0
100
AcDbArc
 50
14.47750999999959
 51
90.0
  0
LINE
  5
84D
330
2
100
AcDbEntity
  8
0
100
AcDbLine
 10
215.6912721868351
 20
153.4414558457759
 30
0.0
 11
216.136462186835
 21
153.4414558457759
 31
0.0
  0
ARC
  5
84E
330
2
100
AcDbEntity
  8
0
100
AcDbCircle
 10
215.6912721868351
 20
155.4414558457759
 30
0.0
 40
2.0
100
AcDbArc
 50
220.6013029999997
 51
270.0
  0
LINE
  5
84F
330
2
100
AcDbEntity
  8
0
100
AcDbLine
 10
225.771472186835
 20
151.9414558457759
 30
0.0
 11
223.271472186835
 21
151.9414558457759
 31
0.0
  0
LINE
  5
850
330
2
100
AcDbEntity
  8
0
100
AcDbLine
 10
225.771472186835
 20
160.9414558457759
 30
0.0
 11
223.271472186835
 21
160.9414558457759
 31
0.0
  0
LINE
  5
851
330
2
100
AcDbEntity
  8
0
100
AcDbLine
 10
223.271472186835
 20
154.6414678457758
 30
0.0
 11
221.771472186835
 21
155.5074658457759
 31
0.0
  0
LINE
  5
852
330
2
100
AcDbEntity
  8
0
100
AcDbLine
 10
223.271472186835
 20
154.6414678457758
 30
0.0
 11
224.7714721868351
 21
155.5074658457759
 31
0.0
  0
LINE
  5
853
330
2
100
AcDbEntity
  8
0
100
AcDbLine
 10
223.271472186835
 20
158.2414438457758
 30
0.0
 11
224.7714721868351
 21
157.3754458457759
 31
0.0
  0
LINE
  5
854
330
2
100
AcDbEntity
  8
0
100
AcDbLine
 10
223.271472186835
 20
158.2414438457758
 30
0.0
 11
221.771472186835
 21
157.3754458457759
 31
0.0
  0
LINE
  5
855
330
2
100
AcDbEntity
  8
0
100
AcDbLine
 10
224.7714721868351
 20
155.5074658457759
 30
0.0
 11
224.7714721868351
 21
157.3754458457759
 31
0.0
  0
LINE
  5
856
330
2
100
AcDbEntity
  8
0
100
AcDbLine
 10
221.771472186835
 20
155.5074658457759
 30
0.0
 11
221.771472186835
 21
157.3754458457759
 31
0.0
  0
ARC
  5
857
330
2
100
AcDbEntity
  8
0
100
AcDbCircle
 10
211.9660831868351
 20
176.0052678457759
 30
0.0
 40
6.0
100
AcDbArc
 50
239.6417009999995
 51
312.6359289999998
  0
ARC
  5
858
330
2
100
AcDbEntity
  8
0
100
AcDbCircle
 10
193.7714721868351
 20
144.9414558457759
 30
0.0
 40
30.0
100
AcDbArc
 50
59.6417009999995
 51
67.66835799999981
  0
ARC
  5
859
330
2
100
AcDbEntity
  8
0
100
AcDbCircle
 10
203.7714721868351
 20
165.1764408457759
 30
0.0
 40
2.0
100
AcDbArc
 50
0.0
 51
69.51268799999964
  0
ARC
  5
85A
330
2
100
AcDbEntity
  8
0
100
AcDbCircle
 10
201.7714721868351
 20
165.8064458457759
 30
0.0
 40
2.0
100
AcDbArc
 50
0.0
 51
75.52249099999959
  0
LINE
  5
85B
330
2
100
AcDbEntity
  8
0
100
AcDbLine
 10
203.895679186835
 20
163.2476688457759
 30
0.0
 11
205.8956791868349
 21
163.9874458457759
 31
0.0
  0
ARC
  5
85C
330
2
100
AcDbEntity
  8
0
100
AcDbCircle
 10
207.7714721868351
 20
164.6812628457759
 30
0.0
 40
2.0
100
AcDbArc
 50
180.0
 51
220.6013029999997
  0
ARC
  5
85D
330
2
100
AcDbEntity
  8
0
100
AcDbCircle
 10
205.7714721868351
 20
163.9414558457759
 30
0.0
 40
2.0
100
AcDbArc
 50
180.0
 51
220.6013029999997
  0
LINE
  5
85E
330
2
100
AcDbEntity
  8
0
100
AcDbLine
 10
203.7714721868351
 20
163.9414558457759
 30
0.0
 11
203.7714721868351
 21
165.8064458457759
 31
0.0
  0
LINE
  5
85F
330
2
100
AcDbEntity
  8
0
100
AcDbLine
 10
205.7714721868351
 20
164.6812628457759
 30
0.0
 11
205.7714721868351
 21
165.1764408457759
 31
0.0
  0
ARC
  5
860
330
2
100
AcDbEntity
  8
0
100
AcDbCircle
 10
201.370868186835
 20
163.4414558457759
 30
0.0
 40
10.0
100
AcDbArc
 50
67.66835799999981
 51
90.0
  0
CIRCLE
  5
861
330
2
100
AcDbEntity
  8
HOJO
100
AcDbCircle
 10
220.7714721868351
 20
166.4414558457759
 30
0.0
 40
4.0
  0
CIRCLE
  5
862
330
2
100
AcDbEntity
  8
0
100
AcDbCircle
 10
220.7714721868351
 20
166.4414558457759
 30
0.0
 40
4.25
  0
CIRCLE
  5
863
330
2
100
AcDbEntity
  8
0
100
AcDbCircle
 10
220.7714721868351
 20
166.4414558457759
 30
0.0
 40
3.399999999999999
  0
ARC
  5
864
330
2
100
AcDbEntity
  8
HIDS
100
AcDbCircle
 10
335.5737074322041
 20
132.9414558457759
 30
0.0
 40
38.0
100
AcDbArc
 50
129.3567050000004
 51
230.6432949999994
  0
LINE
  5
866
330
2
100
AcDbEntity
  8
0
100
AcDbLine
 10
301.5737074322041
 20
107.7556011671127
 30
0.0
 11
301.5737074322041
 21
113.9414558457759
 31
0.0
  0
LINE
  5
867
330
2
100
AcDbEntity
  8
0
100
AcDbLine
 10
296.5737074322041
 20
107.3683024471894
 30
0.0
 11
296.5737074322041
 21
112.9414558457759
 31
0.0
  0
LINE
  5
868
330
2
100
AcDbEntity
  8
0
100
AcDbLine
 10
300.5737074322041
 20
107.6163219163607
 30
0.0
 11
300.5737074322041
 21
113.2414438457759
 31
0.0
  0
LINE
  5
86A
330
2
100
AcDbEntity
  8
0
100
AcDbLine
 10
295.0737074322041
 20
103.6914558457759
 30
0.0
 11
307.5737074322042
 21
103.6914558457759
 31
0.0
  0
LINE
  5
86B
330
2
100
AcDbEntity
  8
CENTER
100
AcDbLine
 10
294.6341014322041
 20
109.4414558457759
 30
0.0
 11
302.6187204322041
 21
109.4414558457759
 31
0.0
  0
LINE
  5
871
330
2
100
AcDbEntity
  8
0
100
AcDbLine
 10
307.5737074322042
 20
117.4414558457758
 30
0.0
 11
295.0737074322041
 21
117.4414558457758
 31
0.0
  0
LINE
  5
872
330
2
100
AcDbEntity
  8
0
100
AcDbLine
 10
295.0737074322041
 20
114.1116528457759
 30
0.0
 11
301.5737074322041
 21
113.9414558457759
 31
0.0
  0
LINE
  5
873
330
2
100
AcDbEntity
  8
0
100
AcDbLine
 10
300.5737074322041
 20
113.2414438457759
 30
0.0
 11
301.5737074322041
 21
113.2414438457759
 31
0.0
  0
LINE
  5
874
330
2
100
AcDbEntity
  8
0
100
AcDbLine
 10
296.5737074322041
 20
112.9414558457759
 30
0.0
 11
300.5737074322041
 21
112.9414558457759
 31
0.0
  0
LINE
  5
878
330
2
100
AcDbEntity
  8
0
100
AcDbLine
 10
307.5737074322042
 20
121.4414558457759
 30
0.0
 11
295.0737074322041
 21
121.4414558457759
 31
0.0
  0
LINE
  5
87A
330
2
100
AcDbEntity
  8
0
100
AcDbLine
 10
307.5737074322042
 20
144.4414558457759
 30
0.0
 11
295.0737074322041
 21
144.4414558457759
 31
0.0
  0
LINE
  5
87B
330
2
100
AcDbEntity
  8
0
100
AcDbLine
 10
307.5737074322042
 20
148.4414558457759
 30
0.0
 11
295.0737074322041
 21
148.4414558457759
 31
0.0
  0
LINE
  5
87D
330
2
100
AcDbEntity
  8
0
100
AcDbLine
 10
295.0737074322041
 20
151.7712588457758
 30
0.0
 11
301.5737074322041
 21
151.9414558457759
 31
0.0
  0
LINE
  5
87E
330
2
100
AcDbEntity
  8
0
100
AcDbLine
 10
300.5737074322041
 20
152.6414678457759
 30
0.0
 11
301.5737074322041
 21
152.6414678457759
 31
0.0
  0
LINE
  5
87F
330
2
100
AcDbEntity
  8
CENTER
100
AcDbLine
 10
294.6341014322041
 20
156.4414558457759
 30
0.0
 11
302.6187204322041
 21
156.4414558457759
 31
0.0
  0
LINE
  5
880
330
2
100
AcDbEntity
  8
0
100
AcDbLine
 10
295.0737074322041
 20
161.1116528457759
 30
0.0
 11
301.5737074322041
 21
160.9414558457759
 31
0.0
  0
LINE
  5
881
330
2
100
AcDbEntity
  8
0
100
AcDbLine
 10
300.5737074322041
 20
160.2414438457758
 30
0.0
 11
301.5737074322041
 21
160.2414438457758
 31
0.0
  0
LINE
  5
883
330
2
100
AcDbEntity
  8
0
100
AcDbLine
 10
296.5737074322041
 20
152.9414558457759
 30
0.0
 11
300.5737074322041
 21
152.9414558457759
 31
0.0
  0
LINE
  5
884
330
2
100
AcDbEntity
  8
0
100
AcDbLine
 10
296.5737074322041
 20
159.9414558457759
 30
0.0
 11
296.5737074322041
 21
152.9414558457759
 31
0.0
  0
LINE
  5
885
330
2
100
AcDbEntity
  8
0
100
AcDbLine
 10
296.5737074322041
 20
159.9414558457759
 30
0.0
 11
300.5737074322041
 21
159.9414558457759
 31
0.0
  0
LINE
  5
886
330
2
100
AcDbEntity
  8
0
100
AcDbLine
 10
300.5737074322041
 20
160.2414438457758
 30
0.0
 11
300.5737074322041
 21
152.6414678457759
 31
0.0
  0
LINE
  5
888
330
2
100
AcDbEntity
  8
0
100
AcDbLine
 10
301.5737074322041
 20
160.9414558457759
 30
0.0
 11
301.5737074322041
 21
151.9414558457759
 31
0.0
  0
LINE
  5
88C
330
2
100
AcDbEntity
  8
HIDS
100
AcDbLine
 10
295.0737074322041
 20
162.1914558457759
 30
0.0
 11
307.5737074322042
 21
162.1914558457759
 31
0.0
  0
LINE
  5
88D
330
2
100
AcDbEntity
  8
HIDS
100
AcDbLine
 10
295.0737074322041
 20
170.6914558457759
 30
0.0
 11
307.5737074322042
 21
170.6914558457759
 31
0.0
  0
LINE
  5
88E
330
2
100
AcDbEntity
  8
HIDS
100
AcDbLine
 10
312.5737074322041
 20
168.5746648457758
 30
0.0
 11
312.5737074322041
 21
164.6432688457759
 31
0.0
  0
ARC
  5
88F
330
2
100
AcDbEntity
  8
HIDS
100
AcDbCircle
 10
314.5737074322041
 20
168.5746648457758
 30
0.0
 40
2.0
100
AcDbArc
 50
91.00000000000013
 51
180.0
  0
ARC
  5
890
330
2
100
AcDbEntity
  8
HIDS
100
AcDbCircle
 10
309.5737074322041
 20
164.6432688457759
 30
0.0
 40
3.0
100
AcDbArc
 50
309.3567009999997
 51
0.0
  0
CIRCLE
  5
891
330
2
100
AcDbEntity
  8
HOJO
100
AcDbCircle
 10
583.889554976894
 20
99.44145584577594
 30
0.0
 40
4.0
  0
CIRCLE
  5
892
330
2
100
AcDbEntity
  8
HOJO
100
AcDbCircle
 10
497.889554976894
 20
99.44145584577594
 30
0.0
 40
4.0
  0
LINE
  5
893
330
2
100
AcDbEntity
  8
HOJO
100
AcDbLine
 10
327.5737074322041
 20
103.4414558457759
 30
0.0
 11
327.5737074322041
 21
95.44145584577593
 31
0.0
  0
LINE
  5
894
330
2
100
AcDbEntity
  8
HOJO
100
AcDbLine
 10
343.5737074322041
 20
103.4414558457759
 30
0.0
 11
343.5737074322041
 21
95.44145584577593
 31
0.0
  0
CIRCLE
  5
895
330
2
100
AcDbEntity
  8
0
100
AcDbCircle
 10
497.889554976894
 20
99.44145584577594
 30
0.0
 40
3.399999999999999
  0
CIRCLE
  5
896
330
2
100
AcDbEntity
  8
0
100
AcDbCircle
 10
583.889554976894
 20
99.44145584577594
 30
0.0
 40
3.399999999999999
  0
LINE
  5
897
330
2
100
AcDbEntity
  8
0
100
AcDbLine
 10
683.9449749768939
 20
167.9414558457759
 30
0.0
 11
683.9449749768939
 21
97.94145584577593
 31
0.0
  0
LINE
  5
898
330
2
100
AcDbEntity
  8
0
100
AcDbLine
 10
684.4449749768942
 20
164.9414558457759
 30
0.0
 11
684.4449749768942
 21
100.9414558457759
 31
0.0
  0
LINE
  5
899
330
2
100
AcDbEntity
  8
0
100
AcDbLine
 10
663.9449749768941
 20
170.9414558457759
 30
0.0
 11
663.9449749768941
 21
94.94145584577593
 31
0.0
  0
ARC
  5
89A
330
2
100
AcDbEntity
  8
0
100
AcDbCircle
 10
570.889554976894
 20
101.2016488457759
 30
0.0
 40
2.0
100
AcDbArc
 50
139.3986970000003
 51
180.0
  0
LINE
  5
89B
330
2
100
AcDbEntity
  8
0
100
AcDbLine
 10
566.889554976894
 20
101.9414558457758
 30
0.0
 11
566.889554976894
 21
100.0764658457759
 31
0.0
  0
ARC
  5
89C
330
2
100
AcDbEntity
  8
0
100
AcDbCircle
 10
510.889554976894
 20
101.2016488457759
 30
0.0
 40
2.0
100
AcDbArc
 50
0.0
 51
40.60129899999997
  0
LINE
  5
89D
330
2
100
AcDbEntity
  8
0
100
AcDbLine
 10
514.889554976894
 20
101.9414558457758
 30
0.0
 11
514.889554976894
 21
100.0764658457759
 31
0.0
  0
LINE
  5
89E
330
2
100
AcDbEntity
  8
0
100
AcDbLine
 10
590.889554976894
 20
116.6130558457759
 30
0.0
 11
590.889554976894
 21
99.44145584577594
 31
0.0
  0
LINE
  5
89F
330
2
100
AcDbEntity
  8
0
100
AcDbLine
 10
490.8895549768939
 20
99.44145584577594
 30
0.0
 11
490.8895549768939
 21
166.4414558457759
 31
0.0
  0
ARC
  5
8A2
330
2
100
AcDbEntity
  8
HIDS
100
AcDbCircle
 10
361.5737074322041
 20
101.2396428457759
 30
0.0
 40
3.0
100
AcDbArc
 50
129.3567050000004
 51
180.0
  0
LINE
  5
8A3
330
2
100
AcDbEntity
  8
0
100
AcDbLine
 10
376.0737074322041
 20
172.7344548457758
 30
0.0
 11
376.0737074322041
 21
93.14845684577592
 31
0.0
  0
LINE
  5
8A4
330
2
100
AcDbEntity
  8
CENTER
100
AcDbLine
 10
335.5737074322041
 20
208.8289538457759
 30
0.0
 11
335.5737074322041
 21
86.40068484577597
 31
0.0
  0
LINE
  5
8A5
330
2
100
AcDbEntity
  8
0
100
AcDbLine
 10
521.889554976894
 20
97.44145584577594
 30
0.0
 11
559.889554976894
 21
97.44145584577594
 31
0.0
  0
LINE
  5
8A6
330
2
100
AcDbEntity
  8
0
100
AcDbLine
 10
583.889554976894
 20
92.44145584577593
 30
0.0
 11
497.889554976894
 21
92.44145584577593
 31
0.0
  0
LINE
  5
8A7
330
2
100
AcDbEntity
  8
HOJO
100
AcDbLine
 10
343.5737074322041
 20
95.44145584577593
 30
0.0
 11
376.0737074322041
 21
95.44145584577593
 31
0.0
  0
LINE
  5
8A8
330
2
100
AcDbEntity
  8
HIDS
100
AcDbLine
 10
356.6087114322042
 20
95.30865884577586
 30
0.0
 11
335.5737074322041
 21
94.94145584577593
 31
0.0
  0
LINE
  5
8A9
330
2
100
AcDbEntity
  8
0
100
AcDbLine
 10
335.5737074322041
 20
92.44145584577593
 30
0.0
 11
376.0737074322041
 21
93.14845684577592
 31
0.0
  0
ARC
  5
8AA
330
2
100
AcDbEntity
  8
HIDS
100
AcDbCircle
 10
356.5737074322041
 20
97.30826184577594
 30
0.0
 40
2.0
100
AcDbArc
 50
271.0
 51
0.0
  0
LINE
  5
8AB
330
2
100
AcDbEntity
  8
HIDS
100
AcDbLine
 10
358.5737074322041
 20
97.30826184577594
 30
0.0
 11
358.5737074322041
 21
101.2396428457759
 31
0.0
  0
ARC
  5
8AC
330
2
100
AcDbEntity
  8
0
100
AcDbCircle
 10
497.889554976894
 20
99.44145584577594
 30
0.0
 40
7.0
100
AcDbArc
 50
180.0
 51
312.6358950000002
  0
ARC
  5
8AE
330
2
100
AcDbEntity
  8
0
100
AcDbCircle
 10
524.889554976894
 20
120.9414558457759
 30
0.0
 40
30.0
100
AcDbArc
 50
239.6416930000005
 51
247.668396
  0
ARC
  5
8AF
330
2
100
AcDbEntity
  8
0
100
AcDbCircle
 10
506.694974976894
 20
89.87765884577589
 30
0.0
 40
6.0
100
AcDbArc
 50
59.6417009999995
 51
132.6358950000002
  0
ARC
  5
8B0
330
2
100
AcDbEntity
  8
0
100
AcDbCircle
 10
521.889554976894
 20
119.4414558457759
 30
0.0
 40
22.0
100
AcDbArc
 50
249.5127030000004
 51
270.0
  0
ARC
  5
8B1
330
2
100
AcDbEntity
  8
0
100
AcDbCircle
 10
514.889554976894
 20
100.7064708457759
 30
0.0
 40
2.0
100
AcDbArc
 50
180.0
 51
249.5126950000003
  0
ARC
  5
8B2
330
2
100
AcDbEntity
  8
0
100
AcDbCircle
 10
516.889554976894
 20
100.0764658457759
 30
0.0
 40
2.0
100
AcDbArc
 50
180.0
 51
255.5225069999996
  0
LINE
  5
8B3
330
2
100
AcDbEntity
  8
0
100
AcDbLine
 10
512.889554976894
 20
101.2016488457759
 30
0.0
 11
512.889554976894
 21
100.7064708457759
 31
0.0
  0
ARC
  5
8B4
330
2
100
AcDbEntity
  8
0
100
AcDbCircle
 10
517.290128976894
 20
102.4414558457759
 30
0.0
 40
10.0
100
AcDbArc
 50
247.668396
 51
270.0
  0
LINE
  5
8B5
330
2
100
AcDbEntity
  8
0
100
AcDbLine
 10
680.480924976894
 20
94.94145584577593
 30
0.0
 11
663.9449749768941
 21
94.94145584577593
 31
0.0
  0
LINE
  5
8B6
330
2
100
AcDbEntity
  8
0
100
AcDbLine
 10
663.9449749768941
 20
94.94145584577593
 30
0.0
 11
592.2483809768939
 21
94.94145584577593
 31
0.0
  0
ARC
  5
8B7
330
2
100
AcDbEntity
  8
0
100
AcDbCircle
 10
583.889554976894
 20
99.44145584577594
 30
0.0
 40
7.0
100
AcDbArc
 50
227.3641049999997
 51
0.0
  0
ARC
  5
8B9
330
2
100
AcDbEntity
  8
0
100
AcDbCircle
 10
559.889554976894
 20
119.4414558457759
 30
0.0
 40
22.0
100
AcDbArc
 50
270.0
 51
290.4873049999995
  0
ARC
  5
8BA
330
2
100
AcDbEntity
  8
0
100
AcDbCircle
 10
564.4889809768938
 20
102.4414558457759
 30
0.0
 40
10.0
100
AcDbArc
 50
270.0
 51
292.3316039999998
  0
ARC
  5
8BB
330
2
100
AcDbEntity
  8
0
100
AcDbCircle
 10
564.889554976894
 20
100.0764658457759
 30
0.0
 40
2.0
100
AcDbArc
 50
284.4775090000004
 51
0.0
  0
ARC
  5
8BC
330
2
100
AcDbEntity
  8
0
100
AcDbCircle
 10
575.084134976894
 20
89.87765884577589
 30
0.0
 40
6.0
100
AcDbArc
 50
47.364071
 51
120.3582990000005
  0
ARC
  5
8BD
330
2
100
AcDbEntity
  8
0
100
AcDbCircle
 10
566.889554976894
 20
100.7064708457759
 30
0.0
 40
2.0
100
AcDbArc
 50
290.4873120000003
 51
0.0
  0
LINE
  5
8BE
330
2
100
AcDbEntity
  8
0
100
AcDbLine
 10
568.889554976894
 20
101.2016488457759
 30
0.0
 11
568.889554976894
 21
100.7064708457759
 31
0.0
  0
ARC
  5
8BF
330
2
100
AcDbEntity
  8
0
100
AcDbCircle
 10
556.889554976894
 20
120.9414558457759
 30
0.0
 40
30.0
100
AcDbArc
 50
292.3316039999998
 51
300.3583069999994
  0
LINE
  5
8C0
330
2
100
AcDbEntity
  8
0
100
AcDbLine
 10
591.553128976894
 20
94.81685284577592
 30
0.0
 11
586.3225379768939
 21
92.8778568457759
 31
0.0
  0
ARC
  5
8C1
330
2
100
AcDbEntity
  8
0
100
AcDbCircle
 10
592.2483809768939
 20
92.94145584577593
 30
0.0
 40
2.0
100
AcDbArc
 50
90.0
 51
110.3386989999999
  0
ARC
  5
8C2
330
2
100
AcDbEntity
  8
0
100
AcDbCircle
 10
680.480924976894
 20
97.94145584577593
 30
0.0
 40
3.0
100
AcDbArc
 50
270.0
 51
330.0003970000009
  0
LINE
  5
8C3
330
2
100
AcDbEntity
  8
0
100
AcDbLine
 10
683.0791299768938
 20
96.44145584577593
 30
0.0
 11
683.9449749768939
 21
97.94145584577593
 31
0.0
  0
LINE
  5
8C4
330
2
100
AcDbEntity
  8
0
100
AcDbLine
 10
684.4449749768942
 20
100.9414558457759
 30
0.0
 11
683.9449749768939
 21
100.4414558457759
 31
0.0
  0
LINE
  5
8C5
330
2
100
AcDbEntity
  8
0
100
AcDbLine
 10
491.5965249768941
 20
370.4616039467495
 30
0.0
 11
590.1825849768938
 21
370.4616039467495
 31
0.0
  0
CIRCLE
  5
8C6
330
2
100
AcDbEntity
  8
0
100
AcDbCircle
 10
529.889554976894
 20
132.9414558457759
 30
0.0
 40
25.002001
  0
LINE
  5
8C7
330
2
100
AcDbEntity
  8
0
100
AcDbLine
 10
591.889554976894
 20
357.9616039467495
 30
0.0
 11
491.3783249768941
 21
357.9616039467495
 31
0.0
  0
LINE
  5
8C8
330
2
100
AcDbEntity
  8
0
100
AcDbLine
 10
590.1825849768938
 20
289.4616039467493
 30
0.0
 11
491.5965249768941
 21
289.4616039467493
 31
0.0
  0
LINE
  5
8C9
330
2
100
AcDbEntity
  8
CENTER
100
AcDbLine
 10
483.3487839768941
 20
329.9616039467494
 30
0.0
 11
692.9655049451281
 21
329.9616039467494
 31
0.0
  0
LINE
  5
8CA
330
2
100
AcDbEntity
  8
0
100
AcDbLine
 10
521.889554976894
 20
168.4414558457759
 30
0.0
 11
559.889554976894
 21
168.4414558457759
 31
0.0
  0
LINE
  5
8CB
330
2
100
AcDbEntity
  8
0
100
AcDbLine
 10
583.889554976894
 20
173.4414558457759
 30
0.0
 11
497.889554976894
 21
173.4414558457759
 31
0.0
  0
LINE
  5
8CC
330
2
100
AcDbEntity
  8
CENTER
100
AcDbLine
 10
483.3487839768941
 20
132.9414558457759
 30
0.0
 11
692.9655049451281
 21
132.9414558457759
 31
0.0
  0
LINE
  5
8CD
330
2
100
AcDbEntity
  8
0
100
AcDbLine
 10
522.8185709768942
 20
261.4616039467493
 30
0.0
 11
522.8185709768942
 21
282.9616039467493
 31
0.0
  0
LINE
  5
8CE
330
2
100
AcDbEntity
  8
0
100
AcDbLine
 10
520.389554976894
 20
261.4616039467493
 30
0.0
 11
520.389554976894
 21
285.4616039467493
 31
0.0
  0
LINE
  5
8CF
330
2
100
AcDbEntity
  8
0
100
AcDbLine
 10
537.389554976894
 20
288.4616039467493
 30
0.0
 11
537.389554976894
 21
261.4616039467493
 31
0.0
  0
LINE
  5
8D0
330
2
100
AcDbEntity
  8
CENTER
100
AcDbLine
 10
529.889554976894
 20
379.4567509467493
 30
0.0
 11
529.889554976894
 21
257.0899909467494
 31
0.0
  0
LINE
  5
8D1
330
2
100
AcDbEntity
  8
0
100
AcDbLine
 10
404.073707432204
 20
125.4414558457759
 30
0.0
 11
377.0737074322041
 21
125.4414558457759
 31
0.0
  0
LINE
  5
8D2
330
2
100
AcDbEntity
  8
0
100
AcDbLine
 10
404.073707432204
 20
140.4414558457759
 30
0.0
 11
377.0737074322041
 21
140.4414558457759
 31
0.0
  0
LINE
  5
8D3
330
2
100
AcDbEntity
  8
0
100
AcDbLine
 10
342.9067154322041
 20
141.8970528457758
 30
0.0
 11
342.9067154322041
 21
123.9858588457759
 31
0.0
  0
LINE
  5
8D4
330
2
100
AcDbEntity
  8
0
100
AcDbLine
 10
328.2406994322041
 20
142.1152538457759
 30
0.0
 11
328.2406994322041
 21
123.7676578457759
 31
0.0
  0
LINE
  5
8D5
330
2
100
AcDbEntity
  8
0
100
AcDbLine
 10
330.5737074322042
 20
119.8082468457759
 30
0.0
 11
330.5737074322042
 21
146.0746648457758
 31
0.0
  0
LINE
  5
8D6
330
2
100
AcDbEntity
  8
0
100
AcDbLine
 10
340.5737074322041
 20
145.8564648457759
 30
0.0
 11
340.5737074322041
 21
120.0264468457759
 31
0.0
  0
ARC
  5
8D7
330
2
100
AcDbEntity
  8
HIDS
100
AcDbCircle
 10
335.5737074322041
 20
132.9414558457759
 30
0.0
 40
38.0
100
AcDbArc
 50
309.3567009999997
 51
50.64329900000029
  0
LINE
  5
8D9
330
2
100
AcDbEntity
  8
HOJO
100
AcDbLine
 10
343.5737074322041
 20
103.4414558457759
 30
0.0
 11
376.0737074322041
 21
103.4414558457759
 31
0.0
  0
LINE
  5
8DA
330
2
100
AcDbEntity
  8
0
100
AcDbLine
 10
344.871711432204
 20
121.9860418457759
 30
0.0
 11
376.0737074322041
 21
121.4414558457759
 31
0.0
  0
LINE
  5
8DB
330
2
100
AcDbEntity
  8
0
100
AcDbLine
 10
342.538703432204
 20
118.0268438457757
 30
0.0
 11
376.0737074322041
 21
117.4414558457758
 31
0.0
  0
ARC
  5
8DC
330
2
100
AcDbEntity
  8
0
100
AcDbCircle
 10
326.2406994322041
 20
123.7676578457759
 30
0.0
 40
2.0
100
AcDbArc
 50
271.0
 51
0.0
  0
LINE
  5
8DD
330
2
100
AcDbEntity
  8
0
100
AcDbLine
 10
343.3355174322041
 20
122.7482488457759
 30
0.0
 11
341.0025094322041
 21
118.7890508457759
 31
0.0
  0
LINE
  5
8DE
330
2
100
AcDbEntity
  8
0
100
AcDbLine
 10
330.1449054322041
 20
118.5708508457759
 30
0.0
 11
327.8118974322041
 21
122.5300488457759
 31
0.0
  0
ARC
  5
8E2
330
2
100
AcDbEntity
  8
0
100
AcDbCircle
 10
328.5737074322041
 20
119.8082468457759
 30
0.0
 40
2.0
100
AcDbArc
 50
271.0
 51
0.0
  0
ARC
  5
8E5
330
2
100
AcDbEntity
  8
0
100
AcDbCircle
 10
342.5737074322041
 20
120.0264468457759
 30
0.0
 40
2.0
100
AcDbArc
 50
180.0
 51
268.9999999999998
  0
ARC
  5
8E6
330
2
100
AcDbEntity
  8
0
100
AcDbCircle
 10
344.9067154322041
 20
123.9858588457759
 30
0.0
 40
2.0
100
AcDbArc
 50
180.0
 51
268.9999999999998
  0
LINE
  5
8ED
330
2
100
AcDbEntity
  8
0
100
AcDbLine
 10
377.0737074322041
 20
125.1300548457759
 30
0.0
 11
377.0737074322041
 21
140.7528568457759
 31
0.0
  0
LINE
  5
8EE
330
2
100
AcDbEntity
  8
0
100
AcDbLine
 10
376.2963024322041
 20
124.4414558457759
 30
0.0
 11
376.0737074322041
 21
124.4414558457759
 31
0.0
  0
ARC
  5
8EF
330
2
100
AcDbEntity
  8
0
100
AcDbCircle
 10
375.6716994322041
 20
126.3414498457759
 30
0.0
 40
2.0
100
AcDbArc
 50
288.1948699999997
 51
299.9999999999997
  0
ARC
  5
8F0
330
2
100
AcDbEntity
  8
0
100
AcDbCircle
 10
376.5737074322041
 20
125.1300548457759
 30
0.0
 40
0.5
100
AcDbArc
 50
299.9999999999997
 51
0.0
  0
LINE
  5
8F1
330
2
100
AcDbEntity
  8
0
100
AcDbLine
 10
376.8237074322041
 20
124.6970708457759
 30
0.0
 11
376.6716994322041
 21
124.6094548457759
 31
0.0
  0
LINE
  5
8F2
330
2
100
AcDbEntity
  8
0
100
AcDbLine
 10
376.2963024322041
 20
141.4414558457759
 30
0.0
 11
376.0737074322041
 21
141.4414558457759
 31
0.0
  0
ARC
  5
8F3
330
2
100
AcDbEntity
  8
0
100
AcDbCircle
 10
375.6716994322041
 20
139.5414618457758
 30
0.0
 40
2.0
100
AcDbArc
 50
60.00000000000028
 51
71.8051300000003
  0
ARC
  5
8F4
330
2
100
AcDbEntity
  8
0
100
AcDbCircle
 10
376.5737074322041
 20
140.7528568457759
 30
0.0
 40
0.5
100
AcDbArc
 50
0.0
 51
60.00000000000028
  0
LINE
  5
8F5
330
2
100
AcDbEntity
  8
0
100
AcDbLine
 10
376.8237074322041
 20
141.1858408457759
 30
0.0
 11
376.6716994322041
 21
141.2734568457759
 31
0.0
  0
LINE
  5
8F7
330
2
100
AcDbEntity
  8
HIDS
100
AcDbLine
 10
343.5737074322041
 20
162.4414558457759
 30
0.0
 11
376.0737074322041
 21
162.4414558457759
 31
0.0
  0
LINE
  5
8F8
330
2
100
AcDbEntity
  8
HIDS
100
AcDbLine
 10
343.5737074322041
 20
170.4414558457759
 30
0.0
 11
376.0737074322041
 21
170.4414558457759
 31
0.0
  0
LINE
  5
8F9
330
2
100
AcDbEntity
  8
0
100
AcDbLine
 10
344.871711432204
 20
143.8968698457759
 30
0.0
 11
376.0737074322041
 21
144.4414558457759
 31
0.0
  0
LINE
  5
8FA
330
2
100
AcDbEntity
  8
0
100
AcDbLine
 10
342.538703432204
 20
147.8560678457759
 30
0.0
 11
376.0737074322041
 21
148.4414558457759
 31
0.0
  0
LINE
  5
8FB
330
2
100
AcDbEntity
  8
HIDS
100
AcDbLine
 10
356.6087114322042
 20
170.5742678457759
 30
0.0
 11
335.5737074322041
 21
170.9414558457759
 31
0.0
  0
LINE
  5
8FC
330
2
100
AcDbEntity
  8
0
100
AcDbLine
 10
335.5737074322041
 20
173.4414558457759
 30
0.0
 11
376.0737074322041
 21
172.7344548457758
 31
0.0
  0
ARC
  5
8FE
330
2
100
AcDbEntity
  8
0
100
AcDbCircle
 10
328.5737074322041
 20
146.0746648457758
 30
0.0
 40
2.0
100
AcDbArc
 50
0.0
 51
88.99999999999987
  0
LINE
  5
8FF
330
2
100
AcDbEntity
  8
0
100
AcDbLine
 10
327.8118974322041
 20
143.3528628457759
 30
0.0
 11
330.1449054322041
 21
147.3120608457758
 31
0.0
  0
ARC
  5
900
330
2
100
AcDbEntity
  8
0
100
AcDbCircle
 10
326.2406994322041
 20
142.1152538457759
 30
0.0
 40
2.0
100
AcDbArc
 50
0.0
 51
88.99999999999987
  0
ARC
  5
903
330
2
100
AcDbEntity
  8
0
100
AcDbCircle
 10
344.9067154322041
 20
141.8970528457758
 30
0.0
 40
2.0
100
AcDbArc
 50
91.00000000000013
 51
180.0
  0
ARC
  5
904
330
2
100
AcDbEntity
  8
0
100
AcDbCircle
 10
342.5737074322041
 20
145.8564648457759
 30
0.0
 40
2.0
100
AcDbArc
 50
91.00000000000013
 51
180.0
  0
LINE
  5
905
330
2
100
AcDbEntity
  8
0
100
AcDbLine
 10
343.3355174322041
 20
143.1346628457758
 30
0.0
 11
341.0025094322041
 21
147.0938608457759
 31
0.0
  0
LINE
  5
908
330
2
100
AcDbEntity
  8
HIDS
100
AcDbLine
 10
327.5737074322041
 20
170.4414558457759
 30
0.0
 11
327.5737074322041
 21
162.4414558457759
 31
0.0
  0
LINE
  5
909
330
2
100
AcDbEntity
  8
HIDS
100
AcDbLine
 10
343.5737074322041
 20
170.4414558457759
 30
0.0
 11
343.5737074322041
 21
162.4414558457759
 31
0.0
  0
ARC
  5
910
330
2
100
AcDbEntity
  8
HIDS
100
AcDbCircle
 10
356.5737074322041
 20
168.5746648457758
 30
0.0
 40
2.0
100
AcDbArc
 50
0.0
 51
88.99999999999987
  0
ARC
  5
911
330
2
100
AcDbEntity
  8
HIDS
100
AcDbCircle
 10
361.5737074322041
 20
164.6432688457759
 30
0.0
 40
3.0
100
AcDbArc
 50
180.0
 51
230.6432949999994
  0
LINE
  5
912
330
2
100
AcDbEntity
  8
HIDS
100
AcDbLine
 10
358.5737074322041
 20
168.5746648457758
 30
0.0
 11
358.5737074322041
 21
164.6432688457759
 31
0.0
  0
LINE
  5
913
330
2
100
AcDbEntity
  8
0
100
AcDbLine
 10
404.073707432204
 20
130.4414558457759
 30
0.0
 11
382.5737074322042
 21
130.4414558457759
 31
0.0
  0
LINE
  5
914
330
2
100
AcDbEntity
  8
0
100
AcDbLine
 10
404.073707432204
 20
135.4414558457759
 30
0.0
 11
382.5737074322042
 21
135.4414558457759
 31
0.0
  0
ARC
  5
915
330
2
100
AcDbEntity
  8
0
100
AcDbCircle
 10
382.5737074322042
 20
132.9414558457759
 30
0.0
 40
2.5
100
AcDbArc
 50
90.0
 51
270.0
  0
LINE
  5
916
330
2
100
AcDbEntity
  8
0
100
AcDbLine
 10
404.073707432204
 20
140.4414558457759
 30
0.0
 11
404.073707432204
 21
125.4414558457759
 31
0.0
  0
CIRCLE
  5
917
330
2
100
AcDbEntity
  8
HOJO
100
AcDbCircle
 10
497.889554976894
 20
166.4414558457759
 30
0.0
 40
4.0
  0
CIRCLE
  5
918
330
2
100
AcDbEntity
  8
0
100
AcDbCircle
 10
497.889554976894
 20
166.4414558457759
 30
0.0
 40
3.399999999999999
  0
ARC
  5
919
330
2
100
AcDbEntity
  8
0
100
AcDbCircle
 10
497.889554976894
 20
166.4414558457759
 30
0.0
 40
7.0
100
AcDbArc
 50
47.364071
 51
180.0
  0
LINE
  5
91B
330
2
100
AcDbEntity
  8
0
100
AcDbLine
 10
494.8895549768939
 20
122.2698558457759
 30
0.0
 11
494.8895549768939
 21
143.6130558457759
 31
0.0
  0
ARC
  5
91C
330
2
100
AcDbEntity
  8
0
100
AcDbCircle
 10
492.8895549768939
 20
122.2698558457759
 30
0.0
 40
2.0
100
AcDbArc
 50
315.0
 51
0.0
  0
ARC
  5
91D
330
2
100
AcDbEntity
  8
0
100
AcDbCircle
 10
492.8895549768939
 20
116.6130558457759
 30
0.0
 40
2.0
100
AcDbArc
 50
135.0
 51
180.0
  0
LINE
  5
91E
330
2
100
AcDbEntity
  8
0
100
AcDbLine
 10
494.303739976894
 20
120.8556708457759
 30
0.0
 11
491.4753699768939
 21
118.0272408457759
 31
0.0
  0
ARC
  5
91F
330
2
100
AcDbEntity
  8
0
100
AcDbCircle
 10
492.8895549768939
 20
143.6130558457759
 30
0.0
 40
2.0
100
AcDbArc
 50
0.0
 51
45.0
  0
ARC
  5
920
330
2
100
AcDbEntity
  8
0
100
AcDbCircle
 10
492.8895549768939
 20
149.2698558457759
 30
0.0
 40
2.0
100
AcDbArc
 50
180.0
 51
225.0
  0
LINE
  5
921
330
2
100
AcDbEntity
  8
0
100
AcDbLine
 10
494.303739976894
 20
145.0272408457759
 30
0.0
 11
491.4753699768939
 21
147.8556708457759
 31
0.0
  0
CIRCLE
  5
922
330
2
100
AcDbEntity
  8
0
100
AcDbCircle
 10
529.889554976894
 20
132.9414558457759
 30
0.0
 40
23.0
  0
CIRCLE
  5
923
330
2
100
AcDbEntity
  8
0
100
AcDbCircle
 10
529.889554976894
 20
132.9414558457759
 30
0.0
 40
15.0
  0
CIRCLE
  5
924
330
2
100
AcDbEntity
  8
0
100
AcDbCircle
 10
529.889554976894
 20
132.9414558457759
 30
0.0
 40
19.0
  0
LINE
  5
925
330
2
100
AcDbEntity
  8
0
100
AcDbLine
 10
499.8895549768939
 20
146.4414558457759
 30
0.0
 11
499.8895549768939
 21
119.4414558457759
 31
0.0
  0
LINE
  5
926
330
2
100
AcDbEntity
  8
CENTER
100
AcDbLine
 10
529.889554976894
 20
102.7349433457759
 30
0.0
 11
529.889554976894
 21
163.1479683457758
 31
0.0
  0
ARC
  5
927
330
2
100
AcDbEntity
  8
0
100
AcDbCircle
 10
529.889554976894
 20
132.9414558457759
 30
0.0
 40
7.5
100
AcDbArc
 50
199.4712070000002
 51
160.5287929999996
  0
LINE
  5
928
330
2
100
AcDbEntity
  8
0
100
AcDbLine
 10
525.389554976894
 20
130.4414558457759
 30
0.0
 11
520.389554976894
 21
130.4414558457759
 31
0.0
  0
LINE
  5
929
330
2
100
AcDbEntity
  8
0
100
AcDbLine
 10
525.389554976894
 20
135.4414558457759
 30
0.0
 11
520.389554976894
 21
135.4414558457759
 31
0.0
  0
ARC
  5
92A
330
2
100
AcDbEntity
  8
0
100
AcDbCircle
 10
529.889554976894
 20
132.9414558457759
 30
0.0
 40
8.5
100
AcDbArc
 50
197.1045990000003
 51
162.8954009999995
  0
LINE
  5
92B
330
2
100
AcDbEntity
  8
0
100
AcDbLine
 10
505.407926976894
 20
113.7430608457759
 30
0.0
 11
514.407926976894
 21
103.2430608457759
 31
0.0
  0
LINE
  5
92C
330
2
100
AcDbEntity
  8
0
100
AcDbLine
 10
504.488126976894
 20
111.7430608457759
 30
0.0
 11
512.407926976894
 21
102.5032538457759
 31
0.0
  0
LINE
  5
92D
330
2
100
AcDbEntity
  8
0
100
AcDbLine
 10
503.8895549768939
 20
114.4414558457759
 30
0.0
 11
502.1157509768938
 21
114.4414558457759
 31
0.0
  0
ARC
  5
92E
330
2
100
AcDbEntity
  8
0
100
AcDbCircle
 10
502.969754976894
 20
110.4414558457759
 30
0.0
 40
2.0
100
AcDbArc
 50
40.60129899999997
 51
90.0
  0
ARC
  5
92F
330
2
100
AcDbEntity
  8
0
100
AcDbCircle
 10
521.889554976894
 20
119.4414558457759
 30
0.0
 40
22.0
100
AcDbArc
 50
180.0
 51
194.4774929999995
  0
ARC
  5
930
330
2
100
AcDbEntity
  8
0
100
AcDbCircle
 10
502.5245649768938
 20
114.4414558457759
 30
0.0
 40
2.0
100
AcDbArc
 50
194.4774929999995
 51
270.0
  0
ARC
  5
931
330
2
100
AcDbEntity
  8
0
100
AcDbCircle
 10
502.1157509768938
 20
116.4414558457758
 30
0.0
 40
2.0
100
AcDbArc
 50
188.6269069999995
 51
270.0
  0
LINE
  5
932
330
2
100
AcDbEntity
  8
0
100
AcDbLine
 10
502.969754976894
 20
112.4414558457759
 30
0.0
 11
502.5245649768938
 21
112.4414558457759
 31
0.0
  0
LINE
  5
933
330
2
100
AcDbEntity
  8
0
100
AcDbLine
 10
504.7251259768938
 20
114.2584418457759
 30
0.0
 11
503.805325976894
 21
112.2584418457759
 31
0.0
  0
ARC
  5
934
330
2
100
AcDbEntity
  8
0
100
AcDbCircle
 10
503.8895549768939
 20
112.4414558457759
 30
0.0
 40
2.0
100
AcDbArc
 50
40.60129899999997
 51
90.0
  0
LINE
  5
935
330
2
100
AcDbEntity
  8
0
100
AcDbLine
 10
514.765347976894
 20
102.6352428457757
 30
0.0
 11
512.7653479768938
 21
101.8954658457759
 31
0.0
  0
ARC
  5
936
330
2
100
AcDbEntity
  8
0
100
AcDbCircle
 10
512.889554976894
 20
101.9414558457758
 30
0.0
 40
2.0
100
AcDbArc
 50
0.0
 51
40.60129899999997
  0
LINE
  5
937
330
2
100
AcDbEntity
  8
0
100
AcDbLine
 10
520.389554976894
 20
135.4414558457759
 30
0.0
 11
520.389554976894
 21
130.4414558457759
 31
0.0
  0
LINE
  5
938
330
2
100
AcDbEntity
  8
0
100
AcDbLine
 10
525.389554976894
 20
135.4414558457759
 30
0.0
 11
525.389554976894
 21
130.4414558457759
 31
0.0
  0
LINE
  5
939
330
2
100
AcDbEntity
  8
0
100
AcDbLine
 10
505.407926976894
 20
152.1398508457759
 30
0.0
 11
514.407926976894
 21
162.6398508457759
 31
0.0
  0
LINE
  5
93A
330
2
100
AcDbEntity
  8
0
100
AcDbLine
 10
504.488126976894
 20
154.1398508457759
 30
0.0
 11
512.407926976894
 21
163.3796578457759
 31
0.0
  0
ARC
  5
93C
330
2
100
AcDbEntity
  8
0
100
AcDbCircle
 10
521.889554976894
 20
146.4414558457759
 30
0.0
 40
22.0
100
AcDbArc
 50
165.5225070000003
 51
180.0
  0
ARC
  5
93D
330
2
100
AcDbEntity
  8
0
100
AcDbCircle
 10
502.1157509768938
 20
149.4414558457759
 30
0.0
 40
2.0
100
AcDbArc
 50
90.0
 51
171.3730930000004
  0
LINE
  5
93E
330
2
100
AcDbEntity
  8
0
100
AcDbLine
 10
504.7251259768938
 20
151.6244698457759
 30
0.0
 11
503.805325976894
 21
153.6244698457759
 31
0.0
  0
ARC
  5
93F
330
2
100
AcDbEntity
  8
0
100
AcDbCircle
 10
503.8895549768939
 20
153.4414558457759
 30
0.0
 40
2.0
100
AcDbArc
 50
270.0
 51
319.3987009999999
  0
LINE
  5
940
330
2
100
AcDbEntity
  8
0
100
AcDbLine
 10
503.8895549768939
 20
151.4414558457759
 30
0.0
 11
502.1157509768938
 21
151.4414558457759
 31
0.0
  0
ARC
  5
941
330
2
100
AcDbEntity
  8
0
100
AcDbCircle
 10
502.969754976894
 20
155.4414558457759
 30
0.0
 40
2.0
100
AcDbArc
 50
270.0
 51
319.3987009999999
  0
ARC
  5
942
330
2
100
AcDbEntity
  8
0
100
AcDbCircle
 10
502.5245649768938
 20
151.4414558457759
 30
0.0
 40
2.0
100
AcDbArc
 50
90.0
 51
165.5225070000003
  0
LINE
  5
943
330
2
100
AcDbEntity
  8
0
100
AcDbLine
 10
502.969754976894
 20
153.4414558457759
 30
0.0
 11
502.5245649768938
 21
153.4414558457759
 31
0.0
  0
ARC
  5
944
330
2
100
AcDbEntity
  8
0
100
AcDbCircle
 10
524.889554976894
 20
144.9414558457759
 30
0.0
 40
30.0
100
AcDbArc
 50
112.331596
 51
120.3582990000005
  0
ARC
  5
945
330
2
100
AcDbEntity
  8
0
100
AcDbCircle
 10
506.694974976894
 20
176.0052678457759
 30
0.0
 40
6.0
100
AcDbArc
 50
227.3641049999997
 51
300.3583069999994
  0
ARC
  5
946
330
2
100
AcDbEntity
  8
0
100
AcDbCircle
 10
521.889554976894
 20
146.4414558457759
 30
0.0
 40
22.0
100
AcDbArc
 50
90.0
 51
110.4872969999995
  0
ARC
  5
947
330
2
100
AcDbEntity
  8
0
100
AcDbCircle
 10
514.889554976894
 20
165.1764408457759
 30
0.0
 40
2.0
100
AcDbArc
 50
110.4872969999995
 51
180.0
  0
ARC
  5
948
330
2
100
AcDbEntity
  8
0
100
AcDbCircle
 10
516.889554976894
 20
165.8064458457759
 30
0.0
 40
2.0
100
AcDbArc
 50
104.4775009999996
 51
180.0
  0
LINE
  5
949
330
2
100
AcDbEntity
  8
0
100
AcDbLine
 10
514.765347976894
 20
163.2476688457759
 30
0.0
 11
512.7653479768938
 21
163.9874458457759
 31
0.0
  0
ARC
  5
94A
330
2
100
AcDbEntity
  8
0
100
AcDbCircle
 10
510.889554976894
 20
164.6812628457759
 30
0.0
 40
2.0
100
AcDbArc
 50
319.3987009999999
 51
0.0
  0
ARC
  5
94B
330
2
100
AcDbEntity
  8
0
100
AcDbCircle
 10
512.889554976894
 20
163.9414558457759
 30
0.0
 40
2.0
100
AcDbArc
 50
319.3987009999999
 51
0.0
  0
LINE
  5
94C
330
2
100
AcDbEntity
  8
0
100
AcDbLine
 10
514.889554976894
 20
163.9414558457759
 30
0.0
 11
514.889554976894
 21
165.8064458457759
 31
0.0
  0
LINE
  5
94D
330
2
100
AcDbEntity
  8
0
100
AcDbLine
 10
512.889554976894
 20
164.6812628457759
 30
0.0
 11
512.889554976894
 21
165.1764408457759
 31
0.0
  0
ARC
  5
94E
330
2
100
AcDbEntity
  8
0
100
AcDbCircle
 10
517.290128976894
 20
163.4414558457759
 30
0.0
 40
10.0
100
AcDbArc
 50
90.0
 51
112.331596
  0
LINE
  5
94F
330
2
100
AcDbEntity
  8
0
100
AcDbLine
 10
520.389554976894
 20
261.4616039467493
 30
0.0
 11
537.389554976894
 21
261.4616039467493
 31
0.0
  0
LINE
  5
950
330
2
100
AcDbEntity
  8
HIDS
100
AcDbLine
 10
502.1395549768939
 20
357.9616039467495
 30
0.0
 11
502.1395549768939
 21
370.4616039467495
 31
0.0
  0
LINE
  5
951
330
2
100
AcDbEntity
  8
HIDS
100
AcDbLine
 10
493.6395549768939
 20
357.9616039467495
 30
0.0
 11
493.6395549768939
 21
370.4616039467495
 31
0.0
  0
LINE
  5
952
330
2
100
AcDbEntity
  8
0
100
AcDbLine
 10
506.547574976894
 20
370.4616039467495
 30
0.0
 11
506.547574976894
 21
337.1656139467493
 31
0.0
  0
LINE
  5
953
330
2
100
AcDbEntity
  8
0
100
AcDbLine
 10
515.5221839768938
 20
370.4616039467495
 30
0.0
 11
515.5221839768938
 21
334.9616039467495
 31
0.0
  0
LINE
  5
954
330
2
100
AcDbEntity
  8
0
100
AcDbLine
 10
490.8895549768939
 20
329.9616039467494
 30
0.0
 11
491.5965249768941
 21
370.4616039467495
 31
0.0
  0
LINE
  5
955
330
2
100
AcDbEntity
  8
CENTER
100
AcDbLine
 10
497.889554976894
 20
286.1025949467493
 30
0.0
 11
497.889554976894
 21
373.7778269467495
 31
0.0
  0
LINE
  5
956
330
2
100
AcDbEntity
  8
HIDS
100
AcDbLine
 10
493.889554976894
 20
321.9616039467493
 30
0.0
 11
501.889554976894
 21
321.9616039467493
 31
0.0
  0
LINE
  5
957
330
2
100
AcDbEntity
  8
HIDS
100
AcDbLine
 10
493.889554976894
 20
337.9616039467495
 30
0.0
 11
501.889554976894
 21
337.9616039467495
 31
0.0
  0
LINE
  5
958
330
2
100
AcDbEntity
  8
HIDS
100
AcDbLine
 10
493.889554976894
 20
289.4616039467493
 30
0.0
 11
493.889554976894
 21
321.9616039467493
 31
0.0
  0
LINE
  5
959
330
2
100
AcDbEntity
  8
HIDS
100
AcDbLine
 10
494.489530976894
 20
357.9616039467495
 30
0.0
 11
494.489530976894
 21
289.4616039467493
 31
0.0
  0
LINE
  5
95A
330
2
100
AcDbEntity
  8
0
100
AcDbLine
 10
490.8895549768939
 20
329.9616039467494
 30
0.0
 11
491.5965249768941
 21
289.4616039467493
 31
0.0
  0
LINE
  5
95B
330
2
100
AcDbEntity
  8
HIDS
100
AcDbLine
 10
493.889554976894
 20
357.9616039467495
 30
0.0
 11
493.889554976894
 21
337.9616039467495
 31
0.0
  0
LINE
  5
95C
330
2
100
AcDbEntity
  8
HIDS
100
AcDbLine
 10
501.889554976894
 20
289.4616039467493
 30
0.0
 11
501.889554976894
 21
321.9616039467493
 31
0.0
  0
LINE
  5
95D
330
2
100
AcDbEntity
  8
HIDS
100
AcDbLine
 10
501.289578976894
 20
357.9616039467495
 30
0.0
 11
501.289578976894
 21
289.4616039467493
 31
0.0
  0
LINE
  5
95E
330
2
100
AcDbEntity
  8
0
100
AcDbLine
 10
515.5221839768938
 20
324.9616039467495
 30
0.0
 11
515.5221839768938
 21
289.4616039467493
 31
0.0
  0
LINE
  5
95F
330
2
100
AcDbEntity
  8
0
100
AcDbLine
 10
506.547574976894
 20
322.7575939467494
 30
0.0
 11
506.547574976894
 21
289.4616039467493
 31
0.0
  0
LINE
  5
960
330
2
100
AcDbEntity
  8
0
100
AcDbLine
 10
522.0781539768941
 20
288.4616039467493
 30
0.0
 11
537.7009559768938
 21
288.4616039467493
 31
0.0
  0
LINE
  5
961
330
2
100
AcDbEntity
  8
0
100
AcDbLine
 10
521.389554976894
 20
289.2390089467493
 30
0.0
 11
521.389554976894
 21
289.4616039467493
 31
0.0
  0
ARC
  5
962
330
2
100
AcDbEntity
  8
0
100
AcDbCircle
 10
523.2895789768939
 20
289.8636119467493
 30
0.0
 40
2.0
100
AcDbArc
 50
198.1949010000006
 51
210.0
  0
ARC
  5
963
330
2
100
AcDbEntity
  8
0
100
AcDbCircle
 10
522.0781539768941
 20
288.9616039467493
 30
0.0
 40
0.5
100
AcDbArc
 50
210.0
 51
270.0
  0
LINE
  5
964
330
2
100
AcDbEntity
  8
0
100
AcDbLine
 10
521.6451699768939
 20
288.7116039467493
 30
0.0
 11
521.5575849768938
 21
288.8636119467495
 31
0.0
  0
ARC
  5
965
330
2
100
AcDbEntity
  8
0
100
AcDbCircle
 10
515.3185709768941
 20
282.9616039467493
 30
0.0
 40
7.500003999999998
100
AcDbArc
 50
0.0
 51
19.47120999999928
  0
LINE
  5
966
330
2
100
AcDbEntity
  8
0
100
AcDbLine
 10
522.389554976894
 20
285.4616039467493
 30
0.0
 11
522.389554976894
 21
288.4616039467493
 31
0.0
  0
LINE
  5
967
330
2
100
AcDbEntity
  8
0
100
AcDbLine
 10
520.389554976894
 20
285.4616039467493
 30
0.0
 11
522.389554976894
 21
285.4616039467493
 31
0.0
  0
LINE
  5
968
330
2
100
AcDbEntity
  8
0
100
AcDbLine
 10
538.389554976894
 20
289.2390089467493
 30
0.0
 11
538.389554976894
 21
289.4616039467493
 31
0.0
  0
ARC
  5
969
330
2
100
AcDbEntity
  8
0
100
AcDbCircle
 10
536.489530976894
 20
289.8636119467493
 30
0.0
 40
2.0
100
AcDbArc
 50
329.9999999999998
 51
341.8051299999993
  0
ARC
  5
96A
330
2
100
AcDbEntity
  8
0
100
AcDbCircle
 10
537.7009559768938
 20
288.9616039467493
 30
0.0
 40
0.5
100
AcDbArc
 50
270.0
 51
329.9999999999998
  0
LINE
  5
96B
330
2
100
AcDbEntity
  8
0
100
AcDbLine
 10
538.133939976894
 20
288.7116039467493
 30
0.0
 11
538.2215249768941
 21
288.8636119467495
 31
0.0
  0
LINE
  5
96C
330
2
100
AcDbEntity
  8
HIDS
100
AcDbLine
 10
501.889554976894
 20
357.9616039467495
 30
0.0
 11
501.889554976894
 21
337.9616039467495
 31
0.0
  0
ARC
  5
96D
330
2
100
AcDbEntity
  8
0
100
AcDbCircle
 10
506.547574976894
 20
333.7575939467494
 30
0.0
 40
11.0
100
AcDbArc
 50
244.2823030000003
 51
291.0752870000002
  0
LINE
  5
96E
330
2
100
AcDbEntity
  8
0
100
AcDbLine
 10
515.5221839768938
 20
324.9616039467495
 30
0.0
 11
497.976773976894
 21
324.9616039467495
 31
0.0
  0
ARC
  5
96F
330
2
100
AcDbEntity
  8
0
100
AcDbCircle
 10
506.547574976894
 20
326.1656139467493
 30
0.0
 40
11.0
100
AcDbArc
 50
68.92466700000015
 51
115.7176969999996
  0
LINE
  5
970
330
2
100
AcDbEntity
  8
0
100
AcDbLine
 10
515.5221839768938
 20
334.9616039467495
 30
0.0
 11
497.976773976894
 21
334.9616039467495
 31
0.0
  0
LINE
  5
971
330
2
100
AcDbEntity
  8
0
100
AcDbLine
 10
501.774381976894
 20
323.8471939467495
 30
0.0
 11
500.797330976894
 21
324.3178049467493
 31
0.0
  0
ARC
  5
972
330
2
100
AcDbEntity
  8
0
100
AcDbCircle
 10
497.976773976894
 20
318.4616039467493
 30
0.0
 40
6.5
100
AcDbArc
 50
64.28227200000036
 51
90.0
  0
LINE
  5
973
330
2
100
AcDbEntity
  8
0
100
AcDbLine
 10
501.774381976894
 20
336.0760139467493
 30
0.0
 11
500.797330976894
 21
335.6054029467494
 31
0.0
  0
ARC
  5
974
330
2
100
AcDbEntity
  8
0
100
AcDbCircle
 10
497.976773976894
 20
341.4616039467495
 30
0.0
 40
6.5
100
AcDbArc
 50
270.0
 51
295.7177279999996
  0
ARC
  5
975
330
2
100
AcDbEntity
  8
0
100
AcDbCircle
 10
515.5221839768938
 20
318.4616039467493
 30
0.0
 40
6.5
100
AcDbArc
 50
90.0
 51
111.075302
  0
LINE
  5
976
330
2
100
AcDbEntity
  8
0
100
AcDbLine
 10
513.184781976894
 20
324.5267899467494
 30
0.0
 11
510.5031409768939
 21
323.4934029467495
 31
0.0
  0
ARC
  5
977
330
2
100
AcDbEntity
  8
0
100
AcDbCircle
 10
515.5221839768938
 20
341.4616039467495
 30
0.0
 40
6.5
100
AcDbArc
 50
248.9246979999998
 51
270.0
  0
LINE
  5
978
330
2
100
AcDbEntity
  8
0
100
AcDbLine
 10
513.184781976894
 20
335.3964179467494
 30
0.0
 11
510.5031409768939
 21
336.4298049467493
 31
0.0
  0
LINE
  5
979
330
2
100
AcDbEntity
  8
0
100
AcDbLine
 10
682.3633709768942
 20
163.1904488457759
 30
0.0
 11
663.9449749768941
 21
163.1904488457759
 31
0.0
  0
LINE
  5
97A
330
2
100
AcDbEntity
  8
0
100
AcDbLine
 10
682.3633709768942
 20
102.6924628457758
 30
0.0
 11
663.9449749768941
 21
102.6924628457758
 31
0.0
  0
LINE
  5
97B
330
2
100
AcDbEntity
  8
0
100
AcDbLine
 10
680.480924976894
 20
170.9414558457759
 30
0.0
 11
663.9449749768941
 21
170.9414558457759
 31
0.0
  0
LINE
  5
980
330
2
100
AcDbEntity
  8
0
100
AcDbLine
 10
663.9449749768941
 20
163.1904488457759
 30
0.0
 11
590.889554976894
 21
163.1904488457759
 31
0.0
  0
LINE
  5
981
330
2
100
AcDbEntity
  8
0
100
AcDbLine
 10
663.9449749768941
 20
102.6924628457758
 30
0.0
 11
590.889554976894
 21
102.6924628457758
 31
0.0
  0
LINE
  5
982
330
2
100
AcDbEntity
  8
0
100
AcDbLine
 10
663.9449749768941
 20
170.9414558457759
 30
0.0
 11
592.2483809768939
 21
170.9414558457759
 31
0.0
  0
LINE
  5
983
330
2
100
AcDbEntity
  8
0
100
AcDbLine
 10
581.889554976894
 20
146.4414558457759
 30
0.0
 11
581.889554976894
 21
119.4414558457759
 31
0.0
  0
LINE
  5
984
330
2
100
AcDbEntity
  8
0
100
AcDbLine
 10
586.889554976894
 20
122.2698558457759
 30
0.0
 11
586.889554976894
 21
143.6130558457759
 31
0.0
  0
ARC
  5
985
330
2
100
AcDbEntity
  8
0
100
AcDbCircle
 10
559.889554976894
 20
119.4414558457759
 30
0.0
 40
22.0
100
AcDbArc
 50
345.5224900000004
 51
0.0
  0
ARC
  5
986
330
2
100
AcDbEntity
  8
0
100
AcDbCircle
 10
579.6633589768942
 20
116.4414558457758
 30
0.0
 40
2.0
100
AcDbArc
 50
270.0
 51
351.3731079999995
  0
LINE
  5
987
330
2
100
AcDbEntity
  8
0
100
AcDbLine
 10
567.0137619768941
 20
102.6352428457757
 30
0.0
 11
569.0137619768941
 21
101.8954658457759
 31
0.0
  0
LINE
  5
988
330
2
100
AcDbEntity
  8
0
100
AcDbLine
 10
576.371182976894
 20
113.7430608457759
 30
0.0
 11
567.371182976894
 21
103.2430608457759
 31
0.0
  0
ARC
  5
989
330
2
100
AcDbEntity
  8
0
100
AcDbCircle
 10
568.889554976894
 20
101.9414558457758
 30
0.0
 40
2.0
100
AcDbArc
 50
139.3986970000003
 51
180.0
  0
LINE
  5
98A
330
2
100
AcDbEntity
  8
0
100
AcDbLine
 10
577.290982976894
 20
111.7430608457759
 30
0.0
 11
569.371182976894
 21
102.5032538457759
 31
0.0
  0
ARC
  5
98B
330
2
100
AcDbEntity
  8
0
100
AcDbCircle
 10
579.2545449768939
 20
114.4414558457759
 30
0.0
 40
2.0
100
AcDbArc
 50
270.0
 51
345.5224909999996
  0
LINE
  5
98C
330
2
100
AcDbEntity
  8
0
100
AcDbLine
 10
578.809354976894
 20
112.4414558457759
 30
0.0
 11
579.2545449768939
 21
112.4414558457759
 31
0.0
  0
LINE
  5
98D
330
2
100
AcDbEntity
  8
0
100
AcDbLine
 10
577.889554976894
 20
114.4414558457759
 30
0.0
 11
579.6633589768942
 21
114.4414558457759
 31
0.0
  0
LINE
  5
98E
330
2
100
AcDbEntity
  8
0
100
AcDbLine
 10
577.053983976894
 20
114.2584418457759
 30
0.0
 11
577.9737839768939
 21
112.2584418457759
 31
0.0
  0
ARC
  5
98F
330
2
100
AcDbEntity
  8
0
100
AcDbCircle
 10
577.889554976894
 20
112.4414558457759
 30
0.0
 40
2.0
100
AcDbArc
 50
90.0
 51
139.3986970000003
  0
ARC
  5
990
330
2
100
AcDbEntity
  8
0
100
AcDbCircle
 10
578.809354976894
 20
110.4414558457759
 30
0.0
 40
2.0
100
AcDbArc
 50
90.0
 51
139.3986970000003
  0
ARC
  5
991
330
2
100
AcDbEntity
  8
0
100
AcDbCircle
 10
588.889554976894
 20
122.2698558457759
 30
0.0
 40
2.0
100
AcDbArc
 50
180.0
 51
225.0
  0
LINE
  5
992
330
2
100
AcDbEntity
  8
0
100
AcDbLine
 10
587.4753699768939
 20
120.8556708457759
 30
0.0
 11
590.303739976894
 21
118.0272408457759
 31
0.0
  0
ARC
  5
993
330
2
100
AcDbEntity
  8
0
100
AcDbCircle
 10
588.889554976894
 20
116.6130558457759
 30
0.0
 40
2.0
100
AcDbArc
 50
0.0
 51
45.0
  0
CIRCLE
  5
994
330
2
100
AcDbEntity
  8
HOJO
100
AcDbCircle
 10
583.889554976894
 20
166.4414558457759
 30
0.0
 40
4.0
  0
CIRCLE
  5
995
330
2
100
AcDbEntity
  8
0
100
AcDbCircle
 10
583.889554976894
 20
166.4414558457759
 30
0.0
 40
3.399999999999999
  0
ARC
  5
996
330
2
100
AcDbEntity
  8
0
100
AcDbCircle
 10
559.889554976894
 20
146.4414558457759
 30
0.0
 40
22.0
100
AcDbArc
 50
0.0
 51
14.47750999999959
  0
ARC
  5
997
330
2
100
AcDbEntity
  8
0
100
AcDbCircle
 10
579.6633589768942
 20
149.4414558457759
 30
0.0
 40
2.0
100
AcDbArc
 50
8.626927000000565
 51
90.0
  0
ARC
  5
998
330
2
100
AcDbEntity
  8
0
100
AcDbCircle
 10
583.889554976894
 20
166.4414558457759
 30
0.0
 40
7.0
100
AcDbArc
 50
0.0
 51
132.6358950000002
  0
LINE
  5
99A
330
2
100
AcDbEntity
  8
0
100
AcDbLine
 10
576.371182976894
 20
152.1398508457759
 30
0.0
 11
567.371182976894
 21
162.6398508457759
 31
0.0
  0
LINE
  5
99B
330
2
100
AcDbEntity
  8
0
100
AcDbLine
 10
577.290982976894
 20
154.1398508457759
 30
0.0
 11
569.371182976894
 21
163.3796578457759
 31
0.0
  0
LINE
  5
99C
330
2
100
AcDbEntity
  8
0
100
AcDbLine
 10
577.053983976894
 20
151.6244698457759
 30
0.0
 11
577.9737839768939
 21
153.6244698457759
 31
0.0
  0
ARC
  5
99D
330
2
100
AcDbEntity
  8
0
100
AcDbCircle
 10
577.889554976894
 20
153.4414558457759
 30
0.0
 40
2.0
100
AcDbArc
 50
220.6013029999997
 51
270.0
  0
LINE
  5
99E
330
2
100
AcDbEntity
  8
0
100
AcDbLine
 10
577.889554976894
 20
151.4414558457759
 30
0.0
 11
579.6633589768942
 21
151.4414558457759
 31
0.0
  0
ARC
  5
99F
330
2
100
AcDbEntity
  8
0
100
AcDbCircle
 10
579.2545449768939
 20
151.4414558457759
 30
0.0
 40
2.0
100
AcDbArc
 50
14.47750999999959
 51
90.0
  0
LINE
  5
9A0
330
2
100
AcDbEntity
  8
0
100
AcDbLine
 10
578.809354976894
 20
153.4414558457759
 30
0.0
 11
579.2545449768939
 21
153.4414558457759
 31
0.0
  0
ARC
  5
9A1
330
2
100
AcDbEntity
  8
0
100
AcDbCircle
 10
578.809354976894
 20
155.4414558457759
 30
0.0
 40
2.0
100
AcDbArc
 50
220.6013029999997
 51
270.0
  0
LINE
  5
9A2
330
2
100
AcDbEntity
  8
0
100
AcDbLine
 10
567.0137619768941
 20
163.2476688457759
 30
0.0
 11
569.0137619768941
 21
163.9874458457759
 31
0.0
  0
ARC
  5
9A3
330
2
100
AcDbEntity
  8
0
100
AcDbCircle
 10
559.889554976894
 20
146.4414558457759
 30
0.0
 40
22.0
100
AcDbArc
 50
69.51268799999964
 51
90.0
  0
ARC
  5
9A4
330
2
100
AcDbEntity
  8
0
100
AcDbCircle
 10
564.4889809768938
 20
163.4414558457759
 30
0.0
 40
10.0
100
AcDbArc
 50
67.66835799999981
 51
90.0
  0
ARC
  5
9A5
330
2
100
AcDbEntity
  8
0
100
AcDbCircle
 10
564.889554976894
 20
165.8064458457759
 30
0.0
 40
2.0
100
AcDbArc
 50
0.0
 51
75.52249099999959
  0
ARC
  5
9A6
330
2
100
AcDbEntity
  8
0
100
AcDbCircle
 10
568.889554976894
 20
163.9414558457759
 30
0.0
 40
2.0
100
AcDbArc
 50
180.0
 51
220.6013029999997
  0
LINE
  5
9A7
330
2
100
AcDbEntity
  8
0
100
AcDbLine
 10
566.889554976894
 20
163.9414558457759
 30
0.0
 11
566.889554976894
 21
165.8064458457759
 31
0.0
  0
ARC
  5
9A8
330
2
100
AcDbEntity
  8
0
100
AcDbCircle
 10
556.889554976894
 20
144.9414558457759
 30
0.0
 40
30.0
100
AcDbArc
 50
59.6417009999995
 51
67.66835799999981
  0
ARC
  5
9A9
330
2
100
AcDbEntity
  8
0
100
AcDbCircle
 10
575.084134976894
 20
176.0052678457759
 30
0.0
 40
6.0
100
AcDbArc
 50
239.6416930000005
 51
312.6358950000002
  0
ARC
  5
9AA
330
2
100
AcDbEntity
  8
0
100
AcDbCircle
 10
566.889554976894
 20
165.1764408457759
 30
0.0
 40
2.0
100
AcDbArc
 50
0.0
 51
69.51268799999964
  0
ARC
  5
9AB
330
2
100
AcDbEntity
  8
0
100
AcDbCircle
 10
570.889554976894
 20
164.6812628457759
 30
0.0
 40
2.0
100
AcDbArc
 50
180.0
 51
220.6013029999997
  0
LINE
  5
9AC
330
2
100
AcDbEntity
  8
0
100
AcDbLine
 10
568.889554976894
 20
164.6812628457759
 30
0.0
 11
568.889554976894
 21
165.1764408457759
 31
0.0
  0
LINE
  5
9AE
330
2
100
AcDbEntity
  8
0
100
AcDbLine
 10
590.889554976894
 20
166.4414558457759
 30
0.0
 11
590.889554976894
 21
149.2698558457759
 31
0.0
  0
LINE
  5
9AF
330
2
100
AcDbEntity
  8
0
100
AcDbLine
 10
587.4753699768939
 20
145.0272408457759
 30
0.0
 11
590.303739976894
 21
147.8556708457759
 31
0.0
  0
ARC
  5
9B0
330
2
100
AcDbEntity
  8
0
100
AcDbCircle
 10
588.889554976894
 20
143.6130558457759
 30
0.0
 40
2.0
100
AcDbArc
 50
135.0
 51
180.0
  0
ARC
  5
9B1
330
2
100
AcDbEntity
  8
0
100
AcDbCircle
 10
588.889554976894
 20
149.2698558457759
 30
0.0
 40
2.0
100
AcDbArc
 50
315.0
 51
0.0
  0
LINE
  5
9B2
330
2
100
AcDbEntity
  8
0
100
AcDbLine
 10
591.553128976894
 20
171.0660588457758
 30
0.0
 11
586.3225379768939
 21
173.0050548457759
 31
0.0
  0
ARC
  5
9B3
330
2
100
AcDbEntity
  8
0
100
AcDbCircle
 10
592.2483809768939
 20
172.9414558457759
 30
0.0
 40
2.0
100
AcDbArc
 50
249.6613009999999
 51
270.0
  0
ARC
  5
9B9
330
2
100
AcDbEntity
  8
0
100
AcDbCircle
 10
680.480924976894
 20
167.9414558457759
 30
0.0
 40
3.0
100
AcDbArc
 50
29.99959899999904
 51
90.0
  0
LINE
  5
9BB
330
2
100
AcDbEntity
  8
0
100
AcDbLine
 10
683.0791299768938
 20
169.4414558457759
 30
0.0
 11
683.9449749768939
 21
167.9414558457759
 31
0.0
  0
LINE
  5
9BC
330
2
100
AcDbEntity
  8
0
100
AcDbLine
 10
684.4449749768942
 20
164.9414558457759
 30
0.0
 11
683.9449749768939
 21
165.4414558457759
 31
0.0
  0
LINE
  5
9BE
330
2
100
AcDbEntity
  8
0
100
AcDbLine
 10
680.480924976894
 20
291.9616039467494
 30
0.0
 11
663.9449749768941
 21
291.9616039467494
 31
0.0
  0
LINE
  5
9BF
330
2
100
AcDbEntity
  8
0
100
AcDbLine
 10
680.480924976894
 20
367.9616039467495
 30
0.0
 11
663.9449749768941
 21
367.9616039467495
 31
0.0
  0
LINE
  5
9C0
330
2
100
AcDbEntity
  8
0
100
AcDbLine
 10
682.3633709768942
 20
306.9616039467494
 30
0.0
 11
672.9449749768938
 21
306.9616039467494
 31
0.0
  0
LINE
  5
9C1
330
2
100
AcDbEntity
  8
0
100
AcDbLine
 10
682.3633709768942
 20
352.9616039467493
 30
0.0
 11
672.9449749768938
 21
352.9616039467493
 31
0.0
  0
LINE
  5
9C6
330
2
100
AcDbEntity
  8
HIDS
100
AcDbLine
 10
588.139554976894
 20
357.9616039467495
 30
0.0
 11
588.139554976894
 21
370.4616039467495
 31
0.0
  0
LINE
  5
9C7
330
2
100
AcDbEntity
  8
HIDS
100
AcDbLine
 10
579.639554976894
 20
357.9616039467495
 30
0.0
 11
579.639554976894
 21
370.4616039467495
 31
0.0
  0
LINE
  5
9C8
330
2
100
AcDbEntity
  8
0
100
AcDbLine
 10
663.9449749768938
 20
354.9616039467493
 30
0.0
 11
663.9449749768941
 21
367.9616039467495
 31
0.0
  0
LINE
  5
9C9
330
2
100
AcDbEntity
  8
0
100
AcDbLine
 10
575.2315349768942
 20
370.4616039467495
 30
0.0
 11
575.2315349768942
 21
337.1656139467493
 31
0.0
  0
LINE
  5
9CA
330
2
100
AcDbEntity
  8
0
100
AcDbLine
 10
566.256925976894
 20
370.4616039467495
 30
0.0
 11
566.256925976894
 21
334.9616039467495
 31
0.0
  0
LINE
  5
9CB
330
2
100
AcDbEntity
  8
0
100
AcDbLine
 10
590.1825849768938
 20
370.4616039467495
 30
0.0
 11
590.488126976894
 21
352.9616039467493
 31
0.0
  0
LINE
  5
9CC
330
2
100
AcDbEntity
  8
0
100
AcDbLine
 10
591.889554976894
 20
367.3408149467493
 30
0.0
 11
591.889554976894
 21
357.9616039467495
 31
0.0
  0
LINE
  5
9CD
330
2
100
AcDbEntity
  8
CENTER
100
AcDbLine
 10
583.889554976894
 20
286.1025949467493
 30
0.0
 11
583.889554976894
 21
373.7778269467495
 31
0.0
  0
LINE
  5
9CE
330
2
100
AcDbEntity
  8
0
100
AcDbLine
 10
622.9450749768941
 20
306.9616039467494
 30
0.0
 11
587.8863809768938
 21
306.9616039467494
 31
0.0
  0
LINE
  5
9CF
330
2
100
AcDbEntity
  8
0
100
AcDbLine
 10
622.9450749768941
 20
352.9616039467493
 30
0.0
 11
587.8863809768938
 21
352.9616039467493
 31
0.0
  0
LINE
  5
9D0
330
2
100
AcDbEntity
  8
0
100
AcDbLine
 10
592.191739976894
 20
291.9616039467494
 30
0.0
 11
663.9449749768941
 21
291.9616039467494
 31
0.0
  0
LINE
  5
9D1
330
2
100
AcDbEntity
  8
HIDS
100
AcDbLine
 10
587.889554976894
 20
289.4616039467493
 30
0.0
 11
587.889554976894
 21
321.9616039467493
 31
0.0
  0
LINE
  5
9D2
330
2
100
AcDbEntity
  8
HIDS
100
AcDbLine
 10
579.889554976894
 20
289.4616039467493
 30
0.0
 11
579.889554976894
 21
321.9616039467493
 31
0.0
  0
LINE
  5
9D3
330
2
100
AcDbEntity
  8
HIDS
100
AcDbLine
 10
587.2895789768939
 20
357.9616039467495
 30
0.0
 11
587.2895789768939
 21
289.4616039467493
 31
0.0
  0
LINE
  5
9D4
330
2
100
AcDbEntity
  8
HIDS
100
AcDbLine
 10
580.489530976894
 20
357.9616039467495
 30
0.0
 11
580.489530976894
 21
289.4616039467493
 31
0.0
  0
LINE
  5
9D5
330
2
100
AcDbEntity
  8
0
100
AcDbLine
 10
575.2315349768942
 20
322.7575939467494
 30
0.0
 11
575.2315349768942
 21
289.4616039467493
 31
0.0
  0
LINE
  5
9D6
330
2
100
AcDbEntity
  8
0
100
AcDbLine
 10
566.256925976894
 20
324.9616039467495
 30
0.0
 11
566.256925976894
 21
289.4616039467493
 31
0.0
  0
LINE
  5
9D7
330
2
100
AcDbEntity
  8
0
100
AcDbLine
 10
586.3225379768939
 20
329.9616039467494
 30
0.0
 11
585.8867469768942
 21
304.9966079467494
 31
0.0
  0
LINE
  5
9D8
330
2
100
AcDbEntity
  8
0
100
AcDbLine
 10
591.889554976894
 20
352.9616039467493
 30
0.0
 11
591.889554976894
 21
306.9616039467494
 31
0.0
  0
LINE
  5
9D9
330
2
100
AcDbEntity
  8
0
100
AcDbLine
 10
590.1825849768938
 20
289.4616039467493
 30
0.0
 11
590.488126976894
 21
306.9616039467494
 31
0.0
  0
ARC
  5
9DA
330
2
100
AcDbEntity
  8
0
100
AcDbCircle
 10
592.191739976894
 20
289.9616039467494
 30
0.0
 40
2.0
100
AcDbArc
 50
90.0
 51
178.9999999999998
  0
ARC
  5
9DB
330
2
100
AcDbEntity
  8
0
100
AcDbCircle
 10
587.8863809768938
 20
304.9616039467494
 30
0.0
 40
2.0
100
AcDbArc
 50
90.0
 51
178.9999999999998
  0
LINE
  5
9DC
330
2
100
AcDbEntity
  8
HIDS
100
AcDbLine
 10
579.889554976894
 20
321.9616039467493
 30
0.0
 11
587.889554976894
 21
321.9616039467493
 31
0.0
  0
LINE
  5
9DD
330
2
100
AcDbEntity
  8
HIDS
100
AcDbLine
 10
579.889554976894
 20
337.9616039467495
 30
0.0
 11
587.889554976894
 21
337.9616039467495
 31
0.0
  0
ARC
  5
9DE
330
2
100
AcDbEntity
  8
0
100
AcDbCircle
 10
583.802335976894
 20
318.4616039467493
 30
0.0
 40
6.5
100
AcDbArc
 50
90.0
 51
115.7176969999996
  0
LINE
  5
9DF
330
2
100
AcDbEntity
  8
0
100
AcDbLine
 10
566.256925976894
 20
324.9616039467495
 30
0.0
 11
583.802335976894
 21
324.9616039467495
 31
0.0
  0
ARC
  5
9E0
330
2
100
AcDbEntity
  8
0
100
AcDbCircle
 10
583.802335976894
 20
341.4616039467495
 30
0.0
 40
6.5
100
AcDbArc
 50
244.2823030000003
 51
270.0
  0
LINE
  5
9E1
330
2
100
AcDbEntity
  8
0
100
AcDbLine
 10
566.256925976894
 20
334.9616039467495
 30
0.0
 11
583.802335976894
 21
334.9616039467495
 31
0.0
  0
LINE
  5
9E2
330
2
100
AcDbEntity
  8
HIDS
100
AcDbLine
 10
579.889554976894
 20
357.9616039467495
 30
0.0
 11
579.889554976894
 21
337.9616039467495
 31
0.0
  0
ARC
  5
9E3
330
2
100
AcDbEntity
  8
0
100
AcDbCircle
 10
566.256925976894
 20
318.4616039467493
 30
0.0
 40
6.5
100
AcDbArc
 50
68.92466700000015
 51
90.0
  0
ARC
  5
9E4
330
2
100
AcDbEntity
  8
0
100
AcDbCircle
 10
566.256925976894
 20
341.4616039467495
 30
0.0
 40
6.5
100
AcDbArc
 50
270.0
 51
291.0752870000002
  0
ARC
  5
9E5
330
2
100
AcDbEntity
  8
0
100
AcDbCircle
 10
575.2315349768942
 20
333.7575939467494
 30
0.0
 40
11.0
100
AcDbArc
 50
248.9246979999998
 51
295.7177279999996
  0
LINE
  5
9E6
330
2
100
AcDbEntity
  8
0
100
AcDbLine
 10
568.5943279768942
 20
324.5267899467494
 30
0.0
 11
571.2759689768938
 21
323.4934029467495
 31
0.0
  0
LINE
  5
9E7
330
2
100
AcDbEntity
  8
0
100
AcDbLine
 10
580.0047279768939
 20
323.8471939467495
 30
0.0
 11
580.981778976894
 21
324.3178049467493
 31
0.0
  0
ARC
  5
9E8
330
2
100
AcDbEntity
  8
0
100
AcDbCircle
 10
575.2315349768942
 20
326.1656139467493
 30
0.0
 40
11.0
100
AcDbArc
 50
64.28227200000036
 51
111.075302
  0
LINE
  5
9E9
330
2
100
AcDbEntity
  8
0
100
AcDbLine
 10
568.5943279768942
 20
335.3964179467494
 30
0.0
 11
571.2759689768938
 21
336.4298049467493
 31
0.0
  0
LINE
  5
9EA
330
2
100
AcDbEntity
  8
0
100
AcDbLine
 10
580.0047279768939
 20
336.0760139467493
 30
0.0
 11
580.981778976894
 21
335.6054029467494
 31
0.0
  0
LINE
  5
9EB
330
2
100
AcDbEntity
  8
HIDS
100
AcDbLine
 10
587.889554976894
 20
357.9616039467495
 30
0.0
 11
587.889554976894
 21
337.9616039467495
 31
0.0
  0
LINE
  5
9EC
330
2
100
AcDbEntity
  8
0
100
AcDbLine
 10
586.3225379768939
 20
329.9616039467494
 30
0.0
 11
585.8867469768942
 21
354.9265999467493
 31
0.0
  0
ARC
  5
9ED
330
2
100
AcDbEntity
  8
0
100
AcDbCircle
 10
587.8863809768938
 20
354.9616039467493
 30
0.0
 40
2.0
100
AcDbArc
 50
181.0
 51
270.0
  0
LINE
  5
9EE
330
2
100
AcDbEntity
  8
0
100
AcDbLine
 10
663.9449749768941
 20
291.9616039467494
 30
0.0
 11
663.9449749768938
 21
304.9616039467494
 31
0.0
  0
LINE
  5
9F3
330
2
100
AcDbEntity
  8
0
100
AcDbLine
 10
593.3379799768942
 20
367.9616039467495
 30
0.0
 11
663.9449749768941
 21
367.9616039467495
 31
0.0
  0
ARC
  5
9F4
330
2
100
AcDbEntity
  8
0
100
AcDbCircle
 10
593.3379799768942
 20
365.9616039467495
 30
0.0
 40
2.0
100
AcDbArc
 50
90.0
 51
136.3988040000003
  0
LINE
  5
9F5
330
2
100
AcDbEntity
  8
0
100
AcDbLine
 10
683.9449749768939
 20
364.9616039467495
 30
0.0
 11
683.9449749768939
 21
294.9616039467493
 31
0.0
  0
LINE
  5
9F6
330
2
100
AcDbEntity
  8
0
100
AcDbLine
 10
684.4449749768942
 20
361.9616039467495
 30
0.0
 11
684.4449749768942
 21
297.9616039467493
 31
0.0
  0
ARC
  5
9F7
330
2
100
AcDbEntity
  8
0
100
AcDbCircle
 10
680.480924976894
 20
294.9616039467493
 30
0.0
 40
3.0
100
AcDbArc
 50
270.0
 51
330.0003970000009
  0
LINE
  5
9F8
330
2
100
AcDbEntity
  8
0
100
AcDbLine
 10
683.0791299768938
 20
293.4616039467493
 30
0.0
 11
683.9449749768939
 21
294.9616039467493
 31
0.0
  0
LINE
  5
9F9
330
2
100
AcDbEntity
  8
0
100
AcDbLine
 10
684.4449749768942
 20
297.9616039467493
 30
0.0
 11
683.9449749768939
 21
297.4616039467493
 31
0.0
  0
ARC
  5
9FE
330
2
100
AcDbEntity
  8
0
100
AcDbCircle
 10
680.480924976894
 20
364.9616039467495
 30
0.0
 40
3.0
100
AcDbArc
 50
29.99959899999904
 51
90.0
  0
LINE
  5
9FF
330
2
100
AcDbEntity
  8
0
100
AcDbLine
 10
683.0791299768938
 20
366.4616039467495
 30
0.0
 11
683.9449749768939
 21
364.9616039467495
 31
0.0
  0
LINE
  5
A00
330
2
100
AcDbEntity
  8
0
100
AcDbLine
 10
684.4449749768942
 20
361.9616039467495
 30
0.0
 11
683.9449749768939
 21
362.4616039467495
 31
0.0
  0
SPLINE
  5
A01
330
2
100
AcDbEntity
  8
HOJO
100
AcDbSpline
210
0.0
220
0.0
230
1.0
 70
     8
 71
     3
 72
    27
 73
    23
 74
    21
 42
0.0000000001
 43
0.0000000001
 44
0.0000000001
 40
0.0
 40
0.0
 40
0.0
 40
0.0
 40
3.539268772771754
 40
7.2875135629958
 40
11.09046033223703
 40
14.62599423816977
 40
18.69227008921793
 40
22.2680289095028
 40
26.82672101949673
 40
31.55579532198595
 40
36.28066624743832
 40
40.14414690074357
 40
45.4800328401602
 40
49.44095400921202
 40
54.14226030623301
 40
58.62868909724455
 40
62.78426171223566
 40
66.263146879027
 40
70.60953379849492
 40
74.30511416613963
 40
78.24621988074828
 40
82.00437648752258
 40
82.00437648752258
 40
82.00437648752258
 40
82.00437648752258
 10
295.0737074322041
 20
107.559468647823
 30
0.0
 10
296.2527737979534
 20
107.3937696262446
 30
0.0
 10
298.6805244672932
 20
107.0525878893791
 30
0.0
 10
302.3364049532043
 20
108.1985431340138
 30
0.0
 10
306.0228420477752
 20
106.9389677913834
 30
0.0
 10
309.7753123557708
 20
108.3889488169299
 30
0.0
 10
313.481665797507
 20
106.8298195714965
 30
0.0
 10
317.4820836135799
 20
108.456356059037
 30
0.0
 10
321.763021012235
 20
106.8073194758682
 30
0.0
 10
326.3787150103701
 20
108.6752114665874
 30
0.0
 10
330.8003127268784
 20
106.8671271376498
 30
0.0
 10
335.3558833317094
 20
108.7010817969076
 30
0.0
 10
339.7599841106146
 20
106.8924346898114
 30
0.0
 10
344.3466047405606
 20
108.9314376002213
 30
0.0
 10
348.6613259951589
 20
106.5130479828449
 30
0.0
 10
353.029153333264
 20
109.1036957445019
 30
0.0
 10
356.9908090976655
 20
106.558427406536
 30
0.0
 10
360.8363855648447
 20
108.9966273041867
 30
0.0
 10
364.651787697899
 20
106.688290726
 30
0.0
 10
368.5569017849977
 20
108.8149813355555
 30
0.0
 10
372.2894849569683
 20
106.9688200095834
 30
0.0
 10
374.8324417696682
 20
107.6535929372116
 30
0.0
 10
376.0737074322041
 20
107.987843647823
 30
0.0
 11
295.0737074322041
 21
107.559468647823
 31
0.0
 11
298.6048964322041
 21
107.320454647823
 31
0.0
 11
302.3237074322041
 21
107.789265647823
 31
0.0
 11
306.1048964322041
 21
107.383046647823
 31
0.0
 11
309.6048964322041
 21
107.883046647823
 31
0.0
 11
313.6362994322041
 21
107.3516436478231
 31
0.0
 11
317.1675184322041
 21
107.914265647823
 31
0.0
 11
321.6987074322041
 21
107.414265647823
 31
0.0
 11
326.3862994322041
 21
108.039265647823
 31
0.0
 11
331.0737074322041
 21
107.445454647823
 31
0.0
 11
334.8862994322041
 21
108.070454647823
 31
0.0
 11
340.1987074322041
 21
107.570454647823
 31
0.0
 11
344.1048964322042
 21
108.2266436478231
 31
0.0
 11
348.7298964322042
 21
107.383046647823
 31
0.0
 11
353.1362994322041
 21
108.2266436478231
 31
0.0
 11
357.1987074322041
 21
107.3516436478231
 31
0.0
 11
360.5737074322041
 21
108.195454647823
 31
0.0
 11
364.8548964322042
 21
107.445454647823
 31
0.0
 11
368.4798964322042
 21
108.164265647823
 31
0.0
 11
372.3548964322042
 21
107.445454647823
 31
0.0
 11
376.0737074322041
 21
107.987843647823
 31
0.0
  0
LINE
  5
FE0
330
2
100
AcDbEntity
  8
CENTER
100
AcDbLine
 10
591.8681929768942
 20
166.4414558457759
 30
0.0
 11
575.9109169768938
 21
166.4414558457759
 31
0.0
  0
LINE
  5
FE1
330
2
100
AcDbEntity
  8
CENTER
100
AcDbLine
 10
583.889554976894
 20
174.4200938457757
 30
0.0
 11
583.889554976894
 21
158.4628178457759
 31
0.0
  0
LINE
  5
FE2
330
2
100
AcDbEntity
  8
CENTER
100
AcDbLine
 10
497.889554976894
 20
174.4200938457757
 30
0.0
 11
497.889554976894
 21
158.4628178457759
 31
0.0
  0
LINE
  5
FE3
330
2
100
AcDbEntity
  8
CENTER
100
AcDbLine
 10
505.868192976894
 20
166.4414558457759
 30
0.0
 11
489.910916976894
 21
166.4414558457759
 31
0.0
  0
LINE
  5
FE4
330
2
100
AcDbEntity
  8
CENTER
100
AcDbLine
 10
497.889554976894
 20
107.4200938457759
 30
0.0
 11
497.889554976894
 21
91.46281784577594
 31
0.0
  0
LINE
  5
FE5
330
2
100
AcDbEntity
  8
CENTER
100
AcDbLine
 10
505.868192976894
 20
99.44145584577594
 30
0.0
 11
489.910916976894
 21
99.44145584577594
 31
0.0
  0
LINE
  5
FE6
330
2
100
AcDbEntity
  8
CENTER
100
AcDbLine
 10
591.8681929768942
 20
99.44145584577594
 30
0.0
 11
575.9109169768938
 21
99.44145584577594
 31
0.0
  0
LINE
  5
FE7
330
2
100
AcDbEntity
  8
CENTER
100
AcDbLine
 10
583.889554976894
 20
107.4200938457759
 30
0.0
 11
583.889554976894
 21
91.46281784577594
 31
0.0
  0
LINE
  5
13D3
330
2
100
AcDbEntity
  8
CENTER
100
AcDbLine
 10
142.750110186835
 20
99.44145584577594
 30
0.0
 11
126.792834186835
 21
99.44145584577594
 31
0.0
  0
LINE
  5
13D4
330
2
100
AcDbEntity
  8
CENTER
100
AcDbLine
 10
142.750110186835
 20
166.4414558457759
 30
0.0
 11
126.792834186835
 21
166.4414558457759
 31
0.0
  0
TEXT
  5
13E0
330
2
100
AcDbEntity
  8
TITLE
100
AcDbText
 10
32.55278381513357
 20
25.10389444724097
 30
0.0
 40
5.0
  1
F2FM-15L-10～120-T40T
 41
0.9
100
AcDbText
  0
TEXT
  5
13E1
330
2
100
AcDbEntity
  8
TITLE
100
AcDbText
 10
32.55278381513357
 20
43.10389444724097
 30
0.0
 40
5.0
  1
F2FM-15L-10～240-T25T
 41
0.9
100
AcDbText
  0
TEXT
  5
13E2
330
2
100
AcDbEntity
  8
TITLE
100
AcDbText
 10
32.55278381513357
 20
34.10389444724096
 30
0.0
 40
5.0
  1
F2FM-15L-10～240-T25WT
 41
0.9
100
AcDbText
  0
TEXT
  5
13E9
330
2
100
AcDbEntity
  8
TITLE
100
AcDbText
 10
32.55278381513357
 20
52.10389444724097
 30
0.0
 40
5.0
  1
F2FM-15L-10～240-T15WT
 41
0.9
100
AcDbText
  0
TEXT
  5
13EA
330
2
100
AcDbEntity
  8
TITLE
100
AcDbText
 10
32.55278381513357
 20
61.10389444724098
 30
0.0
 40
5.0
  1
F2FM-15L-10～240-T15T
 41
0.9
100
AcDbText
  0
LINE
  5
13F2
330
2
100
AcDbEntity
  8
CENTER
100
AcDbLine
 10
134.771472186835
 20
107.4200938457759
 30
0.0
 11
134.771472186835
 21
91.46281784577594
 31
0.0
  0
LINE
  5
13F4
330
2
100
AcDbEntity
  8
CENTER
100
AcDbLine
 10
132.2714721868351
 20
103.8691138457759
 30
0.0
 11
132.2714721868351
 21
115.0137978457759
 31
0.0
  0
LINE
  5
13FE
330
2
100
AcDbEntity
  8
CENTER
100
AcDbLine
 10
126.699130186835
 20
109.4414558457759
 30
0.0
 11
137.843814186835
 21
109.4414558457759
 31
0.0
  0
LINE
  5
1424
330
2
100
AcDbEntity
  8
CENTER
100
AcDbLine
 10
132.2714721868351
 20
150.8691138457758
 30
0.0
 11
132.2714721868351
 21
162.0137978457759
 31
0.0
  0
LINE
  5
142D
330
2
100
AcDbEntity
  8
CENTER
100
AcDbLine
 10
126.699130186835
 20
156.4414558457759
 30
0.0
 11
137.843814186835
 21
156.4414558457759
 31
0.0
  0
LINE
  5
1438
330
2
100
AcDbEntity
  8
CENTER
100
AcDbLine
 10
134.771472186835
 20
174.4200938457757
 30
0.0
 11
134.771472186835
 21
158.4628178457759
 31
0.0
  0
TEXT
  5
1448
330
2
100
AcDbEntity
  8
TITLE
100
AcDbText
 10
137.6841519148831
 20
34.07610393758675
 30
0.0
 40
5.0
  1
F2FM-15L-10～240-S25WT
 41
0.9
100
AcDbText
  0
TEXT
  5
1449
330
2
100
AcDbEntity
  8
TITLE
100
AcDbText
 10
137.6841519148831
 20
43.07610393758675
 30
0.0
 40
5.0
  1
F2FM-15L-10～240-S25T
 41
0.9
100
AcDbText
  0
LINE
  5
1459
330
2
100
AcDbEntity
  8
CENTER
100
AcDbLine
 10
188.771472186835
 20
102.8345828457759
 30
0.0
 11
188.771472186835
 21
163.0483288457758
 31
0.0
  0
TEXT
  5
145B
330
2
100
AcDbEntity
  8
TITLE
100
AcDbText
 10
137.6841519148831
 20
61.07610393758676
 30
0.0
 40
5.0
  1
F2FM-15L-10～240-S15T
 41
0.9
100
AcDbText
  0
TEXT
  5
145C
330
2
100
AcDbEntity
  8
TITLE
100
AcDbText
 10
137.6841519148831
 20
52.07610393758677
 30
0.0
 40
5.0
  1
F2FM-15L-10～240-S15WT
 41
0.9
100
AcDbText
  0
LINE
  5
145D
330
2
100
AcDbEntity
  8
CENTER
100
AcDbLine
 10
228.750110186835
 20
99.44145584577594
 30
0.0
 11
212.7928341868349
 21
99.44145584577594
 31
0.0
  0
LINE
  5
145E
330
2
100
AcDbEntity
  8
CENTER
100
AcDbLine
 10
217.6991301868351
 20
109.4414558457759
 30
0.0
 11
228.8438141868349
 21
109.4414558457759
 31
0.0
  0
LINE
  5
1466
330
2
100
AcDbEntity
  8
CENTER
100
AcDbLine
 10
220.7714721868351
 20
107.4200938457759
 30
0.0
 11
220.7714721868351
 21
91.46281784577594
 31
0.0
  0
LINE
  5
1474
330
2
100
AcDbEntity
  8
CENTER
100
AcDbLine
 10
223.271472186835
 20
103.8691138457759
 30
0.0
 11
223.271472186835
 21
115.0137978457759
 31
0.0
  0
LINE
  5
1498
330
2
100
AcDbEntity
  8
CENTER
100
AcDbLine
 10
228.750110186835
 20
166.4414558457759
 30
0.0
 11
212.7928341868349
 21
166.4414558457759
 31
0.0
  0
LINE
  5
149E
330
2
100
AcDbEntity
  8
CENTER
100
AcDbLine
 10
217.6991301868351
 20
156.4414558457759
 30
0.0
 11
228.8438141868349
 21
156.4414558457759
 31
0.0
  0
LINE
  5
14B0
330
2
100
AcDbEntity
  8
CENTER
100
AcDbLine
 10
223.271472186835
 20
150.8691138457758
 30
0.0
 11
223.271472186835
 21
162.0137978457759
 31
0.0
  0
LINE
  5
14C9
330
2
100
AcDbEntity
  8
CENTER
100
AcDbLine
 10
220.7714721868351
 20
174.4200938457757
 30
0.0
 11
220.7714721868351
 21
158.4628178457759
 31
0.0
  0
LINE
  5
2D80
330
2
100
AcDbEntity
  8
0
100
AcDbLine
 10
310.5737074322041
 20
184.4414558457759
 30
0.0
 11
360.5736924322042
 21
184.4414558457759
 31
0.0
  0
LINE
  5
2D81
330
2
100
AcDbEntity
  8
0
100
AcDbLine
 10
310.5737074322041
 20
174.4414558457759
 30
0.0
 11
360.5736924322042
 21
174.4414558457759
 31
0.0
  0
LINE
  5
2D82
330
2
100
AcDbEntity
  8
0
100
AcDbLine
 10
311.5737074322041
 20
203.4414538457759
 30
0.0
 11
355.7357986161781
 21
203.4414538457759
 31
0.0
  0
LINE
  5
2D83
330
2
100
AcDbEntity
  8
0
100
AcDbLine
 10
310.5737074322041
 20
202.4414538457758
 30
0.0
 11
353.0736924322042
 21
202.4414538457758
 31
0.0
  0
LINE
  5
2D85
330
2
100
AcDbEntity
  8
CENTER
100
AcDbLine
 10
305.5301004509956
 20
193.9414538457759
 30
0.0
 11
365.6173144134127
 21
193.9414538457759
 31
0.0
  0
LINE
  5
2DAB
330
2
100
AcDbEntity
  8
0
100
AcDbLine
 10
50.55389200286072
 20
203.4414538457759
 30
0.0
 11
94.71598318683518
 21
203.4414538457759
 31
0.0
  0
LINE
  5
2DAC
330
2
100
AcDbEntity
  8
0
100
AcDbLine
 10
47.21597618683517
 20
172.4414558457759
 30
0.0
 11
93.71598318683519
 21
172.4414558457759
 31
0.0
  0
LINE
  5
2DAD
330
2
100
AcDbEntity
  8
0
100
AcDbLine
 10
43.71597618683519
 20
184.4414558457759
 30
0.0
 11
95.71598318683518
 21
184.4414558457759
 31
0.0
  0
LINE
  5
2DAE
330
2
100
AcDbEntity
  8
0
100
AcDbLine
 10
45.71597618683518
 20
174.4414558457759
 30
0.0
 11
95.71598318683518
 21
174.4414558457759
 31
0.0
  0
LINE
  5
2DAF
330
2
100
AcDbEntity
  8
0
100
AcDbLine
 10
53.21597661540613
 20
202.4414538457758
 30
0.0
 11
95.71599018683519
 21
202.4414538457758
 31
0.0
  0
LINE
  5
2DB0
330
2
100
AcDbEntity
  8
CENTER
100
AcDbLine
 10
37.77222718683518
 20
193.9414538457759
 30
0.0
 11
99.6682861505733
 21
193.9414538457759
 31
0.0
  0
ARC
  5
2DB2
330
2
100
AcDbEntity
  8
0
100
AcDbCircle
 10
44.7159911868352
 20
200.4414538457758
 30
0.0
 40
1.0
100
AcDbArc
 50
90.0
 51
180.0
  0
LINE
  5
2DB3
330
2
100
AcDbEntity
  8
0
100
AcDbLine
 10
43.71599118683518
 20
200.4414538457758
 30
0.0
 11
43.71597618683519
 21
184.4414558457759
 31
0.0
  0
LINE
  5
2DB4
330
2
100
AcDbEntity
  8
0
100
AcDbLine
 10
40.2159911868352
 20
197.9414538457758
 30
0.0
 11
40.2159911868352
 21
189.9414538457758
 31
0.0
  0
LINE
  5
2DB5
330
2
100
AcDbEntity
  8
0
100
AcDbLine
 10
40.21597618683517
 20
189.9414538457758
 30
0.0
 11
43.71597618683519
 21
188.4414538457759
 31
0.0
  0
LINE
  5
2DB6
330
2
100
AcDbEntity
  8
0
100
AcDbLine
 10
40.2159911868352
 20
197.9414538457758
 30
0.0
 11
43.71599118683518
 21
199.4414538457759
 31
0.0
  0
LINE
  5
2DB7
330
2
100
AcDbEntity
  8
CENTER
100
AcDbLine
 10
70.71598318683519
 20
167.7477548457759
 30
0.0
 11
70.71598318683519
 21
208.8289538457759
 31
0.0
  0
LINE
  5
2DB8
330
2
100
AcDbEntity
  8
0
100
AcDbLine
 10
45.71597618683518
 20
202.4414538457758
 30
0.0
 11
45.71597618683518
 21
174.4414558457759
 31
0.0
  0
LINE
  5
2DB9
330
2
100
AcDbEntity
  8
0
100
AcDbLine
 10
47.21597618683517
 20
172.4414558457759
 30
0.0
 11
47.21597618683517
 21
170.9414558457759
 31
0.0
  0
LINE
  5
2DBB
330
2
100
AcDbEntity
  8
0
100
AcDbLine
 10
45.71597618683518
 20
174.4414558457759
 30
0.0
 11
47.71597618683517
 21
172.4414558457759
 31
0.0
  0
ARC
  5
2DBC
330
2
100
AcDbEntity
  8
0
100
AcDbCircle
 10
49.21598318683527
 20
194.5414538457758
 30
0.0
 40
9.0
100
AcDbArc
 50
74.11914999171883
 51
105.8808500082811
  0
LINE
  5
2DBD
330
2
100
AcDbEntity
  8
0
100
AcDbLine
 10
49.50348318729033
 20
202.0244538457757
 30
0.0
 11
48.92848318638021
 21
202.0244538457757
 31
0.0
  0
LINE
  5
2DBE
330
2
100
AcDbEntity
  8
0
100
AcDbLine
 10
53.21597661540613
 20
200.9414538457756
 30
0.0
 11
45.71597661540613
 21
200.9414538457757
 31
0.0
  0
LINE
  5
2DBF
330
2
100
AcDbEntity
  8
0
100
AcDbLine
 10
47.18624336367116
 20
203.0938953831534
 30
0.0
 11
47.16598318683526
 21
203.3048721286149
 31
0.0
  0
SPLINE
  5
2DC0
330
2
100
AcDbEntity
  8
0
100
AcDbSpline
210
0.0
220
0.0
230
1.0
 70
     8
 71
     3
 72
    11
 73
     7
 74
     0
 42
0.0000000001
 43
0.0000000001
 40
0.0
 40
0.0
 40
0.0
 40
0.0
 40
0.4601364636755307
 40
1.04988694485363
 40
1.713742833862792
 40
2.320347933405154
 40
2.320347933405154
 40
2.320347933405154
 40
2.320347933405178
 10
48.92848318638021
 20
202.0244538457757
 30
0.0
 10
48.90606552927238
 20
202.1794772854557
 30
0.0
 10
48.85491547403909
 20
202.5331921033731
 30
0.0
 10
48.41903031250552
 20
202.9579197749749
 30
0.0
 10
47.81397959749807
 20
203.1771069549406
 30
0.0
 10
47.38879497332225
 20
203.10811565533
 30
0.0
 10
47.18624336367116
 20
203.0938953831534
 30
0.0
  0
LINE
  5
2DC1
330
2
100
AcDbEntity
  8
0
100
AcDbLine
 10
45.71598318683526
 20
200.9414538457757
 30
0.0
 11
45.81391932572308
 21
202.0608690355941
 31
0.0
  0
ARC
  5
2DC2
330
2
100
AcDbEntity
  8
0
100
AcDbCircle
 10
47.10897243324222
 20
201.947566570022
 30
0.0
 40
1.3
100
AcDbArc
 50
105.8808500082811
 51
175.0
  0
LINE
  5
2DC3
330
2
100
AcDbEntity
  8
0
100
AcDbLine
 10
46.71597661540613
 20
203.4414538457757
 30
0.0
 11
45.71597618683513
 21
202.4414538457758
 31
0.0
  0
LINE
  5
2DC4
330
2
100
AcDbEntity
  8
0
100
AcDbLine
 10
45.71597618683518
 20
202.4414538457758
 30
0.0
 11
46.71597618683517
 21
203.4414538457759
 31
0.0
  0
LINE
  5
2DC5
330
2
100
AcDbEntity
  8
0
100
AcDbLine
 10
44.71597618683517
 20
201.4414538457759
 30
0.0
 11
45.71597618683518
 21
201.4414538457759
 31
0.0
  0
LINE
  5
2DC6
330
2
100
AcDbEntity
  8
0
100
AcDbLine
 10
46.71597618683517
 20
203.4414538457759
 30
0.0
 11
47.87807437080984
 21
203.4414538457759
 31
0.0
  0
LINE
  5
2DC7
330
2
100
AcDbEntity
  8
0
100
AcDbLine
 10
52.71598318683516
 20
200.9414538457757
 30
0.0
 11
52.61804704794736
 21
202.0608690355941
 31
0.0
  0
ARC
  5
2DC8
330
2
100
AcDbEntity
  8
0
100
AcDbCircle
 10
51.3229939404281
 20
201.947566570022
 30
0.0
 40
1.3
100
AcDbArc
 50
4.999999999999777
 51
74.11914999171883
  0
LINE
  5
2DC9
330
2
100
AcDbEntity
  8
0
100
AcDbLine
 10
51.24572300999938
 20
203.0938953831534
 30
0.0
 11
51.26598318683527
 21
203.3048721286149
 31
0.0
  0
SPLINE
  5
2DCA
330
2
100
AcDbEntity
  8
0
100
AcDbSpline
210
0.0
220
0.0
230
1.0
 70
     8
 71
     3
 72
    11
 73
     7
 74
     0
 42
0.0000000001
 43
0.0000000001
 40
0.0
 40
0.0
 40
0.0
 40
0.0
 40
0.4601364636755307
 40
1.04988694485363
 40
1.713742833862792
 40
2.320347933405154
 40
2.320347933405154
 40
2.320347933405154
 40
2.320347933405178
 10
49.50348318729033
 20
202.0244538457757
 30
0.0
 10
49.52590084439815
 20
202.1794772854557
 30
0.0
 10
49.57705089963145
 20
202.5331921033731
 30
0.0
 10
50.01293606116503
 20
202.9579197749749
 30
0.0
 10
50.61798677617247
 20
203.1771069549406
 30
0.0
 10
51.04317140034829
 20
203.10811565533
 30
0.0
 10
51.24572300999938
 20
203.0938953831534
 30
0.0
  0
LINE
  5
2DCB
330
2
100
AcDbEntity
  8
0
100
AcDbLine
 10
53.71597661540613
 20
203.4414538457757
 30
0.0
 11
53.21597661540613
 21
202.9414538457756
 31
0.0
  0
LINE
  5
2DCC
330
2
100
AcDbEntity
  8
0
100
AcDbLine
 10
53.21597661540613
 20
200.9414538457756
 30
0.0
 11
53.21597661540613
 21
202.9414538457757
 31
0.0
  0
LINE
  5
2DCD
330
2
100
AcDbEntity
  8
0
100
AcDbLine
 10
53.21597661540613
 20
202.9414538457756
 30
0.0
 11
52.16096057645543
 21
202.9414538457756
 31
0.0
  0
LINE
  5
2DCE
330
2
100
AcDbEntity
  8
0
100
AcDbLine
 10
95.71598318683518
 20
202.4414538457758
 30
0.0
 11
95.71598318683518
 21
174.4414558457759
 31
0.0
  0
LINE
  5
2DCF
330
2
100
AcDbEntity
  8
0
100
AcDbLine
 10
93.21598318683518
 20
172.4414558457759
 30
0.0
 11
93.21598318683518
 21
170.9414558457759
 31
0.0
  0
LINE
  5
2DD0
330
2
100
AcDbEntity
  8
0
100
AcDbLine
 10
93.71598318683519
 20
172.4414558457759
 30
0.0
 11
95.71598318683518
 21
174.4414558457759
 31
0.0
  0
LINE
  5
2DD1
330
2
100
AcDbEntity
  8
0
100
AcDbLine
 10
94.71599018683519
 20
203.4414538457759
 30
0.0
 11
95.71599018683519
 21
202.4414538457758
 31
0.0
  0
LINE
  5
2DD2
330
2
100
AcDbEntity
  8
0
100
AcDbLine
 10
310.5737074322041
 20
202.4414538457758
 30
0.0
 11
310.5737074322041
 21
174.4414558457759
 31
0.0
  0
LINE
  5
2DD4
330
2
100
AcDbEntity
  8
0
100
AcDbLine
 10
310.5737074322041
 20
174.4414558457759
 30
0.0
 11
311.9854827031102
 21
173.0296805748699
 31
0.0
  0
LINE
  5
2DD5
330
2
100
AcDbEntity
  8
0
100
AcDbLine
 10
311.5737074322041
 20
203.4414538457759
 30
0.0
 11
310.5737074322041
 21
202.4414538457758
 31
0.0
  0
LINE
  5
2DD8
330
2
100
AcDbEntity
  8
0
100
AcDbLine
 10
360.5736924322042
 20
202.4414538457758
 30
0.0
 11
360.5736924322042
 21
174.4414558457759
 31
0.0
  0
LINE
  5
2DDB
330
2
100
AcDbEntity
  8
0
100
AcDbLine
 10
359.1619174186577
 20
173.0296808322294
 30
0.0
 11
360.5736924322042
 21
174.4414558457759
 31
0.0
  0
ARC
  5
2DDC
330
2
100
AcDbEntity
  8
0
100
AcDbCircle
 10
357.0737074322042
 20
194.5414538457759
 30
0.0
 40
9.0
100
AcDbArc
 50
74.11914999171883
 51
105.8808500082811
  0
SPLINE
  5
2DDD
330
2
100
AcDbEntity
  8
0
100
AcDbSpline
210
0.0
220
0.0
230
1.0
 70
     8
 71
     3
 72
    11
 73
     7
 74
     0
 42
0.0000000001
 43
0.0000000001
 40
0.0
 40
0.0
 40
0.0
 40
0.0
 40
0.4601364636755307
 40
1.04988694485363
 40
1.713742833862792
 40
2.320347933405154
 40
2.320347933405154
 40
2.320347933405154
 40
2.320347933405178
 10
356.7862074317492
 20
202.0244538457759
 30
0.0
 10
356.7637897746413
 20
202.1794772854557
 30
0.0
 10
356.712639719408
 20
202.5331921033732
 30
0.0
 10
356.2767545578743
 20
202.9579197749749
 30
0.0
 10
355.6717038428669
 20
203.1771069549409
 30
0.0
 10
355.2465192186911
 20
203.1081156553302
 30
0.0
 10
355.0439676090401
 20
203.0938953831534
 30
0.0
  0
LINE
  5
2DDE
330
2
100
AcDbEntity
  8
0
100
AcDbLine
 10
353.0736924322042
 20
200.9414538457758
 30
0.0
 11
360.5736924322042
 21
200.9414538457759
 31
0.0
  0
LINE
  5
2DDF
330
2
100
AcDbEntity
  8
0
100
AcDbLine
 10
355.0439676090401
 20
203.0938953831534
 30
0.0
 11
355.0237074322042
 21
203.3048721286151
 31
0.0
  0
LINE
  5
2DE0
330
2
100
AcDbEntity
  8
0
100
AcDbLine
 10
353.5737074322042
 20
200.9414538457759
 30
0.0
 11
353.6716435710919
 21
202.0608690355941
 31
0.0
  0
ARC
  5
2DE1
330
2
100
AcDbEntity
  8
0
100
AcDbCircle
 10
354.9666966786111
 20
201.9475665700221
 30
0.0
 40
1.3
100
AcDbArc
 50
105.8808500082811
 51
175.0
  0
LINE
  5
2DE2
330
2
100
AcDbEntity
  8
0
100
AcDbLine
 10
352.5736924322042
 20
203.4414538457759
 30
0.0
 11
353.0736924322042
 21
202.9414538457758
 31
0.0
  0
LINE
  5
2DE3
330
2
100
AcDbEntity
  8
0
100
AcDbLine
 10
353.0736924322042
 20
200.9414538457758
 30
0.0
 11
353.0736924322042
 21
202.9414538457759
 31
0.0
  0
LINE
  5
2DE4
330
2
100
AcDbEntity
  8
0
100
AcDbLine
 10
353.0736924322042
 20
202.9414538457758
 30
0.0
 11
354.1287300425838
 21
202.9414538457758
 31
0.0
  0
LINE
  5
2DE5
330
2
100
AcDbEntity
  8
0
100
AcDbLine
 10
358.4116162482303
 20
203.4414538457759
 30
0.0
 11
359.5736924322042
 21
203.4414538457759
 31
0.0
  0
LINE
  5
2DE6
330
2
100
AcDbEntity
  8
0
100
AcDbLine
 10
360.5737074322041
 20
200.9414538457759
 30
0.0
 11
360.4757712933163
 21
202.0608690355941
 31
0.0
  0
ARC
  5
2DE7
330
2
100
AcDbEntity
  8
0
100
AcDbCircle
 10
359.1807181857969
 20
201.9475665700221
 30
0.0
 40
1.3
100
AcDbArc
 50
4.999999999999777
 51
74.11914999171883
  0
LINE
  5
2DE8
330
2
100
AcDbEntity
  8
0
100
AcDbLine
 10
359.1034472553683
 20
203.0938953831534
 30
0.0
 11
359.1237074322041
 21
203.3048721286151
 31
0.0
  0
LINE
  5
2DE9
330
2
100
AcDbEntity
  8
0
100
AcDbLine
 10
357.3612074326593
 20
202.0244538457759
 30
0.0
 11
356.7862074317492
 21
202.0244538457759
 31
0.0
  0
SPLINE
  5
2DEA
330
2
100
AcDbEntity
  8
0
100
AcDbSpline
210
0.0
220
0.0
230
1.0
 70
     8
 71
     3
 72
    11
 73
     7
 74
     0
 42
0.0000000001
 43
0.0000000001
 40
0.0
 40
0.0
 40
0.0
 40
0.0
 40
0.4601364636755307
 40
1.04988694485363
 40
1.713742833862792
 40
2.320347933405154
 40
2.320347933405154
 40
2.320347933405154
 40
2.320347933405178
 10
357.3612074326593
 20
202.0244538457759
 30
0.0
 10
357.3836250897671
 20
202.1794772854557
 30
0.0
 10
357.4347751450003
 20
202.5331921033732
 30
0.0
 10
357.8706603065338
 20
202.9579197749749
 30
0.0
 10
358.4757110215413
 20
203.1771069549409
 30
0.0
 10
358.9008956457171
 20
203.1081156553302
 30
0.0
 10
359.1034472553683
 20
203.0938953831534
 30
0.0
  0
LINE
  5
2DEB
330
2
100
AcDbEntity
  8
0
100
AcDbLine
 10
359.5736924322042
 20
203.4414538457759
 30
0.0
 11
360.5736924322042
 21
202.4414538457758
 31
0.0
  0
LINE
  5
2DED
330
2
100
AcDbEntity
  8
0
100
AcDbLine
 10
627.7828767929194
 20
203.4414538457759
 30
0.0
 11
671.9449679768939
 21
203.4414538457759
 31
0.0
  0
LINE
  5
2DEE
330
2
100
AcDbEntity
  8
0
100
AcDbLine
 10
630.444968405465
 20
202.4414538457758
 30
0.0
 11
672.9449749768938
 21
202.4414538457758
 31
0.0
  0
LINE
  5
2DF0
330
2
100
AcDbEntity
  8
0
100
AcDbLine
 10
672.9449749768939
 20
174.4414558457759
 30
0.0
 11
622.9449679768939
 21
174.4414558457759
 31
0.0
  0
LINE
  5
2DF1
330
2
100
AcDbEntity
  8
0
100
AcDbLine
 10
671.4449749768939
 20
172.4414558457759
 30
0.0
 11
624.944967976894
 21
172.4414558457759
 31
0.0
  0
LINE
  5
2DF2
330
2
100
AcDbEntity
  8
CENTER
100
AcDbLine
 10
680.888723976894
 20
193.9414538457759
 30
0.0
 11
618.9926650131559
 21
193.9414538457759
 31
0.0
  0
LINE
  5
2DF3
330
2
100
AcDbEntity
  8
0
100
AcDbLine
 10
674.9449749768939
 20
184.4414558457759
 30
0.0
 11
622.9449679768939
 21
184.4414558457759
 31
0.0
  0
LINE
  5
2DF4
330
2
100
AcDbEntity
  8
0
100
AcDbLine
 10
622.9449679768939
 20
202.4414538457758
 30
0.0
 11
622.9449679768939
 21
174.4414558457759
 31
0.0
  0
LINE
  5
2DF5
330
2
100
AcDbEntity
  8
CENTER
100
AcDbLine
 10
647.9449679768939
 20
167.7477548457759
 30
0.0
 11
647.9449679768939
 21
208.8289538457759
 31
0.0
  0
LINE
  5
2DF6
330
2
100
AcDbEntity
  8
0
100
AcDbLine
 10
625.4449679768939
 20
172.4414558457759
 30
0.0
 11
625.4449679768939
 21
170.9414558457759
 31
0.0
  0
LINE
  5
2DF7
330
2
100
AcDbEntity
  8
0
100
AcDbLine
 10
624.944967976894
 20
172.4414558457759
 30
0.0
 11
622.9449679768939
 21
174.4414558457759
 31
0.0
  0
LINE
  5
2DF8
330
2
100
AcDbEntity
  8
0
100
AcDbLine
 10
630.444968405465
 20
202.9414538457756
 30
0.0
 11
629.3899453665143
 21
202.9414538457756
 31
0.0
  0
LINE
  5
2DF9
330
2
100
AcDbEntity
  8
0
100
AcDbLine
 10
630.444968405465
 20
200.9414538457756
 30
0.0
 11
622.944968405465
 21
200.9414538457757
 31
0.0
  0
ARC
  5
2DFA
330
2
100
AcDbEntity
  8
0
100
AcDbCircle
 10
626.4449679768939
 20
194.5414538457758
 30
0.0
 40
9.0
100
AcDbArc
 50
74.11914999171883
 51
105.8808500082811
  0
SPLINE
  5
2DFB
330
2
100
AcDbEntity
  8
0
100
AcDbSpline
210
0.0
220
0.0
230
1.0
 70
     8
 71
     3
 72
    11
 73
     7
 74
     0
 42
0.0000000001
 43
0.0000000001
 40
0.0
 40
0.0
 40
0.0
 40
0.0
 40
0.4601364636755307
 40
1.04988694485363
 40
1.713742833862792
 40
2.320347933405154
 40
2.320347933405154
 40
2.320347933405154
 40
2.320347933405178
 10
626.157467976439
 20
202.0244538457757
 30
0.0
 10
626.1350503193312
 20
202.1794772854557
 30
0.0
 10
626.0839002640977
 20
202.5331921033731
 30
0.0
 10
625.6480151025644
 20
202.9579197749749
 30
0.0
 10
625.0429643875567
 20
203.1771069549406
 30
0.0
 10
624.6177797633811
 20
203.10811565533
 30
0.0
 10
624.4152281537298
 20
203.0938953831534
 30
0.0
  0
LINE
  5
2DFC
330
2
100
AcDbEntity
  8
0
100
AcDbLine
 10
624.4152281537298
 20
203.0938953831534
 30
0.0
 11
624.3949679768941
 21
203.3048721286149
 31
0.0
  0
LINE
  5
2DFD
330
2
100
AcDbEntity
  8
0
100
AcDbLine
 10
622.9449679768939
 20
200.9414538457757
 30
0.0
 11
623.0429041157819
 21
202.0608690355941
 31
0.0
  0
ARC
  5
2DFE
330
2
100
AcDbEntity
  8
0
100
AcDbCircle
 10
624.337957223301
 20
201.947566570022
 30
0.0
 40
1.3
100
AcDbArc
 50
105.8808500082811
 51
175.0
  0
LINE
  5
2DFF
330
2
100
AcDbEntity
  8
0
100
AcDbLine
 10
622.9449679768939
 20
202.4414538457758
 30
0.0
 11
623.9449679768942
 21
203.4414538457759
 31
0.0
  0
LINE
  5
2E00
330
2
100
AcDbEntity
  8
0
100
AcDbLine
 10
623.9449679768942
 20
203.4414538457759
 30
0.0
 11
625.1070591608686
 21
203.4414538457759
 31
0.0
  0
LINE
  5
2E01
330
2
100
AcDbEntity
  8
0
100
AcDbLine
 10
629.9449679768938
 20
200.9414538457757
 30
0.0
 11
629.8470318380061
 21
202.0608690355941
 31
0.0
  0
ARC
  5
2E02
330
2
100
AcDbEntity
  8
0
100
AcDbCircle
 10
628.5519787304869
 20
201.947566570022
 30
0.0
 40
1.3
100
AcDbArc
 50
4.999999999999777
 51
74.11914999171883
  0
LINE
  5
2E03
330
2
100
AcDbEntity
  8
0
100
AcDbLine
 10
628.4747078000582
 20
203.0938953831534
 30
0.0
 11
628.494967976894
 21
203.3048721286149
 31
0.0
  0
LINE
  5
2E04
330
2
100
AcDbEntity
  8
0
100
AcDbLine
 10
626.7324679773492
 20
202.0244538457757
 30
0.0
 11
626.157467976439
 21
202.0244538457757
 31
0.0
  0
SPLINE
  5
2E05
330
2
100
AcDbEntity
  8
0
100
AcDbSpline
210
0.0
220
0.0
230
1.0
 70
     8
 71
     3
 72
    11
 73
     7
 74
     0
 42
0.0000000001
 43
0.0000000001
 40
0.0
 40
0.0
 40
0.0
 40
0.0
 40
0.4601364636755307
 40
1.04988694485363
 40
1.713742833862792
 40
2.320347933405154
 40
2.320347933405154
 40
2.320347933405154
 40
2.320347933405178
 10
626.7324679773492
 20
202.0244538457757
 30
0.0
 10
626.754885634457
 20
202.1794772854557
 30
0.0
 10
626.8060356896902
 20
202.5331921033731
 30
0.0
 10
627.2419208512237
 20
202.9579197749749
 30
0.0
 10
627.8469715662311
 20
203.1771069549406
 30
0.0
 10
628.272156190407
 20
203.10811565533
 30
0.0
 10
628.4747078000582
 20
203.0938953831534
 30
0.0
  0
LINE
  5
2E06
330
2
100
AcDbEntity
  8
0
100
AcDbLine
 10
630.944968405465
 20
203.4414538457757
 30
0.0
 11
630.444968405465
 21
202.9414538457756
 31
0.0
  0
LINE
  5
2E07
330
2
100
AcDbEntity
  8
0
100
AcDbLine
 10
630.444968405465
 20
200.9414538457756
 30
0.0
 11
630.444968405465
 21
202.9414538457757
 31
0.0
  0
LINE
  5
2E09
330
2
100
AcDbEntity
  8
0
100
AcDbLine
 10
672.9449749768939
 20
202.4414538457758
 30
0.0
 11
672.9449749768939
 21
174.4414558457759
 31
0.0
  0
LINE
  5
2E0A
330
2
100
AcDbEntity
  8
0
100
AcDbLine
 10
678.4449599768939
 20
197.9414538457758
 30
0.0
 11
678.4449599768939
 21
189.9414538457758
 31
0.0
  0
LINE
  5
2E0B
330
2
100
AcDbEntity
  8
0
100
AcDbLine
 10
674.9449599768941
 20
200.4414538457758
 30
0.0
 11
674.9449749768939
 21
184.4414558457759
 31
0.0
  0
LINE
  5
2E0D
330
2
100
AcDbEntity
  8
0
100
AcDbLine
 10
671.4449749768939
 20
172.4414558457759
 30
0.0
 11
671.4449749768939
 21
170.9414558457759
 31
0.0
  0
LINE
  5
2E0E
330
2
100
AcDbEntity
  8
0
100
AcDbLine
 10
678.4449749768939
 20
189.9414538457758
 30
0.0
 11
674.9449749768939
 21
188.4414538457759
 31
0.0
  0
LINE
  5
2E0F
330
2
100
AcDbEntity
  8
0
100
AcDbLine
 10
672.9449749768939
 20
174.4414558457759
 30
0.0
 11
670.9449749768939
 21
172.4414558457759
 31
0.0
  0
LINE
  5
2E10
330
2
100
AcDbEntity
  8
0
100
AcDbLine
 10
678.4449599768939
 20
197.9414538457758
 30
0.0
 11
674.9449599768941
 21
199.4414538457759
 31
0.0
  0
LINE
  5
2E11
330
2
100
AcDbEntity
  8
0
100
AcDbLine
 10
671.9449749768938
 20
203.4414538457759
 30
0.0
 11
672.9449749768938
 21
202.4414538457758
 31
0.0
  0
ARC
  5
2E12
330
2
100
AcDbEntity
  8
0
100
AcDbCircle
 10
673.9449599768939
 20
200.4414538457758
 30
0.0
 40
1.0
100
AcDbArc
 50
0.0
 51
90.0
  0
LINE
  5
2E13
330
2
100
AcDbEntity
  8
0
100
AcDbLine
 10
673.9449749768939
 20
201.4414538457759
 30
0.0
 11
672.9449749768939
 21
201.4414538457759
 31
0.0
  0
LINE
  5
2E14
330
2
100
AcDbEntity
  8
0
100
AcDbLine
 10
625.3448699768942
 20
353.5616099467495
 30
0.0
 11
665.4449749768939
 21
353.5616099467495
 31
0.0
  0
LINE
  5
2E15
330
2
100
AcDbEntity
  8
0
100
AcDbLine
 10
670.9449749768939
 20
354.9616039467493
 30
0.0
 11
624.9450749768941
 21
354.9616039467493
 31
0.0
  0
LINE
  5
2E16
330
2
100
AcDbEntity
  8
0
100
AcDbLine
 10
670.9449749768939
 20
304.9616039467494
 30
0.0
 11
624.9450749768941
 21
304.9616039467494
 31
0.0
  0
LINE
  5
2E17
330
2
100
AcDbEntity
  8
0
100
AcDbLine
 10
670.544973976894
 20
306.3616129467495
 30
0.0
 11
630.4450749768941
 21
306.3616129467495
 31
0.0
  0
LINE
  5
2E18
330
2
100
AcDbEntity
  8
0
100
AcDbLine
 10
622.9450749768941
 20
306.9616039467494
 30
0.0
 11
622.9450749768941
 21
352.9616039467493
 31
0.0
  0
LINE
  5
2E19
330
2
100
AcDbEntity
  8
CENTER
100
AcDbLine
 10
647.9449679768939
 20
299.5723780026417
 30
0.0
 11
647.9449679768939
 21
360.7116039467495
 31
0.0
  0
LINE
  5
2E1A
330
2
100
AcDbEntity
  8
0
100
AcDbLine
 10
624.3448699768939
 20
352.5616099467493
 30
0.0
 11
624.3448699768939
 21
312.4616039467495
 31
0.0
  0
ARC
  5
2E1B
330
2
100
AcDbEntity
  8
0
100
AcDbCircle
 10
626.444875976894
 20
308.4616039467495
 30
0.0
 40
4.0
100
AcDbArc
 50
0.0
 51
90.0
  0
ARC
  5
2E1C
330
2
100
AcDbEntity
  8
0
100
AcDbCircle
 10
624.4151759768937
 20
306.4319039467495
 30
0.0
 40
1.742199999999999
100
AcDbArc
 50
359.9986903345002
 51
90.00130966549649
  0
ARC
  5
2E1D
330
2
100
AcDbEntity
  8
0
100
AcDbCircle
 10
624.4151759768937
 20
310.4913039467493
 30
0.0
 40
1.742199999999999
100
AcDbArc
 50
269.9986903345035
 51
0.0013096654997424
  0
CIRCLE
  5
2E1E
330
2
100
AcDbEntity
  8
0
100
AcDbCircle
 10
626.444875976894
 20
308.4616039467495
 30
0.0
 40
3.500000000000028
  0
LINE
  5
2E1F
330
2
100
AcDbEntity
  8
0
100
AcDbLine
 10
626.4450749768941
 20
312.4616039467495
 30
0.0
 11
622.9450749768941
 21
312.4616039467495
 31
0.0
  0
ARC
  5
2E20
330
2
100
AcDbEntity
  8
0
100
AcDbCircle
 10
626.444875976894
 20
308.4616039467495
 30
0.0
 40
2.049999999999998
100
AcDbArc
 50
171.9380399160179
 51
180.0
  0
ARC
  5
2E21
330
2
100
AcDbEntity
  8
0
100
AcDbCircle
 10
626.444875976894
 20
308.4616039467495
 30
0.0
 40
2.049999999999998
100
AcDbArc
 50
180.0
 51
188.0619600839818
  0
LINE
  5
2E22
330
2
100
AcDbEntity
  8
0
100
AcDbLine
 10
624.9450749768941
 20
304.9616039467494
 30
0.0
 11
622.9450749768941
 21
306.9616039467494
 31
0.0
  0
LINE
  5
2E23
330
2
100
AcDbEntity
  8
0
100
AcDbLine
 10
622.9450749768941
 20
306.9616039467494
 30
0.0
 11
624.9450749768941
 21
304.9616039467494
 31
0.0
  0
ARC
  5
2E24
330
2
100
AcDbEntity
  8
0
100
AcDbCircle
 10
628.474575976894
 20
306.4319039467495
 30
0.0
 40
1.742199999999999
100
AcDbArc
 50
89.99869033450025
 51
180.0013096654996
  0
ARC
  5
2E25
330
2
100
AcDbEntity
  8
0
100
AcDbCircle
 10
628.474575976894
 20
310.4913039467493
 30
0.0
 40
1.742199999999999
100
AcDbArc
 50
179.9986903345001
 51
270.0013096654964
  0
ARC
  5
2E26
330
2
100
AcDbEntity
  8
0
100
AcDbCircle
 10
626.444875976894
 20
308.4616039467495
 30
0.0
 40
2.049999999999998
100
AcDbArc
 50
0.0
 51
8.061960083981876
  0
ARC
  5
2E27
330
2
100
AcDbEntity
  8
0
100
AcDbCircle
 10
626.444875976894
 20
308.4616039467495
 30
0.0
 40
2.049999999999998
100
AcDbArc
 50
261.9380399160177
 51
270.0
  0
ARC
  5
2E28
330
2
100
AcDbEntity
  8
0
100
AcDbCircle
 10
626.444875976894
 20
308.4616039467495
 30
0.0
 40
2.049999999999998
100
AcDbArc
 50
270.0
 51
278.0619600839819
  0
ARC
  5
2E29
330
2
100
AcDbEntity
  8
0
100
AcDbCircle
 10
626.444875976894
 20
308.4616039467495
 30
0.0
 40
2.049999999999998
100
AcDbArc
 50
351.9380399160181
 51
0.0
  0
ARC
  5
2E2A
330
2
100
AcDbEntity
  8
0
100
AcDbCircle
 10
626.444875976894
 20
308.4616039467495
 30
0.0
 40
2.049999999999998
100
AcDbArc
 50
90.0
 51
98.06196008398213
  0
ARC
  5
2E2B
330
2
100
AcDbEntity
  8
0
100
AcDbCircle
 10
626.444875976894
 20
308.4616039467495
 30
0.0
 40
2.049999999999998
100
AcDbArc
 50
81.93803991601789
 51
90.0
  0
LINE
  5
2E2C
330
2
100
AcDbEntity
  8
0
100
AcDbLine
 10
630.4450749768941
 20
308.4616039467495
 30
0.0
 11
630.4450749768941
 21
304.9616039467494
 31
0.0
  0
LINE
  5
2E2D
330
2
100
AcDbEntity
  8
0
100
AcDbLine
 10
622.9448759768939
 20
352.9616039467493
 30
0.0
 11
624.9450749768941
 21
354.9616039467493
 31
0.0
  0
LINE
  5
2E2E
330
2
100
AcDbEntity
  8
0
100
AcDbLine
 10
622.9450749768941
 20
352.9616039467493
 30
0.0
 11
624.9450749768941
 21
354.9616039467493
 31
0.0
  0
LINE
  5
2E2F
330
2
100
AcDbEntity
  8
0
100
AcDbLine
 10
622.9450749768941
 20
352.9616039467493
 30
0.0
 11
624.9450749768941
 21
354.9616039467493
 31
0.0
  0
LINE
  5
2E30
330
2
100
AcDbEntity
  8
0
100
AcDbLine
 10
625.3448699768942
 20
353.5616099467495
 30
0.0
 11
624.3448699768939
 21
352.5616099467493
 31
0.0
  0
LINE
  5
2E31
330
2
100
AcDbEntity
  8
0
100
AcDbLine
 10
672.9449749768939
 20
306.9616039467494
 30
0.0
 11
672.9449749768939
 21
352.9616039467493
 31
0.0
  0
LINE
  5
2E32
330
2
100
AcDbEntity
  8
0
100
AcDbLine
 10
671.5449809768942
 20
307.3616129467495
 30
0.0
 11
671.5449739768939
 21
347.4616039467495
 31
0.0
  0
LINE
  5
2E33
330
2
100
AcDbEntity
  8
0
100
AcDbLine
 10
672.9449749768939
 20
306.9616039467494
 30
0.0
 11
670.9449749768939
 21
304.9616039467494
 31
0.0
  0
LINE
  5
2E34
330
2
100
AcDbEntity
  8
0
100
AcDbLine
 10
671.5449809768942
 20
307.3616129467495
 30
0.0
 11
670.544973976894
 21
306.3616129467495
 31
0.0
  0
LINE
  5
2E35
330
2
100
AcDbEntity
  8
0
100
AcDbLine
 10
674.9449749768939
 20
335.4616039467495
 30
0.0
 11
678.4449749768939
 21
331.9616039467494
 31
0.0
  0
LINE
  5
2E36
330
2
100
AcDbEntity
  8
0
100
AcDbLine
 10
678.4449749768939
 20
327.9616039467494
 30
0.0
 11
674.9449749768939
 21
324.4616039467495
 31
0.0
  0
LINE
  5
2E37
330
2
100
AcDbEntity
  8
0
100
AcDbLine
 10
674.9449749768939
 20
336.4616039467495
 30
0.0
 11
674.9449749768939
 21
323.4616039467494
 31
0.0
  0
ARC
  5
2E38
330
2
100
AcDbEntity
  8
0
100
AcDbCircle
 10
673.9449599768939
 20
323.4616039467494
 30
0.0
 40
1.0
100
AcDbArc
 50
270.0
 51
0.0
  0
LINE
  5
2E39
330
2
100
AcDbEntity
  8
0
100
AcDbLine
 10
673.9449749768939
 20
322.4616039467495
 30
0.0
 11
672.9449749768939
 21
322.4616039467495
 31
0.0
  0
ARC
  5
2E3A
330
2
100
AcDbEntity
  8
0
100
AcDbCircle
 10
673.9449749768941
 20
336.4616039467495
 30
0.0
 40
1.0
100
AcDbArc
 50
0.0
 51
90.0
  0
LINE
  5
2E3B
330
2
100
AcDbEntity
  8
0
100
AcDbLine
 10
673.9449749768939
 20
337.4616039467495
 30
0.0
 11
672.9449749768939
 21
337.4616039467495
 31
0.0
  0
LINE
  5
2E3C
330
2
100
AcDbEntity
  8
0
100
AcDbLine
 10
678.4449749768939
 20
327.9616039467494
 30
0.0
 11
678.4449749768939
 21
331.9616039467494
 31
0.0
  0
ARC
  5
2E3D
330
2
100
AcDbEntity
  8
0
100
AcDbCircle
 10
667.4152449768938
 20
349.4319039467495
 30
0.0
 40
1.742199999999999
100
AcDbArc
 50
359.9986903345002
 51
90.00130966549649
  0
ARC
  5
2E3E
330
2
100
AcDbEntity
  8
0
100
AcDbCircle
 10
667.4152449768938
 20
353.4913039467495
 30
0.0
 40
1.742199999999999
100
AcDbArc
 50
269.9986903345035
 51
0.0013096654997424
  0
CIRCLE
  5
2E3F
330
2
100
AcDbEntity
  8
0
100
AcDbCircle
 10
669.4449449768941
 20
351.4616039467493
 30
0.0
 40
3.500000000000028
  0
ARC
  5
2E40
330
2
100
AcDbEntity
  8
0
100
AcDbCircle
 10
669.4449449768941
 20
351.4616039467493
 30
0.0
 40
4.0
100
AcDbArc
 50
180.0
 51
270.0
  0
ARC
  5
2E41
330
2
100
AcDbEntity
  8
0
100
AcDbCircle
 10
669.4449449768941
 20
351.4616039467493
 30
0.0
 40
2.049999999999998
100
AcDbArc
 50
171.9380399160179
 51
180.0
  0
ARC
  5
2E42
330
2
100
AcDbEntity
  8
0
100
AcDbCircle
 10
669.4449449768941
 20
351.4616039467493
 30
0.0
 40
2.049999999999998
100
AcDbArc
 50
180.0
 51
188.0619600839818
  0
LINE
  5
2E43
330
2
100
AcDbEntity
  8
0
100
AcDbLine
 10
665.4449749768939
 20
351.4616039467495
 30
0.0
 11
665.4449749768939
 21
354.9614049467495
 31
0.0
  0
ARC
  5
2E44
330
2
100
AcDbEntity
  8
0
100
AcDbCircle
 10
671.4746449768941
 20
349.4319039467495
 30
0.0
 40
1.742199999999999
100
AcDbArc
 50
89.99869033450025
 51
180.0013096654996
  0
LINE
  5
2E45
330
2
100
AcDbEntity
  8
0
100
AcDbLine
 10
669.4449449768938
 20
347.4616039467495
 30
0.0
 11
672.944944976894
 21
347.4616039467495
 31
0.0
  0
ARC
  5
2E46
330
2
100
AcDbEntity
  8
0
100
AcDbCircle
 10
669.4449449768941
 20
351.4616039467493
 30
0.0
 40
2.049999999999998
100
AcDbArc
 50
261.9380399160177
 51
270.0
  0
ARC
  5
2E47
330
2
100
AcDbEntity
  8
0
100
AcDbCircle
 10
669.4449449768941
 20
351.4616039467493
 30
0.0
 40
2.049999999999998
100
AcDbArc
 50
270.0
 51
278.0619600839819
  0
LINE
  5
2E48
330
2
100
AcDbEntity
  8
0
100
AcDbLine
 10
672.9449749768939
 20
352.9616039467493
 30
0.0
 11
670.9449749768939
 21
354.9616039467493
 31
0.0
  0
LINE
  5
2E49
330
2
100
AcDbEntity
  8
0
100
AcDbLine
 10
672.9449749768939
 20
352.9616039467493
 30
0.0
 11
670.9449749768939
 21
354.9616039467493
 31
0.0
  0
ARC
  5
2E4A
330
2
100
AcDbEntity
  8
0
100
AcDbCircle
 10
671.4746449768941
 20
353.4913039467495
 30
0.0
 40
1.742199999999999
100
AcDbArc
 50
179.9986903345001
 51
270.0013096654964
  0
ARC
  5
2E4B
330
2
100
AcDbEntity
  8
0
100
AcDbCircle
 10
669.4449449768941
 20
351.4616039467493
 30
0.0
 40
2.049999999999998
100
AcDbArc
 50
0.0
 51
8.061960083981876
  0
ARC
  5
2E4C
330
2
100
AcDbEntity
  8
0
100
AcDbCircle
 10
669.4449449768941
 20
351.4616039467493
 30
0.0
 40
2.049999999999998
100
AcDbArc
 50
351.9380399160181
 51
0.0
  0
ARC
  5
2E4D
330
2
100
AcDbEntity
  8
0
100
AcDbCircle
 10
669.4449449768941
 20
351.4616039467493
 30
0.0
 40
2.049999999999998
100
AcDbArc
 50
90.0
 51
98.06196008398213
  0
ARC
  5
2E4E
330
2
100
AcDbEntity
  8
0
100
AcDbCircle
 10
669.4449449768941
 20
351.4616039467493
 30
0.0
 40
2.049999999999998
100
AcDbArc
 50
81.93803991601789
 51
90.0
  0
ENDSEC
  0
SECTION
  2
OBJECTS
  0
DICTIONARY
  5
7
330
0
100
AcDbDictionary
  3
ACAD_GROUP
350
75
  3
ACAD_LAYOUT
350
61
  3
ACAD_MLINESTYLE
350
76
  3
ACAD_PLOTSETTINGS
350
77
  3
ACAD_PLOTSTYLENAME
350
6
  3
ACADDIM
350
480
  3
ACDBHEADERROUNDTRIPXREC
350
2F5B
  3
ACDBVARIABLEDICTIONARY
350
102
  3
DWGPROPS
350
3D2
  0
DICTIONARY
  5
2F3F
330
2
100
AcDbDictionary
280
     1
  3
ACAD_LAYOUTSELFREF
360
2F7C
  0
DICTIONARY
  5
2F7D
330
2F55
100
AcDbDictionary
280
     1
  3
ACAD_LAYOUTSELFREF
360
2F7E
  0
DICTIONARY
  5
75
102
{ACAD_REACTORS
330
7
102
}
330
7
100
AcDbDictionary
  0
DICTIONARY
  5
61
102
{ACAD_REACTORS
330
7
102
}
330
7
100
AcDbDictionary
  0
DICTIONARY
  5
76
102
{ACAD_REACTORS
330
7
102
}
330
7
100
AcDbDictionary
  3
STANDARD
350
78
  0
DICTIONARY
  5
77
102
{ACAD_REACTORS
330
7
102
}
330
7
100
AcDbDictionary
  0
ACDBDICTIONARYWDFLT
  5
6
102
{ACAD_REACTORS
330
7
102
}
330
7
100
AcDbDictionary
281
     1
  3
Normal
350
5
100
AcDbDictionaryWithDefault
340
5
  0
XRECORD
  5
480
102
{ACAD_REACTORS
330
7
102
}
330
7
100
AcDbXrecord
 90
   990106
  3

 60
     0
 61
     0
 62
     1
 63
     3
 64
     1
 65
     0
 66
     0
 67
     3
 68
     1
 69
     0
 70
     0
 71
     0
 72
     0
 40
0.0
170
     2
340
0
  0
DICTIONARY
  5
2F5B
102
{ACAD_REACTORS
330
7
102
}
330
7
100
AcDbDictionary
  3
CEPSNTYPE
350
2F65
  3
DIMSTYLEDATA
350
2F69
  3
FINGERPRINTGUID
350
2F66
  3
HYPERLINKBASE
350
2F5E
  3
INSUNITS
350
2F64
  3
LAYOUTDICT
350
2F60
  3
LWETCUNION
350
2F63
  3
PLOTSETDICT
350
2F61
  3
PLOTSTYLNAMDICT
350
2F62
  3
PSVPSCALE
350
2F68
  3
PUCSBASE
350
2F6C
  3
PUCSORGBACK
350
2F72
  3
PUCSORGBOTTOM
350
2F6E
  3
PUCSORGFRONT
350
2F71
  3
PUCSORGLEFT
350
2F6F
  3
PUCSORGRIGHT
350
2F70
  3
PUCSORGTOP
350
2F6D
  3
PUCSORTHOREF
350
2F6A
  3
PUCSORTHOVIEW
350
2F6B
  3
STYLESHEET
350
2F5F
  3
TSTACKALIGN
350
2F5C
  3
TSTACKSIZE
350
2F5D
  3
UCSBASE
350
2F75
  3
UCSORGBACK
350
2F7B
  3
UCSORGBOTTOM
350
2F77
  3
UCSORGFRONT
350
2F7A
  3
UCSORGLEFT
350
2F78
  3
UCSORGRIGHT
350
2F79
  3
UCSORGTOP
350
2F76
  3
UCSORTHOREF
350
2F73
  3
UCSORTHOVIEW
350
2F74
  3
VERSIONGUID
350
2F67
  0
DICTIONARY
  5
102
102
{ACAD_REACTORS
330
7
102
}
330
7
100
AcDbDictionary
  3
DIMASSOC
350
103
  0
XRECORD
  5
3D2
102
{ACAD_REACTORS
330
7
102
}
330
7
100
AcDbXrecord
  1
DWGPROPS COOKIE
  2

  3

  4

  6

  7

  8

  9

300
=
301
=
302
=
303
=
304
=
305
=
306
=
307
=
308
=
309
=
 40
0.5353330671296296
 41
2452052.431989363
 42
2453406.550756376
  1

 90
        0
  0
XRECORD
  5
2F7C
102
{ACAD_REACTORS
330
2F3F
102
}
330
2F3F
100
AcDbXrecord
340
2
  0
XRECORD
  5
2F7E
102
{ACAD_REACTORS
330
2F7D
102
}
330
2F7D
100
AcDbXrecord
340
2F55
  0
MLINESTYLE
  5
78
102
{ACAD_REACTORS
330
76
102
}
330
76
100
AcDbMlineStyle
  2
STANDARD
 70
     0
  3

 62
     0
 51
90.0
 52
90.0
 71
     2
 49
0.5
 62
   256
  6
BYLAYER
 49
-0.5
 62
   256
  6
BYLAYER
  0
ACDBPLACEHOLDER
  5
5
102
{ACAD_REACTORS
330
6
102
}
330
6
100
AcDbPlaceHolder
280
     0
  0
XRECORD
  5
2F65
102
{ACAD_REACTORS
330
2F5B
102
}
330
2F5B
100
AcDbXrecord
 90
        0
  0
XRECORD
  5
2F69
102
{ACAD_REACTORS
330
2F5B
102
}
330
2F5B
100
AcDbXrecord
1000
DSTYLE
1002
{
1070
   179
 70
     2
1002
}
  0
XRECORD
  5
2F66
102
{ACAD_REACTORS
330
2F5B
102
}
330
2F5B
100
AcDbXrecord
  1
{6385560B-F4B1-4644-A7C2-A3E32AC3D232}
  0
XRECORD
  5
2F5E
102
{ACAD_REACTORS
330
2F5B
102
}
330
2F5B
100
AcDbXrecord
  1

  0
XRECORD
  5
2F64
102
{ACAD_REACTORS
330
2F5B
102
}
330
2F5B
100
AcDbXrecord
 90
        0
  0
XRECORD
  5
2F60
102
{ACAD_REACTORS
330
2F5B
102
}
330
2F5B
100
AcDbXrecord
340
61
  0
XRECORD
  5
2F63
102
{ACAD_REACTORS
330
2F5B
102
}
330
2F5B
100
AcDbXrecord
 90
    10781
  0
XRECORD
  5
2F61
102
{ACAD_REACTORS
330
2F5B
102
}
330
2F5B
100
AcDbXrecord
340
77
  0
XRECORD
  5
2F62
102
{ACAD_REACTORS
330
2F5B
102
}
330
2F5B
100
AcDbXrecord
340
6
  0
XRECORD
  5
2F68
102
{ACAD_REACTORS
330
2F5B
102
}
330
2F5B
100
AcDbXrecord
 40
0.0
  0
XRECORD
  5
2F6C
102
{ACAD_REACTORS
330
2F5B
102
}
330
2F5B
100
AcDbXrecord
340
0
  0
XRECORD
  5
2F72
102
{ACAD_REACTORS
330
2F5B
102
}
330
2F5B
100
AcDbXrecord
 10
0.0
 20
0.0
 30
0.0
  0
XRECORD
  5
2F6E
102
{ACAD_REACTORS
330
2F5B
102
}
330
2F5B
100
AcDbXrecord
 10
0.0
 20
0.0
 30
0.0
  0
XRECORD
  5
2F71
102
{ACAD_REACTORS
330
2F5B
102
}
330
2F5B
100
AcDbXrecord
 10
0.0
 20
0.0
 30
0.0
  0
XRECORD
  5
2F6F
102
{ACAD_REACTORS
330
2F5B
102
}
330
2F5B
100
AcDbXrecord
 10
0.0
 20
0.0
 30
0.0
  0
XRECORD
  5
2F70
102
{ACAD_REACTORS
330
2F5B
102
}
330
2F5B
100
AcDbXrecord
 10
0.0
 20
0.0
 30
0.0
  0
XRECORD
  5
2F6D
102
{ACAD_REACTORS
330
2F5B
102
}
330
2F5B
100
AcDbXrecord
 10
0.0
 20
0.0
 30
0.0
  0
XRECORD
  5
2F6A
102
{ACAD_REACTORS
330
2F5B
102
}
330
2F5B
100
AcDbXrecord
340
0
  0
XRECORD
  5
2F6B
102
{ACAD_REACTORS
330
2F5B
102
}
330
2F5B
100
AcDbXrecord
 70
     0
  0
XRECORD
  5
2F5F
102
{ACAD_REACTORS
330
2F5B
102
}
330
2F5B
100
AcDbXrecord
  1
Sekkei.ctb
  0
XRECORD
  5
2F5C
102
{ACAD_REACTORS
330
2F5B
102
}
330
2F5B
100
AcDbXrecord
 90
        1
  0
XRECORD
  5
2F5D
102
{ACAD_REACTORS
330
2F5B
102
}
330
2F5B
100
AcDbXrecord
 90
       70
  0
XRECORD
  5
2F75
102
{ACAD_REACTORS
330
2F5B
102
}
330
2F5B
100
AcDbXrecord
340
0
  0
XRECORD
  5
2F7B
102
{ACAD_REACTORS
330
2F5B
102
}
330
2F5B
100
AcDbXrecord
 10
0.0
 20
0.0
 30
0.0
  0
XRECORD
  5
2F77
102
{ACAD_REACTORS
330
2F5B
102
}
330
2F5B
100
AcDbXrecord
 10
0.0
 20
0.0
 30
0.0
  0
XRECORD
  5
2F7A
102
{ACAD_REACTORS
330
2F5B
102
}
330
2F5B
100
AcDbXrecord
 10
0.0
 20
0.0
 30
0.0
  0
XRECORD
  5
2F78
102
{ACAD_REACTORS
330
2F5B
102
}
330
2F5B
100
AcDbXrecord
 10
0.0
 20
0.0
 30
0.0
  0
XRECORD
  5
2F79
102
{ACAD_REACTORS
330
2F5B
102
}
330
2F5B
100
AcDbXrecord
 10
0.0
 20
0.0
 30
0.0
  0
XRECORD
  5
2F76
102
{ACAD_REACTORS
330
2F5B
102
}
330
2F5B
100
AcDbXrecord
 10
0.0
 20
0.0
 30
0.0
  0
XRECORD
  5
2F73
102
{ACAD_REACTORS
330
2F5B
102
}
330
2F5B
100
AcDbXrecord
340
0
  0
XRECORD
  5
2F74
102
{ACAD_REACTORS
330
2F5B
102
}
330
2F5B
100
AcDbXrecord
 70
     0
  0
XRECORD
  5
2F67
102
{ACAD_REACTORS
330
2F5B
102
}
330
2F5B
100
AcDbXrecord
  1
{DB7BC017-5855-4342-B7B1-9F1FCE78DD95}
  0
DICTIONARYVAR
  5
103
102
{ACAD_REACTORS
330
102
102
}
330
102
100
DictionaryVariables
280
     0
  1
1
  0
ENDSEC
  0
EOF
