  0
SECTION
  2
HEADER
  9
$CLAYER
  8
1
  9
$LTSCALE
 40
3.0
  0
ENDSEC
  0
SECTION
  2
TABLES
  0
TABLE
  2
LTYPE
 70
     4
  0
LTYPE
  2
CONTINUOUS
  3
solid line
 70
    64
 72
    65
 73
     0
 40
0.0
  0
LTYPE
  2
DASHED
  3
__ __ __ __ __ __ __ __ __ __ __ __ __ __ __
 70
    64
 72
    65
 73
     2
 40
0.75
 49
0.5
 49
-0.25
  0
LTYPE
  2
CENTER
  3
____ _ ____ _ ____ _ ____ _ ____ _ ____ _ ____
 70
    64
 72
    65
 73
     4
 40
2.0
 49
1.25
 49
-0.25
 49
0.25
 49
-0.25
  0
LTYPE
  2
PHANTOM
  3
_____ _ _ _____ _ _ _____ _ _ _____ _ _ ____
 70
    64
 72
    65
 73
     6
 40
2.5
 49
1.25
 49
-0.25
 49
0.25
 49
-0.25
 49
0.25
 49
-0.25
  0
ENDTAB
  0
TABLE
  2
LAYER
 70
     1
  0
LAYER
  2
0
 70
    64
 62
     7
  6
CONTINUOUS
  0
ENDTAB
  0
TABLE
  2
STYLE
 70
     1
  0
STYLE
  2
STANDARD
 70
     0
 40
0.000000
 41
1.000000
 50
0.000000
 71
     0
 42
3.000000
  3
txt
  4
BIGFONT
  0
ENDTAB
  0
ENDSEC
  0
SECTION
  2
BLOCKS
  0
ENDSEC
  0
SECTION
  2
ENTITIES
  0
LINE
  8
0
  6
CENTER
 10
400.000000
 20
336.076263
 11
400.000000
 21
242.451874
  0
LINE
  8
0
  6
CENTER
 10
326.862488
 20
290.000000
 11
470.979370
 21
290.000000
  0
LINE
  8
0
  6
CONTINUOUS
 10
372.000000
 20
330.011261
 11
372.000000
 21
249.988739
  0
LINE
  8
0
  6
CONTINUOUS
 10
440.500000
 20
329.793060
 11
440.500000
 21
250.206924
  0
LINE
  8
0
  6
CONTINUOUS
 10
400.000000
 20
330.500000
 11
440.500000
 21
329.793060
  0
LINE
  8
0
  6
CONTINUOUS
 10
400.000000
 20
330.500000
 11
359.500000
 21
329.793060
  0
LINE
  8
0
  6
CONTINUOUS
 10
400.000000
 20
249.500000
 11
359.500000
 21
250.206924
  0
LINE
  8
0
  6
CONTINUOUS
 10
400.000000
 20
249.500000
 11
440.500000
 21
250.206924
  0
LINE
  8
0
  6
DASHED
 10
377.000000
 20
254.366867
 11
377.000000
 21
258.298279
  0
LINE
  8
0
  6
DASHED
 10
423.000000
 20
254.366867
 11
423.000000
 21
258.298279
  0
LINE
  8
0
  6
DASHED
 10
421.034912
 20
327.632843
 11
400.000000
 21
328.000000
  0
LINE
  8
0
  6
DASHED
 10
378.965088
 20
327.632843
 11
400.000000
 21
328.000000
  0
LINE
  8
0
  6
DASHED
 10
421.034912
 20
252.367172
 11
400.000000
 21
252.000000
  0
LINE
  8
0
  6
DASHED
 10
378.965088
 20
252.367172
 11
400.000000
 21
252.000000
  0
ARC
  8
0
  6
DASHED
 10
400.000000
 20
290.000000
 40
38.000000
 50
-50.643299
 51
50.643299
  0
ARC
  8
0
  6
DASHED
 10
426.000000
 20
321.701721
 40
3.000000
 50
180.000000
 51
230.643295
  0
ARC
  8
0
  6
DASHED
 10
374.000000
 20
321.701721
 40
3.000000
 50
-50.643299
 51
0.000000
  0
ARC
  8
0
  6
DASHED
 10
374.000000
 20
258.298279
 40
3.000000
 50
0.000000
 51
50.643299
  0
ARC
  8
0
  6
DASHED
 10
426.000000
 20
258.298279
 40
3.000000
 50
129.356705
 51
180.000000
  0
ARC
  8
0
  6
DASHED
 10
379.000000
 20
325.633148
 40
2.000000
 50
91.000000
 51
180.000000
  0
ARC
  8
0
  6
DASHED
 10
421.000000
 20
325.633148
 40
2.000000
 50
0.000000
 51
89.000000
  0
ARC
  8
0
  6
DASHED
 10
379.000000
 20
254.366867
 40
2.000000
 50
180.000000
 51
269.000000
  0
ARC
  8
0
  6
DASHED
 10
421.000000
 20
254.366867
 40
2.000000
 50
-89.000000
 51
0.000000
  0
LINE
  8
0
  6
DASHED
 10
377.000000
 20
325.633148
 11
377.000000
 21
321.701721
  0
LINE
  8
0
  6
DASHED
 10
423.000000
 20
325.633148
 11
423.000000
 21
321.701721
  0
ARC
  8
0
  6
DASHED
 10
400.000000
 20
290.000000
 40
38.000000
 50
129.356705
 51
230.643295
  0
LINE
  8
0
  6
CENTER
 10
553.459229
 20
290.000000
 11
798.636108
 21
290.000000
  0
LINE
  8
0
  6
CENTER
 10
600.000000
 20
259.693756
 11
600.000000
 21
320.106873
  0
LINE
  8
0
  6
CONTINUOUS
 10
734.055481
 20
328.000000
 11
662.358765
 21
328.000000
  0
LINE
  8
0
  6
CONTINUOUS
 10
734.055481
 20
252.000000
 11
662.358765
 21
252.000000
  0
LINE
  8
0
  6
CENTER
 10
654.000000
 20
246.783081
 11
654.000000
 21
263.231720
  0
LINE
  8
0
  6
CENTER
 10
661.978638
 20
256.500000
 11
646.791138
 21
256.500000
  0
LINE
  8
0
  6
CONTINUOUS
 10
661.000000
 20
323.500000
 11
661.000000
 21
306.328430
  0
LINE
  8
0
  6
CONTINUOUS
 10
654.000000
 20
249.500000
 11
568.000000
 21
249.500000
  0
LINE
  8
0
  6
CENTER
 10
654.000000
 20
333.565582
 11
654.000000
 21
316.768280
  0
LINE
  8
0
  6
CENTER
 10
661.978638
 20
323.500000
 11
646.791138
 21
323.500000
  0
LINE
  8
0
  6
CONTINUOUS
 10
654.000000
 20
330.500000
 11
568.000000
 21
330.500000
  0
LINE
  8
0
  6
CENTER
 10
568.000000
 20
246.783081
 11
568.000000
 21
263.231720
  0
LINE
  8
0
  6
CENTER
 10
559.638367
 20
256.500000
 11
575.208862
 21
256.500000
  0
LINE
  8
0
  6
CONTINUOUS
 10
561.000000
 20
256.500000
 11
561.000000
 21
323.500000
  0
LINE
  8
0
  6
CENTER
 10
568.000000
 20
333.565582
 11
568.000000
 21
316.768280
  0
LINE
  8
0
  6
CENTER
 10
560.021362
 20
323.500000
 11
575.208862
 21
323.500000
  0
ARC
  8
0
  6
CONTINUOUS
 10
568.000000
 20
323.500000
 40
7.000000
 50
47.364067
 51
180.000000
  0
ARC
  8
0
  6
CONTINUOUS
 10
568.000000
 20
256.500000
 40
7.000000
 50
180.000000
 51
312.635925
  0
ARC
  8
0
  6
CONTINUOUS
 10
654.000000
 20
256.500000
 40
7.000000
 50
-132.635925
 51
0.000000
  0
ARC
  8
0
  6
CONTINUOUS
 10
654.000000
 20
323.500000
 40
7.000000
 50
0.000000
 51
132.635925
  0
LINE
  8
0
  6
CONTINUOUS
 10
565.000000
 20
279.328430
 11
565.000000
 21
300.671570
  0
LINE
  8
0
  6
CONTINUOUS
 10
564.414185
 20
277.914215
 11
561.585815
 21
275.085785
  0
ARC
  8
0
  6
CONTINUOUS
 10
563.000000
 20
273.671570
 40
2.000000
 50
135.000000
 51
180.000000
  0
ARC
  8
0
  6
CONTINUOUS
 10
563.000000
 20
279.328430
 40
2.000000
 50
-45.000000
 51
0.000000
  0
LINE
  8
0
  6
CONTINUOUS
 10
564.414185
 20
302.085785
 11
561.585815
 21
304.914215
  0
ARC
  8
0
  6
CONTINUOUS
 10
563.000000
 20
306.328430
 40
2.000000
 50
180.000000
 51
225.000000
  0
ARC
  8
0
  6
CONTINUOUS
 10
563.000000
 20
300.671570
 40
2.000000
 50
0.000000
 51
45.000000
  0
LINE
  8
0
  6
CONTINUOUS
 10
661.663635
 20
251.875305
 11
656.432983
 21
249.936417
  0
ARC
  8
0
  6
CONTINUOUS
 10
662.358765
 20
250.000000
 40
2.000000
 50
90.000000
 51
110.338730
  0
LINE
  8
0
  6
CONTINUOUS
 10
661.663635
 20
328.124695
 11
656.432983
 21
330.063568
  0
ARC
  8
0
  6
CONTINUOUS
 10
662.358765
 20
330.000000
 40
2.000000
 50
249.661270
 51
270.000000
  0
LINE
  8
0
  6
CONTINUOUS
 10
734.055481
 20
259.751038
 11
661.000000
 21
259.751038
  0
LINE
  8
0
  6
CONTINUOUS
 10
734.055481
 20
320.248962
 11
661.000000
 21
320.248962
  0
LINE
  8
0
  6
CONTINUOUS
 10
178.500000
 20
315.690460
 11
178.500000
 21
264.309540
  0
LINE
  8
0
  6
CONTINUOUS
 10
178.500000
 20
315.690460
 11
179.000000
 21
315.690460
  0
LINE
  8
0
  6
CONTINUOUS
 10
657.000000
 20
279.328430
 11
657.000000
 21
300.671570
  0
LINE
  8
0
  6
CONTINUOUS
 10
657.585815
 20
277.914215
 11
660.414185
 21
275.085785
  0
ARC
  8
0
  6
CONTINUOUS
 10
659.000000
 20
273.671570
 40
2.000000
 50
0.000000
 51
45.000000
  0
ARC
  8
0
  6
CONTINUOUS
 10
659.000000
 20
279.328430
 40
2.000000
 50
180.000000
 51
225.000000
  0
LINE
  8
0
  6
CONTINUOUS
 10
657.585815
 20
302.085785
 11
660.414185
 21
304.914215
  0
ARC
  8
0
  6
CONTINUOUS
 10
659.000000
 20
306.328430
 40
2.000000
 50
-45.000000
 51
0.000000
  0
ARC
  8
0
  6
CONTINUOUS
 10
659.000000
 20
300.671570
 40
2.000000
 50
135.000000
 51
180.000000
  0
LINE
  8
0
  6
CONTINUOUS
 10
661.000000
 20
273.671570
 11
661.000000
 21
256.500000
  0
ARC
  8
0
  6
CONTINUOUS
 10
627.000000
 20
278.000000
 40
30.000000
 50
292.331635
 51
300.358307
  0
ARC
  8
0
  6
CONTINUOUS
 10
634.599365
 20
259.500000
 40
10.000000
 50
270.000000
 51
292.331635
  0
ARC
  8
0
  6
CONTINUOUS
 10
627.000000
 20
302.000000
 40
30.000000
 50
59.641697
 51
67.668358
  0
ARC
  8
0
  6
CONTINUOUS
 10
634.599365
 20
320.500000
 40
10.000000
 50
67.668358
 51
90.000000
  0
ARC
  8
0
  6
CONTINUOUS
 10
595.000000
 20
278.000000
 40
30.000000
 50
239.641693
 51
247.668350
  0
ARC
  8
0
  6
CONTINUOUS
 10
587.400635
 20
259.500000
 40
10.000000
 50
247.668350
 51
270.000000
  0
ARC
  8
0
  6
CONTINUOUS
 10
595.000000
 20
302.000000
 40
30.000000
 50
112.331642
 51
120.358299
  0
ARC
  8
0
  6
CONTINUOUS
 10
587.400635
 20
320.500000
 40
10.000000
 50
90.000000
 51
112.331642
  0
LINE
  8
0
  6
CONTINUOUS
 10
570.000000
 20
303.500000
 11
570.000000
 21
276.500000
  0
LINE
  8
0
  6
CONTINUOUS
 10
592.000000
 20
325.500000
 11
630.000000
 21
325.500000
  0
ARC
  8
0
  6
CONTINUOUS
 10
592.000000
 20
303.500000
 40
22.000000
 50
90.000000
 51
110.487312
  0
LINE
  8
0
  6
CONTINUOUS
 10
583.000000
 20
321.739838
 11
583.000000
 21
322.234985
  0
LINE
  8
0
  6
CONTINUOUS
 10
585.000000
 20
321.000000
 11
585.000000
 21
322.864929
  0
LINE
  8
0
  6
CONTINUOUS
 10
574.598633
 20
311.198425
 11
582.518494
 21
320.438263
  0
LINE
  8
0
  6
CONTINUOUS
 10
575.518494
 20
309.198425
 11
584.518494
 21
319.698425
  0
ARC
  8
0
  6
CONTINUOUS
 10
583.000000
 20
321.000000
 40
2.000000
 50
-40.601295
 51
0.000000
  0
ARC
  8
0
  6
CONTINUOUS
 10
581.000000
 20
321.739838
 40
2.000000
 50
-40.601295
 51
0.000000
  0
ARC
  8
0
  6
CONTINUOUS
 10
573.080139
 20
312.500000
 40
2.000000
 50
-90.000000
 51
-40.601295
  0
ARC
  8
0
  6
CONTINUOUS
 10
574.000000
 20
310.500000
 40
2.000000
 50
-90.000000
 51
-40.601295
  0
LINE
  8
0
  6
CONTINUOUS
 10
584.875793
 20
320.306122
 11
582.875793
 21
321.045959
  0
LINE
  8
0
  6
CONTINUOUS
 10
574.835693
 20
308.682983
 11
573.915833
 21
310.682983
  0
LINE
  8
0
  6
CONTINUOUS
 10
574.000000
 20
308.500000
 11
572.226257
 21
308.500000
  0
LINE
  8
0
  6
CONTINUOUS
 10
573.080139
 20
310.500000
 11
572.635071
 21
310.500000
  0
ARC
  8
0
  6
CONTINUOUS
 10
572.226257
 20
306.500000
 40
2.000000
 50
90.000000
 51
171.373077
  0
ARC
  8
0
  6
CONTINUOUS
 10
572.635071
 20
308.500000
 40
2.000000
 50
90.000000
 51
165.522491
  0
ARC
  8
0
  6
CONTINUOUS
 10
587.000000
 20
322.864929
 40
2.000000
 50
104.477509
 51
180.000000
  0
ARC
  8
0
  6
CONTINUOUS
 10
585.000000
 20
322.234985
 40
2.000000
 50
110.487312
 51
180.000000
  0
ARC
  8
0
  6
CONTINUOUS
 10
592.000000
 20
303.500000
 40
22.000000
 50
165.522491
 51
180.000000
  0
ARC
  8
0
  6
CONTINUOUS
 10
630.000000
 20
303.500000
 40
22.000000
 50
69.512688
 51
90.000000
  0
LINE
  8
0
  6
CONTINUOUS
 10
639.000000
 20
321.739838
 11
639.000000
 21
322.234985
  0
LINE
  8
0
  6
CONTINUOUS
 10
637.000000
 20
321.000000
 11
637.000000
 21
322.864929
  0
LINE
  8
0
  6
CONTINUOUS
 10
647.401367
 20
311.198425
 11
639.481506
 21
320.438263
  0
LINE
  8
0
  6
CONTINUOUS
 10
646.481506
 20
309.198425
 11
637.481506
 21
319.698425
  0
ARC
  8
0
  6
CONTINUOUS
 10
639.000000
 20
321.000000
 40
2.000000
 50
180.000000
 51
220.601288
  0
ARC
  8
0
  6
CONTINUOUS
 10
641.000000
 20
321.739838
 40
2.000000
 50
180.000000
 51
220.601288
  0
ARC
  8
0
  6
CONTINUOUS
 10
648.919861
 20
312.500000
 40
2.000000
 50
220.601288
 51
270.000000
  0
ARC
  8
0
  6
CONTINUOUS
 10
648.000000
 20
310.500000
 40
2.000000
 50
220.601288
 51
270.000000
  0
LINE
  8
0
  6
CONTINUOUS
 10
637.124207
 20
320.306122
 11
639.124207
 21
321.045959
  0
LINE
  8
0
  6
CONTINUOUS
 10
647.164307
 20
308.682983
 11
648.084167
 21
310.682983
  0
LINE
  8
0
  6
CONTINUOUS
 10
648.000000
 20
308.500000
 11
649.773743
 21
308.500000
  0
LINE
  8
0
  6
CONTINUOUS
 10
648.919861
 20
310.500000
 11
649.364929
 21
310.500000
  0
ARC
  8
0
  6
CONTINUOUS
 10
649.773743
 20
306.500000
 40
2.000000
 50
8.626927
 51
90.000000
  0
ARC
  8
0
  6
CONTINUOUS
 10
649.364929
 20
308.500000
 40
2.000000
 50
14.477512
 51
90.000000
  0
ARC
  8
0
  6
CONTINUOUS
 10
635.000000
 20
322.864929
 40
2.000000
 50
0.000000
 51
75.522491
  0
ARC
  8
0
  6
CONTINUOUS
 10
637.000000
 20
322.234985
 40
2.000000
 50
0.000000
 51
69.512688
  0
ARC
  8
0
  6
CONTINUOUS
 10
630.000000
 20
303.500000
 40
22.000000
 50
0.000000
 51
14.477512
  0
LINE
  8
0
  6
CONTINUOUS
 10
652.000000
 20
303.500000
 11
652.000000
 21
276.500000
  0
LINE
  8
0
  6
CONTINUOUS
 10
592.000000
 20
254.500000
 11
630.000000
 21
254.500000
  0
ARC
  8
0
  6
CONTINUOUS
 10
592.000000
 20
276.500000
 40
22.000000
 50
-110.487312
 51
-90.000000
  0
LINE
  8
0
  6
CONTINUOUS
 10
583.000000
 20
258.260162
 11
583.000000
 21
257.765015
  0
LINE
  8
0
  6
CONTINUOUS
 10
585.000000
 20
259.000000
 11
585.000000
 21
257.135071
  0
LINE
  8
0
  6
CONTINUOUS
 10
574.598633
 20
268.801575
 11
582.518494
 21
259.561737
  0
LINE
  8
0
  6
CONTINUOUS
 10
575.518494
 20
270.801575
 11
584.518494
 21
260.301575
  0
ARC
  8
0
  6
CONTINUOUS
 10
583.000000
 20
259.000000
 40
2.000000
 50
0.000000
 51
40.601295
  0
ARC
  8
0
  6
CONTINUOUS
 10
581.000000
 20
258.260162
 40
2.000000
 50
0.000000
 51
40.601295
  0
ARC
  8
0
  6
CONTINUOUS
 10
573.080139
 20
267.500000
 40
2.000000
 50
40.601295
 51
90.000000
  0
ARC
  8
0
  6
CONTINUOUS
 10
574.000000
 20
269.500000
 40
2.000000
 50
40.601295
 51
90.000000
  0
LINE
  8
0
  6
CONTINUOUS
 10
584.875793
 20
259.693878
 11
582.875793
 21
258.954041
  0
LINE
  8
0
  6
CONTINUOUS
 10
574.835693
 20
271.317017
 11
573.915833
 21
269.317017
  0
LINE
  8
0
  6
CONTINUOUS
 10
574.000000
 20
271.500000
 11
572.226257
 21
271.500000
  0
LINE
  8
0
  6
CONTINUOUS
 10
573.080139
 20
269.500000
 11
572.635071
 21
269.500000
  0
ARC
  8
0
  6
CONTINUOUS
 10
572.226257
 20
273.500000
 40
2.000000
 50
-171.373077
 51
-90.000000
  0
ARC
  8
0
  6
CONTINUOUS
 10
572.635071
 20
271.500000
 40
2.000000
 50
-165.522491
 51
-90.000000
  0
ARC
  8
0
  6
CONTINUOUS
 10
587.000000
 20
257.135071
 40
2.000000
 50
180.000000
 51
255.522491
  0
ARC
  8
0
  6
CONTINUOUS
 10
585.000000
 20
257.765015
 40
2.000000
 50
180.000000
 51
249.512680
  0
ARC
  8
0
  6
CONTINUOUS
 10
630.000000
 20
276.500000
 40
22.000000
 50
270.000000
 51
290.487305
  0
LINE
  8
0
  6
CONTINUOUS
 10
639.000000
 20
258.260162
 11
639.000000
 21
257.765015
  0
LINE
  8
0
  6
CONTINUOUS
 10
637.000000
 20
259.000000
 11
637.000000
 21
257.135071
  0
LINE
  8
0
  6
CONTINUOUS
 10
647.401367
 20
268.801575
 11
639.481506
 21
259.561737
  0
LINE
  8
0
  6
CONTINUOUS
 10
646.481506
 20
270.801575
 11
637.481506
 21
260.301575
  0
ARC
  8
0
  6
CONTINUOUS
 10
639.000000
 20
259.000000
 40
2.000000
 50
139.398712
 51
180.000000
  0
ARC
  8
0
  6
CONTINUOUS
 10
641.000000
 20
258.260162
 40
2.000000
 50
139.398712
 51
180.000000
  0
ARC
  8
0
  6
CONTINUOUS
 10
648.919861
 20
267.500000
 40
2.000000
 50
90.000000
 51
139.398712
  0
ARC
  8
0
  6
CONTINUOUS
 10
648.000000
 20
269.500000
 40
2.000000
 50
90.000000
 51
139.398712
  0
LINE
  8
0
  6
CONTINUOUS
 10
637.124207
 20
259.693878
 11
639.124207
 21
258.954041
  0
LINE
  8
0
  6
CONTINUOUS
 10
647.164307
 20
271.317017
 11
648.084167
 21
269.317017
  0
LINE
  8
0
  6
CONTINUOUS
 10
648.000000
 20
271.500000
 11
649.773743
 21
271.500000
  0
LINE
  8
0
  6
CONTINUOUS
 10
648.919861
 20
269.500000
 11
649.364929
 21
269.500000
  0
ARC
  8
0
  6
CONTINUOUS
 10
649.773743
 20
273.500000
 40
2.000000
 50
270.000000
 51
351.373077
  0
ARC
  8
0
  6
CONTINUOUS
 10
649.364929
 20
271.500000
 40
2.000000
 50
270.000000
 51
345.522491
  0
ARC
  8
0
  6
CONTINUOUS
 10
635.000000
 20
257.135071
 40
2.000000
 50
-75.522491
 51
0.000000
  0
ARC
  8
0
  6
CONTINUOUS
 10
637.000000
 20
257.765015
 40
2.000000
 50
-69.512688
 51
0.000000
  0
ARC
  8
0
  6
CONTINUOUS
 10
592.000000
 20
276.500000
 40
22.000000
 50
180.000000
 51
194.477509
  0
ARC
  8
0
  6
CONTINUOUS
 10
630.000000
 20
276.500000
 40
22.000000
 50
-14.477512
 51
0.000000
  0
LINE
  8
0
  6
CONTINUOUS
 10
406.965088
 20
275.085358
 11
440.500000
 21
274.500000
  0
LINE
  8
0
  6
CONTINUOUS
 10
409.298004
 20
279.044647
 11
440.500000
 21
278.500000
  0
LINE
  8
0
  6
CONTINUOUS
 10
405.000000
 20
302.914948
 11
405.000000
 21
277.085052
  0
LINE
  8
0
  6
CONTINUOUS
 10
406.965088
 20
304.914642
 11
440.500000
 21
305.500000
  0
LINE
  8
0
  6
CONTINUOUS
 10
409.298004
 20
300.955353
 11
440.500000
 21
301.500000
  0
LINE
  8
0
  6
CONTINUOUS
 10
394.571136
 20
275.629303
 11
392.238220
 21
279.588593
  0
LINE
  8
0
  6
CONTINUOUS
 10
392.238220
 20
300.411407
 11
394.571136
 21
304.370697
  0
LINE
  8
0
  6
CONTINUOUS
 10
407.761780
 20
300.193237
 11
405.428864
 21
304.152496
  0
LINE
  8
0
  6
CONTINUOUS
 10
407.761780
 20
279.806793
 11
405.428864
 21
275.847504
  0
ARC
  8
0
  6
CONTINUOUS
 10
407.000000
 20
277.085052
 40
2.000000
 50
180.000000
 51
269.000000
  0
ARC
  8
0
  6
CONTINUOUS
 10
409.332916
 20
281.044342
 40
2.000000
 50
180.000000
 51
269.000000
  0
ARC
  8
0
  6
CONTINUOUS
 10
409.332916
 20
298.955658
 40
2.000000
 50
91.000000
 51
180.000000
  0
ARC
  8
0
  6
CONTINUOUS
 10
407.000000
 20
302.914948
 40
2.000000
 50
91.000000
 51
180.000000
  0
ARC
  8
0
  6
CONTINUOUS
 10
393.000000
 20
303.133148
 40
2.000000
 50
0.000000
 51
89.000000
  0
ARC
  8
0
  6
CONTINUOUS
 10
390.667084
 20
280.826141
 40
2.000000
 50
-89.000000
 51
0.000000
  0
ARC
  8
0
  6
CONTINUOUS
 10
393.000000
 20
276.866852
 40
2.000000
 50
-89.000000
 51
0.000000
  0
LINE
  8
0
  6
CENTER
 10
557.378418
 20
470.000000
 11
798.636108
 21
470.000000
  0
LINE
  8
0
  6
CENTER
 10
600.000000
 20
542.512512
 11
600.000000
 21
397.128448
  0
LINE
  8
0
  6
CONTINUOUS
 10
662.302124
 20
432.000000
 11
734.055481
 21
432.000000
  0
LINE
  8
0
  6
CONTINUOUS
 10
663.448303
 20
508.000000
 11
734.055481
 21
508.000000
  0
LINE
  8
0
  6
CENTER
 10
654.000000
 20
426.141083
 11
654.000000
 21
513.816101
  0
LINE
  8
0
  6
CENTER
 10
568.000000
 20
426.141083
 11
568.000000
 21
513.816101
  0
LINE
  8
0
  6
CONTINUOUS
 10
734.055481
 20
493.000000
 11
657.996887
 21
493.000000
  0
LINE
  8
0
  6
CONTINUOUS
 10
734.055481
 20
447.000000
 11
657.996887
 21
447.000000
  0
LINE
  8
0
  6
CONTINUOUS
 10
561.000000
 20
470.000000
 11
561.706909
 21
510.500000
  0
LINE
  8
0
  6
CONTINUOUS
 10
561.000000
 20
470.000000
 11
561.706909
 21
429.500000
  0
LINE
  8
0
  6
CONTINUOUS
 10
660.293091
 20
429.500000
 11
561.706909
 21
429.500000
  0
LINE
  8
0
  6
CONTINUOUS
 10
662.000000
 20
498.000000
 11
561.488770
 21
498.000000
  0
LINE
  8
0
  6
CONTINUOUS
 10
662.000000
 20
507.379272
 11
662.000000
 21
498.000000
  0
ARC
  8
0
  6
CONTINUOUS
 10
663.448303
 20
506.000000
 40
2.000000
 50
90.000000
 51
136.398758
  0
ARC
  8
0
  6
CONTINUOUS
 10
662.302124
 20
430.000000
 40
2.000000
 50
90.000000
 51
179.000000
  0
LINE
  8
0
  6
CONTINUOUS
 10
662.000000
 20
493.000000
 11
662.000000
 21
447.000000
  0
LINE
  8
0
  6
CONTINUOUS
 10
660.293091
 20
510.500000
 11
660.598511
 21
493.000000
  0
LINE
  8
0
  6
CONTINUOUS
 10
660.293091
 20
429.500000
 11
660.598511
 21
447.000000
  0
LINE
  8
0
  6
CONTINUOUS
 10
656.432983
 20
470.000000
 11
655.997192
 21
494.965088
  0
LINE
  8
0
  6
CONTINUOUS
 10
656.432983
 20
470.000000
 11
655.997192
 21
445.034912
  0
ARC
  8
0
  6
CONTINUOUS
 10
657.996887
 20
495.000000
 40
2.000000
 50
-179.000000
 51
-90.000000
  0
ARC
  8
0
  6
CONTINUOUS
 10
657.996887
 20
445.000000
 40
2.000000
 50
90.000000
 51
179.000000
  0
LINE
  8
0
  6
CONTINUOUS
 10
585.632507
 20
510.500000
 11
585.632507
 21
475.000000
  0
LINE
  8
0
  6
CONTINUOUS
 10
576.658020
 20
510.500000
 11
576.658020
 21
477.204010
  0
LINE
  8
0
  6
CONTINUOUS
 10
576.658020
 20
462.795990
 11
576.658020
 21
429.500000
  0
LINE
  8
0
  6
CONTINUOUS
 10
585.632507
 20
475.000000
 11
568.087280
 21
475.000000
  0
ARC
  8
0
  6
CONTINUOUS
 10
576.658020
 20
466.204010
 40
11.000000
 50
68.924667
 51
115.717728
  0
ARC
  8
0
  6
CONTINUOUS
 10
568.087280
 20
481.500000
 40
6.500000
 50
-90.000000
 51
-64.282272
  0
LINE
  8
0
  6
CONTINUOUS
 10
583.295105
 20
475.434784
 11
580.613586
 21
476.468201
  0
LINE
  8
0
  6
CONTINUOUS
 10
571.884705
 20
476.114380
 11
570.907898
 21
475.643860
  0
ARC
  8
0
  6
CONTINUOUS
 10
585.632507
 20
481.500000
 40
6.500000
 50
-111.075333
 51
-90.000000
  0
LINE
  8
0
  6
CONTINUOUS
 10
585.632507
 20
465.000000
 11
568.087280
 21
465.000000
  0
ARC
  8
0
  6
CONTINUOUS
 10
576.658020
 20
473.795990
 40
11.000000
 50
244.282272
 51
291.075317
  0
ARC
  8
0
  6
CONTINUOUS
 10
568.087280
 20
458.500000
 40
6.500000
 50
64.282272
 51
90.000000
  0
LINE
  8
0
  6
CONTINUOUS
 10
583.295105
 20
464.565216
 11
580.613586
 21
463.531799
  0
LINE
  8
0
  6
CONTINUOUS
 10
571.884705
 20
463.885620
 11
570.907898
 21
464.356140
  0
ARC
  8
0
  6
CONTINUOUS
 10
585.632507
 20
458.500000
 40
6.500000
 50
90.000000
 51
111.075333
  0
LINE
  8
0
  6
CONTINUOUS
 10
585.632507
 20
465.000000
 11
585.632507
 21
429.500000
  0
LINE
  8
0
  6
CONTINUOUS
 10
636.367493
 20
475.000000
 11
653.912720
 21
475.000000
  0
ARC
  8
0
  6
CONTINUOUS
 10
645.341980
 20
466.204010
 40
11.000000
 50
64.282272
 51
111.075333
  0
ARC
  8
0
  6
CONTINUOUS
 10
653.912720
 20
481.500000
 40
6.500000
 50
244.282272
 51
270.000000
  0
LINE
  8
0
  6
CONTINUOUS
 10
638.704834
 20
475.434784
 11
641.386414
 21
476.468201
  0
LINE
  8
0
  6
CONTINUOUS
 10
650.115295
 20
476.114380
 11
651.092102
 21
475.643860
  0
ARC
  8
0
  6
CONTINUOUS
 10
636.367493
 20
481.500000
 40
6.500000
 50
270.000000
 51
291.075317
  0
LINE
  8
0
  6
CONTINUOUS
 10
636.367493
 20
465.000000
 11
653.912720
 21
465.000000
  0
ARC
  8
0
  6
CONTINUOUS
 10
645.341980
 20
473.795990
 40
11.000000
 50
-111.075333
 51
-64.282272
  0
ARC
  8
0
  6
CONTINUOUS
 10
653.912720
 20
458.500000
 40
6.500000
 50
90.000000
 51
115.717728
  0
LINE
  8
0
  6
CONTINUOUS
 10
638.704834
 20
464.565216
 11
641.386414
 21
463.531799
  0
LINE
  8
0
  6
CONTINUOUS
 10
650.115295
 20
463.885620
 11
651.092102
 21
464.356140
  0
ARC
  8
0
  6
CONTINUOUS
 10
636.367493
 20
458.500000
 40
6.500000
 50
68.924667
 51
90.000000
  0
LINE
  8
0
  6
CONTINUOUS
 10
636.367493
 20
465.000000
 11
636.367493
 21
429.500000
  0
LINE
  8
0
  6
CONTINUOUS
 10
645.341980
 20
462.795990
 11
645.341980
 21
429.500000
  0
LINE
  8
0
  6
CONTINUOUS
 10
636.367493
 20
510.500000
 11
636.367493
 21
475.000000
  0
LINE
  8
0
  6
CONTINUOUS
 10
645.341980
 20
510.500000
 11
645.341980
 21
477.204010
  0
ARC
  8
0
  6
CONTINUOUS
 10
576.805359
 20
246.936264
 40
6.000000
 50
59.641697
 51
132.635925
  0
ARC
  8
0
  6
CONTINUOUS
 10
576.805359
 20
333.063751
 40
6.000000
 50
227.364075
 51
300.358307
  0
ARC
  8
0
  6
CONTINUOUS
 10
645.194641
 20
333.063751
 40
6.000000
 50
239.641693
 51
312.635925
  0
ARC
  8
0
  6
CONTINUOUS
 10
645.194641
 20
246.936264
 40
6.000000
 50
47.364067
 51
120.358299
  0
LINE
  8
0
  6
CONTINUOUS
 10
178.500000
 20
264.309540
 11
179.000000
 21
264.309540
  0
LINE
  8
0
  6
CONTINUOUS
 10
359.500000
 20
329.793060
 11
359.500000
 21
250.206924
  0
LINE
  8
0
  6
CENTER
 10
286.540771
 20
290.000000
 11
41.363884
 21
290.000000
  0
LINE
  8
0
  6
CENTER
 10
240.000000
 20
258.421265
 11
240.000000
 21
320.106873
  0
LINE
  8
0
  6
CONTINUOUS
 10
105.944496
 20
328.000000
 11
177.641251
 21
328.000000
  0
LINE
  8
0
  6
CONTINUOUS
 10
105.944496
 20
252.000000
 11
177.641251
 21
252.000000
  0
LINE
  8
0
  6
CENTER
 10
186.000000
 20
246.783081
 11
186.000000
 21
263.231720
  0
LINE
  8
0
  6
CENTER
 10
178.021347
 20
256.500000
 11
193.208847
 21
256.500000
  0
LINE
  8
0
  6
CONTINUOUS
 10
179.000000
 20
323.500000
 11
179.000000
 21
306.328430
  0
LINE
  8
0
  6
CONTINUOUS
 10
186.000000
 20
249.500000
 11
272.000000
 21
249.500000
  0
LINE
  8
0
  6
CENTER
 10
186.000000
 20
333.565582
 11
186.000000
 21
316.768280
  0
LINE
  8
0
  6
CENTER
 10
178.021347
 20
323.500000
 11
193.208847
 21
323.500000
  0
LINE
  8
0
  6
CONTINUOUS
 10
186.000000
 20
330.500000
 11
272.000000
 21
330.500000
  0
LINE
  8
0
  6
CENTER
 10
272.000000
 20
246.783081
 11
272.000000
 21
263.231720
  0
LINE
  8
0
  6
CENTER
 10
280.361633
 20
256.500000
 11
264.791138
 21
256.500000
  0
LINE
  8
0
  6
CONTINUOUS
 10
279.000000
 20
256.500000
 11
279.000000
 21
323.500000
  0
LINE
  8
0
  6
CENTER
 10
272.000000
 20
333.565582
 11
272.000000
 21
316.768280
  0
LINE
  8
0
  6
CENTER
 10
279.978638
 20
323.500000
 11
264.791138
 21
323.500000
  0
ARC
  8
0
  6
CONTINUOUS
 10
272.000000
 20
323.500000
 40
7.000000
 50
0.000000
 51
132.635925
  0
ARC
  8
0
  6
CONTINUOUS
 10
272.000000
 20
256.500000
 40
7.000000
 50
-132.635925
 51
0.000000
  0
ARC
  8
0
  6
CONTINUOUS
 10
186.000000
 20
256.500000
 40
7.000000
 50
180.000000
 51
312.635925
  0
ARC
  8
0
  6
CONTINUOUS
 10
186.000000
 20
323.500000
 40
7.000000
 50
47.364067
 51
180.000000
  0
LINE
  8
0
  6
CONTINUOUS
 10
275.000000
 20
279.328430
 11
275.000000
 21
300.671570
  0
LINE
  8
0
  6
CONTINUOUS
 10
275.585785
 20
277.914215
 11
278.414215
 21
275.085785
  0
ARC
  8
0
  6
CONTINUOUS
 10
277.000000
 20
273.671570
 40
2.000000
 50
0.000000
 51
45.000000
  0
ARC
  8
0
  6
CONTINUOUS
 10
277.000000
 20
279.328430
 40
2.000000
 50
180.000000
 51
225.000000
  0
LINE
  8
0
  6
CONTINUOUS
 10
275.585785
 20
302.085785
 11
278.414215
 21
304.914215
  0
ARC
  8
0
  6
CONTINUOUS
 10
277.000000
 20
306.328430
 40
2.000000
 50
-45.000000
 51
0.000000
  0
ARC
  8
0
  6
CONTINUOUS
 10
277.000000
 20
300.671570
 40
2.000000
 50
135.000000
 51
180.000000
  0
LINE
  8
0
  6
CONTINUOUS
 10
178.336380
 20
251.875305
 11
183.567017
 21
249.936417
  0
ARC
  8
0
  6
CONTINUOUS
 10
177.641251
 20
250.000000
 40
2.000000
 50
69.661270
 51
90.000000
  0
LINE
  8
0
  6
CONTINUOUS
 10
178.336380
 20
328.124695
 11
183.567017
 21
330.063568
  0
ARC
  8
0
  6
CONTINUOUS
 10
177.641251
 20
330.000000
 40
2.000000
 50
-90.000000
 51
-69.661270
  0
LINE
  8
0
  6
CONTINUOUS
 10
105.944496
 20
259.751038
 11
179.000000
 21
259.751038
  0
LINE
  8
0
  6
CONTINUOUS
 10
105.944496
 20
320.248962
 11
179.000000
 21
320.248962
  0
LINE
  8
0
  6
CONTINUOUS
 10
183.000000
 20
279.328430
 11
183.000000
 21
300.671570
  0
LINE
  8
0
  6
CONTINUOUS
 10
182.414215
 20
277.914215
 11
179.585785
 21
275.085785
  0
ARC
  8
0
  6
CONTINUOUS
 10
181.000000
 20
273.671570
 40
2.000000
 50
135.000000
 51
180.000000
  0
ARC
  8
0
  6
CONTINUOUS
 10
181.000000
 20
279.328430
 40
2.000000
 50
-45.000000
 51
0.000000
  0
LINE
  8
0
  6
CONTINUOUS
 10
182.414215
 20
302.085785
 11
179.585785
 21
304.914215
  0
ARC
  8
0
  6
CONTINUOUS
 10
181.000000
 20
306.328430
 40
2.000000
 50
180.000000
 51
225.000000
  0
ARC
  8
0
  6
CONTINUOUS
 10
181.000000
 20
300.671570
 40
2.000000
 50
0.000000
 51
45.000000
  0
LINE
  8
0
  6
CONTINUOUS
 10
179.000000
 20
273.671570
 11
179.000000
 21
256.500000
  0
ARC
  8
0
  6
CONTINUOUS
 10
213.000000
 20
278.000000
 40
30.000000
 50
-120.358299
 51
-112.331642
  0
ARC
  8
0
  6
CONTINUOUS
 10
205.400665
 20
259.500000
 40
10.000000
 50
-112.331642
 51
-90.000000
  0
ARC
  8
0
  6
CONTINUOUS
 10
213.000000
 20
302.000000
 40
30.000000
 50
112.331642
 51
120.358299
  0
ARC
  8
0
  6
CONTINUOUS
 10
205.400665
 20
320.500000
 40
10.000000
 50
90.000000
 51
112.331642
  0
ARC
  8
0
  6
CONTINUOUS
 10
245.000000
 20
278.000000
 40
30.000000
 50
-67.668358
 51
-59.641697
  0
ARC
  8
0
  6
CONTINUOUS
 10
252.599335
 20
259.500000
 40
10.000000
 50
-90.000000
 51
-67.668358
  0
ARC
  8
0
  6
CONTINUOUS
 10
245.000000
 20
302.000000
 40
30.000000
 50
59.641697
 51
67.668358
  0
ARC
  8
0
  6
CONTINUOUS
 10
252.599335
 20
320.500000
 40
10.000000
 50
67.668358
 51
90.000000
  0
LINE
  8
0
  6
CONTINUOUS
 10
270.000000
 20
303.500000
 11
270.000000
 21
276.500000
  0
LINE
  8
0
  6
CONTINUOUS
 10
248.000000
 20
325.500000
 11
210.000000
 21
325.500000
  0
ARC
  8
0
  6
CONTINUOUS
 10
248.000000
 20
303.500000
 40
22.000000
 50
69.512688
 51
90.000000
  0
LINE
  8
0
  6
CONTINUOUS
 10
257.000000
 20
321.739838
 11
257.000000
 21
322.234985
  0
LINE
  8
0
  6
CONTINUOUS
 10
255.000000
 20
321.000000
 11
255.000000
 21
322.864929
  0
LINE
  8
0
  6
CONTINUOUS
 10
265.401367
 20
311.198425
 11
257.481476
 21
320.438263
  0
LINE
  8
0
  6
CONTINUOUS
 10
264.481476
 20
309.198425
 11
255.481491
 21
319.698425
  0
ARC
  8
0
  6
CONTINUOUS
 10
257.000000
 20
321.000000
 40
2.000000
 50
180.000000
 51
220.601288
  0
ARC
  8
0
  6
CONTINUOUS
 10
259.000000
 20
321.739838
 40
2.000000
 50
180.000000
 51
220.601288
  0
ARC
  8
0
  6
CONTINUOUS
 10
266.919861
 20
312.500000
 40
2.000000
 50
220.601288
 51
270.000000
  0
ARC
  8
0
  6
CONTINUOUS
 10
266.000000
 20
310.500000
 40
2.000000
 50
220.601288
 51
270.000000
  0
LINE
  8
0
  6
CONTINUOUS
 10
255.124237
 20
320.306122
 11
257.124237
 21
321.045959
  0
LINE
  8
0
  6
CONTINUOUS
 10
265.164276
 20
308.682983
 11
266.084167
 21
310.682983
  0
LINE
  8
0
  6
CONTINUOUS
 10
266.000000
 20
308.500000
 11
267.773712
 21
308.500000
  0
LINE
  8
0
  6
CONTINUOUS
 10
266.919861
 20
310.500000
 11
267.364929
 21
310.500000
  0
ARC
  8
0
  6
CONTINUOUS
 10
267.773712
 20
306.500000
 40
2.000000
 50
8.626927
 51
90.000000
  0
ARC
  8
0
  6
CONTINUOUS
 10
267.364929
 20
308.500000
 40
2.000000
 50
14.477512
 51
90.000000
  0
ARC
  8
0
  6
CONTINUOUS
 10
253.000000
 20
322.864929
 40
2.000000
 50
0.000000
 51
75.522491
  0
ARC
  8
0
  6
CONTINUOUS
 10
255.000000
 20
322.234985
 40
2.000000
 50
0.000000
 51
69.512688
  0
ARC
  8
0
  6
CONTINUOUS
 10
248.000000
 20
303.500000
 40
22.000000
 50
0.000000
 51
14.477512
  0
ARC
  8
0
  6
CONTINUOUS
 10
210.000000
 20
303.500000
 40
22.000000
 50
90.000000
 51
110.487312
  0
LINE
  8
0
  6
CONTINUOUS
 10
201.000000
 20
321.739838
 11
201.000000
 21
322.234985
  0
LINE
  8
0
  6
CONTINUOUS
 10
203.000000
 20
321.000000
 11
203.000000
 21
322.864929
  0
LINE
  8
0
  6
CONTINUOUS
 10
192.598648
 20
311.198425
 11
200.518509
 21
320.438263
  0
LINE
  8
0
  6
CONTINUOUS
 10
193.518509
 20
309.198425
 11
202.518509
 21
319.698425
  0
ARC
  8
0
  6
CONTINUOUS
 10
201.000000
 20
321.000000
 40
2.000000
 50
-40.601295
 51
0.000000
  0
ARC
  8
0
  6
CONTINUOUS
 10
199.000000
 20
321.739838
 40
2.000000
 50
-40.601295
 51
0.000000
  0
ARC
  8
0
  6
CONTINUOUS
 10
191.080124
 20
312.500000
 40
2.000000
 50
-90.000000
 51
-40.601295
  0
ARC
  8
0
  6
CONTINUOUS
 10
192.000000
 20
310.500000
 40
2.000000
 50
-90.000000
 51
-40.601295
  0
LINE
  8
0
  6
CONTINUOUS
 10
202.875763
 20
320.306122
 11
200.875763
 21
321.045959
  0
LINE
  8
0
  6
CONTINUOUS
 10
192.835709
 20
308.682983
 11
191.915848
 21
310.682983
  0
LINE
  8
0
  6
CONTINUOUS
 10
192.000000
 20
308.500000
 11
190.226273
 21
308.500000
  0
LINE
  8
0
  6
CONTINUOUS
 10
191.080124
 20
310.500000
 11
190.635086
 21
310.500000
  0
ARC
  8
0
  6
CONTINUOUS
 10
190.226273
 20
306.500000
 40
2.000000
 50
90.000000
 51
171.373077
  0
ARC
  8
0
  6
CONTINUOUS
 10
190.635086
 20
308.500000
 40
2.000000
 50
90.000000
 51
165.522491
  0
ARC
  8
0
  6
CONTINUOUS
 10
205.000000
 20
322.864929
 40
2.000000
 50
104.477509
 51
180.000000
  0
ARC
  8
0
  6
CONTINUOUS
 10
203.000000
 20
322.234985
 40
2.000000
 50
110.487312
 51
180.000000
  0
ARC
  8
0
  6
CONTINUOUS
 10
210.000000
 20
303.500000
 40
22.000000
 50
165.522491
 51
180.000000
  0
LINE
  8
0
  6
CONTINUOUS
 10
188.000000
 20
303.500000
 11
188.000000
 21
276.500000
  0
LINE
  8
0
  6
CONTINUOUS
 10
248.000000
 20
254.500000
 11
210.000000
 21
254.500000
  0
ARC
  8
0
  6
CONTINUOUS
 10
248.000000
 20
276.500000
 40
22.000000
 50
270.000000
 51
290.487305
  0
LINE
  8
0
  6
CONTINUOUS
 10
257.000000
 20
258.260162
 11
257.000000
 21
257.765015
  0
LINE
  8
0
  6
CONTINUOUS
 10
255.000000
 20
259.000000
 11
255.000000
 21
257.135071
  0
LINE
  8
0
  6
CONTINUOUS
 10
265.401367
 20
268.801575
 11
257.481476
 21
259.561737
  0
LINE
  8
0
  6
CONTINUOUS
 10
264.481476
 20
270.801575
 11
255.481491
 21
260.301575
  0
ARC
  8
0
  6
CONTINUOUS
 10
257.000000
 20
259.000000
 40
2.000000
 50
139.398712
 51
180.000000
  0
ARC
  8
0
  6
CONTINUOUS
 10
259.000000
 20
258.260162
 40
2.000000
 50
139.398712
 51
180.000000
  0
ARC
  8
0
  6
CONTINUOUS
 10
266.919861
 20
267.500000
 40
2.000000
 50
90.000000
 51
139.398712
  0
ARC
  8
0
  6
CONTINUOUS
 10
266.000000
 20
269.500000
 40
2.000000
 50
90.000000
 51
139.398712
  0
LINE
  8
0
  6
CONTINUOUS
 10
255.124237
 20
259.693878
 11
257.124237
 21
258.954041
  0
LINE
  8
0
  6
CONTINUOUS
 10
265.164276
 20
271.317017
 11
266.084167
 21
269.317017
  0
LINE
  8
0
  6
CONTINUOUS
 10
266.000000
 20
271.500000
 11
267.773712
 21
271.500000
  0
LINE
  8
0
  6
CONTINUOUS
 10
266.919861
 20
269.500000
 11
267.364929
 21
269.500000
  0
ARC
  8
0
  6
CONTINUOUS
 10
267.773712
 20
273.500000
 40
2.000000
 50
270.000000
 51
351.373077
  0
ARC
  8
0
  6
CONTINUOUS
 10
267.364929
 20
271.500000
 40
2.000000
 50
270.000000
 51
345.522491
  0
ARC
  8
0
  6
CONTINUOUS
 10
253.000000
 20
257.135071
 40
2.000000
 50
-75.522491
 51
0.000000
  0
ARC
  8
0
  6
CONTINUOUS
 10
255.000000
 20
257.765015
 40
2.000000
 50
-69.512688
 51
0.000000
  0
ARC
  8
0
  6
CONTINUOUS
 10
210.000000
 20
276.500000
 40
22.000000
 50
-110.487312
 51
-90.000000
  0
LINE
  8
0
  6
CONTINUOUS
 10
201.000000
 20
258.260162
 11
201.000000
 21
257.765015
  0
LINE
  8
0
  6
CONTINUOUS
 10
203.000000
 20
259.000000
 11
203.000000
 21
257.135071
  0
LINE
  8
0
  6
CONTINUOUS
 10
192.598648
 20
268.801575
 11
200.518509
 21
259.561737
  0
LINE
  8
0
  6
CONTINUOUS
 10
193.518509
 20
270.801575
 11
202.518509
 21
260.301575
  0
ARC
  8
0
  6
CONTINUOUS
 10
201.000000
 20
259.000000
 40
2.000000
 50
0.000000
 51
40.601295
  0
ARC
  8
0
  6
CONTINUOUS
 10
199.000000
 20
258.260162
 40
2.000000
 50
0.000000
 51
40.601295
  0
ARC
  8
0
  6
CONTINUOUS
 10
191.080124
 20
267.500000
 40
2.000000
 50
40.601295
 51
90.000000
  0
ARC
  8
0
  6
CONTINUOUS
 10
192.000000
 20
269.500000
 40
2.000000
 50
40.601295
 51
90.000000
  0
LINE
  8
0
  6
CONTINUOUS
 10
202.875763
 20
259.693878
 11
200.875763
 21
258.954041
  0
LINE
  8
0
  6
CONTINUOUS
 10
192.835709
 20
271.317017
 11
191.915848
 21
269.317017
  0
LINE
  8
0
  6
CONTINUOUS
 10
192.000000
 20
271.500000
 11
190.226273
 21
271.500000
  0
LINE
  8
0
  6
CONTINUOUS
 10
191.080124
 20
269.500000
 11
190.635086
 21
269.500000
  0
ARC
  8
0
  6
CONTINUOUS
 10
190.226273
 20
273.500000
 40
2.000000
 50
-171.373077
 51
-90.000000
  0
ARC
  8
0
  6
CONTINUOUS
 10
190.635086
 20
271.500000
 40
2.000000
 50
-165.522491
 51
-90.000000
  0
ARC
  8
0
  6
CONTINUOUS
 10
205.000000
 20
257.135071
 40
2.000000
 50
180.000000
 51
255.522491
  0
ARC
  8
0
  6
CONTINUOUS
 10
203.000000
 20
257.765015
 40
2.000000
 50
180.000000
 51
249.512680
  0
ARC
  8
0
  6
CONTINUOUS
 10
248.000000
 20
276.500000
 40
22.000000
 50
-14.477512
 51
0.000000
  0
ARC
  8
0
  6
CONTINUOUS
 10
210.000000
 20
276.500000
 40
22.000000
 50
180.000000
 51
194.477509
  0
ARC
  8
0
  6
CONTINUOUS
 10
263.194611
 20
246.936264
 40
6.000000
 50
47.364067
 51
120.358299
  0
ARC
  8
0
  6
CONTINUOUS
 10
263.194611
 20
333.063751
 40
6.000000
 50
-120.358299
 51
-47.364067
  0
ARC
  8
0
  6
CONTINUOUS
 10
194.805389
 20
333.063751
 40
6.000000
 50
-132.635925
 51
-59.641697
  0
ARC
  8
0
  6
CONTINUOUS
 10
194.805389
 20
246.936264
 40
6.000000
 50
59.641697
 51
132.635925
  0
LINE
  8
0
  6
CENTER
 10
356.995026
 20
323.500000
 11
444.043762
 21
323.500000
  0
CIRCLE
  8
0
  6
CONTINUOUS
 10
274.500000
 20
266.500000
 40
3.800000
  0
CIRCLE
  8
0
  6
CONTINUOUS
 10
274.500000
 20
266.500000
 40
3.500000
  0
LINE
  8
0
  6
CONTINUOUS
 10
273.000000
 20
267.433990
 11
273.000000
 21
265.566040
  0
LINE
  8
0
  6
CONTINUOUS
 10
276.000000
 20
267.433990
 11
276.000000
 21
265.566040
  0
LINE
  8
0
  6
CONTINUOUS
 10
274.500000
 20
264.700012
 11
273.000000
 21
265.566040
  0
LINE
  8
0
  6
CONTINUOUS
 10
274.500000
 20
264.700012
 11
276.000000
 21
265.566040
  0
LINE
  8
0
  6
CONTINUOUS
 10
274.500000
 20
268.300018
 11
276.000000
 21
267.433990
  0
LINE
  8
0
  6
CONTINUOUS
 10
274.500000
 20
268.300018
 11
273.000000
 21
267.433990
  0
LINE
  8
0
  6
CENTER
 10
268.948608
 20
266.500000
 11
279.353638
 21
266.500000
  0
LINE
  8
0
  6
CENTER
 10
274.500000
 20
272.043579
 11
274.500000
 21
260.927643
  0
ARC
  8
0
  6
CONTINUOUS
 10
277.000000
 20
260.000000
 40
2.000000
 50
0.000000
 51
90.000000
  0
LINE
  8
0
  6
CONTINUOUS
 10
277.000000
 20
262.000000
 11
274.500000
 21
262.000000
  0
ARC
  8
0
  6
CONTINUOUS
 10
277.000000
 20
273.000000
 40
2.000000
 50
-90.000000
 51
0.000000
  0
LINE
  8
0
  6
CONTINUOUS
 10
277.000000
 20
271.000000
 11
274.500000
 21
271.000000
  0
ARC
  8
0
  6
CONTINUOUS
 10
274.500000
 20
266.500000
 40
4.500000
 50
90.000000
 51
270.000000
  0
CIRCLE
  8
0
  6
CONTINUOUS
 10
274.500000
 20
313.500000
 40
3.800000
  0
CIRCLE
  8
0
  6
CONTINUOUS
 10
274.500000
 20
313.500000
 40
3.500000
  0
LINE
  8
0
  6
CONTINUOUS
 10
273.000000
 20
312.566010
 11
273.000000
 21
314.433960
  0
LINE
  8
0
  6
CONTINUOUS
 10
276.000000
 20
312.566010
 11
276.000000
 21
314.433960
  0
LINE
  8
0
  6
CONTINUOUS
 10
274.500000
 20
315.299988
 11
273.000000
 21
314.433960
  0
LINE
  8
0
  6
CONTINUOUS
 10
274.500000
 20
315.299988
 11
276.000000
 21
314.433960
  0
LINE
  8
0
  6
CONTINUOUS
 10
274.500000
 20
311.699982
 11
276.000000
 21
312.566010
  0
LINE
  8
0
  6
CONTINUOUS
 10
274.500000
 20
311.699982
 11
273.000000
 21
312.566010
  0
LINE
  8
0
  6
CENTER
 10
274.500000
 20
307.956421
 11
274.500000
 21
319.072357
  0
LINE
  8
0
  6
CONTINUOUS
 10
277.000000
 20
318.000000
 11
274.500000
 21
318.000000
  0
LINE
  8
0
  6
CONTINUOUS
 10
277.000000
 20
309.000000
 11
274.500000
 21
309.000000
  0
ARC
  8
0
  6
CONTINUOUS
 10
274.500000
 20
313.500000
 40
4.500000
 50
-270.000000
 51
-90.000000
  0
LINE
  8
0
  6
CENTER
 10
268.948608
 20
313.500000
 11
279.353638
 21
313.500000
  0
ARC
  8
0
  6
CONTINUOUS
 10
277.000000
 20
320.000000
 40
2.000000
 50
-90.000000
 51
0.000000
  0
ARC
  8
0
  6
CONTINUOUS
 10
277.000000
 20
307.000000
 40
2.000000
 50
0.000000
 51
90.000000
  0
CIRCLE
  8
0
  6
CONTINUOUS
 10
183.500000
 20
313.500000
 40
3.800000
  0
CIRCLE
  8
0
  6
CONTINUOUS
 10
183.500000
 20
313.500000
 40
3.500000
  0
LINE
  8
0
  6
CONTINUOUS
 10
185.000000
 20
312.566010
 11
185.000000
 21
314.433960
  0
LINE
  8
0
  6
CONTINUOUS
 10
182.000000
 20
312.566010
 11
182.000000
 21
314.433960
  0
LINE
  8
0
  6
CONTINUOUS
 10
183.500000
 20
315.299988
 11
185.000000
 21
314.433960
  0
LINE
  8
0
  6
CONTINUOUS
 10
183.500000
 20
315.299988
 11
182.000000
 21
314.433960
  0
LINE
  8
0
  6
CONTINUOUS
 10
183.500000
 20
311.699982
 11
182.000000
 21
312.566010
  0
LINE
  8
0
  6
CONTINUOUS
 10
183.500000
 20
311.699982
 11
185.000000
 21
312.566010
  0
LINE
  8
0
  6
CONTINUOUS
 10
181.000000
 20
318.000000
 11
183.500000
 21
318.000000
  0
LINE
  8
0
  6
CONTINUOUS
 10
181.000000
 20
309.000000
 11
183.500000
 21
309.000000
  0
ARC
  8
0
  6
CONTINUOUS
 10
183.500000
 20
313.500000
 40
4.500000
 50
-90.000000
 51
90.000000
  0
ARC
  8
0
  6
CONTINUOUS
 10
181.000000
 20
307.000000
 40
2.000000
 50
90.000000
 51
180.000000
  0
LINE
  8
0
  6
CENTER
 10
183.500000
 20
307.956421
 11
183.500000
 21
319.072357
  0
LINE
  8
0
  6
CENTER
 10
189.051392
 20
313.500000
 11
178.646347
 21
313.500000
  0
ARC
  8
0
  6
CONTINUOUS
 10
181.000000
 20
320.000000
 40
2.000000
 50
180.000000
 51
270.000000
  0
ARC
  8
0
  6
CONTINUOUS
 10
183.500000
 20
266.500000
 40
4.500000
 50
-90.000000
 51
90.000000
  0
LINE
  8
0
  6
CONTINUOUS
 10
181.000000
 20
262.000000
 11
183.500000
 21
262.000000
  0
ARC
  8
0
  6
CONTINUOUS
 10
181.000000
 20
260.000000
 40
2.000000
 50
90.000000
 51
180.000000
  0
CIRCLE
  8
0
  6
CONTINUOUS
 10
183.500000
 20
266.500000
 40
3.800000
  0
CIRCLE
  8
0
  6
CONTINUOUS
 10
183.500000
 20
266.500000
 40
3.500000
  0
LINE
  8
0
  6
CONTINUOUS
 10
183.500000
 20
264.700012
 11
182.000000
 21
265.566040
  0
LINE
  8
0
  6
CONTINUOUS
 10
182.000000
 20
267.433990
 11
182.000000
 21
265.566040
  0
LINE
  8
0
  6
CENTER
 10
189.051392
 20
266.500000
 11
178.646347
 21
266.500000
  0
LINE
  8
0
  6
CENTER
 10
183.500000
 20
272.043579
 11
183.500000
 21
260.927643
  0
LINE
  8
0
  6
CONTINUOUS
 10
183.500000
 20
268.300018
 11
182.000000
 21
267.433990
  0
LINE
  8
0
  6
CONTINUOUS
 10
183.500000
 20
268.300018
 11
185.000000
 21
267.433990
  0
LINE
  8
0
  6
CONTINUOUS
 10
185.000000
 20
267.433990
 11
185.000000
 21
265.566040
  0
LINE
  8
0
  6
CONTINUOUS
 10
183.500000
 20
264.700012
 11
185.000000
 21
265.566040
  0
LINE
  8
0
  6
CONTINUOUS
 10
181.000000
 20
271.000000
 11
183.500000
 21
271.000000
  0
ARC
  8
0
  6
CONTINUOUS
 10
181.000000
 20
273.000000
 40
2.000000
 50
180.000000
 51
270.000000
  0
CIRCLE
  8
0
  6
CONTINUOUS
 10
600.000000
 20
290.000000
 40
19.000000
  0
CIRCLE
  8
0
  6
CONTINUOUS
 10
600.000000
 20
290.000000
 40
15.000000
  0
CIRCLE
  8
0
  6
CONTINUOUS
 10
600.000000
 20
290.000000
 40
23.000000
  0
CIRCLE
  8
0
  6
CONTINUOUS
 10
600.000000
 20
290.000000
 40
25.002001
  0
ARC
  8
0
  6
CONTINUOUS
 10
600.000000
 20
290.000000
 40
8.500000
 50
-162.895370
 51
162.895370
  0
CIRCLE
  8
0
  6
CONTINUOUS
 10
240.000000
 20
290.000000
 40
19.000000
  0
CIRCLE
  8
0
  6
CONTINUOUS
 10
240.000000
 20
290.000000
 40
15.000000
  0
CIRCLE
  8
0
  6
CONTINUOUS
 10
240.000000
 20
290.000000
 40
23.000000
  0
CIRCLE
  8
0
  6
CONTINUOUS
 10
240.000000
 20
290.000000
 40
25.002001
  0
ARC
  8
0
  6
CONTINUOUS
 10
240.000000
 20
290.000000
 40
8.500000
 50
17.104635
 51
342.895355
  0
LINE
  8
0
  6
CONTINUOUS
 10
561.706909
 20
510.500000
 11
660.293091
 21
510.500000
  0
LINE
  8
0
  6
CONTINUOUS
 10
395.000000
 20
276.866852
 11
395.000000
 21
303.133148
  0
ARC
  8
0
  6
CONTINUOUS
 10
240.000000
 20
290.000000
 40
7.500000
 50
-340.528778
 51
-19.471222
  0
LINE
  8
0
  6
CONTINUOUS
 10
249.500000
 20
292.500000
 11
249.500000
 21
287.500000
  0
LINE
  8
0
  6
CONTINUOUS
 10
244.500000
 20
292.500000
 11
244.500000
 21
287.500000
  0
LINE
  8
0
  6
CONTINUOUS
 10
244.500000
 20
292.500000
 11
249.500000
 21
292.500000
  0
LINE
  8
0
  6
CONTINUOUS
 10
244.500000
 20
287.500000
 11
249.500000
 21
287.500000
  0
LINE
  8
0
  6
CONTINUOUS
 10
590.500000
 20
292.500000
 11
590.500000
 21
287.500000
  0
LINE
  8
0
  6
CONTINUOUS
 10
595.500000
 20
292.500000
 11
595.500000
 21
287.500000
  0
LINE
  8
0
  6
CONTINUOUS
 10
595.500000
 20
292.500000
 11
590.500000
 21
292.500000
  0
LINE
  8
0
  6
CONTINUOUS
 10
595.500000
 20
287.500000
 11
590.500000
 21
287.500000
  0
ARC
  8
0
  6
CONTINUOUS
 10
600.000000
 20
290.000000
 40
7.500000
 50
-160.528778
 51
160.528778
  0
ARC
  8
0
  6
CONTINUOUS
 10
390.667084
 20
299.173859
 40
2.000000
 50
0.000000
 51
89.000000
  0
LINE
  8
0
  6
CONTINUOUS
 10
392.667084
 20
299.173859
 11
392.667084
 21
280.826141
  0
LINE
  8
0
  6
CONTINUOUS
 10
407.332916
 20
298.955658
 11
407.332916
 21
281.044342
  0
LINE
  8
0
  6
CONTINUOUS
 10
468.500000
 20
297.500000
 11
441.500000
 21
297.500000
  0
LINE
  8
0
  6
CONTINUOUS
 10
468.500000
 20
282.500000
 11
441.500000
 21
282.500000
  0
LINE
  8
0
  6
CONTINUOUS
 10
468.500000
 20
297.500000
 11
468.500000
 21
282.500000
  0
LINE
  8
0
  6
CONTINUOUS
 10
468.500000
 20
292.500000
 11
447.000000
 21
292.500000
  0
LINE
  8
0
  6
CONTINUOUS
 10
468.500000
 20
287.500000
 11
447.000000
 21
287.500000
  0
ARC
  8
0
  6
CONTINUOUS
 10
447.000000
 20
290.000000
 40
2.500000
 50
-270.000000
 51
-90.000000
  0
LINE
  8
0
  6
CONTINUOUS
 10
331.500000
 20
297.500000
 11
358.500000
 21
297.500000
  0
LINE
  8
0
  6
CONTINUOUS
 10
331.500000
 20
282.500000
 11
358.500000
 21
282.500000
  0
LINE
  8
0
  6
CONTINUOUS
 10
331.500000
 20
297.500000
 11
331.500000
 21
282.500000
  0
LINE
  8
0
  6
CONTINUOUS
 10
331.500000
 20
292.500000
 11
353.000000
 21
292.500000
  0
LINE
  8
0
  6
CONTINUOUS
 10
331.500000
 20
287.500000
 11
353.000000
 21
287.500000
  0
ARC
  8
0
  6
CONTINUOUS
 10
353.000000
 20
290.000000
 40
2.500000
 50
-90.000000
 51
90.000000
  0
LINE
  8
0
  6
CONTINUOUS
 10
590.500000
 20
538.500000
 11
607.500000
 21
538.500000
  0
LINE
  8
0
  6
CONTINUOUS
 10
607.500000
 20
511.500000
 11
607.500000
 21
538.500000
  0
LINE
  8
0
  6
CONTINUOUS
 10
590.500000
 20
514.500000
 11
592.500000
 21
514.500000
  0
LINE
  8
0
  6
CONTINUOUS
 10
592.500000
 20
514.500000
 11
592.500000
 21
511.500000
  0
LINE
  8
0
  6
CONTINUOUS
 10
590.500000
 20
538.500000
 11
590.500000
 21
514.500000
  0
LINE
  8
0
  6
CONTINUOUS
 10
592.928955
 20
538.500000
 11
592.928955
 21
517.000000
  0
LINE
  8
0
  6
CONTINUOUS
 10
590.500000
 20
401.500000
 11
607.500000
 21
401.500000
  0
LINE
  8
0
  6
CONTINUOUS
 10
607.500000
 20
428.500000
 11
607.500000
 21
401.500000
  0
LINE
  8
0
  6
CONTINUOUS
 10
590.500000
 20
425.500000
 11
592.500000
 21
425.500000
  0
LINE
  8
0
  6
CONTINUOUS
 10
592.500000
 20
425.500000
 11
592.500000
 21
428.500000
  0
LINE
  8
0
  6
CONTINUOUS
 10
590.500000
 20
401.500000
 11
590.500000
 21
425.500000
  0
LINE
  8
0
  6
CONTINUOUS
 10
592.928955
 20
401.500000
 11
592.928955
 21
423.000000
  0
LINE
  8
0
  6
CONTINUOUS
 10
393.034912
 20
274.867157
 11
372.000000
 21
274.500000
  0
LINE
  8
0
  6
CONTINUOUS
 10
393.034912
 20
305.132843
 11
372.000000
 21
305.500000
  0
LINE
  8
0
  6
CONTINUOUS
 10
390.701996
 20
301.173553
 11
372.000000
 21
301.500000
  0
LINE
  8
0
  6
CONTINUOUS
 10
364.999969
 20
317.299988
 11
364.999969
 21
309.700012
  0
LINE
  8
0
  6
CONTINUOUS
 10
360.999969
 20
317.000000
 11
364.999969
 21
317.000031
  0
LINE
  8
0
  6
CONTINUOUS
 10
360.999969
 20
317.000000
 11
360.999969
 21
310.000000
  0
LINE
  8
0
  6
CONTINUOUS
 10
364.999969
 20
317.299988
 11
366.000000
 21
317.299988
  0
LINE
  8
0
  6
CONTINUOUS
 10
366.000000
 20
318.000000
 11
366.000000
 21
309.000000
  0
LINE
  8
0
  6
CONTINUOUS
 10
359.500000
 20
318.170197
 11
366.000000
 21
318.000000
  0
LINE
  8
0
  6
CONTINUOUS
 10
390.701996
 20
278.826447
 11
372.000000
 21
278.500000
  0
LINE
  8
0
  6
CENTER
 10
359.060303
 20
313.500000
 11
367.045013
 21
313.500000
  0
LINE
  8
0
  6
CONTINUOUS
 10
360.999969
 20
310.000000
 11
364.999969
 21
309.999969
  0
LINE
  8
0
  6
CONTINUOUS
 10
364.999969
 20
309.700012
 11
366.000000
 21
309.700012
  0
LINE
  8
0
  6
CONTINUOUS
 10
359.500000
 20
308.829803
 11
366.000000
 21
309.000000
  0
LINE
  8
0
  6
CONTINUOUS
 10
364.999969
 20
262.700012
 11
364.999969
 21
270.299988
  0
LINE
  8
0
  6
CONTINUOUS
 10
360.999969
 20
263.000000
 11
364.999969
 21
262.999969
  0
LINE
  8
0
  6
CONTINUOUS
 10
360.999969
 20
263.000000
 11
360.999969
 21
270.000000
  0
LINE
  8
0
  6
CONTINUOUS
 10
364.999969
 20
262.700012
 11
366.000000
 21
262.700012
  0
LINE
  8
0
  6
CONTINUOUS
 10
366.000000
 20
262.000000
 11
366.000000
 21
271.000000
  0
LINE
  8
0
  6
CONTINUOUS
 10
359.500000
 20
261.829803
 11
366.000000
 21
262.000000
  0
LINE
  8
0
  6
CENTER
 10
359.060303
 20
266.500000
 11
367.045013
 21
266.500000
  0
LINE
  8
0
  6
CONTINUOUS
 10
360.999969
 20
270.000000
 11
364.999969
 21
270.000031
  0
LINE
  8
0
  6
CONTINUOUS
 10
364.999969
 20
270.299988
 11
366.000000
 21
270.299988
  0
LINE
  8
0
  6
CONTINUOUS
 10
359.500000
 20
271.170197
 11
366.000000
 21
271.000000
  0
LINE
  8
0
  6
CONTINUOUS
 10
372.000000
 20
305.500000
 11
359.500000
 21
305.500000
  0
LINE
  8
0
  6
CONTINUOUS
 10
372.000000
 20
301.500000
 11
359.500000
 21
301.500000
  0
LINE
  8
0
  6
CONTINUOUS
 10
372.000000
 20
278.500000
 11
359.500000
 21
278.500000
  0
LINE
  8
0
  6
CONTINUOUS
 10
372.000000
 20
274.500000
 11
359.500000
 21
274.500000
  0
ARC
  8
0
  6
CONTINUOUS
 10
585.428955
 20
423.000000
 40
7.500004
 50
0.000000
 51
19.471212
  0
ARC
  8
0
  6
CONTINUOUS
 10
585.428955
 20
517.000000
 40
7.500004
 50
-19.471212
 51
0.000000
  0
LINE
  8
0
  6
CONTINUOUS
 10
740.555481
 20
464.000000
 11
740.555481
 21
476.000000
  0
LINE
  8
0
  6
CONTINUOUS
 10
733.555481
 20
464.000000
 11
733.555481
 21
476.000000
  0
LINE
  8
0
  6
CONTINUOUS
 10
739.555481
 20
477.000000
 11
734.555481
 21
477.000000
  0
LINE
  8
0
  6
CONTINUOUS
 10
734.555481
 20
463.000000
 11
739.555481
 21
463.000000
  0
ARC
  8
0
  6
CONTINUOUS
 10
734.555481
 20
476.000000
 40
1.000000
 50
90.000000
 51
180.000000
  0
ARC
  8
0
  6
CONTINUOUS
 10
739.555481
 20
476.000000
 40
1.000000
 50
0.000000
 51
90.000000
  0
ARC
  8
0
  6
CONTINUOUS
 10
739.555481
 20
464.000000
 40
1.000000
 50
-90.000000
 51
0.000000
  0
ARC
  8
0
  6
CONTINUOUS
 10
734.555481
 20
464.000000
 40
1.000000
 50
180.000000
 51
270.000000
  0
LINE
  8
0
  6
CONTINUOUS
 10
736.055481
 20
473.500000
 11
736.055481
 21
466.500000
  0
LINE
  8
0
  6
CONTINUOUS
 10
738.055481
 20
473.500000
 11
738.055481
 21
466.500000
  0
ARC
  8
0
  6
CONTINUOUS
 10
737.055481
 20
473.500000
 40
1.000000
 50
0.000000
 51
180.000000
  0
ARC
  8
0
  6
CONTINUOUS
 10
737.055481
 20
466.500000
 40
1.000000
 50
-180.000000
 51
0.000000
  0
LINE
  8
0
  6
CONTINUOUS
 10
734.055481
 20
432.000000
 11
734.055481
 21
463.133972
  0
LINE
  8
0
  6
CONTINUOUS
 10
734.055481
 20
476.866028
 11
734.055481
 21
508.000000
  0
LINE
  8
0
  6
CONTINUOUS
 10
733.555481
 20
329.500000
 11
733.555481
 21
328.000000
  0
LINE
  8
0
  6
CONTINUOUS
 10
740.555481
 20
329.500000
 11
740.555481
 21
328.000000
  0
LINE
  8
0
  6
CONTINUOUS
 10
740.555481
 20
329.500000
 11
733.555481
 21
329.500000
  0
LINE
  8
0
  6
CONTINUOUS
 10
736.155518
 20
342.500000
 11
736.155518
 21
329.500000
  0
LINE
  8
0
  6
CONTINUOUS
 10
737.955505
 20
343.125000
 11
737.955505
 21
329.500000
  0
LINE
  8
0
  6
CONTINUOUS
 10
739.755493
 20
341.062500
 11
739.755493
 21
329.500000
  0
LINE
  8
0
  6
CONTINUOUS
 10
734.355530
 20
341.875000
 11
734.355530
 21
329.500000
  0
LINE
  8
0
  6
CONTINUOUS
 10
737.955505
 20
343.125000
 11
736.155518
 21
342.500000
  0
LINE
  8
0
  6
CONTINUOUS
 10
739.755493
 20
341.062500
 11
737.955505
 21
341.687500
  0
LINE
  8
0
  6
CONTINUOUS
 10
734.355530
 20
341.875000
 11
736.154480
 21
341.427277
  0
LINE
  8
0
  6
CONTINUOUS
 10
734.055481
 20
328.000000
 11
733.555481
 21
328.000000
  0
LINE
  8
0
  6
CONTINUOUS
 10
734.055481
 20
328.000000
 11
734.055481
 21
252.000000
  0
LINE
  8
0
  6
CONTINUOUS
 10
743.555481
 20
493.000000
 11
734.055481
 21
493.000000
  0
LINE
  8
0
  6
CONTINUOUS
 10
743.555481
 20
447.000000
 11
734.055481
 21
447.000000
  0
LINE
  8
0
  6
CONTINUOUS
 10
106.444496
 20
329.500000
 11
106.444496
 21
328.000000
  0
LINE
  8
0
  6
CONTINUOUS
 10
99.444496
 20
329.500000
 11
99.444496
 21
328.000000
  0
LINE
  8
0
  6
CONTINUOUS
 10
99.444496
 20
329.500000
 11
106.444496
 21
329.500000
  0
LINE
  8
0
  6
CONTINUOUS
 10
103.844498
 20
342.500000
 11
103.844498
 21
329.500000
  0
LINE
  8
0
  6
CONTINUOUS
 10
102.044495
 20
343.125000
 11
102.044495
 21
329.500000
  0
LINE
  8
0
  6
CONTINUOUS
 10
100.244499
 20
341.062500
 11
100.244499
 21
329.500000
  0
LINE
  8
0
  6
CONTINUOUS
 10
105.644493
 20
341.875000
 11
105.644493
 21
329.500000
  0
LINE
  8
0
  6
CONTINUOUS
 10
102.044495
 20
343.125000
 11
103.844498
 21
342.500000
  0
LINE
  8
0
  6
CONTINUOUS
 10
100.244499
 20
341.062500
 11
102.044495
 21
341.687500
  0
LINE
  8
0
  6
CONTINUOUS
 10
105.644493
 20
341.875000
 11
103.845505
 21
341.427277
  0
LINE
  8
0
  6
CONTINUOUS
 10
105.944496
 20
328.000000
 11
106.444496
 21
328.000000
  0
LINE
  8
0
  6
CONTINUOUS
 10
105.944496
 20
328.000000
 11
105.944496
 21
252.000000
  0
LINE
  8
0
  6
CONTINUOUS
 10
743.555481
 20
508.000000
 11
734.055481
 21
508.000000
  0
LINE
  8
0
  6
CONTINUOUS
 10
743.555481
 20
432.000000
 11
734.055481
 21
432.000000
  0
LINE
  8
0
  6
CONTINUOUS
 10
743.555481
 20
252.000000
 11
734.055481
 21
252.000000
  0
LINE
  8
0
  6
CONTINUOUS
 10
743.555481
 20
328.000000
 11
734.055481
 21
328.000000
  0
LINE
  8
0
  6
CONTINUOUS
 10
743.555481
 20
259.751007
 11
734.055481
 21
259.751007
  0
LINE
  8
0
  6
CONTINUOUS
 10
743.555481
 20
320.248993
 11
734.055481
 21
320.248993
  0
LINE
  8
0
  6
CONTINUOUS
 10
96.444496
 20
252.000000
 11
105.944496
 21
252.000000
  0
LINE
  8
0
  6
CONTINUOUS
 10
96.444496
 20
328.000000
 11
105.944496
 21
328.000000
  0
LINE
  8
0
  6
CONTINUOUS
 10
96.444496
 20
259.751007
 11
105.944496
 21
259.751007
  0
LINE
  8
0
  6
CONTINUOUS
 10
96.444496
 20
320.248993
 11
105.944496
 21
320.248993
  0
LINE
  8
0
  6
CONTINUOUS
 10
743.555481
 20
250.000000
 11
743.555481
 21
330.000000
  0
LINE
  8
0
  6
CONTINUOUS
 10
792.555481
 20
325.000000
 11
792.555481
 21
255.000000
  0
LINE
  8
0
  6
CONTINUOUS
 10
787.555481
 20
250.000000
 11
743.555481
 21
250.000000
  0
LINE
  8
0
  6
CONTINUOUS
 10
787.555481
 20
330.000000
 11
743.555481
 21
330.000000
  0
ARC
  8
0
  6
CONTINUOUS
 10
787.555481
 20
255.000000
 40
5.000000
 50
-90.000000
 51
0.000000
  0
ARC
  8
0
  6
CONTINUOUS
 10
787.555481
 20
325.000000
 40
5.000000
 50
0.000000
 51
90.000000
  0
LINE
  8
0
  6
CONTINUOUS
 10
789.805481
 20
264.000000
 11
743.555481
 21
264.000000
  0
LINE
  8
0
  6
CONTINUOUS
 10
789.805481
 20
314.000000
 11
743.555481
 21
314.000000
  0
LINE
  8
0
  6
CONTINUOUS
 10
96.444496
 20
250.000000
 11
96.444496
 21
330.000000
  0
LINE
  8
0
  6
CONTINUOUS
 10
47.444508
 20
325.000000
 11
47.444508
 21
255.000000
  0
LINE
  8
0
  6
CONTINUOUS
 10
52.444508
 20
250.000000
 11
96.444496
 21
250.000000
  0
LINE
  8
0
  6
CONTINUOUS
 10
52.444508
 20
330.000000
 11
96.444496
 21
330.000000
  0
ARC
  8
0
  6
CONTINUOUS
 10
52.444515
 20
255.000000
 40
5.000000
 50
180.000000
 51
270.000000
  0
ARC
  8
0
  6
CONTINUOUS
 10
52.444508
 20
325.000000
 40
5.000000
 50
90.000000
 51
180.000000
  0
LINE
  8
0
  6
CONTINUOUS
 10
50.194508
 20
264.000000
 11
96.444496
 21
264.000000
  0
LINE
  8
0
  6
CONTINUOUS
 10
50.194508
 20
314.000000
 11
96.444496
 21
314.000000
  0
LINE
  8
0
  6
CONTINUOUS
 10
743.555481
 20
510.000000
 11
743.555481
 21
430.000000
  0
LINE
  8
0
  6
CONTINUOUS
 10
792.555481
 20
505.000000
 11
792.555481
 21
435.000000
  0
LINE
  8
0
  6
CONTINUOUS
 10
787.555481
 20
510.000000
 11
743.555481
 21
510.000000
  0
LINE
  8
0
  6
CONTINUOUS
 10
787.555481
 20
430.000000
 11
743.555481
 21
430.000000
  0
ARC
  8
0
  6
CONTINUOUS
 10
787.555481
 20
435.000000
 40
5.000000
 50
-90.000000
 51
0.000000
  0
ARC
  8
0
  6
CONTINUOUS
 10
787.555481
 20
505.000031
 40
5.000000
 50
0.000000
 51
90.000000
  0
LINE
  8
0
  6
CONTINUOUS
 10
790.305481
 20
494.000000
 11
743.555481
 21
494.000000
  0
LINE
  8
0
  6
CONTINUOUS
 10
790.305481
 20
446.000000
 11
743.555481
 21
446.000000
  0
LINE
  8
0
  6
DASHED
 10
360.000000
 20
311.568542
 11
360.000000
 21
267.000000
  0
LINE
  8
0
  6
DASHED
 10
440.000000
 20
313.000000
 11
440.000000
 21
268.431458
  0
LINE
  8
0
  6
DASHED
 10
423.000000
 20
330.000000
 11
378.431458
 21
330.000000
  0
LINE
  8
0
  6
DASHED
 10
377.000000
 20
250.000000
 11
421.568542
 21
250.000000
  0
LINE
  8
0
  6
DASHED
 10
361.464478
 20
315.104065
 11
374.895935
 21
328.535522
  0
ARC
  8
0
  6
DASHED
 10
378.431458
 20
325.000000
 40
5.000000
 50
90.000000
 51
135.000000
  0
LINE
  8
0
  6
DASHED
 10
438.535522
 20
264.895935
 11
425.104065
 21
251.464462
  0
ARC
  8
0
  6
DASHED
 10
421.568542
 20
255.000000
 40
5.000000
 50
270.000000
 51
315.000000
  0
ARC
  8
0
  6
DASHED
 10
435.000000
 20
268.431458
 40
5.000000
 50
-45.000000
 51
0.000000
  0
LINE
  8
0
  6
DASHED
 10
363.000000
 20
264.000000
 11
366.603027
 21
264.000000
  0
LINE
  8
0
  6
DASHED
 10
374.000000
 20
253.000000
 11
374.000000
 21
256.603027
  0
ARC
  8
0
  6
DASHED
 10
363.000000
 20
267.000000
 40
3.000000
 50
180.000000
 51
270.000000
  0
ARC
  8
0
  6
DASHED
 10
377.000000
 20
253.000000
 40
3.000000
 50
180.000000
 51
270.000000
  0
LINE
  8
0
  6
DASHED
 10
426.000000
 20
327.000000
 11
426.000000
 21
323.396973
  0
LINE
  8
0
  6
DASHED
 10
437.000000
 20
316.000000
 11
433.396973
 21
316.000000
  0
ARC
  8
0
  6
DASHED
 10
423.000000
 20
327.000000
 40
3.000000
 50
0.000000
 51
90.000000
  0
ARC
  8
0
  6
DASHED
 10
437.000000
 20
313.000000
 40
3.000000
 50
0.000000
 51
90.000000
  0
LINE
  8
0
  6
DASHED
 10
366.603027
 20
264.000000
 11
374.000000
 21
256.603027
  0
LINE
  8
0
  6
DASHED
 10
426.000000
 20
323.396973
 11
433.396973
 21
316.000000
  0
ARC
  8
0
  6
DASHED
 10
365.000000
 20
311.568542
 40
5.000000
 50
135.000000
 51
180.000000
  0
LINE
  8
0
  6
CONTINUOUS
 10
592.188660
 20
428.500000
 11
607.811340
 21
428.500000
  0
LINE
  8
0
  6
CONTINUOUS
 10
608.244324
 20
428.750000
 11
608.332031
 21
428.901917
  0
ARC
  8
0
  6
CONTINUOUS
 10
607.811340
 20
429.000000
 40
0.500000
 50
-90.000000
 51
-30.000000
  0
ARC
  8
0
  6
CONTINUOUS
 10
606.599976
 20
429.901917
 40
2.000000
 50
-30.000000
 51
-18.194872
  0
LINE
  8
0
  6
CONTINUOUS
 10
591.755676
 20
428.750000
 11
591.667969
 21
428.901917
  0
ARC
  8
0
  6
CONTINUOUS
 10
592.188660
 20
429.000000
 40
0.500000
 50
-150.000000
 51
-90.000000
  0
ARC
  8
0
  6
CONTINUOUS
 10
593.400024
 20
429.901917
 40
2.000000
 50
-161.805130
 51
-150.000000
  0
LINE
  8
0
  6
CONTINUOUS
 10
591.500000
 20
429.277435
 11
591.500000
 21
429.500000
  0
LINE
  8
0
  6
CONTINUOUS
 10
608.500000
 20
429.277435
 11
608.500000
 21
429.500000
  0
ARC
  8
0
  6
CONTINUOUS
 10
593.400024
 20
510.098083
 40
2.000000
 50
150.000000
 51
161.805130
  0
LINE
  8
0
  6
CONTINUOUS
 10
591.755676
 20
511.250000
 11
591.667969
 21
511.098083
  0
ARC
  8
0
  6
CONTINUOUS
 10
592.188660
 20
511.000000
 40
0.500000
 50
90.000000
 51
150.000000
  0
LINE
  8
0
  6
CONTINUOUS
 10
607.811340
 20
511.500000
 11
592.188660
 21
511.500000
  0
ARC
  8
0
  6
CONTINUOUS
 10
607.811340
 20
511.000000
 40
0.500000
 50
30.000000
 51
90.000000
  0
LINE
  8
0
  6
CONTINUOUS
 10
608.244324
 20
511.250000
 11
608.332031
 21
511.098083
  0
ARC
  8
0
  6
CONTINUOUS
 10
606.599976
 20
510.098083
 40
2.000000
 50
18.194872
 51
30.000000
  0
LINE
  8
0
  6
CONTINUOUS
 10
591.500000
 20
510.500000
 11
591.500000
 21
510.722565
  0
LINE
  8
0
  6
CONTINUOUS
 10
608.500000
 20
510.500000
 11
608.500000
 21
510.722565
  0
LINE
  8
0
  6
CONTINUOUS
 10
441.500000
 20
282.188660
 11
441.500000
 21
297.811340
  0
LINE
  8
0
  6
CONTINUOUS
 10
441.250000
 20
298.244324
 11
441.098083
 21
298.332062
  0
ARC
  8
0
  6
CONTINUOUS
 10
441.000000
 20
297.811340
 40
0.500000
 50
0.000000
 51
60.000000
  0
ARC
  8
0
  6
CONTINUOUS
 10
440.098083
 20
296.600006
 40
2.000000
 50
60.000000
 51
71.805130
  0
LINE
  8
0
  6
CONTINUOUS
 10
441.250000
 20
281.755676
 11
441.098083
 21
281.667938
  0
ARC
  8
0
  6
CONTINUOUS
 10
441.000000
 20
282.188660
 40
0.500000
 50
-60.000000
 51
0.000000
  0
ARC
  8
0
  6
CONTINUOUS
 10
440.098083
 20
283.399994
 40
2.000000
 50
-71.805130
 51
-60.000000
  0
LINE
  8
0
  6
CONTINUOUS
 10
440.722565
 20
281.500000
 11
440.500000
 21
281.500000
  0
LINE
  8
0
  6
CONTINUOUS
 10
440.722565
 20
298.500000
 11
440.500000
 21
298.500000
  0
ARC
  8
0
  6
CONTINUOUS
 10
359.901917
 20
283.399994
 40
2.000000
 50
240.000000
 51
251.805130
  0
LINE
  8
0
  6
CONTINUOUS
 10
358.750000
 20
281.755676
 11
358.901917
 21
281.667938
  0
ARC
  8
0
  6
CONTINUOUS
 10
359.000000
 20
282.188660
 40
0.500000
 50
180.000000
 51
240.000000
  0
LINE
  8
0
  6
CONTINUOUS
 10
358.500000
 20
297.811340
 11
358.500000
 21
282.188660
  0
ARC
  8
0
  6
CONTINUOUS
 10
359.000000
 20
297.811340
 40
0.500000
 50
120.000000
 51
180.000000
  0
LINE
  8
0
  6
CONTINUOUS
 10
358.750000
 20
298.244324
 11
358.901917
 21
298.332062
  0
ARC
  8
0
  6
CONTINUOUS
 10
359.901917
 20
296.600006
 40
2.000000
 50
108.194870
 51
120.000000
  0
LINE
  8
0
  6
CONTINUOUS
 10
359.500000
 20
281.500000
 11
359.277435
 21
281.500000
  0
LINE
  8
0
  6
CONTINUOUS
 10
359.500000
 20
298.500000
 11
359.277435
 21
298.500000
  0
CIRCLE
  8
0
  6
CONTINUOUS
 10
654.000000
 20
256.500000
 40
3.400000
  0
CIRCLE
  8
0
  6
CONTINUOUS
 10
654.000000
 20
323.500000
 40
3.400000
  0
CIRCLE
  8
0
  6
CONTINUOUS
 10
568.000000
 20
256.500000
 40
3.400000
  0
CIRCLE
  8
0
  6
CONTINUOUS
 10
568.000000
 20
323.500000
 40
3.400000
  0
CIRCLE
  8
0
  6
CONTINUOUS
 10
186.000000
 20
256.500000
 40
3.400000
  0
CIRCLE
  8
0
  6
CONTINUOUS
 10
186.000000
 20
323.500000
 40
3.400000
  0
CIRCLE
  8
0
  6
CONTINUOUS
 10
272.000000
 20
256.500000
 40
3.400000
  0
CIRCLE
  8
0
  6
CONTINUOUS
 10
272.000000
 20
323.500000
 40
3.400000
  0
LINE
  8
0
  6
CENTER
 10
356.995026
 20
256.500000
 11
444.043762
 21
256.500000
  0
LINE
  8
0
  6
CONTINUOUS
 10
372.000000
 20
326.899994
 11
440.500000
 21
326.899994
  0
LINE
  8
0
  6
CONTINUOUS
 10
372.000000
 20
320.100006
 11
440.500000
 21
320.100006
  0
LINE
  8
0
  6
CONTINUOUS
 10
372.000000
 20
253.100006
 11
440.500000
 21
253.100006
  0
LINE
  8
0
  6
CONTINUOUS
 10
372.000000
 20
259.899994
 11
440.500000
 21
259.899994
  0
LINE
  8
0
  6
DASHED
 10
564.599976
 20
498.000000
 11
564.599976
 21
429.500000
  0
LINE
  8
0
  6
DASHED
 10
571.400024
 20
498.000000
 11
571.400024
 21
429.500000
  0
LINE
  8
0
  6
DASHED
 10
650.599976
 20
498.000000
 11
650.599976
 21
429.500000
  0
LINE
  8
0
  6
DASHED
 10
657.400024
 20
498.000000
 11
657.400024
 21
429.500000
  0
LINE
  8
0
  6
CONTINUOUS
 10
408.000000
 20
260.500000
 11
408.000000
 21
252.500000
  0
LINE
  8
0
  6
CONTINUOUS
 10
392.000000
 20
260.500000
 11
392.000000
 21
252.500000
  0
LINE
  8
0
  6
CONTINUOUS
 10
372.000000
 20
260.500000
 11
392.000000
 21
260.500000
  0
LINE
  8
0
  6
CONTINUOUS
 10
372.000000
 20
252.500000
 11
392.000000
 21
252.500000
  0
LINE
  8
0
  6
CONTINUOUS
 10
408.000000
 20
260.500000
 11
440.500000
 21
260.500000
  0
LINE
  8
0
  6
CONTINUOUS
 10
408.000000
 20
252.500000
 11
440.500000
 21
252.500000
  0
LINE
  8
0
  6
CONTINUOUS
 10
359.500000
 20
260.750000
 11
372.000000
 21
260.750000
  0
LINE
  8
0
  6
CONTINUOUS
 10
359.500000
 20
252.250000
 11
372.000000
 21
252.250000
  0
LINE
  8
0
  6
CONTINUOUS
 10
359.500000
 20
327.750000
 11
372.000000
 21
327.750000
  0
LINE
  8
0
  6
CONTINUOUS
 10
359.500000
 20
319.250000
 11
372.000000
 21
319.250000
  0
LINE
  8
0
  6
CONTINUOUS
 10
372.000000
 20
327.500000
 11
392.000000
 21
327.500000
  0
LINE
  8
0
  6
CONTINUOUS
 10
372.000000
 20
319.500000
 11
392.000000
 21
319.500000
  0
LINE
  8
0
  6
CONTINUOUS
 10
392.000000
 20
327.500000
 11
392.000000
 21
319.500000
  0
LINE
  8
0
  6
CONTINUOUS
 10
408.000000
 20
327.500000
 11
408.000000
 21
319.500000
  0
LINE
  8
0
  6
CONTINUOUS
 10
408.000000
 20
327.500000
 11
440.500000
 21
327.500000
  0
LINE
  8
0
  6
CONTINUOUS
 10
408.000000
 20
319.500000
 11
440.500000
 21
319.500000
  0
LINE
  8
0
  6
CONTINUOUS
 10
359.500000
 20
318.386047
 11
363.031250
 21
318.625000
  0
LINE
  8
0
  6
CONTINUOUS
 10
363.031250
 20
318.625000
 11
366.750000
 21
318.156250
  0
LINE
  8
0
  6
CONTINUOUS
 10
366.750000
 20
318.156250
 11
370.531250
 21
318.562500
  0
LINE
  8
0
  6
CONTINUOUS
 10
370.531250
 20
318.562500
 11
374.031250
 21
318.062500
  0
LINE
  8
0
  6
CONTINUOUS
 10
374.031250
 20
318.062500
 11
378.062500
 21
318.593750
  0
LINE
  8
0
  6
CONTINUOUS
 10
378.062500
 20
318.593750
 11
381.593750
 21
318.031250
  0
LINE
  8
0
  6
CONTINUOUS
 10
381.593750
 20
318.031250
 11
386.125000
 21
318.531250
  0
LINE
  8
0
  6
CONTINUOUS
 10
386.125000
 20
318.531250
 11
390.812500
 21
317.906250
  0
LINE
  8
0
  6
CONTINUOUS
 10
390.812500
 20
317.906250
 11
395.500000
 21
318.500000
  0
LINE
  8
0
  6
CONTINUOUS
 10
395.500000
 20
318.500000
 11
399.312500
 21
317.875000
  0
LINE
  8
0
  6
CONTINUOUS
 10
399.312500
 20
317.875000
 11
404.625000
 21
318.375000
  0
LINE
  8
0
  6
CONTINUOUS
 10
404.625000
 20
318.375000
 11
408.531250
 21
317.718750
  0
LINE
  8
0
  6
CONTINUOUS
 10
408.531250
 20
317.718750
 11
413.156250
 21
318.562500
  0
LINE
  8
0
  6
CONTINUOUS
 10
413.156250
 20
318.562500
 11
417.562500
 21
317.718750
  0
LINE
  8
0
  6
CONTINUOUS
 10
417.562500
 20
317.718750
 11
421.625000
 21
318.593750
  0
LINE
  8
0
  6
CONTINUOUS
 10
421.625000
 20
318.593750
 11
425.000000
 21
317.750000
  0
LINE
  8
0
  6
CONTINUOUS
 10
425.000000
 20
317.750000
 11
429.281250
 21
318.500000
  0
LINE
  8
0
  6
CONTINUOUS
 10
429.281250
 20
318.500000
 11
432.906250
 21
317.781250
  0
LINE
  8
0
  6
CONTINUOUS
 10
432.906250
 20
317.781250
 11
436.781250
 21
318.500000
  0
LINE
  8
0
  6
CONTINUOUS
 10
436.781250
 20
318.500000
 11
440.500000
 21
317.957672
  0
LINE
  8
0
  6
CONTINUOUS
 10
359.500000
 20
261.613953
 11
363.031250
 21
261.375000
  0
LINE
  8
0
  6
CONTINUOUS
 10
363.031250
 20
261.375000
 11
366.750000
 21
261.843750
  0
LINE
  8
0
  6
CONTINUOUS
 10
366.750000
 20
261.843750
 11
370.531250
 21
261.437500
  0
LINE
  8
0
  6
CONTINUOUS
 10
370.531250
 20
261.437500
 11
374.031250
 21
261.937500
  0
LINE
  8
0
  6
CONTINUOUS
 10
374.031250
 20
261.937500
 11
378.062500
 21
261.406250
  0
LINE
  8
0
  6
CONTINUOUS
 10
378.062500
 20
261.406250
 11
381.593750
 21
261.968750
  0
LINE
  8
0
  6
CONTINUOUS
 10
381.593750
 20
261.968750
 11
386.125000
 21
261.468750
  0
LINE
  8
0
  6
CONTINUOUS
 10
386.125000
 20
261.468750
 11
390.812500
 21
262.093750
  0
LINE
  8
0
  6
CONTINUOUS
 10
390.812500
 20
262.093750
 11
395.500000
 21
261.500000
  0
LINE
  8
0
  6
CONTINUOUS
 10
395.500000
 20
261.500000
 11
399.312500
 21
262.125000
  0
LINE
  8
0
  6
CONTINUOUS
 10
399.312500
 20
262.125000
 11
404.625000
 21
261.625000
  0
LINE
  8
0
  6
CONTINUOUS
 10
404.625000
 20
261.625000
 11
408.531250
 21
262.281250
  0
LINE
  8
0
  6
CONTINUOUS
 10
408.531250
 20
262.281250
 11
413.156250
 21
261.437500
  0
LINE
  8
0
  6
CONTINUOUS
 10
413.156250
 20
261.437500
 11
417.562500
 21
262.281250
  0
LINE
  8
0
  6
CONTINUOUS
 10
417.562500
 20
262.281250
 11
421.625000
 21
261.406250
  0
LINE
  8
0
  6
CONTINUOUS
 10
421.625000
 20
261.406250
 11
425.000000
 21
262.250000
  0
LINE
  8
0
  6
CONTINUOUS
 10
425.000000
 20
262.250000
 11
429.281250
 21
261.500000
  0
LINE
  8
0
  6
CONTINUOUS
 10
429.281250
 20
261.500000
 11
432.906250
 21
262.218750
  0
LINE
  8
0
  6
CONTINUOUS
 10
432.906250
 20
262.218750
 11
436.781250
 21
261.500000
  0
LINE
  8
0
  6
CONTINUOUS
 10
436.781250
 20
261.500000
 11
440.500000
 21
262.042328
  0
CIRCLE
  8
0
  6
CONTINUOUS
 10
272.000000
 20
256.500000
 40
4.250000
  0
CIRCLE
  8
0
  6
CONTINUOUS
 10
272.000000
 20
256.500000
 40
4.000000
  0
CIRCLE
  8
0
  6
CONTINUOUS
 10
186.000000
 20
256.500000
 40
4.250000
  0
CIRCLE
  8
0
  6
CONTINUOUS
 10
186.000000
 20
256.500000
 40
4.000000
  0
CIRCLE
  8
0
  6
CONTINUOUS
 10
186.000000
 20
323.500000
 40
4.250000
  0
CIRCLE
  8
0
  6
CONTINUOUS
 10
186.000000
 20
323.500000
 40
4.000000
  0
CIRCLE
  8
0
  6
CONTINUOUS
 10
272.000000
 20
323.500000
 40
4.250000
  0
CIRCLE
  8
0
  6
CONTINUOUS
 10
272.000000
 20
323.500000
 40
4.000000
  0
CIRCLE
  8
0
  6
CONTINUOUS
 10
568.000000
 20
323.500000
 40
4.000000
  0
CIRCLE
  8
0
  6
CONTINUOUS
 10
568.000000
 20
256.500000
 40
4.000000
  0
CIRCLE
  8
0
  6
CONTINUOUS
 10
654.000000
 20
256.500000
 40
4.000000
  0
CIRCLE
  8
0
  6
CONTINUOUS
 10
654.000000
 20
323.500000
 40
4.000000
  0
LINE
  8
0
  6
DASHED
 10
563.750000
 20
498.000000
 11
563.750000
 21
510.500000
  0
LINE
  8
0
  6
DASHED
 10
572.250000
 20
498.000000
 11
572.250000
 21
510.500000
  0
LINE
  8
0
  6
DASHED
 10
564.000000
 20
478.000000
 11
572.000000
 21
478.000000
  0
LINE
  8
0
  6
DASHED
 10
564.000000
 20
462.000000
 11
572.000000
 21
462.000000
  0
LINE
  8
0
  6
DASHED
 10
572.000000
 20
498.000000
 11
572.000000
 21
478.000000
  0
LINE
  8
0
  6
DASHED
 10
564.000000
 20
498.000000
 11
564.000000
 21
478.000000
  0
LINE
  8
0
  6
DASHED
 10
564.000000
 20
429.500000
 11
564.000000
 21
462.000000
  0
LINE
  8
0
  6
DASHED
 10
572.000000
 20
429.500000
 11
572.000000
 21
462.000000
  0
LINE
  8
0
  6
DASHED
 10
649.750000
 20
498.000000
 11
649.750000
 21
510.500000
  0
LINE
  8
0
  6
DASHED
 10
658.250000
 20
498.000000
 11
658.250000
 21
510.500000
  0
LINE
  8
0
  6
DASHED
 10
658.000000
 20
498.000000
 11
658.000000
 21
478.000000
  0
LINE
  8
0
  6
DASHED
 10
650.000000
 20
498.000000
 11
650.000000
 21
478.000000
  0
LINE
  8
0
  6
DASHED
 10
650.000000
 20
478.000000
 11
658.000000
 21
478.000000
  0
LINE
  8
0
  6
DASHED
 10
650.000000
 20
462.000000
 11
658.000000
 21
462.000000
  0
LINE
  8
0
  6
DASHED
 10
650.000000
 20
429.500000
 11
650.000000
 21
462.000000
  0
LINE
  8
0
  6
DASHED
 10
658.000000
 20
429.500000
 11
658.000000
 21
462.000000
  0
TEXT
  8
0
 10
40.000000
 20
188.000000
 40
4.000000
 41
1.000000
  1
F2FM-15T-10~120-S40
 50
0.000000
  0
ENDSEC
  0
EOF
